  0
SECTION
  2
HEADER
  9
$ACADVER
  1
AC1032
  9
$ACADMAINTVER
 90
      251
  9
$DWGCODEPAGE
  3
ANSI_1252
  9
$REQUIREDVERSIONS
160
                 0
  9
$INSBASE
 10
0.0
 20
0.0
 30
0.0
  9
$EXTMIN
 10
1.000000000000000E+20
 20
1.000000000000000E+20
 30
1.000000000000000E+20
  9
$EXTMAX
 10
-1.000000000000000E+20
 20
-1.000000000000000E+20
 30
-1.000000000000000E+20
  9
$LIMMIN
 10
0.0
 20
0.0
  9
$LIMMAX
 10
12.0
 20
9.0
  9
$ORTHOMODE
 70
     0
  9
$REGENMODE
 70
     1
  9
$FILLMODE
 70
     1
  9
$QTEXTMODE
 70
     0
  9
$MIRRTEXT
 70
     0
  9
$LTSCALE
 40
1.0
  9
$ATTMODE
 70
     1
  9
$TEXTSIZE
 40
0.2
  9
$TRACEWID
 40
0.05
  9
$TEXTSTYLE
  7
Standard
  9
$CLAYER
  8
0
  9
$CELTYPE
  6
ByLayer
  9
$CECOLOR
 62
   256
  9
$CELTSCALE
 40
1.0
  9
$DISPSILH
 70
     0
  9
$DIMSCALE
 40
1.0
  9
$DIMASZ
 40
0.18
  9
$DIMEXO
 40
0.0625
  9
$DIMDLI
 40
0.38
  9
$DIMRND
 40
0.0
  9
$DIMDLE
 40
0.0
  9
$DIMEXE
 40
0.18
  9
$DIMTP
 40
0.0
  9
$DIMTM
 40
0.0
  9
$DIMTXT
 40
0.18
  9
$DIMCEN
 40
0.09
  9
$DIMTSZ
 40
0.0
  9
$DIMTOL
 70
     0
  9
$DIMLIM
 70
     0
  9
$DIMTIH
 70
     1
  9
$DIMTOH
 70
     1
  9
$DIMSE1
 70
     0
  9
$DIMSE2
 70
     0
  9
$DIMTAD
 70
     0
  9
$DIMZIN
 70
     0
  9
$DIMBLK
  1

  9
$DIMASO
 70
     1
  9
$DIMSHO
 70
     1
  9
$DIMPOST
  1

  9
$DIMAPOST
  1

  9
$DIMALT
 70
     0
  9
$DIMALTD
 70
     2
  9
$DIMALTF
 40
25.4
  9
$DIMLFAC
 40
1.0
  9
$DIMTOFL
 70
     0
  9
$DIMTVP
 40
0.0
  9
$DIMTIX
 70
     0
  9
$DIMSOXD
 70
     0
  9
$DIMSAH
 70
     0
  9
$DIMBLK1
  1

  9
$DIMBLK2
  1

  9
$DIMSTYLE
  2
Standard
  9
$DIMCLRD
 70
     0
  9
$DIMCLRE
 70
     0
  9
$DIMCLRT
 70
     0
  9
$DIMTFAC
 40
1.0
  9
$DIMGAP
 40
0.09
  9
$DIMJUST
 70
     0
  9
$DIMSD1
 70
     0
  9
$DIMSD2
 70
     0
  9
$DIMTOLJ
 70
     1
  9
$DIMTZIN
 70
     0
  9
$DIMALTZ
 70
     0
  9
$DIMALTTZ
 70
     0
  9
$DIMUPT
 70
     0
  9
$DIMDEC
 70
     4
  9
$DIMTDEC
 70
     4
  9
$DIMALTU
 70
     2
  9
$DIMALTTD
 70
     2
  9
$DIMTXSTY
  7
Standard
  9
$DIMAUNIT
 70
     0
  9
$DIMADEC
 70
     0
  9
$DIMALTRND
 40
0.0
  9
$DIMAZIN
 70
     0
  9
$DIMDSEP
 70
    46
  9
$DIMATFIT
 70
     3
  9
$DIMFRAC
 70
     0
  9
$DIMLDRBLK
  1

  9
$DIMLUNIT
 70
     2
  9
$DIMLWD
 70
    -2
  9
$DIMLWE
 70
    -2
  9
$DIMTMOVE
 70
     0
  9
$DIMFXL
 40
1.0
  9
$DIMFXLON
 70
     0
  9
$DIMJOGANG
 40
0.7853981633974483
  9
$DIMTFILL
 70
     0
  9
$DIMTFILLCLR
 70
     0
  9
$DIMARCSYM
 70
     0
  9
$DIMLTYPE
  6

  9
$DIMLTEX1
  6

  9
$DIMLTEX2
  6

  9
$DIMTXTDIRECTION
 70
     0
  9
$LUNITS
 70
     2
  9
$LUPREC
 70
     4
  9
$SKETCHINC
 40
0.1
  9
$FILLETRAD
 40
0.0
  9
$AUNITS
 70
     0
  9
$AUPREC
 70
     0
  9
$MENU
  1
.
  9
$ELEVATION
 40
0.0
  9
$PELEVATION
 40
0.0
  9
$THICKNESS
 40
0.0
  9
$LIMCHECK
 70
     0
  9
$CHAMFERA
 40
0.0
  9
$CHAMFERB
 40
0.0
  9
$CHAMFERC
 40
0.0
  9
$CHAMFERD
 40
0.0
  9
$SKPOLY
 70
     0
  9
$TDCREATE
 40
2459963.398750000
  9
$TDUCREATE
 40
2459963.357083333
  9
$TDUPDATE
 40
2459963.398750000
  9
$TDUUPDATE
 40
2459963.357083333
  9
$TDINDWG
 40
0.0000000000
  9
$TDUSRTIMER
 40
0.0000000000
  9
$USRTIMER
 70
     1
  9
$ANGBASE
 50
0.0
  9
$ANGDIR
 70
     0
  9
$PDMODE
 70
     0
  9
$PDSIZE
 40
0.0
  9
$PLINEWID
 40
0.0
  9
$SPLFRAME
 70
     0
  9
$SPLINETYPE
 70
     6
  9
$SPLINESEGS
 70
     8
  9
$HANDSEED
  5
182
  9
$SURFTAB1
 70
     6
  9
$SURFTAB2
 70
     6
  9
$SURFTYPE
 70
     6
  9
$SURFU
 70
     6
  9
$SURFV
 70
     6
  9
$UCSBASE
  2

  9
$UCSNAME
  2

  9
$UCSORG
 10
0.0
 20
0.0
 30
0.0
  9
$UCSXDIR
 10
1.0
 20
0.0
 30
0.0
  9
$UCSYDIR
 10
0.0
 20
1.0
 30
0.0
  9
$UCSORTHOREF
  2

  9
$UCSORTHOVIEW
 70
     0
  9
$UCSORGTOP
 10
0.0
 20
0.0
 30
0.0
  9
$UCSORGBOTTOM
 10
0.0
 20
0.0
 30
0.0
  9
$UCSORGLEFT
 10
0.0
 20
0.0
 30
0.0
  9
$UCSORGRIGHT
 10
0.0
 20
0.0
 30
0.0
  9
$UCSORGFRONT
 10
0.0
 20
0.0
 30
0.0
  9
$UCSORGBACK
 10
0.0
 20
0.0
 30
0.0
  9
$PUCSBASE
  2

  9
$PUCSNAME
  2

  9
$PUCSORG
 10
0.0
 20
0.0
 30
0.0
  9
$PUCSXDIR
 10
1.0
 20
0.0
 30
0.0
  9
$PUCSYDIR
 10
0.0
 20
1.0
 30
0.0
  9
$PUCSORTHOREF
  2

  9
$PUCSORTHOVIEW
 70
     0
  9
$PUCSORGTOP
 10
0.0
 20
0.0
 30
0.0
  9
$PUCSORGBOTTOM
 10
0.0
 20
0.0
 30
0.0
  9
$PUCSORGLEFT
 10
0.0
 20
0.0
 30
0.0
  9
$PUCSORGRIGHT
 10
0.0
 20
0.0
 30
0.0
  9
$PUCSORGFRONT
 10
0.0
 20
0.0
 30
0.0
  9
$PUCSORGBACK
 10
0.0
 20
0.0
 30
0.0
  9
$USERI1
 70
     0
  9
$USERI2
 70
     0
  9
$USERI3
 70
     0
  9
$USERI4
 70
     0
  9
$USERI5
 70
     0
  9
$USERR1
 40
0.0
  9
$USERR2
 40
0.0
  9
$USERR3
 40
0.0
  9
$USERR4
 40
0.0
  9
$USERR5
 40
0.0
  9
$WORLDVIEW
 70
     1
  9
$SHADEDGE
 70
     3
  9
$SHADEDIF
 70
    70
  9
$TILEMODE
 70
     1
  9
$MAXACTVP
 70
    64
  9
$PINSBASE
 10
0.0
 20
0.0
 30
0.0
  9
$PLIMCHECK
 70
     0
  9
$PEXTMIN
 10
1.000000000000000E+20
 20
1.000000000000000E+20
 30
1.000000000000000E+20
  9
$PEXTMAX
 10
-1.000000000000000E+20
 20
-1.000000000000000E+20
 30
-1.000000000000000E+20
  9
$PLIMMIN
 10
0.0
 20
0.0
  9
$PLIMMAX
 10
12.0
 20
9.0
  9
$UNITMODE
 70
     0
  9
$VISRETAIN
 70
     1
  9
$PLINEGEN
 70
     0
  9
$PSLTSCALE
 70
     1
  9
$TREEDEPTH
 70
  3020
  9
$CMLSTYLE
  2
Standard
  9
$CMLJUST
 70
     0
  9
$CMLSCALE
 40
1.0
  9
$PROXYGRAPHICS
 70
     1
  9
$MEASUREMENT
 70
     0
  9
$CELWEIGHT
370
    -1
  9
$ENDCAPS
280
     0
  9
$JOINSTYLE
280
     0
  9
$LWDISPLAY
290
     1
  9
$INSUNITS
 70
     4
  9
$HYPERLINKBASE
  1

  9
$STYLESHEET
  1

  9
$XEDIT
290
     1
  9
$CEPSNTYPE
380
     0
  9
$PSTYLEMODE
290
     1
  9
$FINGERPRINTGUID
  2
{83B03BAB-30BB-6C4B-BE14-280092570F14}
  9
$VERSIONGUID
  2
{315A1E4B-B91A-A541-9124-D2ECF5B69128}
  9
$EXTNAMES
290
     1
  9
$PSVPSCALE
 40
0.0
  9
$OLESTARTUP
290
     0
  9
$SORTENTS
280
   127
  9
$INDEXCTL
280
     0
  9
$HIDETEXT
280
     1
  9
$XCLIPFRAME
280
     2
  9
$HALOGAP
280
     0
  9
$OBSCOLOR
 70
   257
  9
$OBSLTYPE
280
     0
  9
$INTERSECTIONDISPLAY
280
     0
  9
$INTERSECTIONCOLOR
 70
   257
  9
$DIMASSOC
280
     2
  9
$PROJECTNAME
  1

  9
$CAMERADISPLAY
290
     0
  9
$LENSLENGTH
 40
50.0
  9
$CAMERAHEIGHT
 40
0.0
  9
$STEPSPERSEC
 40
2.0
  9
$STEPSIZE
 40
6.0
  9
$3DDWFPREC
 40
2.0
  9
$PSOLWIDTH
 40
0.25
  9
$PSOLHEIGHT
 40
4.0
  9
$LOFTANG1
 40
1.570796326794896
  9
$LOFTANG2
 40
1.570796326794896
  9
$LOFTMAG1
 40
0.0
  9
$LOFTMAG2
 40
0.0
  9
$LOFTPARAM
 70
     7
  9
$LOFTNORMALS
280
     1
  9
$LATITUDE
 40
37.795
  9
$LONGITUDE
 40
-122.394
  9
$NORTHDIRECTION
 40
0.0
  9
$TIMEZONE
 70
 -8000
  9
$LIGHTGLYPHDISPLAY
280
     1
  9
$TILEMODELIGHTSYNCH
280
     1
  9
$CMATERIAL
347
11
  9
$SOLIDHIST
280
     0
  9
$SHOWHIST
280
     1
  9
$DWFFRAME
280
     2
  9
$DGNFRAME
280
     0
  9
$REALWORLDSCALE
290
     1
  9
$INTERFERECOLOR
 62
     1
  9
$INTERFEREOBJVS
345
33
  9
$INTERFEREVPVS
346
30
  9
$CSHADOW
280
     0
  9
$SHADOWPLANELOCATION
 40
0.0
  0
ENDSEC
  0
SECTION
  2
CLASSES
  0
CLASS
  1
ACDBDICTIONARYWDFLT
  2
AcDbDictionaryWithDefault
  3
ObjectDBX Classes
 90
        0
 91
        1
280
     0
281
     0
  0
CLASS
  1
MATERIAL
  2
AcDbMaterial
  3
ObjectDBX Classes
 90
     1153
 91
        3
280
     0
281
     0
  0
CLASS
  1
VISUALSTYLE
  2
AcDbVisualStyle
  3
ObjectDBX Classes
 90
     4095
 91
       24
280
     0
281
     0
  0
CLASS
  1
SCALE
  2
AcDbScale
  3
ObjectDBX Classes
 90
     1153
 91
       17
280
     0
281
     0
  0
CLASS
  1
TABLESTYLE
  2
AcDbTableStyle
  3
ObjectDBX Classes
 90
     4095
 91
        1
280
     0
281
     0
  0
CLASS
  1
MLEADERSTYLE
  2
AcDbMLeaderStyle
  3
ACDB_MLEADERSTYLE_CLASS
 90
     4095
 91
        1
280
     0
281
     0
  0
CLASS
  1
ACDBSECTIONVIEWSTYLE
  2
AcDbSectionViewStyle
  3
ObjectDBX Classes
 90
     1025
 91
        1
280
     0
281
     0
  0
CLASS
  1
ACDBDETAILVIEWSTYLE
  2
AcDbDetailViewStyle
  3
ObjectDBX Classes
 90
     1025
 91
        1
280
     0
281
     0
  0
CLASS
  1
IMAGEDEF
  2
AcDbRasterImageDef
  3
ISM
 90
        0
 91
        1
280
     0
281
     0
  0
CLASS
  1
IMAGE
  2
AcDbRasterImage
  3
ISM
 90
     2175
 91
        1
280
     0
281
     1
  0
CLASS
  1
DICTIONARYVAR
  2
AcDbDictionaryVar
  3
ObjectDBX Classes
 90
        0
 91
        5
280
     0
281
     0
  0
CLASS
  1
CELLSTYLEMAP
  2
AcDbCellStyleMap
  3
ObjectDBX Classes
 90
     1152
 91
        1
280
     0
281
     0
  0
ENDSEC
  0
SECTION
  2
TABLES
  0
TABLE
  2
VPORT
  5
8
330
0
100
AcDbSymbolTable
 70
     1
  0
VPORT
  5
57
330
8
100
AcDbSymbolTableRecord
100
AcDbViewportTableRecord
  2
*Active
 70
     0
 10
0.0
 20
0.0
 11
1.0
 21
1.0
 12
0.0
 22
0.0
 13
0.0
 23
0.0
 14
1.0
 24
1.0
 15
0.0
 25
0.0
 16
0.0
 26
0.0
 36
1.0
 17
104.9999970067687
 27
148.5000119155985
 37
0.0
 40
89.75999997755987
 41
1.0
 42
50.0
 43
0.0
 44
0.0
 50
0.0
 51
0.0
 71
     0
 72
   100
 73
     1
 74
     1
 75
     0
 76
     0
 77
     0
 78
     0
281
     0
 65
     1
110
0.0
120
0.0
130
0.0
111
1.0
121
0.0
131
0.0
112
0.0
122
1.0
132
0.0
 79
     0
146
0.0
 60
     3
 61
     5
292
     1
282
     1
141
0.0
142
0.0
 63
   250
421
  3355443
  0
ENDTAB
  0
TABLE
  2
LTYPE
  5
5
330
0
100
AcDbSymbolTable
 70
     1
  0
LTYPE
  5
5B
330
5
100
AcDbSymbolTableRecord
100
AcDbLinetypeTableRecord
  2
ByBlock
 70
     0
  3

 72
    65
 73
     0
 40
0.0
  0
LTYPE
  5
5C
330
5
100
AcDbSymbolTableRecord
100
AcDbLinetypeTableRecord
  2
ByLayer
 70
     0
  3

 72
    65
 73
     0
 40
0.0
  0
LTYPE
  5
5D
330
5
100
AcDbSymbolTableRecord
100
AcDbLinetypeTableRecord
  2
Continuous
 70
     0
  3
Solid line
 72
    65
 73
     0
 40
0.0
  0
ENDTAB
  0
TABLE
  2
LAYER
  5
2
330
0
100
AcDbSymbolTable
 70
     3
  0
LAYER
  5
54
330
2
100
AcDbSymbolTableRecord
100
AcDbLayerTableRecord
  2
0
 70
     0
 62
     7
  6
Continuous
370
    -3
390
F
347
21
348
0
  0
LAYER
  5
78
330
2
100
AcDbSymbolTableRecord
100
AcDbLayerTableRecord
  2
Sichtbar (ANSI)
 70
     0
 62
     7
  6
Continuous
370
     0
390
F
347
21
348
0
  0
LAYER
  5
79
330
2
100
AcDbSymbolTableRecord
100
AcDbLayerTableRecord
  2
Sichtbar schmal (ANSI)
 70
     0
 62
     7
  6
Continuous
370
     0
390
F
347
21
348
0
  0
ENDTAB
  0
TABLE
  2
STYLE
  5
3
330
0
100
AcDbSymbolTable
 70
     2
  0
STYLE
  5
55
330
3
100
AcDbSymbolTableRecord
100
AcDbTextStyleTableRecord
  2
Standard
 70
     0
 40
0.0
 41
1.0
 50
0.0
 71
     0
 42
0.2
  3
txt
  4

  0
STYLE
  5
5A
330
3
100
AcDbSymbolTableRecord
100
AcDbTextStyleTableRecord
  2
Annotative
 70
     0
 40
0.0
 41
1.0
 50
0.0
 71
     0
 42
0.2
  3
txt
  4

1001
AcadAnnotative
1000
AnnotativeData
1002
{
1070
     1
1070
     1
1002
}
  0
ENDTAB
  0
TABLE
  2
VIEW
  5
6
330
0
100
AcDbSymbolTable
 70
     0
  0
ENDTAB
  0
TABLE
  2
UCS
  5
7
330
0
100
AcDbSymbolTable
 70
     0
  0
ENDTAB
  0
TABLE
  2
APPID
  5
9
330
0
100
AcDbSymbolTable
 70
     2
  0
APPID
  5
56
330
9
100
AcDbSymbolTableRecord
100
AcDbRegAppTableRecord
  2
ACAD
 70
     0
  0
APPID
  5
5E
330
9
100
AcDbSymbolTableRecord
100
AcDbRegAppTableRecord
  2
AcadAnnotative
 70
     0
  0
ENDTAB
  0
TABLE
  2
DIMSTYLE
  5
A
330
0
100
AcDbSymbolTable
 70
     2
100
AcDbDimStyleTable
 71
     0
  0
DIMSTYLE
105
58
330
A
100
AcDbSymbolTableRecord
100
AcDbDimStyleTableRecord
  2
Standard
 70
     0
340
55
  0
DIMSTYLE
105
59
330
A
100
AcDbSymbolTableRecord
100
AcDbDimStyleTableRecord
  2
Annotative
 70
     0
340
55
1001
AcadAnnotative
1000
AnnotativeData
1002
{
1070
     1
1070
     1
1002
}
  0
ENDTAB
  0
TABLE
  2
BLOCK_RECORD
  5
1
330
0
100
AcDbSymbolTable
 70
    32
  0
BLOCK_RECORD
  5
70
330
1
100
AcDbSymbolTableRecord
100
AcDbBlockTableRecord
  2
*Model_Space
340
73
 70
     0
280
     1
281
     0
  0
BLOCK_RECORD
  5
6C
330
1
100
AcDbSymbolTableRecord
100
AcDbBlockTableRecord
  2
*Paper_Space
340
6F
 70
     0
280
     1
281
     0
  0
BLOCK_RECORD
  5
74
330
1
100
AcDbSymbolTableRecord
100
AcDbBlockTableRecord
  2
*Paper_Space0
340
77
 70
     0
280
     1
281
     0
  0
BLOCK_RECORD
  5
7A
330
1
100
AcDbSymbolTableRecord
100
AcDbBlockTableRecord
  2
Block_0
340
0
102
{BLKREFS
331
7B
102
}
 70
     0
280
     1
281
     0
  0
BLOCK_RECORD
  5
7E
330
1
100
AcDbSymbolTableRecord
100
AcDbBlockTableRecord
  2
Block_1
340
0
102
{BLKREFS
331
7F
102
}
 70
     0
280
     1
281
     0
  0
BLOCK_RECORD
  5
95
330
1
100
AcDbSymbolTableRecord
100
AcDbBlockTableRecord
  2
Block_2
340
0
102
{BLKREFS
331
96
102
}
 70
     0
280
     1
281
     0
  0
BLOCK_RECORD
  5
CD
330
1
100
AcDbSymbolTableRecord
100
AcDbBlockTableRecord
  2
Block_3
340
0
102
{BLKREFS
331
CE
102
}
 70
     0
280
     1
281
     0
  0
BLOCK_RECORD
  5
D4
330
1
100
AcDbSymbolTableRecord
100
AcDbBlockTableRecord
  2
Block_4
340
0
102
{BLKREFS
331
D5
102
}
 70
     0
280
     1
281
     0
  0
BLOCK_RECORD
  5
D8
330
1
100
AcDbSymbolTableRecord
100
AcDbBlockTableRecord
  2
Block_5
340
0
102
{BLKREFS
331
D9
102
}
 70
     0
280
     1
281
     0
  0
BLOCK_RECORD
  5
DD
330
1
100
AcDbSymbolTableRecord
100
AcDbBlockTableRecord
  2
Block_6
340
0
102
{BLKREFS
331
DE
102
}
 70
     0
280
     1
281
     0
  0
BLOCK_RECORD
  5
E5
330
1
100
AcDbSymbolTableRecord
100
AcDbBlockTableRecord
  2
Block_7
340
0
102
{BLKREFS
331
E6
102
}
 70
     0
280
     1
281
     0
  0
BLOCK_RECORD
  5
E9
330
1
100
AcDbSymbolTableRecord
100
AcDbBlockTableRecord
  2
Block_8
340
0
102
{BLKREFS
331
EA
102
}
 70
     0
280
     1
281
     0
  0
BLOCK_RECORD
  5
F3
330
1
100
AcDbSymbolTableRecord
100
AcDbBlockTableRecord
  2
Block_9
340
0
102
{BLKREFS
331
F4
102
}
 70
     0
280
     1
281
     0
  0
BLOCK_RECORD
  5
F7
330
1
100
AcDbSymbolTableRecord
100
AcDbBlockTableRecord
  2
Block_10
340
0
102
{BLKREFS
331
F8
102
}
 70
     0
280
     1
281
     0
  0
BLOCK_RECORD
  5
103
330
1
100
AcDbSymbolTableRecord
100
AcDbBlockTableRecord
  2
Block_11
340
0
102
{BLKREFS
331
104
102
}
 70
     0
280
     1
281
     0
  0
BLOCK_RECORD
  5
10A
330
1
100
AcDbSymbolTableRecord
100
AcDbBlockTableRecord
  2
Block_12
340
0
102
{BLKREFS
331
10B
102
}
 70
     0
280
     1
281
     0
  0
BLOCK_RECORD
  5
10F
330
1
100
AcDbSymbolTableRecord
100
AcDbBlockTableRecord
  2
Block_13
340
0
102
{BLKREFS
331
110
102
}
 70
     0
280
     1
281
     0
  0
BLOCK_RECORD
  5
115
330
1
100
AcDbSymbolTableRecord
100
AcDbBlockTableRecord
  2
Block_14
340
0
102
{BLKREFS
331
116
102
}
 70
     0
280
     1
281
     0
  0
BLOCK_RECORD
  5
11B
330
1
100
AcDbSymbolTableRecord
100
AcDbBlockTableRecord
  2
Block_15
340
0
102
{BLKREFS
331
11C
102
}
 70
     0
280
     1
281
     0
  0
BLOCK_RECORD
  5
11F
330
1
100
AcDbSymbolTableRecord
100
AcDbBlockTableRecord
  2
Block_16
340
0
102
{BLKREFS
331
120
102
}
 70
     0
280
     1
281
     0
  0
BLOCK_RECORD
  5
124
330
1
100
AcDbSymbolTableRecord
100
AcDbBlockTableRecord
  2
Block_17
340
0
102
{BLKREFS
331
125
102
}
 70
     0
280
     1
281
     0
  0
BLOCK_RECORD
  5
12A
330
1
100
AcDbSymbolTableRecord
100
AcDbBlockTableRecord
  2
Block_18
340
0
102
{BLKREFS
331
12B
102
}
 70
     0
280
     1
281
     0
  0
BLOCK_RECORD
  5
132
330
1
100
AcDbSymbolTableRecord
100
AcDbBlockTableRecord
  2
Block_19
340
0
102
{BLKREFS
331
133
102
}
 70
     0
280
     1
281
     0
  0
BLOCK_RECORD
  5
136
330
1
100
AcDbSymbolTableRecord
100
AcDbBlockTableRecord
  2
Block_20
340
0
102
{BLKREFS
331
137
102
}
 70
     0
280
     1
281
     0
  0
BLOCK_RECORD
  5
13E
330
1
100
AcDbSymbolTableRecord
100
AcDbBlockTableRecord
  2
Block_21
340
0
102
{BLKREFS
331
13F
102
}
 70
     0
280
     1
281
     0
  0
BLOCK_RECORD
  5
142
330
1
100
AcDbSymbolTableRecord
100
AcDbBlockTableRecord
  2
Block_22
340
0
102
{BLKREFS
331
143
102
}
 70
     0
280
     1
281
     0
  0
BLOCK_RECORD
  5
147
330
1
100
AcDbSymbolTableRecord
100
AcDbBlockTableRecord
  2
Block_23
340
0
102
{BLKREFS
331
148
102
}
 70
     0
280
     1
281
     0
  0
BLOCK_RECORD
  5
14D
330
1
100
AcDbSymbolTableRecord
100
AcDbBlockTableRecord
  2
Block_24
340
0
102
{BLKREFS
331
14E
102
}
 70
     0
280
     1
281
     0
  0
BLOCK_RECORD
  5
155
330
1
100
AcDbSymbolTableRecord
100
AcDbBlockTableRecord
  2
Block_25
340
0
102
{BLKREFS
331
156
102
}
 70
     0
280
     1
281
     0
  0
BLOCK_RECORD
  5
159
330
1
100
AcDbSymbolTableRecord
100
AcDbBlockTableRecord
  2
Block_26
340
0
102
{BLKREFS
331
15A
102
}
 70
     0
280
     1
281
     0
  0
BLOCK_RECORD
  5
164
330
1
100
AcDbSymbolTableRecord
100
AcDbBlockTableRecord
  2
Block_27
340
0
102
{BLKREFS
331
165
102
}
 70
     0
280
     1
281
     0
  0
BLOCK_RECORD
  5
168
330
1
100
AcDbSymbolTableRecord
100
AcDbBlockTableRecord
  2
Block_28
340
0
102
{BLKREFS
331
169
102
}
 70
     0
280
     1
281
     0
  0
BLOCK_RECORD
  5
16D
330
1
100
AcDbSymbolTableRecord
100
AcDbBlockTableRecord
  2
Block_29
340
0
102
{BLKREFS
331
16E
102
}
 70
     0
280
     1
281
     0
  0
BLOCK_RECORD
  5
173
330
1
100
AcDbSymbolTableRecord
100
AcDbBlockTableRecord
  2
Block_30
340
0
102
{BLKREFS
331
174
102
}
 70
     0
280
     1
281
     0
  0
ENDTAB
  0
ENDSEC
  0
SECTION
  2
BLOCKS
  0
BLOCK
  5
71
330
70
100
AcDbEntity
  8
0
100
AcDbBlockBegin
  2
*Model_Space
 70
     0
 10
0.0
 20
0.0
 30
0.0
  3
*Model_Space
  1

  0
ENDBLK
  5
72
330
70
100
AcDbEntity
  8
0
100
AcDbBlockEnd
  0
BLOCK
  5
6D
330
6C
100
AcDbEntity
 67
     1
  8
0
100
AcDbBlockBegin
  2
*Paper_Space
 70
     0
 10
0.0
 20
0.0
 30
0.0
  3
*Paper_Space
  1

  0
ENDBLK
  5
6E
330
6C
100
AcDbEntity
 67
     1
  8
0
100
AcDbBlockEnd
  0
BLOCK
  5
75
330
74
100
AcDbEntity
 67
     1
  8
0
100
AcDbBlockBegin
  2
*Paper_Space0
 70
     0
 10
0.0
 20
0.0
 30
0.0
  3
*Paper_Space0
  1

  0
ENDBLK
  5
76
330
74
100
AcDbEntity
 67
     1
  8
0
100
AcDbBlockEnd
  0
BLOCK
  5
7C
330
7A
100
AcDbEntity
  8
0
100
AcDbBlockBegin
  2
Block_0
 70
     0
 10
0.0
 20
0.0
 30
0.0
  3
Block_0
  1

  0
INSERT
  5
7F
330
7A
100
AcDbEntity
  8
Sichtbar schmal (ANSI)
100
AcDbBlockReference
  2
Block_1
 10
0.0
 20
0.0
 30
0.0
  0
INSERT
  5
96
330
7A
100
AcDbEntity
  8
Sichtbar schmal (ANSI)
100
AcDbBlockReference
  2
Block_2
 10
0.0
 20
0.0
 30
0.0
  0
LINE
  5
CB
330
7A
100
AcDbEntity
  8
Sichtbar schmal (ANSI)
 62
    18
420
        0
370
     5
100
AcDbLine
 10
131.3107954408745
 20
178.5323622502368
 30
0.0
 11
119.310795443874
 21
178.5323639646019
 31
0.0
  0
LINE
  5
CC
330
7A
100
AcDbEntity
  8
Sichtbar schmal (ANSI)
 62
    18
420
        0
370
     5
100
AcDbLine
 10
131.3107954408745
 20
177.9983527982746
 30
0.0
 11
119.310795443874
 21
177.998354512639
 31
0.0
  0
INSERT
  5
CE
330
7A
100
AcDbEntity
  8
Sichtbar schmal (ANSI)
100
AcDbBlockReference
  2
Block_3
 10
0.0
 20
0.0
 30
0.0
  0
LINE
  5
D3
330
7A
100
AcDbEntity
  8
Sichtbar schmal (ANSI)
 62
    18
420
        0
370
     5
100
AcDbLine
 10
129.3217657426378
 20
178.0157044414331
 30
0.0
 11
129.3217657426378
 21
178.5211503935969
 31
0.0
  0
INSERT
  5
D5
330
7A
100
AcDbEntity
  8
Sichtbar schmal (ANSI)
100
AcDbBlockReference
  2
Block_4
 10
0.0
 20
0.0
 30
0.0
  0
LINE
  5
E3
330
7A
100
AcDbEntity
  8
Sichtbar schmal (ANSI)
 62
    18
420
        0
370
     5
100
AcDbLine
 10
131.3107954408745
 20
133.3333317017515
 30
0.0
 11
106.2809439007396
 21
133.3333327201253
 31
0.0
  0
LINE
  5
E4
330
7A
100
AcDbEntity
  8
Sichtbar schmal (ANSI)
 62
    18
420
        0
370
     5
100
AcDbLine
 10
131.3107954408745
 20
138.1394244840568
 30
0.0
 11
106.2809439007396
 21
138.1394255024306
 31
0.0
  0
INSERT
  5
E6
330
7A
100
AcDbEntity
  8
Sichtbar schmal (ANSI)
100
AcDbBlockReference
  2
Block_7
 10
0.0
 20
0.0
 30
0.0
  0
LINE
  5
F1
330
7A
100
AcDbEntity
  8
Sichtbar schmal (ANSI)
 62
    18
420
        0
370
     5
100
AcDbLine
 10
141.3107954383742
 20
170.7941543961595
 30
0.0
 11
116.6407438981496
 21
170.7941563987364
 31
0.0
  0
LINE
  5
F2
330
7A
100
AcDbEntity
  8
Sichtbar schmal (ANSI)
 62
    18
420
        0
370
     5
100
AcDbLine
 10
141.3107954383742
 20
126.4712997384285
 30
0.0
 11
116.6407438981496
 21
126.4713017613501
 31
0.0
  0
INSERT
  5
F4
330
7A
100
AcDbEntity
  8
Sichtbar schmal (ANSI)
100
AcDbBlockReference
  2
Block_9
 10
0.0
 20
0.0
 30
0.0
  0
INSERT
  5
104
330
7A
100
AcDbEntity
  8
Sichtbar schmal (ANSI)
100
AcDbBlockReference
  2
Block_11
 10
0.0
 20
0.0
 30
0.0
  0
INSERT
  5
11C
330
7A
100
AcDbEntity
  8
Sichtbar schmal (ANSI)
100
AcDbBlockReference
  2
Block_15
 10
0.0
 20
0.0
 30
0.0
  0
LINE
  5
130
330
7A
100
AcDbEntity
  8
Sichtbar schmal (ANSI)
 62
    18
420
        0
370
     5
100
AcDbLine
 10
131.3107954408745
 20
138.5844330657183
 30
0.0
 11
106.7259524916936
 21
138.5844341026719
 31
0.0
  0
LINE
  5
131
330
7A
100
AcDbEntity
  8
Sichtbar schmal (ANSI)
 62
    18
420
        0
370
     5
100
AcDbLine
 10
131.3107954408745
 20
142.5005086661158
 30
0.0
 11
106.7259524916936
 21
142.5005097030693
 31
0.0
  0
INSERT
  5
133
330
7A
100
AcDbEntity
  8
Sichtbar schmal (ANSI)
100
AcDbBlockReference
  2
Block_19
 10
0.0
 20
0.0
 30
0.0
  0
INSERT
  5
13F
330
7A
100
AcDbEntity
  8
Sichtbar schmal (ANSI)
100
AcDbBlockReference
  2
Block_21
 10
0.0
 20
0.0
 30
0.0
  0
LINE
  5
153
330
7A
100
AcDbEntity
  8
Sichtbar schmal (ANSI)
 62
    18
420
        0
370
     5
100
AcDbLine
 10
119.3107949249724
 20
114.0503942680898
 30
0.0
 11
119.3107959627756
 21
129.141351284151
 31
0.0
  0
LINE
  5
154
330
7A
100
AcDbEntity
  8
Sichtbar schmal (ANSI)
 62
    18
420
        0
370
     5
100
AcDbLine
 10
67.51202831807079
 20
114.4712781644024
 30
0.0
 11
67.51202935586305
 21
129.141351284151
 31
0.0
  0
INSERT
  5
156
330
7A
100
AcDbEntity
  8
Sichtbar schmal (ANSI)
100
AcDbBlockReference
  2
Block_25
 10
0.0
 20
0.0
 30
0.0
  0
INSERT
  5
165
330
7A
100
AcDbEntity
  8
Sichtbar schmal (ANSI)
100
AcDbBlockReference
  2
Block_27
 10
0.0
 20
0.0
 30
0.0
  0
ENDBLK
  5
7D
330
7A
100
AcDbEntity
  8
0
100
AcDbBlockEnd
  0
BLOCK
  5
80
330
7E
100
AcDbEntity
  8
0
100
AcDbBlockBegin
  2
Block_1
 70
     0
 10
0.0
 20
0.0
 30
0.0
  3
Block_1
  1

  0
LINE
  5
82
330
7E
100
AcDbEntity
  8
Sichtbar schmal (ANSI)
 62
    18
420
        0
370
     5
100
AcDbLine
 10
93.05528857758813
 20
177.9983527982746
 30
0.0
 11
93.41129545035162
 21
177.9983527982746
 31
0.0
  0
LINE
  5
83
330
7E
100
AcDbEntity
  8
Sichtbar schmal (ANSI)
 62
    18
420
        0
370
     5
100
AcDbLine
 10
93.05528857758813
 20
177.9983527982746
 30
0.0
 11
70.18184700254908
 21
177.9983527982746
 31
0.0
  0
LINE
  5
84
330
7E
100
AcDbEntity
  8
Sichtbar schmal (ANSI)
 62
    18
420
        0
370
     5
100
AcDbLine
 10
70.18184700254908
 20
177.9983527982746
 30
0.0
 11
67.51179545682403
 21
177.9983527982746
 31
0.0
  0
LINE
  5
85
330
7E
100
AcDbEntity
  8
Sichtbar schmal (ANSI)
 62
    18
420
        0
370
     5
100
AcDbLine
 10
116.6407438981522
 20
177.9983527982746
 30
0.0
 11
119.310795443874
 21
177.9983527982746
 31
0.0
  0
LINE
  5
86
330
7E
100
AcDbEntity
  8
Sichtbar schmal (ANSI)
 62
    18
420
        0
370
     5
100
AcDbLine
 10
93.76730232311478
 20
177.9983527982746
 30
0.0
 11
116.6407438981522
 21
177.9983527982746
 31
0.0
  0
LINE
  5
87
330
7E
100
AcDbEntity
  8
Sichtbar schmal (ANSI)
 62
    18
420
        0
370
     5
100
AcDbLine
 10
93.76730232311478
 20
177.9983527982746
 30
0.0
 11
93.41129545035162
 21
177.9983527982746
 31
0.0
  0
LINE
  5
88
330
7E
100
AcDbEntity
  8
Sichtbar schmal (ANSI)
 62
    18
420
        0
370
     5
100
AcDbLine
 10
67.51179545682403
 20
178.5323631074194
 30
0.0
 11
70.18184700254908
 21
178.5323631074194
 31
0.0
  0
LINE
  5
89
330
7E
100
AcDbEntity
  8
Sichtbar schmal (ANSI)
 62
    18
420
        0
370
     5
100
AcDbLine
 10
93.05528857758813
 20
178.5323631074194
 30
0.0
 11
70.18184700254908
 21
178.5323631074194
 31
0.0
  0
LINE
  5
8A
330
7E
100
AcDbEntity
  8
Sichtbar schmal (ANSI)
 62
    18
420
        0
370
     5
100
AcDbLine
 10
93.41129545035162
 20
178.5323631074194
 30
0.0
 11
93.05528857758813
 21
178.5323631074194
 31
0.0
  0
LINE
  5
8B
330
7E
100
AcDbEntity
  8
Sichtbar schmal (ANSI)
 62
    18
420
        0
370
     5
100
AcDbLine
 10
93.41129545035162
 20
178.5323631074194
 30
0.0
 11
93.76730232311478
 21
178.5323631074194
 31
0.0
  0
LINE
  5
8C
330
7E
100
AcDbEntity
  8
Sichtbar schmal (ANSI)
 62
    18
420
        0
370
     5
100
AcDbLine
 10
93.76730232311478
 20
178.5323631074194
 30
0.0
 11
116.6407438981522
 21
178.5323631074194
 31
0.0
  0
LINE
  5
8D
330
7E
100
AcDbEntity
  8
Sichtbar schmal (ANSI)
 62
    18
420
        0
370
     5
100
AcDbLine
 10
119.310795443874
 20
178.5323631074194
 30
0.0
 11
116.6407438981522
 21
178.5323631074194
 31
0.0
  0
LINE
  5
8E
330
7E
100
AcDbEntity
  8
Sichtbar schmal (ANSI)
 62
    18
420
        0
370
     5
100
AcDbLine
 10
119.310795443874
 20
178.5323631074194
 30
0.0
 11
119.310795443874
 21
177.9983527982746
 31
0.0
  0
LINE
  5
8F
330
7E
100
AcDbEntity
  8
Sichtbar schmal (ANSI)
 62
    18
420
        0
370
     5
100
AcDbLine
 10
93.76730232311478
 20
178.5323631074194
 30
0.0
 11
93.76730232311478
 21
177.9983527982746
 31
0.0
  0
LINE
  5
90
330
7E
100
AcDbEntity
  8
Sichtbar schmal (ANSI)
 62
    18
420
        0
370
     5
100
AcDbLine
 10
93.41129545035162
 20
178.5323631074194
 30
0.0
 11
93.41129545035162
 21
177.9983527982746
 31
0.0
  0
LINE
  5
91
330
7E
100
AcDbEntity
  8
Sichtbar schmal (ANSI)
 62
    18
420
        0
370
     5
100
AcDbLine
 10
93.05528857758813
 20
178.5323631074194
 30
0.0
 11
93.05528857758813
 21
177.9983527982746
 31
0.0
  0
LINE
  5
92
330
7E
100
AcDbEntity
  8
Sichtbar schmal (ANSI)
 62
    18
420
        0
370
     5
100
AcDbLine
 10
67.51179545682403
 20
178.5323631074194
 30
0.0
 11
67.51179545682403
 21
177.9983527982746
 31
0.0
  0
LINE
  5
93
330
7E
100
AcDbEntity
  8
Sichtbar schmal (ANSI)
 62
    18
420
        0
370
     5
100
AcDbLine
 10
116.6407438981522
 20
178.5323631074194
 30
0.0
 11
116.6407438981522
 21
177.9983527982746
 31
0.0
  0
LINE
  5
94
330
7E
100
AcDbEntity
  8
Sichtbar schmal (ANSI)
 62
    18
420
        0
370
     5
100
AcDbLine
 10
70.18184700254908
 20
178.5323631074194
 30
0.0
 11
70.18184700254908
 21
177.9983527982746
 31
0.0
  0
ENDBLK
  5
81
330
7E
100
AcDbEntity
  8
0
100
AcDbBlockEnd
  0
BLOCK
  5
97
330
95
100
AcDbEntity
  8
0
100
AcDbBlockBegin
  2
Block_2
 70
     0
 10
0.0
 20
0.0
 30
0.0
  3
Block_2
  1

  0
CIRCLE
  5
99
330
95
100
AcDbEntity
  8
Sichtbar schmal (ANSI)
 62
    18
420
        0
370
     5
100
AcDbCircle
 10
106.7259524916929
 20
156.7229837514825
 30
0.0
 40
1.958037800196946
  0
LINE
  5
9A
330
95
100
AcDbEntity
  8
Sichtbar schmal (ANSI)
 62
    18
420
        0
370
     5
100
AcDbLine
 10
93.41129545034904
 20
170.4381485246866
 30
0.0
 11
93.05528857758556
 21
170.7941553974484
 31
0.0
  0
LINE
  5
9B
330
95
100
AcDbEntity
  8
Sichtbar schmal (ANSI)
 62
    18
420
        0
370
     5
100
AcDbLine
 10
93.05528857758556
 20
170.7941553974484
 30
0.0
 11
70.18184700254908
 21
170.7941553974484
 31
0.0
  0
SPLINE
  5
9C
330
95
100
AcDbEntity
  8
Sichtbar schmal (ANSI)
 62
    18
420
        0
370
     5
100
AcDbSpline
210
0.0
220
0.0
230
1.0
 70
     8
 71
     3
 72
     8
 73
     4
 74
     0
 42
0.0000000001
 43
0.0000000001
 40
0.0
 40
0.0
 40
0.0
 40
0.0
 40
1.0
 40
1.0
 40
1.0
 40
1.0
 10
70.18184700254908
 20
170.7941553974484
 30
0.0
 10
68.70721825258343
 20
170.7941553974484
 30
0.0
 10
67.51179545682403
 20
169.5987326016903
 30
0.0
 10
67.51179545682403
 20
168.124103851725
 30
0.0
  0
LINE
  5
9D
330
95
100
AcDbEntity
  8
Sichtbar schmal (ANSI)
 62
    18
420
        0
370
     5
100
AcDbLine
 10
67.51179545682403
 20
168.124103851725
 30
0.0
 11
67.51179545682403
 21
148.9887344407015
 31
0.0
  0
LINE
  5
9E
330
95
100
AcDbEntity
  8
Sichtbar schmal (ANSI)
 62
    18
420
        0
370
     5
100
AcDbLine
 10
67.51179545682403
 20
148.9887344407015
 30
0.0
 11
67.86780232958752
 21
148.6327275679386
 31
0.0
  0
LINE
  5
9F
330
95
100
AcDbEntity
  8
Sichtbar schmal (ANSI)
 62
    18
420
        0
370
     5
100
AcDbLine
 10
67.51179545682403
 20
148.2767206951758
 30
0.0
 11
67.86780232958752
 21
148.6327275679386
 31
0.0
  0
LINE
  5
A0
330
95
100
AcDbEntity
  8
Sichtbar schmal (ANSI)
 62
    18
420
        0
370
     5
100
AcDbLine
 10
67.51179545682403
 20
129.141351284151
 30
0.0
 11
67.51179545682403
 21
148.2767206951758
 31
0.0
  0
SPLINE
  5
A1
330
95
100
AcDbEntity
  8
Sichtbar schmal (ANSI)
 62
    18
420
        0
370
     5
100
AcDbSpline
210
0.0
220
0.0
230
1.0
 70
     8
 71
     3
 72
     8
 73
     4
 74
     0
 42
0.0000000001
 43
0.0000000001
 40
0.0
 40
0.0
 40
0.0
 40
0.0
 40
1.0
 40
1.0
 40
1.0
 40
1.0
 10
67.51179545682403
 20
129.141351284151
 30
0.0
 10
67.51179545682403
 20
127.666722534185
 30
0.0
 10
68.70721825258343
 20
126.4712997384285
 30
0.0
 10
70.18184700254908
 20
126.4712997384285
 30
0.0
  0
LINE
  5
A2
330
95
100
AcDbEntity
  8
Sichtbar schmal (ANSI)
 62
    18
420
        0
370
     5
100
AcDbLine
 10
93.05528857758556
 20
126.4712997384285
 30
0.0
 11
70.18184700254908
 21
126.4712997384285
 31
0.0
  0
LINE
  5
A3
330
95
100
AcDbEntity
  8
Sichtbar schmal (ANSI)
 62
    18
420
        0
370
     5
100
AcDbLine
 10
93.41129545034904
 20
126.8273066111917
 30
0.0
 11
93.05528857758556
 21
126.4712997384285
 31
0.0
  0
LINE
  5
A4
330
95
100
AcDbEntity
  8
Sichtbar schmal (ANSI)
 62
    18
420
        0
370
     5
100
AcDbLine
 10
93.41129545034904
 20
126.8273066111917
 30
0.0
 11
93.76730232311286
 21
126.4712997384285
 31
0.0
  0
LINE
  5
A5
330
95
100
AcDbEntity
  8
Sichtbar schmal (ANSI)
 62
    18
420
        0
370
     5
100
AcDbLine
 10
93.76730232311286
 20
126.4712997384285
 30
0.0
 11
116.6407438981496
 21
126.4712997384285
 31
0.0
  0
SPLINE
  5
A6
330
95
100
AcDbEntity
  8
Sichtbar schmal (ANSI)
 62
    18
420
        0
370
     5
100
AcDbSpline
210
0.0
220
0.0
230
1.0
 70
     8
 71
     3
 72
     8
 73
     4
 74
     0
 42
0.0000000001
 43
0.0000000001
 40
0.0
 40
0.0
 40
0.0
 40
0.0
 40
1.0
 40
1.0
 40
1.0
 40
1.0
 10
116.6407438981496
 20
126.4712997384285
 30
0.0
 10
118.1153726481143
 20
126.4712997384285
 30
0.0
 10
119.310795443874
 20
127.666722534185
 30
0.0
 10
119.310795443874
 20
129.141351284151
 30
0.0
  0
LINE
  5
A7
330
95
100
AcDbEntity
  8
Sichtbar schmal (ANSI)
 62
    18
420
        0
370
     5
100
AcDbLine
 10
119.310795443874
 20
129.141351284151
 30
0.0
 11
119.310795443874
 21
148.2767206951758
 31
0.0
  0
LINE
  5
A8
330
95
100
AcDbEntity
  8
Sichtbar schmal (ANSI)
 62
    18
420
        0
370
     5
100
AcDbLine
 10
119.310795443874
 20
148.2767206951758
 30
0.0
 11
118.9547885711109
 21
148.6327275679386
 31
0.0
  0
LINE
  5
A9
330
95
100
AcDbEntity
  8
Sichtbar schmal (ANSI)
 62
    18
420
        0
370
     5
100
AcDbLine
 10
119.310795443874
 20
148.9887344407015
 30
0.0
 11
118.9547885711109
 21
148.6327275679386
 31
0.0
  0
LINE
  5
AA
330
95
100
AcDbEntity
  8
Sichtbar schmal (ANSI)
 62
    18
420
        0
370
     5
100
AcDbLine
 10
119.310795443874
 20
168.124103851725
 30
0.0
 11
119.310795443874
 21
148.9887344407015
 31
0.0
  0
SPLINE
  5
AB
330
95
100
AcDbEntity
  8
Sichtbar schmal (ANSI)
 62
    18
420
        0
370
     5
100
AcDbSpline
210
0.0
220
0.0
230
1.0
 70
     8
 71
     3
 72
     8
 73
     4
 74
     0
 42
0.0000000001
 43
0.0000000001
 40
0.0
 40
0.0
 40
0.0
 40
0.0
 40
1.0
 40
1.0
 40
1.0
 40
1.0
 10
119.310795443874
 20
168.124103851725
 30
0.0
 10
119.310795443874
 20
169.5987326016903
 30
0.0
 10
118.1153726481143
 20
170.7941553974484
 30
0.0
 10
116.6407438981496
 20
170.7941553974484
 30
0.0
  0
LINE
  5
AC
330
95
100
AcDbEntity
  8
Sichtbar schmal (ANSI)
 62
    18
420
        0
370
     5
100
AcDbLine
 10
93.76730232311286
 20
170.7941553974484
 30
0.0
 11
116.6407438981496
 21
170.7941553974484
 31
0.0
  0
LINE
  5
AD
330
95
100
AcDbEntity
  8
Sichtbar schmal (ANSI)
 62
    18
420
        0
370
     5
100
AcDbLine
 10
93.41129545034904
 20
170.4381485246866
 30
0.0
 11
93.76730232311286
 21
170.7941553974484
 31
0.0
  0
CIRCLE
  5
AE
330
95
100
AcDbEntity
  8
Sichtbar schmal (ANSI)
 62
    18
420
        0
370
     5
100
AcDbCircle
 10
101.4748511184372
 20
161.9740851247403
 30
0.0
 40
1.958037800197828
  0
CIRCLE
  5
AF
330
95
100
AcDbEntity
  8
Sichtbar schmal (ANSI)
 62
    18
420
        0
370
     5
100
AcDbCircle
 10
116.6407438981501
 20
168.124103851725
 30
0.0
 40
0.6052116836976916
  0
CIRCLE
  5
B0
330
95
100
AcDbEntity
  8
Sichtbar schmal (ANSI)
 62
    18
420
        0
370
     5
100
AcDbCircle
 10
116.6407438981501
 20
129.1413512841513
 30
0.0
 40
0.605211683697852
  0
CIRCLE
  5
B1
330
95
100
AcDbEntity
  8
Sichtbar schmal (ANSI)
 62
    18
420
        0
370
     5
100
AcDbCircle
 10
106.7259524916929
 20
140.5424713843945
 30
0.0
 40
1.958037800197427
  0
CIRCLE
  5
B2
330
95
100
AcDbEntity
  8
Sichtbar schmal (ANSI)
 62
    18
420
        0
370
     5
100
AcDbCircle
 10
101.4748511184372
 20
135.2913700111371
 30
0.0
 40
1.95803780019823
  0
CIRCLE
  5
B3
330
95
100
AcDbEntity
  8
Sichtbar schmal (ANSI)
 62
    18
420
        0
370
     5
100
AcDbCircle
 10
106.2809439007395
 20
135.7363786020907
 30
0.0
 40
2.40304639115211
  0
CIRCLE
  5
B4
330
95
100
AcDbEntity
  8
Sichtbar schmal (ANSI)
 62
    18
420
        0
370
     5
100
AcDbCircle
 10
80.54164699995844
 20
135.7363786020907
 30
0.0
 40
2.40304639115203
  0
CIRCLE
  5
B5
330
95
100
AcDbEntity
  8
Sichtbar schmal (ANSI)
 62
    18
420
        0
370
     5
100
AcDbCircle
 10
85.3477397822621
 20
135.2913700111371
 30
0.0
 40
1.95803780019851
  0
CIRCLE
  5
B6
330
95
100
AcDbEntity
  8
Sichtbar schmal (ANSI)
 62
    18
420
        0
370
     5
100
AcDbCircle
 10
80.09663840900472
 20
140.5424713843945
 30
0.0
 40
1.958037800198029
  0
CIRCLE
  5
B7
330
95
100
AcDbEntity
  8
Sichtbar schmal (ANSI)
 62
    18
420
        0
370
     5
100
AcDbCircle
 10
70.18184700254876
 20
129.1413512841513
 30
0.0
 40
0.6052116836977718
  0
CIRCLE
  5
B8
330
95
100
AcDbEntity
  8
Sichtbar schmal (ANSI)
 62
    18
420
        0
370
     5
100
AcDbCircle
 10
70.18184700254876
 20
168.124103851725
 30
0.0
 40
0.6052116836976114
  0
CIRCLE
  5
B9
330
95
100
AcDbEntity
  8
Sichtbar schmal (ANSI)
 62
    18
420
        0
370
     5
100
AcDbCircle
 10
80.09663840900472
 20
156.7229837514825
 30
0.0
 40
1.958037800197548
  0
CIRCLE
  5
BA
330
95
100
AcDbEntity
  8
Sichtbar schmal (ANSI)
 62
    18
420
        0
370
     5
100
AcDbCircle
 10
85.3477397822621
 20
161.9740851247403
 30
0.0
 40
1.958037800198109
  0
CIRCLE
  5
BB
330
95
100
AcDbEntity
  8
Sichtbar schmal (ANSI)
 62
    18
420
        0
370
     5
100
AcDbCircle
 10
80.54164699995844
 20
161.529076533786
 30
0.0
 40
2.403046391151629
  0
CIRCLE
  5
BC
330
95
100
AcDbEntity
  8
Sichtbar schmal (ANSI)
 62
    18
420
        0
370
     5
100
AcDbCircle
 10
106.2809439007395
 20
161.529076533786
 30
0.0
 40
2.403046391151709
  0
CIRCLE
  5
BD
330
95
100
AcDbEntity
  8
Sichtbar schmal (ANSI)
 62
    18
420
        0
370
     5
100
AcDbCircle
 10
75.61095181218805
 20
148.6327275679386
 30
0.0
 40
0.7565146046217335
  0
LINE
  5
BE
330
95
100
AcDbEntity
  8
Sichtbar schmal (ANSI)
 62
    18
420
        0
370
     5
100
AcDbLine
 10
75.96695868495153
 20
148.8382682317621
 30
0.0
 11
75.61095181218836
 21
149.0438088955845
 31
0.0
  0
LINE
  5
BF
330
95
100
AcDbEntity
  8
Sichtbar schmal (ANSI)
 62
    18
420
        0
370
     5
100
AcDbLine
 10
75.96695868495153
 20
148.4271869041152
 30
0.0
 11
75.96695868495153
 21
148.8382682317621
 31
0.0
  0
LINE
  5
C0
330
95
100
AcDbEntity
  8
Sichtbar schmal (ANSI)
 62
    18
420
        0
370
     5
100
AcDbLine
 10
75.61095181218836
 20
148.2216462402918
 30
0.0
 11
75.96695868495153
 21
148.4271869041152
 31
0.0
  0
LINE
  5
C1
330
95
100
AcDbEntity
  8
Sichtbar schmal (ANSI)
 62
    18
420
        0
370
     5
100
AcDbLine
 10
75.25494493942487
 20
148.4271869041152
 30
0.0
 11
75.61095181218836
 21
148.2216462402918
 31
0.0
  0
LINE
  5
C2
330
95
100
AcDbEntity
  8
Sichtbar schmal (ANSI)
 62
    18
420
        0
370
     5
100
AcDbLine
 10
75.25494493942487
 20
148.8382682317621
 30
0.0
 11
75.25494493942487
 21
148.4271869041152
 31
0.0
  0
LINE
  5
C3
330
95
100
AcDbEntity
  8
Sichtbar schmal (ANSI)
 62
    18
420
        0
370
     5
100
AcDbLine
 10
75.61095181218836
 20
149.0438088955845
 30
0.0
 11
75.25494493942487
 21
148.8382682317621
 31
0.0
  0
CIRCLE
  5
C4
330
95
100
AcDbEntity
  8
Sichtbar schmal (ANSI)
 62
    18
420
        0
370
     5
100
AcDbCircle
 10
111.2116390885103
 20
148.6327275679386
 30
0.0
 40
0.756514604620771
  0
LINE
  5
C5
330
95
100
AcDbEntity
  8
Sichtbar schmal (ANSI)
 62
    18
420
        0
370
     5
100
AcDbLine
 10
110.8556322157462
 20
148.4271869041152
 30
0.0
 11
111.2116390885094
 21
148.2216462402918
 31
0.0
  0
LINE
  5
C6
330
95
100
AcDbEntity
  8
Sichtbar schmal (ANSI)
 62
    18
420
        0
370
     5
100
AcDbLine
 10
110.8556322157462
 20
148.8382682317621
 30
0.0
 11
110.8556322157462
 21
148.4271869041152
 31
0.0
  0
LINE
  5
C7
330
95
100
AcDbEntity
  8
Sichtbar schmal (ANSI)
 62
    18
420
        0
370
     5
100
AcDbLine
 10
111.2116390885094
 20
149.0438088955845
 30
0.0
 11
110.8556322157462
 21
148.8382682317621
 31
0.0
  0
LINE
  5
C8
330
95
100
AcDbEntity
  8
Sichtbar schmal (ANSI)
 62
    18
420
        0
370
     5
100
AcDbLine
 10
111.5676459612732
 20
148.8382682317621
 30
0.0
 11
111.2116390885094
 21
149.0438088955845
 31
0.0
  0
LINE
  5
C9
330
95
100
AcDbEntity
  8
Sichtbar schmal (ANSI)
 62
    18
420
        0
370
     5
100
AcDbLine
 10
111.5676459612732
 20
148.4271869041152
 30
0.0
 11
111.5676459612732
 21
148.8382682317621
 31
0.0
  0
LINE
  5
CA
330
95
100
AcDbEntity
  8
Sichtbar schmal (ANSI)
 62
    18
420
        0
370
     5
100
AcDbLine
 10
111.2116390885094
 20
148.2216462402918
 30
0.0
 11
111.5676459612732
 21
148.4271869041152
 31
0.0
  0
ENDBLK
  5
98
330
95
100
AcDbEntity
  8
0
100
AcDbBlockEnd
  0
BLOCK
  5
CF
330
CD
100
AcDbEntity
  8
0
100
AcDbBlockBegin
  2
Block_3
 70
     0
 10
0.0
 20
0.0
 30
0.0
  3
Block_3
  1

  0
SPLINE
  5
D1
330
CD
100
AcDbEntity
  8
Sichtbar schmal (ANSI)
100
AcDbSpline
210
0.0
220
0.0
230
1.0
 70
     9
 71
     3
 72
    62
 73
    58
 74
     0
 42
0.0000000001
 43
0.0000000001
 40
0.0
 40
0.0
 40
0.0
 40
0.0
 40
1.0
 40
1.0
 40
1.0
 40
2.0
 40
2.0
 40
2.0
 40
3.0
 40
3.0
 40
3.0
 40
4.0
 40
4.0
 40
4.0
 40
5.0
 40
5.0
 40
5.0
 40
6.0
 40
6.0
 40
6.0
 40
7.0
 40
7.0
 40
7.0
 40
8.0
 40
8.0
 40
8.0
 40
9.0
 40
9.0
 40
9.0
 40
10.0
 40
10.0
 40
10.0
 40
11.0
 40
11.0
 40
11.0
 40
12.0
 40
12.0
 40
12.0
 40
13.0
 40
13.0
 40
13.0
 40
14.0
 40
14.0
 40
14.0
 40
15.0
 40
15.0
 40
15.0
 40
16.0
 40
16.0
 40
16.0
 40
17.0
 40
17.0
 40
17.0
 40
18.0
 40
18.0
 40
18.0
 40
19.0
 40
19.0
 40
19.0
 40
19.0
 10
131.5199652448978
 20
181.429580304035
 30
0.0
 10
131.7793809349371
 20
181.4380207879738
 30
0.0
 10
131.9599039383642
 20
181.581853524483
 30
0.0
 10
131.9599039383642
 20
181.8555663607861
 30
0.0
 10
131.9599039383642
 20
182.0896605990088
 30
0.0
 10
131.8131428706925
 20
182.2898206467018
 30
0.0
 10
131.5737087344677
 20
182.2898206467018
 30
0.0
 10
131.322561273593
 20
182.2898206467018
 30
0.0
 10
131.1899250974108
 20
182.1008571593359
 30
0.0
 10
131.1899250974108
 20
181.8640068447249
 30
0.0
 10
131.1899250974108
 20
181.8131916863175
 30
0.0
 10
131.192681173799
 20
181.7653048590725
 30
0.0
 10
131.198537836124
 20
181.7201741082158
 30
0.0
 10
131.198537836124
 20
181.7201741082158
 30
0.0
 10
130.9952772024942
 20
181.7201741082158
 30
0.0
 10
130.9952772024942
 20
181.7201741082158
 30
0.0
 10
130.9980332788824
 20
181.7398111524817
 30
0.0
 10
130.9980332788824
 20
181.7568643751337
 30
0.0
 10
130.9980332788824
 20
181.7737453430114
 30
0.0
 10
130.9980332788824
 20
181.7737453430114
 30
0.0
 10
130.9980332788824
 20
181.8245605014188
 30
0.0
 10
130.9980332788824
 20
181.8245605014188
 30
0.0
 10
130.9980332788824
 20
182.0276488802743
 30
0.0
 10
130.8853786565147
 20
182.205243552539
 30
0.0
 10
130.6710937173322
 20
182.205243552539
 30
0.0
 10
130.4592203449894
 20
182.205243552539
 30
0.0
 10
130.3493217990099
 20
182.0529703320909
 30
0.0
 10
130.3493217990099
 20
181.8498819532354
 30
0.0
 10
130.3493217990099
 20
181.5904662631961
 30
0.0
 10
130.5494818467029
 20
181.4719549785035
 30
0.0
 10
130.7837483396999
 20
181.4719549785035
 30
0.0
 10
130.7837483396999
 20
181.4719549785035
 30
0.0
 10
130.7837483396999
 20
181.2321763327301
 30
0.0
 10
130.7837483396999
 20
181.2321763327301
 30
0.0
 10
130.4030652885798
 20
181.2463012242196
 30
0.0
 10
130.1377929362155
 20
181.4493896030752
 30
0.0
 10
130.1377929362155
 20
181.8498819532354
 30
0.0
 10
130.1377929362155
 20
182.1968030686001
 30
0.0
 10
130.3041910481531
 20
182.4591470898019
 30
0.0
 10
130.6738497937204
 20
182.4591470898019
 30
0.0
 10
130.8516167207593
 20
182.4591470898019
 30
0.0
 10
131.0007893552706
 20
182.3378797287211
 30
0.0
 10
131.0714138127182
 20
182.1826781771106
 30
0.0
 10
131.0714138127182
 20
182.1826781771106
 30
0.0
 10
131.0769259654946
 20
182.1826781771106
 30
0.0
 10
131.0769259654946
 20
182.1826781771106
 30
0.0
 10
131.1306694550645
 20
182.4281412304346
 30
0.0
 10
131.322561273593
 20
182.5437241839648
 30
0.0
 10
131.5623399193663
 20
182.5437241839648
 30
0.0
 10
131.9599039383642
 20
182.5437241839648
 30
0.0
 10
132.1714328011585
 20
182.2307372591298
 30
0.0
 10
132.1714328011585
 20
181.8555663607861
 30
0.0
 10
132.1714328011585
 20
181.4493896030752
 30
0.0
 10
131.9347547413219
 20
181.1813611743227
 30
0.0
 10
131.5199652448978
 20
181.1898016582616
 30
0.0
 10
131.5199652448978
 20
181.1898016582616
 30
0.0
 10
131.5199652448978
 20
181.429580304035
 30
0.0
 10
131.5199652448978
 20
181.429580304035
 30
0.0
  0
HATCH
  5
D2
330
CD
100
AcDbEntity
  8
Sichtbar schmal (ANSI)
 62
    18
420
        0
440
 33554687
100
AcDbHatch
 10
0.0
 20
0.0
 30
0.0
210
0.0
220
0.0
230
1.0
  2
SOLID
 70
     1
 71
     1
 91
        1
 92
        1
 93
        1
 72
     4
 94
        3
 73
     0
 74
     0
 95
       62
 96
       58
 40
0.0
 40
0.0
 40
0.0
 40
0.0
 40
1.0
 40
1.0
 40
1.0
 40
2.0
 40
2.0
 40
2.0
 40
3.0
 40
3.0
 40
3.0
 40
4.0
 40
4.0
 40
4.0
 40
5.0
 40
5.0
 40
5.0
 40
6.0
 40
6.0
 40
6.0
 40
7.0
 40
7.0
 40
7.0
 40
8.0
 40
8.0
 40
8.0
 40
9.0
 40
9.0
 40
9.0
 40
10.0
 40
10.0
 40
10.0
 40
11.0
 40
11.0
 40
11.0
 40
12.0
 40
12.0
 40
12.0
 40
13.0
 40
13.0
 40
13.0
 40
14.0
 40
14.0
 40
14.0
 40
15.0
 40
15.0
 40
15.0
 40
16.0
 40
16.0
 40
16.0
 40
17.0
 40
17.0
 40
17.0
 40
18.0
 40
18.0
 40
18.0
 40
19.0
 40
19.0
 40
19.0
 40
19.0
 10
131.5199652448978
 20
181.429580304035
 10
131.7793809349371
 20
181.4380207879738
 10
131.9599039383642
 20
181.581853524483
 10
131.9599039383642
 20
181.8555663607861
 10
131.9599039383642
 20
182.0896605990088
 10
131.8131428706925
 20
182.2898206467018
 10
131.5737087344677
 20
182.2898206467018
 10
131.322561273593
 20
182.2898206467018
 10
131.1899250974108
 20
182.1008571593359
 10
131.1899250974108
 20
181.8640068447249
 10
131.1899250974108
 20
181.8131916863175
 10
131.192681173799
 20
181.7653048590725
 10
131.198537836124
 20
181.7201741082158
 10
131.198537836124
 20
181.7201741082158
 10
130.9952772024942
 20
181.7201741082158
 10
130.9952772024942
 20
181.7201741082158
 10
130.9980332788824
 20
181.7398111524817
 10
130.9980332788824
 20
181.7568643751337
 10
130.9980332788824
 20
181.7737453430114
 10
130.9980332788824
 20
181.7737453430114
 10
130.9980332788824
 20
181.8245605014188
 10
130.9980332788824
 20
181.8245605014188
 10
130.9980332788824
 20
182.0276488802743
 10
130.8853786565147
 20
182.205243552539
 10
130.6710937173322
 20
182.205243552539
 10
130.4592203449894
 20
182.205243552539
 10
130.3493217990099
 20
182.0529703320909
 10
130.3493217990099
 20
181.8498819532354
 10
130.3493217990099
 20
181.5904662631961
 10
130.5494818467029
 20
181.4719549785035
 10
130.7837483396999
 20
181.4719549785035
 10
130.7837483396999
 20
181.4719549785035
 10
130.7837483396999
 20
181.2321763327301
 10
130.7837483396999
 20
181.2321763327301
 10
130.4030652885798
 20
181.2463012242196
 10
130.1377929362155
 20
181.4493896030752
 10
130.1377929362155
 20
181.8498819532354
 10
130.1377929362155
 20
182.1968030686001
 10
130.3041910481531
 20
182.4591470898019
 10
130.6738497937204
 20
182.4591470898019
 10
130.8516167207593
 20
182.4591470898019
 10
131.0007893552706
 20
182.3378797287211
 10
131.0714138127182
 20
182.1826781771106
 10
131.0714138127182
 20
182.1826781771106
 10
131.0769259654946
 20
182.1826781771106
 10
131.0769259654946
 20
182.1826781771106
 10
131.1306694550645
 20
182.4281412304346
 10
131.322561273593
 20
182.5437241839648
 10
131.5623399193663
 20
182.5437241839648
 10
131.9599039383642
 20
182.5437241839648
 10
132.1714328011585
 20
182.2307372591298
 10
132.1714328011585
 20
181.8555663607861
 10
132.1714328011585
 20
181.4493896030752
 10
131.9347547413219
 20
181.1813611743227
 10
131.5199652448978
 20
181.1898016582616
 10
131.5199652448978
 20
181.1898016582616
 10
131.5199652448978
 20
181.429580304035
 10
131.5199652448978
 20
181.429580304035
 97
        0
 97
        1
330
D1
 75
     2
 76
     1
 98
        1
 10
0.0
 20
0.0
450
        0
451
        0
460
0.0
461
0.0
452
        0
462
0.0
453
        0
470

  0
ENDBLK
  5
D0
330
CD
100
AcDbEntity
  8
0
100
AcDbBlockEnd
  0
BLOCK
  5
D6
330
D4
100
AcDbEntity
  8
0
100
AcDbBlockBegin
  2
Block_4
 70
     0
 10
0.0
 20
0.0
 30
0.0
  3
Block_4
  1

  0
INSERT
  5
D9
330
D4
100
AcDbEntity
  8
Sichtbar schmal (ANSI)
100
AcDbBlockReference
  2
Block_5
 10
0.0
 20
0.0
 30
0.0
  0
ENDBLK
  5
D7
330
D4
100
AcDbEntity
  8
0
100
AcDbBlockEnd
  0
BLOCK
  5
DA
330
D8
100
AcDbEntity
  8
0
100
AcDbBlockBegin
  2
Block_5
 70
     0
 10
0.0
 20
0.0
 30
0.0
  3
Block_5
  1

  0
LINE
  5
DC
330
D8
100
AcDbEntity
  8
Sichtbar schmal (ANSI)
 62
    18
420
        0
370
     5
100
AcDbLine
 10
129.3217682409172
 20
183.6987785727819
 30
0.0
 11
129.3217682409172
 21
179.589802421601
 31
0.0
  0
INSERT
  5
DE
330
D8
100
AcDbEntity
  8
Sichtbar schmal (ANSI)
100
AcDbBlockReference
  2
Block_6
 10
0.0
 20
0.0
 30
0.0
  0
ENDBLK
  5
DB
330
D8
100
AcDbEntity
  8
0
100
AcDbBlockEnd
  0
BLOCK
  5
DF
330
DD
100
AcDbEntity
  8
0
100
AcDbBlockBegin
  2
Block_6
 70
     0
 10
0.0
 20
0.0
 30
0.0
  3
Block_6
  1

  0
LWPOLYLINE
  5
E1
330
DD
100
AcDbEntity
  8
Sichtbar schmal (ANSI)
100
AcDbPolyline
 90
        3
 70
     1
 43
0.0
 10
129.10045315376
 20
180.2222573571525
 10
129.3210792218201
 20
178.5410830581211
 10
129.5430725621509
 20
180.2222573571525
  0
HATCH
  5
E2
330
DD
100
AcDbEntity
  8
Sichtbar schmal (ANSI)
 62
    18
420
        0
440
 33554687
100
AcDbHatch
 10
0.0
 20
0.0
 30
0.0
210
0.0
220
0.0
230
1.0
  2
SOLID
 70
     1
 71
     1
 91
        1
 92
        1
 93
        3
 72
     1
 10
129.10045315376
 20
180.2222573571525
 11
129.3210792218201
 21
178.5410830581211
 72
     1
 10
129.3210792218201
 20
178.5410830581211
 11
129.5430725621509
 21
180.2222573571525
 72
     1
 10
129.5430725621509
 20
180.2222573571525
 11
129.10045315376
 21
180.2222573571525
 97
        1
330
E1
 75
     2
 76
     1
 98
        1
 10
0.0
 20
0.0
450
        0
451
        0
460
0.0
461
0.0
452
        0
462
0.0
453
        0
470

  0
ENDBLK
  5
E0
330
DD
100
AcDbEntity
  8
0
100
AcDbBlockEnd
  0
BLOCK
  5
E7
330
E5
100
AcDbEntity
  8
0
100
AcDbBlockBegin
  2
Block_7
 70
     0
 10
0.0
 20
0.0
 30
0.0
  3
Block_7
  1

  0
INSERT
  5
EA
330
E5
100
AcDbEntity
  8
Sichtbar schmal (ANSI)
100
AcDbBlockReference
  2
Block_8
 10
0.0
 20
0.0
 30
0.0
  0
ENDBLK
  5
E8
330
E5
100
AcDbEntity
  8
0
100
AcDbBlockEnd
  0
BLOCK
  5
EB
330
E9
100
AcDbEntity
  8
0
100
AcDbBlockBegin
  2
Block_8
 70
     0
 10
0.0
 20
0.0
 30
0.0
  3
Block_8
  1

  0
SPLINE
  5
ED
330
E9
100
AcDbEntity
  8
Sichtbar schmal (ANSI)
100
AcDbSpline
210
0.0
220
0.0
230
1.0
 70
     9
 71
     3
 72
    41
 73
    37
 74
     0
 42
0.0000000001
 43
0.0000000001
 40
0.0
 40
0.0
 40
0.0
 40
0.0
 40
1.0
 40
1.0
 40
1.0
 40
2.0
 40
2.0
 40
2.0
 40
3.0
 40
3.0
 40
3.0
 40
4.0
 40
4.0
 40
4.0
 40
5.0
 40
5.0
 40
5.0
 40
6.0
 40
6.0
 40
6.0
 40
7.0
 40
7.0
 40
7.0
 40
8.0
 40
8.0
 40
8.0
 40
9.0
 40
9.0
 40
9.0
 40
10.0
 40
10.0
 40
10.0
 40
11.0
 40
11.0
 40
11.0
 40
12.0
 40
12.0
 40
12.0
 40
12.0
 10
131.5068738820538
 20
134.7562879437415
 30
0.0
 10
131.2953450192595
 20
135.094596320393
 30
0.0
 10
131.1768337345669
 20
135.2668510946555
 30
0.0
 10
130.8974364907131
 20
135.2668510946555
 30
0.0
 10
130.6803954751424
 20
135.2668510946555
 30
0.0
 10
130.5363904838589
 20
135.0918402440048
 30
0.0
 10
130.5363904838589
 20
134.8803113812105
 30
0.0
 10
130.5363904838589
 20
134.6012586469052
 30
0.0
 10
130.79305009751
 20
134.4827473622126
 30
0.0
 10
131.0328287432834
 20
134.4910155913772
 30
0.0
 10
131.0328287432834
 20
134.4910155913772
 30
0.0
 10
131.0328287432834
 20
134.2512369456038
 30
0.0
 10
131.0328287432834
 20
134.2512369456038
 30
0.0
 10
130.6266519855725
 20
134.2284993154012
 30
0.0
 10
130.3248616210646
 20
134.4713785471113
 30
0.0
 10
130.3248616210646
 20
134.8944362727
 30
0.0
 10
130.3248616210646
 20
135.2413573880646
 30
0.0
 10
130.5281222546943
 20
135.5204101223699
 30
0.0
 10
130.9001925671013
 20
135.5204101223699
 30
0.0
 10
131.2529703447909
 20
135.5204101223699
 30
0.0
 10
131.4276366858931
 20
135.2837320625332
 30
0.0
 10
131.585766568666
 20
135.0353406780467
 30
0.0
 10
131.7352837127259
 20
134.7872938031087
 30
0.0
 10
131.867919888908
 20
134.5192653743563
 30
0.0
 10
132.1132106874578
 20
134.4741346234995
 30
0.0
 10
132.1132106874578
 20
134.4741346234995
 30
0.0
 10
132.1132106874578
 20
135.5011175876525
 30
0.0
 10
132.1132106874578
 20
135.5011175876525
 30
0.0
 10
132.1132106874578
 20
135.5011175876525
 30
0.0
 10
132.3247395502521
 20
135.5011175876525
 30
0.0
 10
132.3247395502521
 20
135.5011175876525
 30
0.0
 10
132.3247395502521
 20
135.5011175876525
 30
0.0
 10
132.3247395502521
 20
134.1947373796458
 30
0.0
 10
132.3247395502521
 20
134.1947373796458
 30
0.0
 10
131.8537949974185
 20
134.2315999013379
 30
0.0
 10
131.6760280703796
 20
134.4741346234995
 30
0.0
 10
131.5068738820538
 20
134.7562879437415
 30
0.0
  0
HATCH
  5
EE
330
E9
100
AcDbEntity
  8
Sichtbar schmal (ANSI)
 62
   250
420
  2039067
440
 33554687
100
AcDbHatch
 10
0.0
 20
0.0
 30
0.0
210
0.0
220
0.0
230
1.0
  2
SOLID
 70
     1
 71
     1
 91
        1
 92
        1
 93
        1
 72
     4
 94
        3
 73
     0
 74
     0
 95
       41
 96
       37
 40
0.0
 40
0.0
 40
0.0
 40
0.0
 40
1.0
 40
1.0
 40
1.0
 40
2.0
 40
2.0
 40
2.0
 40
3.0
 40
3.0
 40
3.0
 40
4.0
 40
4.0
 40
4.0
 40
5.0
 40
5.0
 40
5.0
 40
6.0
 40
6.0
 40
6.0
 40
7.0
 40
7.0
 40
7.0
 40
8.0
 40
8.0
 40
8.0
 40
9.0
 40
9.0
 40
9.0
 40
10.0
 40
10.0
 40
10.0
 40
11.0
 40
11.0
 40
11.0
 40
12.0
 40
12.0
 40
12.0
 40
12.0
 10
131.5068738820538
 20
134.7562879437415
 10
131.2953450192595
 20
135.094596320393
 10
131.1768337345669
 20
135.2668510946555
 10
130.8974364907131
 20
135.2668510946555
 10
130.6803954751424
 20
135.2668510946555
 10
130.5363904838589
 20
135.0918402440048
 10
130.5363904838589
 20
134.8803113812105
 10
130.5363904838589
 20
134.6012586469052
 10
130.79305009751
 20
134.4827473622126
 10
131.0328287432834
 20
134.4910155913772
 10
131.0328287432834
 20
134.4910155913772
 10
131.0328287432834
 20
134.2512369456038
 10
131.0328287432834
 20
134.2512369456038
 10
130.6266519855725
 20
134.2284993154012
 10
130.3248616210646
 20
134.4713785471113
 10
130.3248616210646
 20
134.8944362727
 10
130.3248616210646
 20
135.2413573880646
 10
130.5281222546943
 20
135.5204101223699
 10
130.9001925671013
 20
135.5204101223699
 10
131.2529703447909
 20
135.5204101223699
 10
131.4276366858931
 20
135.2837320625332
 10
131.585766568666
 20
135.0353406780467
 10
131.7352837127259
 20
134.7872938031087
 10
131.867919888908
 20
134.5192653743563
 10
132.1132106874578
 20
134.4741346234995
 10
132.1132106874578
 20
134.4741346234995
 10
132.1132106874578
 20
135.5011175876525
 10
132.1132106874578
 20
135.5011175876525
 10
132.1132106874578
 20
135.5011175876525
 10
132.3247395502521
 20
135.5011175876525
 10
132.3247395502521
 20
135.5011175876525
 10
132.3247395502521
 20
135.5011175876525
 10
132.3247395502521
 20
134.1947373796458
 10
132.3247395502521
 20
134.1947373796458
 10
131.8537949974185
 20
134.2315999013379
 10
131.6760280703796
 20
134.4741346234995
 10
131.5068738820538
 20
134.7562879437415
 97
        0
 97
        1
330
ED
 75
     2
 76
     1
 98
        1
 10
0.0
 20
0.0
450
        0
451
        0
460
0.0
461
0.0
452
        0
462
0.0
453
        0
470

  0
SPLINE
  5
EF
330
E9
100
AcDbEntity
  8
Sichtbar schmal (ANSI)
100
AcDbSpline
210
0.0
220
0.0
230
1.0
 70
     9
 71
     3
 72
    26
 73
    22
 74
     0
 42
0.0000000001
 43
0.0000000001
 40
0.0
 40
0.0
 40
0.0
 40
0.0
 40
1.0
 40
1.0
 40
1.0
 40
2.0
 40
2.0
 40
2.0
 40
3.0
 40
3.0
 40
3.0
 40
4.0
 40
4.0
 40
4.0
 40
5.0
 40
5.0
 40
5.0
 40
6.0
 40
6.0
 40
6.0
 40
7.0
 40
7.0
 40
7.0
 40
7.0
 10
130.5842773111039
 20
136.88673499182
 30
0.0
 10
130.5842773111039
 20
136.88673499182
 30
0.0
 10
130.5842773111039
 20
135.8373589070129
 30
0.0
 10
130.5842773111039
 20
135.8373589070129
 30
0.0
 10
130.5842773111039
 20
135.8373589070129
 30
0.0
 10
130.3586235568201
 20
135.8373589070129
 30
0.0
 10
130.3586235568201
 20
135.8373589070129
 30
0.0
 10
130.3586235568201
 20
135.8373589070129
 30
0.0
 10
130.3586235568201
 20
137.1320257903697
 30
0.0
 10
130.3586235568201
 20
137.1320257903697
 30
0.0
 10
130.3586235568201
 20
137.1320257903697
 30
0.0
 10
130.564640266838
 20
137.1320257903697
 30
0.0
 10
130.564640266838
 20
137.1320257903697
 30
0.0
 10
130.9622042858358
 20
136.728605109047
 30
0.0
 10
131.7015217769704
 20
136.4016655474968
 30
0.0
 10
132.3247395502521
 20
136.3648030258046
 30
0.0
 10
132.3247395502521
 20
136.3648030258046
 30
0.0
 10
132.3247395502521
 20
136.0967745970522
 30
0.0
 10
132.3247395502521
 20
136.0967745970522
 30
0.0
 10
131.6477782874005
 20
136.141905347909
 30
0.0
 10
131.0273165905071
 20
136.4664333426195
 30
0.0
 10
130.5842773111039
 20
136.88673499182
 30
0.0
  0
HATCH
  5
F0
330
E9
100
AcDbEntity
  8
Sichtbar schmal (ANSI)
 62
   250
420
  2039067
440
 33554687
100
AcDbHatch
 10
0.0
 20
0.0
 30
0.0
210
0.0
220
0.0
230
1.0
  2
SOLID
 70
     1
 71
     1
 91
        1
 92
        1
 93
        1
 72
     4
 94
        3
 73
     0
 74
     0
 95
       26
 96
       22
 40
0.0
 40
0.0
 40
0.0
 40
0.0
 40
1.0
 40
1.0
 40
1.0
 40
2.0
 40
2.0
 40
2.0
 40
3.0
 40
3.0
 40
3.0
 40
4.0
 40
4.0
 40
4.0
 40
5.0
 40
5.0
 40
5.0
 40
6.0
 40
6.0
 40
6.0
 40
7.0
 40
7.0
 40
7.0
 40
7.0
 10
130.5842773111039
 20
136.88673499182
 10
130.5842773111039
 20
136.88673499182
 10
130.5842773111039
 20
135.8373589070129
 10
130.5842773111039
 20
135.8373589070129
 10
130.5842773111039
 20
135.8373589070129
 10
130.3586235568201
 20
135.8373589070129
 10
130.3586235568201
 20
135.8373589070129
 10
130.3586235568201
 20
135.8373589070129
 10
130.3586235568201
 20
137.1320257903697
 10
130.3586235568201
 20
137.1320257903697
 10
130.3586235568201
 20
137.1320257903697
 10
130.564640266838
 20
137.1320257903697
 10
130.564640266838
 20
137.1320257903697
 10
130.9622042858358
 20
136.728605109047
 10
131.7015217769704
 20
136.4016655474968
 10
132.3247395502521
 20
136.3648030258046
 10
132.3247395502521
 20
136.3648030258046
 10
132.3247395502521
 20
136.0967745970522
 10
132.3247395502521
 20
136.0967745970522
 10
131.6477782874005
 20
136.141905347909
 10
131.0273165905071
 20
136.4664333426195
 10
130.5842773111039
 20
136.88673499182
 97
        0
 97
        1
330
EF
 75
     2
 76
     1
 98
        1
 10
0.0
 20
0.0
450
        0
451
        0
460
0.0
461
0.0
452
        0
462
0.0
453
        0
470

  0
ENDBLK
  5
EC
330
E9
100
AcDbEntity
  8
0
100
AcDbBlockEnd
  0
BLOCK
  5
F5
330
F3
100
AcDbEntity
  8
0
100
AcDbBlockBegin
  2
Block_9
 70
     0
 10
0.0
 20
0.0
 30
0.0
  3
Block_9
  1

  0
INSERT
  5
F8
330
F3
100
AcDbEntity
  8
Sichtbar schmal (ANSI)
100
AcDbBlockReference
  2
Block_10
 10
0.0
 20
0.0
 30
0.0
  0
ENDBLK
  5
F6
330
F3
100
AcDbEntity
  8
0
100
AcDbBlockEnd
  0
BLOCK
  5
F9
330
F7
100
AcDbEntity
  8
0
100
AcDbBlockBegin
  2
Block_10
 70
     0
 10
0.0
 20
0.0
 30
0.0
  3
Block_10
  1

  0
SPLINE
  5
FB
330
F7
100
AcDbEntity
  8
Sichtbar schmal (ANSI)
100
AcDbSpline
210
0.0
220
0.0
230
1.0
 70
     9
 71
     3
 72
    41
 73
    37
 74
     0
 42
0.0000000001
 43
0.0000000001
 40
0.0
 40
0.0
 40
0.0
 40
0.0
 40
1.0
 40
1.0
 40
1.0
 40
2.0
 40
2.0
 40
2.0
 40
3.0
 40
3.0
 40
3.0
 40
4.0
 40
4.0
 40
4.0
 40
5.0
 40
5.0
 40
5.0
 40
6.0
 40
6.0
 40
6.0
 40
7.0
 40
7.0
 40
7.0
 40
8.0
 40
8.0
 40
8.0
 40
9.0
 40
9.0
 40
9.0
 40
10.0
 40
10.0
 40
10.0
 40
11.0
 40
11.0
 40
11.0
 40
12.0
 40
12.0
 40
12.0
 40
12.0
 10
141.3160942572057
 20
146.8347927150274
 30
0.0
 10
141.1045653944113
 20
147.1731010916789
 30
0.0
 10
140.9860541097187
 20
147.3453558659414
 30
0.0
 10
140.706656865865
 20
147.3453558659414
 30
0.0
 10
140.4896158502942
 20
147.3453558659414
 30
0.0
 10
140.3456108590108
 20
147.1703450152907
 30
0.0
 10
140.3456108590108
 20
146.9588161524964
 30
0.0
 10
140.3456108590108
 20
146.6794189086426
 30
0.0
 10
140.6022704726619
 20
146.56090762395
 30
0.0
 10
140.8420491184353
 20
146.5695203626632
 30
0.0
 10
140.8420491184353
 20
146.5695203626632
 30
0.0
 10
140.8420491184353
 20
146.3297417168898
 30
0.0
 10
140.8420491184353
 20
146.3297417168898
 30
0.0
 10
140.4358723607243
 20
146.3070040866871
 30
0.0
 10
140.1340819962165
 20
146.5495388088487
 30
0.0
 10
140.1340819962165
 20
146.9725965344374
 30
0.0
 10
140.1340819962165
 20
147.3198621593506
 30
0.0
 10
140.3373426298462
 20
147.5989148936558
 30
0.0
 10
140.7094129422532
 20
147.5989148936558
 30
0.0
 10
141.0621907199428
 20
147.5989148936558
 30
0.0
 10
141.2368570610449
 20
147.3618923242706
 30
0.0
 10
141.3949869438179
 20
147.1138454493326
 30
0.0
 10
141.5445040878777
 20
146.8657985743946
 30
0.0
 10
141.6771402640599
 20
146.5977701456422
 30
0.0
 10
141.9224310626097
 20
146.5522948852369
 30
0.0
 10
141.9224310626097
 20
146.5522948852369
 30
0.0
 10
141.9224310626097
 20
147.5792778493899
 30
0.0
 10
141.9224310626097
 20
147.5792778493899
 30
0.0
 10
141.9224310626097
 20
147.5792778493899
 30
0.0
 10
142.133959925404
 20
147.5792778493899
 30
0.0
 10
142.133959925404
 20
147.5792778493899
 30
0.0
 10
142.133959925404
 20
147.5792778493899
 30
0.0
 10
142.133959925404
 20
146.2732421509317
 30
0.0
 10
142.133959925404
 20
146.2732421509317
 30
0.0
 10
141.6630153725703
 20
146.3097601630753
 30
0.0
 10
141.4852484455314
 20
146.5522948852369
 30
0.0
 10
141.3160942572057
 20
146.8347927150274
 30
0.0
  0
HATCH
  5
FC
330
F7
100
AcDbEntity
  8
Sichtbar schmal (ANSI)
 62
    18
420
        0
440
 33554687
100
AcDbHatch
 10
0.0
 20
0.0
 30
0.0
210
0.0
220
0.0
230
1.0
  2
SOLID
 70
     1
 71
     1
 91
        1
 92
        1
 93
        1
 72
     4
 94
        3
 73
     0
 74
     0
 95
       41
 96
       37
 40
0.0
 40
0.0
 40
0.0
 40
0.0
 40
1.0
 40
1.0
 40
1.0
 40
2.0
 40
2.0
 40
2.0
 40
3.0
 40
3.0
 40
3.0
 40
4.0
 40
4.0
 40
4.0
 40
5.0
 40
5.0
 40
5.0
 40
6.0
 40
6.0
 40
6.0
 40
7.0
 40
7.0
 40
7.0
 40
8.0
 40
8.0
 40
8.0
 40
9.0
 40
9.0
 40
9.0
 40
10.0
 40
10.0
 40
10.0
 40
11.0
 40
11.0
 40
11.0
 40
12.0
 40
12.0
 40
12.0
 40
12.0
 10
141.3160942572057
 20
146.8347927150274
 10
141.1045653944113
 20
147.1731010916789
 10
140.9860541097187
 20
147.3453558659414
 10
140.706656865865
 20
147.3453558659414
 10
140.4896158502942
 20
147.3453558659414
 10
140.3456108590108
 20
147.1703450152907
 10
140.3456108590108
 20
146.9588161524964
 10
140.3456108590108
 20
146.6794189086426
 10
140.6022704726619
 20
146.56090762395
 10
140.8420491184353
 20
146.5695203626632
 10
140.8420491184353
 20
146.5695203626632
 10
140.8420491184353
 20
146.3297417168898
 10
140.8420491184353
 20
146.3297417168898
 10
140.4358723607243
 20
146.3070040866871
 10
140.1340819962165
 20
146.5495388088487
 10
140.1340819962165
 20
146.9725965344374
 10
140.1340819962165
 20
147.3198621593506
 10
140.3373426298462
 20
147.5989148936558
 10
140.7094129422532
 20
147.5989148936558
 10
141.0621907199428
 20
147.5989148936558
 10
141.2368570610449
 20
147.3618923242706
 10
141.3949869438179
 20
147.1138454493326
 10
141.5445040878777
 20
146.8657985743946
 10
141.6771402640599
 20
146.5977701456422
 10
141.9224310626097
 20
146.5522948852369
 10
141.9224310626097
 20
146.5522948852369
 10
141.9224310626097
 20
147.5792778493899
 10
141.9224310626097
 20
147.5792778493899
 10
141.9224310626097
 20
147.5792778493899
 10
142.133959925404
 20
147.5792778493899
 10
142.133959925404
 20
147.5792778493899
 10
142.133959925404
 20
147.5792778493899
 10
142.133959925404
 20
146.2732421509317
 10
142.133959925404
 20
146.2732421509317
 10
141.6630153725703
 20
146.3097601630753
 10
141.4852484455314
 20
146.5522948852369
 10
141.3160942572057
 20
146.8347927150274
 97
        0
 97
        1
330
FB
 75
     2
 76
     1
 98
        1
 10
0.0
 20
0.0
450
        0
451
        0
460
0.0
461
0.0
452
        0
462
0.0
453
        0
470

  0
SPLINE
  5
FD
330
F7
100
AcDbEntity
  8
Sichtbar schmal (ANSI)
100
AcDbSpline
210
0.0
220
0.0
230
1.0
 70
    11
 71
     3
 72
    17
 73
    13
 74
     0
 42
0.0000000001
 43
0.0000000001
 40
0.0
 40
0.0
 40
0.0
 40
0.0
 40
1.0
 40
1.0
 40
1.0
 40
2.0
 40
2.0
 40
2.0
 40
3.0
 40
3.0
 40
3.0
 40
4.0
 40
4.0
 40
4.0
 40
4.0
 10
141.4542425861642
 20
148.7309732701089
 30
0.0
 10
141.4542425861642
 20
148.7309732701089
 30
0.0
 10
140.4754909588047
 20
148.7309732701089
 30
0.0
 10
140.4754909588047
 20
148.7309732701089
 30
0.0
 10
140.4754909588047
 20
148.7309732701089
 30
0.0
 10
140.4754909588047
 20
148.7252888625582
 30
0.0
 10
140.4754909588047
 20
148.7252888625582
 30
0.0
 10
140.4754909588047
 20
148.7252888625582
 30
0.0
 10
141.4542425861642
 20
148.0598686695822
 30
0.0
 10
141.4542425861642
 20
148.0598686695822
 30
0.0
 10
141.4542425861642
 20
148.0598686695822
 30
0.0
 10
141.4542425861642
 20
148.7309732701089
 30
0.0
 10
141.4542425861642
 20
148.7309732701089
 30
0.0
  0
SPLINE
  5
FE
330
F7
100
AcDbEntity
  8
Sichtbar schmal (ANSI)
100
AcDbSpline
210
0.0
220
0.0
230
1.0
 70
    11
 71
     3
 72
    38
 73
    34
 74
     0
 42
0.0000000001
 43
0.0000000001
 40
0.0
 40
0.0
 40
0.0
 40
0.0
 40
1.0
 40
1.0
 40
1.0
 40
2.0
 40
2.0
 40
2.0
 40
3.0
 40
3.0
 40
3.0
 40
4.0
 40
4.0
 40
4.0
 40
5.0
 40
5.0
 40
5.0
 40
6.0
 40
6.0
 40
6.0
 40
7.0
 40
7.0
 40
7.0
 40
8.0
 40
8.0
 40
8.0
 40
9.0
 40
9.0
 40
9.0
 40
10.0
 40
10.0
 40
10.0
 40
11.0
 40
11.0
 40
11.0
 40
11.0
 10
141.4342610323497
 20
147.8538519595643
 30
0.0
 10
141.4342610323497
 20
147.8538519595643
 30
0.0
 10
140.1340819962165
 20
148.7649074606386
 30
0.0
 10
140.1340819962165
 20
148.7649074606386
 30
0.0
 10
140.1340819962165
 20
148.7649074606386
 30
0.0
 10
140.1340819962165
 20
148.9566270243928
 30
0.0
 10
140.1340819962165
 20
148.9566270243928
 30
0.0
 10
140.1340819962165
 20
148.9566270243928
 30
0.0
 10
141.4542425861642
 20
148.9566270243928
 30
0.0
 10
141.4542425861642
 20
148.9566270243928
 30
0.0
 10
141.4542425861642
 20
148.9566270243928
 30
0.0
 10
141.4542425861642
 20
149.2274115295334
 30
0.0
 10
141.4542425861642
 20
149.2274115295334
 30
0.0
 10
141.4542425861642
 20
149.2274115295334
 30
0.0
 10
141.6657714489585
 20
149.2274115295334
 30
0.0
 10
141.6657714489585
 20
149.2274115295334
 30
0.0
 10
141.6657714489585
 20
149.2274115295334
 30
0.0
 10
141.6657714489585
 20
148.9566270243928
 30
0.0
 10
141.6657714489585
 20
148.9566270243928
 30
0.0
 10
141.6657714489585
 20
148.9566270243928
 30
0.0
 10
142.133959925404
 20
148.9566270243928
 30
0.0
 10
142.133959925404
 20
148.9566270243928
 30
0.0
 10
142.133959925404
 20
148.9566270243928
 30
0.0
 10
142.133959925404
 20
148.7309732701089
 30
0.0
 10
142.133959925404
 20
148.7309732701089
 30
0.0
 10
142.133959925404
 20
148.7309732701089
 30
0.0
 10
141.6657714489585
 20
148.7309732701089
 30
0.0
 10
141.6657714489585
 20
148.7309732701089
 30
0.0
 10
141.6657714489585
 20
148.7309732701089
 30
0.0
 10
141.6657714489585
 20
147.8538519595643
 30
0.0
 10
141.6657714489585
 20
147.8538519595643
 30
0.0
 10
141.6657714489585
 20
147.8538519595643
 30
0.0
 10
141.4342610323497
 20
147.8538519595643
 30
0.0
 10
141.4342610323497
 20
147.8538519595643
 30
0.0
  0
HATCH
  5
FF
330
F7
100
AcDbEntity
  8
Sichtbar schmal (ANSI)
 62
    18
420
        0
440
 33554687
100
AcDbHatch
 10
0.0
 20
0.0
 30
0.0
210
0.0
220
0.0
230
1.0
  2
SOLID
 70
     1
 71
     1
 91
        2
 92
        1
 93
        1
 72
     4
 94
        3
 73
     0
 74
     0
 95
       17
 96
       13
 40
0.0
 40
0.0
 40
0.0
 40
0.0
 40
1.0
 40
1.0
 40
1.0
 40
2.0
 40
2.0
 40
2.0
 40
3.0
 40
3.0
 40
3.0
 40
4.0
 40
4.0
 40
4.0
 40
4.0
 10
141.4542425861642
 20
148.7309732701089
 10
141.4542425861642
 20
148.7309732701089
 10
140.4754909588047
 20
148.7309732701089
 10
140.4754909588047
 20
148.7309732701089
 10
140.4754909588047
 20
148.7309732701089
 10
140.4754909588047
 20
148.7252888625582
 10
140.4754909588047
 20
148.7252888625582
 10
140.4754909588047
 20
148.7252888625582
 10
141.4542425861642
 20
148.0598686695822
 10
141.4542425861642
 20
148.0598686695822
 10
141.4542425861642
 20
148.0598686695822
 10
141.4542425861642
 20
148.7309732701089
 10
141.4542425861642
 20
148.7309732701089
 97
        0
 97
        1
330
FD
 92
        1
 93
        1
 72
     4
 94
        3
 73
     0
 74
     0
 95
       38
 96
       34
 40
0.0
 40
0.0
 40
0.0
 40
0.0
 40
1.0
 40
1.0
 40
1.0
 40
2.0
 40
2.0
 40
2.0
 40
3.0
 40
3.0
 40
3.0
 40
4.0
 40
4.0
 40
4.0
 40
5.0
 40
5.0
 40
5.0
 40
6.0
 40
6.0
 40
6.0
 40
7.0
 40
7.0
 40
7.0
 40
8.0
 40
8.0
 40
8.0
 40
9.0
 40
9.0
 40
9.0
 40
10.0
 40
10.0
 40
10.0
 40
11.0
 40
11.0
 40
11.0
 40
11.0
 10
141.4342610323497
 20
147.8538519595643
 10
141.4342610323497
 20
147.8538519595643
 10
140.1340819962165
 20
148.7649074606386
 10
140.1340819962165
 20
148.7649074606386
 10
140.1340819962165
 20
148.7649074606386
 10
140.1340819962165
 20
148.9566270243928
 10
140.1340819962165
 20
148.9566270243928
 10
140.1340819962165
 20
148.9566270243928
 10
141.4542425861642
 20
148.9566270243928
 10
141.4542425861642
 20
148.9566270243928
 10
141.4542425861642
 20
148.9566270243928
 10
141.4542425861642
 20
149.2274115295334
 10
141.4542425861642
 20
149.2274115295334
 10
141.4542425861642
 20
149.2274115295334
 10
141.6657714489585
 20
149.2274115295334
 10
141.6657714489585
 20
149.2274115295334
 10
141.6657714489585
 20
149.2274115295334
 10
141.6657714489585
 20
148.9566270243928
 10
141.6657714489585
 20
148.9566270243928
 10
141.6657714489585
 20
148.9566270243928
 10
142.133959925404
 20
148.9566270243928
 10
142.133959925404
 20
148.9566270243928
 10
142.133959925404
 20
148.9566270243928
 10
142.133959925404
 20
148.7309732701089
 10
142.133959925404
 20
148.7309732701089
 10
142.133959925404
 20
148.7309732701089
 10
141.6657714489585
 20
148.7309732701089
 10
141.6657714489585
 20
148.7309732701089
 10
141.6657714489585
 20
148.7309732701089
 10
141.6657714489585
 20
147.8538519595643
 10
141.6657714489585
 20
147.8538519595643
 10
141.6657714489585
 20
147.8538519595643
 10
141.4342610323497
 20
147.8538519595643
 10
141.4342610323497
 20
147.8538519595643
 97
        0
 97
        1
330
FE
 75
     2
 76
     1
 98
        1
 10
0.0
 20
0.0
450
        0
451
        0
460
0.0
461
0.0
452
        0
462
0.0
453
        0
470

  0
SPLINE
  5
100
330
F7
100
AcDbEntity
  8
Sichtbar schmal (ANSI)
100
AcDbSpline
210
0.0
220
0.0
230
1.0
 70
     9
 71
     3
 72
    17
 73
    13
 74
     0
 42
0.0000000001
 43
0.0000000001
 40
0.0
 40
0.0
 40
0.0
 40
0.0
 40
1.0
 40
1.0
 40
1.0
 40
2.0
 40
2.0
 40
2.0
 40
3.0
 40
3.0
 40
3.0
 40
4.0
 40
4.0
 40
4.0
 40
4.0
 10
140.8024305203549
 20
150.497618234945
 30
0.0
 10
140.5571397218051
 20
150.497618234945
 30
0.0
 10
140.3456108590108
 20
150.3537854984358
 30
0.0
 10
140.3456108590108
 20
150.0859293244577
 30
0.0
 10
140.3456108590108
 20
149.8010199278275
 30
0.0
 10
140.5740206896829
 20
149.693705203462
 30
0.0
 10
140.8196559977812
 20
149.693705203462
 30
0.0
 10
141.0366970133519
 20
149.693705203462
 30
0.0
 10
141.2427137233699
 20
149.8573472390114
 30
0.0
 10
141.2427137233699
 20
150.0886854008459
 30
0.0
 10
141.2427137233699
 20
150.3396606069463
 30
0.0
 10
141.0394530897401
 20
150.497618234945
 30
0.0
 10
140.8024305203549
 20
150.497618234945
 30
0.0
  0
SPLINE
  5
101
330
F7
100
AcDbEntity
  8
Sichtbar schmal (ANSI)
100
AcDbSpline
210
0.0
220
0.0
230
1.0
 70
     9
 71
     3
 72
    35
 73
    31
 74
     0
 42
0.0000000001
 43
0.0000000001
 40
0.0
 40
0.0
 40
0.0
 40
0.0
 40
1.0
 40
1.0
 40
1.0
 40
2.0
 40
2.0
 40
2.0
 40
3.0
 40
3.0
 40
3.0
 40
4.0
 40
4.0
 40
4.0
 40
5.0
 40
5.0
 40
5.0
 40
6.0
 40
6.0
 40
6.0
 40
7.0
 40
7.0
 40
7.0
 40
8.0
 40
8.0
 40
8.0
 40
9.0
 40
9.0
 40
9.0
 40
10.0
 40
10.0
 40
10.0
 40
10.0
 10
141.651646557469
 20
149.721954986441
 30
0.0
 10
141.8462944523856
 20
149.7417642854812
 30
0.0
 10
141.9561929983651
 20
149.8969658370917
 30
0.0
 10
141.9561929983651
 20
150.0886854008459
 30
0.0
 10
141.9561929983651
 20
150.3820352814149
 30
0.0
 10
141.7022894611022
 20
150.5258680179241
 30
0.0
 10
141.1834580810236
 20
150.5399929094136
 30
0.0
 10
141.1834580810236
 20
150.5399929094136
 30
0.0
 10
141.1776014186986
 20
150.534308501863
 30
0.0
 10
141.1776014186986
 20
150.534308501863
 30
0.0
 10
141.3471001165729
 20
150.4440470001494
 30
0.0
 10
141.4542425861642
 20
150.2664523278848
 30
0.0
 10
141.4542425861642
 20
150.0718044329682
 30
0.0
 10
141.4542425861642
 20
149.6626993440948
 30
0.0
 10
141.1807020046353
 20
149.4399739209733
 30
0.0
 10
140.7855495524772
 20
149.4399739209733
 30
0.0
 10
140.4021104249689
 20
149.4399739209733
 30
0.0
 10
140.1340819962165
 20
149.710758426114
 30
0.0
 10
140.1340819962165
 20
150.0971258847847
 30
0.0
 10
140.1340819962165
 20
150.4695407067402
 30
0.0
 10
140.3342420439095
 20
150.7823553768009
 30
0.0
 10
141.0904405029218
 20
150.7823553768009
 30
0.0
 10
141.7815266572629
 20
150.7823553768009
 30
0.0
 10
142.1677218611594
 20
150.5739270999433
 30
0.0
 10
142.1677218611594
 20
150.0886854008459
 30
0.0
 10
142.1677218611594
 20
149.7529608458083
 30
0.0
 10
141.9958115964455
 20
149.5131822000349
 30
0.0
 10
141.651646557469
 20
149.4821763406676
 30
0.0
 10
141.651646557469
 20
149.4821763406676
 30
0.0
 10
141.651646557469
 20
149.721954986441
 30
0.0
 10
141.651646557469
 20
149.721954986441
 30
0.0
  0
HATCH
  5
102
330
F7
100
AcDbEntity
  8
Sichtbar schmal (ANSI)
 62
    18
420
        0
440
 33554687
100
AcDbHatch
 10
0.0
 20
0.0
 30
0.0
210
0.0
220
0.0
230
1.0
  2
SOLID
 70
     1
 71
     1
 91
        2
 92
        1
 93
        1
 72
     4
 94
        3
 73
     0
 74
     0
 95
       17
 96
       13
 40
0.0
 40
0.0
 40
0.0
 40
0.0
 40
1.0
 40
1.0
 40
1.0
 40
2.0
 40
2.0
 40
2.0
 40
3.0
 40
3.0
 40
3.0
 40
4.0
 40
4.0
 40
4.0
 40
4.0
 10
140.8024305203549
 20
150.497618234945
 10
140.5571397218051
 20
150.497618234945
 10
140.3456108590108
 20
150.3537854984358
 10
140.3456108590108
 20
150.0859293244577
 10
140.3456108590108
 20
149.8010199278275
 10
140.5740206896829
 20
149.693705203462
 10
140.8196559977812
 20
149.693705203462
 10
141.0366970133519
 20
149.693705203462
 10
141.2427137233699
 20
149.8573472390114
 10
141.2427137233699
 20
150.0886854008459
 10
141.2427137233699
 20
150.3396606069463
 10
141.0394530897401
 20
150.497618234945
 10
140.8024305203549
 20
150.497618234945
 97
        0
 97
        1
330
100
 92
        1
 93
        1
 72
     4
 94
        3
 73
     0
 74
     0
 95
       35
 96
       31
 40
0.0
 40
0.0
 40
0.0
 40
0.0
 40
1.0
 40
1.0
 40
1.0
 40
2.0
 40
2.0
 40
2.0
 40
3.0
 40
3.0
 40
3.0
 40
4.0
 40
4.0
 40
4.0
 40
5.0
 40
5.0
 40
5.0
 40
6.0
 40
6.0
 40
6.0
 40
7.0
 40
7.0
 40
7.0
 40
8.0
 40
8.0
 40
8.0
 40
9.0
 40
9.0
 40
9.0
 40
10.0
 40
10.0
 40
10.0
 40
10.0
 10
141.651646557469
 20
149.721954986441
 10
141.8462944523856
 20
149.7417642854812
 10
141.9561929983651
 20
149.8969658370917
 10
141.9561929983651
 20
150.0886854008459
 10
141.9561929983651
 20
150.3820352814149
 10
141.7022894611022
 20
150.5258680179241
 10
141.1834580810236
 20
150.5399929094136
 10
141.1834580810236
 20
150.5399929094136
 10
141.1776014186986
 20
150.534308501863
 10
141.1776014186986
 20
150.534308501863
 10
141.3471001165729
 20
150.4440470001494
 10
141.4542425861642
 20
150.2664523278848
 10
141.4542425861642
 20
150.0718044329682
 10
141.4542425861642
 20
149.6626993440948
 10
141.1807020046353
 20
149.4399739209733
 10
140.7855495524772
 20
149.4399739209733
 10
140.4021104249689
 20
149.4399739209733
 10
140.1340819962165
 20
149.710758426114
 10
140.1340819962165
 20
150.0971258847847
 10
140.1340819962165
 20
150.4695407067402
 10
140.3342420439095
 20
150.7823553768009
 10
141.0904405029218
 20
150.7823553768009
 10
141.7815266572629
 20
150.7823553768009
 10
142.1677218611594
 20
150.5739270999433
 10
142.1677218611594
 20
150.0886854008459
 10
142.1677218611594
 20
149.7529608458083
 10
141.9958115964455
 20
149.5131822000349
 10
141.651646557469
 20
149.4821763406676
 10
141.651646557469
 20
149.4821763406676
 10
141.651646557469
 20
149.721954986441
 10
141.651646557469
 20
149.721954986441
 97
        0
 97
        1
330
101
 75
     2
 76
     1
 98
        1
 10
0.0
 20
0.0
450
        0
451
        0
460
0.0
461
0.0
452
        0
462
0.0
453
        0
470

  0
ENDBLK
  5
FA
330
F7
100
AcDbEntity
  8
0
100
AcDbBlockEnd
  0
BLOCK
  5
105
330
103
100
AcDbEntity
  8
0
100
AcDbBlockBegin
  2
Block_11
 70
     0
 10
0.0
 20
0.0
 30
0.0
  3
Block_11
  1

  0
IMAGE
  5
109
330
103
100
AcDbEntity
  8
Sichtbar schmal (ANSI)
160
               140
310
8C00000001000000840000000600000005000000AD2A157DD25F61404BF1602DD8925F400000000000000000AD2A157DD25F61409725B0711C63654000000000000000008368B4711C6B61409725B0711C63654000000000000000008368B4711C6B61404BF1602DD8925F400000000000000000AD2A157DD25F61404BF160
310
2DD8925F400000000000000000
100
AcDbRasterImage
 90
        0
 10
138.9944444096958
 20
126.2944444128708
 30
0.0
 11
0.3527777776895833
 21
0.0
 31
0.0
 12
0.0
 22
0.3527777776895833
 32
0.0
 13
1.0
 23
127.0
340
108
 70
     3
280
     0
281
    50
282
    50
283
     0
290
     0
360
0
 71
     1
 91
        2
 14
-0.5
 24
-0.5
 14
0.5
 24
126.5
  0
INSERT
  5
10B
330
103
100
AcDbEntity
  8
Sichtbar schmal (ANSI)
100
AcDbBlockReference
  2
Block_12
 10
0.0
 20
0.0
 30
0.0
  0
ENDBLK
  5
106
330
103
100
AcDbEntity
  8
0
100
AcDbBlockEnd
  0
BLOCK
  5
10C
330
10A
100
AcDbEntity
  8
0
100
AcDbBlockBegin
  2
Block_12
 70
     0
 10
0.0
 20
0.0
 30
0.0
  3
Block_12
  1

  0
LINE
  5
10E
330
10A
100
AcDbEntity
  8
Sichtbar schmal (ANSI)
 62
    18
420
        0
370
     5
100
AcDbLine
 10
139.318164960152
 20
127.520026365825
 30
0.0
 11
139.3181541942286
 21
169.7454313065762
 31
0.0
  0
INSERT
  5
110
330
10A
100
AcDbEntity
  8
Sichtbar schmal (ANSI)
100
AcDbBlockReference
  2
Block_13
 10
0.0
 20
0.0
 30
0.0
  0
INSERT
  5
116
330
10A
100
AcDbEntity
  8
Sichtbar schmal (ANSI)
100
AcDbBlockReference
  2
Block_14
 10
0.0
 20
0.0
 30
0.0
  0
ENDBLK
  5
10D
330
10A
100
AcDbEntity
  8
0
100
AcDbBlockEnd
  0
BLOCK
  5
111
330
10F
100
AcDbEntity
  8
0
100
AcDbBlockBegin
  2
Block_13
 70
     0
 10
0.0
 20
0.0
 30
0.0
  3
Block_13
  1

  0
LWPOLYLINE
  5
113
330
10F
100
AcDbEntity
  8
Sichtbar schmal (ANSI)
100
AcDbPolyline
 90
        3
 70
     1
 43
0.0
 10
139.5394800473091
 20
128.1524813013766
 10
139.3188539792491
 20
126.4712962364214
 10
139.0968606389183
 20
128.1524813013766
  0
HATCH
  5
114
330
10F
100
AcDbEntity
  8
Sichtbar schmal (ANSI)
 62
    18
420
        0
440
 33554687
100
AcDbHatch
 10
0.0
 20
0.0
 30
0.0
210
0.0
220
0.0
230
1.0
  2
SOLID
 70
     1
 71
     1
 91
        1
 92
        1
 93
        3
 72
     1
 10
139.5394800473091
 20
128.1524813013766
 11
139.3188539792491
 21
126.4712962364214
 72
     1
 10
139.3188539792491
 20
126.4712962364214
 11
139.0968606389183
 21
128.1524813013766
 72
     1
 10
139.0968606389183
 20
128.1524813013766
 11
139.5394800473091
 21
128.1524813013766
 97
        1
330
113
 75
     2
 76
     1
 98
        1
 10
0.0
 20
0.0
450
        0
451
        0
460
0.0
461
0.0
452
        0
462
0.0
453
        0
470

  0
ENDBLK
  5
112
330
10F
100
AcDbEntity
  8
0
100
AcDbBlockEnd
  0
BLOCK
  5
117
330
115
100
AcDbEntity
  8
0
100
AcDbBlockBegin
  2
Block_14
 70
     0
 10
0.0
 20
0.0
 30
0.0
  3
Block_14
  1

  0
LWPOLYLINE
  5
119
330
115
100
AcDbEntity
  8
Sichtbar schmal (ANSI)
100
AcDbPolyline
 90
        3
 70
     1
 43
0.0
 10
139.5394585154623
 20
169.112976371025
 10
139.3188432133256
 20
170.7941506700564
 10
139.0968391070715
 20
169.112976371025
  0
HATCH
  5
11A
330
115
100
AcDbEntity
  8
Sichtbar schmal (ANSI)
 62
    18
420
        0
440
 33554687
100
AcDbHatch
 10
0.0
 20
0.0
 30
0.0
210
0.0
220
0.0
230
1.0
  2
SOLID
 70
     1
 71
     1
 91
        1
 92
        1
 93
        3
 72
     1
 10
139.5394585154623
 20
169.112976371025
 11
139.3188432133256
 21
170.7941506700564
 72
     1
 10
139.3188432133256
 20
170.7941506700564
 11
139.0968391070715
 21
169.112976371025
 72
     1
 10
139.0968391070715
 20
169.112976371025
 11
139.5394585154623
 21
169.112976371025
 97
        1
330
119
 75
     2
 76
     1
 98
        1
 10
0.0
 20
0.0
450
        0
451
        0
460
0.0
461
0.0
452
        0
462
0.0
453
        0
470

  0
ENDBLK
  5
118
330
115
100
AcDbEntity
  8
0
100
AcDbBlockEnd
  0
BLOCK
  5
11D
330
11B
100
AcDbEntity
  8
0
100
AcDbBlockBegin
  2
Block_15
 70
     0
 10
0.0
 20
0.0
 30
0.0
  3
Block_15
  1

  0
INSERT
  5
120
330
11B
100
AcDbEntity
  8
Sichtbar schmal (ANSI)
100
AcDbBlockReference
  2
Block_16
 10
0.0
 20
0.0
 30
0.0
  0
ENDBLK
  5
11E
330
11B
100
AcDbEntity
  8
0
100
AcDbBlockEnd
  0
BLOCK
  5
121
330
11F
100
AcDbEntity
  8
0
100
AcDbBlockBegin
  2
Block_16
 70
     0
 10
0.0
 20
0.0
 30
0.0
  3
Block_16
  1

  0
LINE
  5
123
330
11F
100
AcDbEntity
  8
Sichtbar schmal (ANSI)
 62
    18
420
        0
370
     5
100
AcDbLine
 10
129.3107977649813
 20
134.3428118899711
 30
0.0
 11
129.3107977649813
 21
137.1299479671552
 31
0.0
  0
INSERT
  5
125
330
11F
100
AcDbEntity
  8
Sichtbar schmal (ANSI)
100
AcDbBlockReference
  2
Block_17
 10
0.0
 20
0.0
 30
0.0
  0
INSERT
  5
12B
330
11F
100
AcDbEntity
  8
Sichtbar schmal (ANSI)
100
AcDbBlockReference
  2
Block_18
 10
0.0
 20
0.0
 30
0.0
  0
ENDBLK
  5
122
330
11F
100
AcDbEntity
  8
0
100
AcDbBlockEnd
  0
BLOCK
  5
126
330
124
100
AcDbEntity
  8
0
100
AcDbBlockBegin
  2
Block_17
 70
     0
 10
0.0
 20
0.0
 30
0.0
  3
Block_17
  1

  0
LWPOLYLINE
  5
128
330
124
100
AcDbEntity
  8
Sichtbar schmal (ANSI)
100
AcDbPolyline
 90
        3
 70
     1
 43
0.0
 10
129.5321020862151
 20
134.9752668255226
 10
129.311476018155
 20
133.2940925264909
 10
129.0894826778242
 20
134.9752668255226
  0
HATCH
  5
129
330
124
100
AcDbEntity
  8
Sichtbar schmal (ANSI)
 62
    18
420
        0
440
 33554687
100
AcDbHatch
 10
0.0
 20
0.0
 30
0.0
210
0.0
220
0.0
230
1.0
  2
SOLID
 70
     1
 71
     1
 91
        1
 92
        1
 93
        3
 72
     1
 10
129.5321020862151
 20
134.9752668255226
 11
129.311476018155
 21
133.2940925264909
 72
     1
 10
129.311476018155
 20
133.2940925264909
 11
129.0894826778242
 21
134.9752668255226
 72
     1
 10
129.0894826778242
 20
134.9752668255226
 11
129.5321020862151
 21
134.9752668255226
 97
        1
330
128
 75
     2
 76
     1
 98
        1
 10
0.0
 20
0.0
450
        0
451
        0
460
0.0
461
0.0
452
        0
462
0.0
453
        0
470

  0
ENDBLK
  5
127
330
124
100
AcDbEntity
  8
0
100
AcDbBlockEnd
  0
BLOCK
  5
12C
330
12A
100
AcDbEntity
  8
0
100
AcDbBlockBegin
  2
Block_18
 70
     0
 10
0.0
 20
0.0
 30
0.0
  3
Block_18
  1

  0
LWPOLYLINE
  5
12E
330
12A
100
AcDbEntity
  8
Sichtbar schmal (ANSI)
100
AcDbPolyline
 90
        3
 70
     1
 43
0.0
 10
129.5321020862151
 20
136.4974930316037
 10
129.3114867840784
 20
138.1786673306354
 10
129.0894826778242
 20
136.4974930316037
  0
HATCH
  5
12F
330
12A
100
AcDbEntity
  8
Sichtbar schmal (ANSI)
 62
    18
420
        0
440
 33554687
100
AcDbHatch
 10
0.0
 20
0.0
 30
0.0
210
0.0
220
0.0
230
1.0
  2
SOLID
 70
     1
 71
     1
 91
        1
 92
        1
 93
        3
 72
     1
 10
129.5321020862151
 20
136.4974930316037
 11
129.3114867840784
 21
138.1786673306354
 72
     1
 10
129.3114867840784
 20
138.1786673306354
 11
129.0894826778242
 21
136.4974930316037
 72
     1
 10
129.0894826778242
 20
136.4974930316037
 11
129.5321020862151
 21
136.4974930316037
 97
        1
330
12E
 75
     2
 76
     1
 98
        1
 10
0.0
 20
0.0
450
        0
451
        0
460
0.0
461
0.0
452
        0
462
0.0
453
        0
470

  0
ENDBLK
  5
12D
330
12A
100
AcDbEntity
  8
0
100
AcDbBlockEnd
  0
BLOCK
  5
134
330
132
100
AcDbEntity
  8
0
100
AcDbBlockBegin
  2
Block_19
 70
     0
 10
0.0
 20
0.0
 30
0.0
  3
Block_19
  1

  0
INSERT
  5
137
330
132
100
AcDbEntity
  8
Sichtbar schmal (ANSI)
100
AcDbBlockReference
  2
Block_20
 10
0.0
 20
0.0
 30
0.0
  0
ENDBLK
  5
135
330
132
100
AcDbEntity
  8
0
100
AcDbBlockEnd
  0
BLOCK
  5
138
330
136
100
AcDbEntity
  8
0
100
AcDbBlockBegin
  2
Block_20
 70
     0
 10
0.0
 20
0.0
 30
0.0
  3
Block_20
  1

  0
SPLINE
  5
13A
330
136
100
AcDbEntity
  8
Sichtbar schmal (ANSI)
100
AcDbSpline
210
0.0
220
0.0
230
1.0
 70
     9
 71
     3
 72
    41
 73
    37
 74
     0
 42
0.0000000001
 43
0.0000000001
 40
0.0
 40
0.0
 40
0.0
 40
0.0
 40
1.0
 40
1.0
 40
1.0
 40
2.0
 40
2.0
 40
2.0
 40
3.0
 40
3.0
 40
3.0
 40
4.0
 40
4.0
 40
4.0
 40
5.0
 40
5.0
 40
5.0
 40
6.0
 40
6.0
 40
6.0
 40
7.0
 40
7.0
 40
7.0
 40
8.0
 40
8.0
 40
8.0
 40
9.0
 40
9.0
 40
9.0
 40
10.0
 40
10.0
 40
10.0
 40
11.0
 40
11.0
 40
11.0
 40
12.0
 40
12.0
 40
12.0
 40
12.0
 10
131.5068738820538
 20
139.5625406552135
 30
0.0
 10
131.2953450192595
 20
139.9011935414136
 30
0.0
 10
131.1768337345669
 20
140.072759296579
 30
0.0
 10
130.8974364907131
 20
140.072759296579
 30
0.0
 10
130.6803954751424
 20
140.072759296579
 30
0.0
 10
130.5363904838589
 20
139.8980929554769
 30
0.0
 10
130.5363904838589
 20
139.6865640926825
 30
0.0
 10
130.5363904838589
 20
139.4071668488288
 30
0.0
 10
130.79305009751
 20
139.2886555641362
 30
0.0
 10
131.0328287432834
 20
139.2972683028493
 30
0.0
 10
131.0328287432834
 20
139.2972683028493
 30
0.0
 10
131.0328287432834
 20
139.0578341666244
 30
0.0
 10
131.0328287432834
 20
139.0578341666244
 30
0.0
 10
130.6266519855725
 20
139.0350965364218
 30
0.0
 10
130.3248616210646
 20
139.2776312585833
 30
0.0
 10
130.3248616210646
 20
139.700688984172
 30
0.0
 10
130.3248616210646
 20
140.0476100995367
 30
0.0
 10
130.5281222546943
 20
140.3270073433905
 30
0.0
 10
130.9001925671013
 20
140.3270073433905
 30
0.0
 10
131.2529703447909
 20
140.3270073433905
 30
0.0
 10
131.4276366858931
 20
140.0899847740053
 30
0.0
 10
131.585766568666
 20
139.8419378990673
 30
0.0
 10
131.7352837127259
 20
139.5935465145808
 30
0.0
 10
131.867919888908
 20
139.3255180858283
 30
0.0
 10
132.1132106874578
 20
139.2803873349716
 30
0.0
 10
132.1132106874578
 20
139.2803873349716
 30
0.0
 10
132.1132106874578
 20
140.307025789576
 30
0.0
 10
132.1132106874578
 20
140.307025789576
 30
0.0
 10
132.1132106874578
 20
140.307025789576
 30
0.0
 10
132.3247395502521
 20
140.307025789576
 30
0.0
 10
132.3247395502521
 20
140.307025789576
 30
0.0
 10
132.3247395502521
 20
140.307025789576
 30
0.0
 10
132.3247395502521
 20
139.0013346006663
 30
0.0
 10
132.3247395502521
 20
139.0013346006663
 30
0.0
 10
131.8537949974185
 20
139.03785261281
 30
0.0
 10
131.6760280703796
 20
139.2803873349716
 30
0.0
 10
131.5068738820538
 20
139.5625406552135
 30
0.0
  0
HATCH
  5
13B
330
136
100
AcDbEntity
  8
Sichtbar schmal (ANSI)
 62
   250
420
  2039067
440
 33554687
100
AcDbHatch
 10
0.0
 20
0.0
 30
0.0
210
0.0
220
0.0
230
1.0
  2
SOLID
 70
     1
 71
     1
 91
        1
 92
        1
 93
        1
 72
     4
 94
        3
 73
     0
 74
     0
 95
       41
 96
       37
 40
0.0
 40
0.0
 40
0.0
 40
0.0
 40
1.0
 40
1.0
 40
1.0
 40
2.0
 40
2.0
 40
2.0
 40
3.0
 40
3.0
 40
3.0
 40
4.0
 40
4.0
 40
4.0
 40
5.0
 40
5.0
 40
5.0
 40
6.0
 40
6.0
 40
6.0
 40
7.0
 40
7.0
 40
7.0
 40
8.0
 40
8.0
 40
8.0
 40
9.0
 40
9.0
 40
9.0
 40
10.0
 40
10.0
 40
10.0
 40
11.0
 40
11.0
 40
11.0
 40
12.0
 40
12.0
 40
12.0
 40
12.0
 10
131.5068738820538
 20
139.5625406552135
 10
131.2953450192595
 20
139.9011935414136
 10
131.1768337345669
 20
140.072759296579
 10
130.8974364907131
 20
140.072759296579
 10
130.6803954751424
 20
140.072759296579
 10
130.5363904838589
 20
139.8980929554769
 10
130.5363904838589
 20
139.6865640926825
 10
130.5363904838589
 20
139.4071668488288
 10
130.79305009751
 20
139.2886555641362
 10
131.0328287432834
 20
139.2972683028493
 10
131.0328287432834
 20
139.2972683028493
 10
131.0328287432834
 20
139.0578341666244
 10
131.0328287432834
 20
139.0578341666244
 10
130.6266519855725
 20
139.0350965364218
 10
130.3248616210646
 20
139.2776312585833
 10
130.3248616210646
 20
139.700688984172
 10
130.3248616210646
 20
140.0476100995367
 10
130.5281222546943
 20
140.3270073433905
 10
130.9001925671013
 20
140.3270073433905
 10
131.2529703447909
 20
140.3270073433905
 10
131.4276366858931
 20
140.0899847740053
 10
131.585766568666
 20
139.8419378990673
 10
131.7352837127259
 20
139.5935465145808
 10
131.867919888908
 20
139.3255180858283
 10
132.1132106874578
 20
139.2803873349716
 10
132.1132106874578
 20
139.2803873349716
 10
132.1132106874578
 20
140.307025789576
 10
132.1132106874578
 20
140.307025789576
 10
132.1132106874578
 20
140.307025789576
 10
132.3247395502521
 20
140.307025789576
 10
132.3247395502521
 20
140.307025789576
 10
132.3247395502521
 20
140.307025789576
 10
132.3247395502521
 20
139.0013346006663
 10
132.3247395502521
 20
139.0013346006663
 10
131.8537949974185
 20
139.03785261281
 10
131.6760280703796
 20
139.2803873349716
 10
131.5068738820538
 20
139.5625406552135
 97
        0
 97
        1
330
13A
 75
     2
 76
     1
 98
        1
 10
0.0
 20
0.0
450
        0
451
        0
460
0.0
461
0.0
452
        0
462
0.0
453
        0
470

  0
SPLINE
  5
13C
330
136
100
AcDbEntity
  8
Sichtbar schmal (ANSI)
100
AcDbSpline
210
0.0
220
0.0
230
1.0
 70
     9
 71
     3
 72
    41
 73
    37
 74
     0
 42
0.0000000001
 43
0.0000000001
 40
0.0
 40
0.0
 40
0.0
 40
0.0
 40
1.0
 40
1.0
 40
1.0
 40
2.0
 40
2.0
 40
2.0
 40
3.0
 40
3.0
 40
3.0
 40
4.0
 40
4.0
 40
4.0
 40
5.0
 40
5.0
 40
5.0
 40
6.0
 40
6.0
 40
6.0
 40
7.0
 40
7.0
 40
7.0
 40
8.0
 40
8.0
 40
8.0
 40
9.0
 40
9.0
 40
9.0
 40
10.0
 40
10.0
 40
10.0
 40
11.0
 40
11.0
 40
11.0
 40
12.0
 40
12.0
 40
12.0
 40
12.0
 10
131.5068738820538
 20
141.1317816487448
 30
0.0
 10
131.2953450192595
 20
141.4700900253963
 30
0.0
 10
131.1768337345669
 20
141.6423447996588
 30
0.0
 10
130.8974364907131
 20
141.6423447996588
 30
0.0
 10
130.6803954751424
 20
141.6423447996588
 30
0.0
 10
130.5363904838589
 20
141.4673339490082
 30
0.0
 10
130.5363904838589
 20
141.2558050862138
 30
0.0
 10
130.5363904838589
 20
140.97640784236
 30
0.0
 10
130.79305009751
 20
140.8578965576675
 30
0.0
 10
131.0328287432834
 20
140.8665092963806
 30
0.0
 10
131.0328287432834
 20
140.8665092963806
 30
0.0
 10
131.0328287432834
 20
140.6267306506072
 30
0.0
 10
131.0328287432834
 20
140.6267306506072
 30
0.0
 10
130.6266519855725
 20
140.6039930204046
 30
0.0
 10
130.3248616210646
 20
140.8465277425661
 30
0.0
 10
130.3248616210646
 20
141.2695854681548
 30
0.0
 10
130.3248616210646
 20
141.616851093068
 30
0.0
 10
130.5281222546943
 20
141.8959038273732
 30
0.0
 10
130.9001925671013
 20
141.8959038273732
 30
0.0
 10
131.2529703447909
 20
141.8959038273732
 30
0.0
 10
131.4276366858931
 20
141.658881257988
 30
0.0
 10
131.585766568666
 20
141.4108343830501
 30
0.0
 10
131.7352837127259
 20
141.1627875081121
 30
0.0
 10
131.867919888908
 20
140.8947590793596
 30
0.0
 10
132.1132106874578
 20
140.8492838189543
 30
0.0
 10
132.1132106874578
 20
140.8492838189543
 30
0.0
 10
132.1132106874578
 20
141.8762667831073
 30
0.0
 10
132.1132106874578
 20
141.8762667831073
 30
0.0
 10
132.1132106874578
 20
141.8762667831073
 30
0.0
 10
132.3247395502521
 20
141.8762667831073
 30
0.0
 10
132.3247395502521
 20
141.8762667831073
 30
0.0
 10
132.3247395502521
 20
141.8762667831073
 30
0.0
 10
132.3247395502521
 20
140.5702310846491
 30
0.0
 10
132.3247395502521
 20
140.5702310846491
 30
0.0
 10
131.8537949974185
 20
140.6067490967927
 30
0.0
 10
131.6760280703796
 20
140.8492838189543
 30
0.0
 10
131.5068738820538
 20
141.1317816487448
 30
0.0
  0
HATCH
  5
13D
330
136
100
AcDbEntity
  8
Sichtbar schmal (ANSI)
 62
   250
420
  2039067
440
 33554687
100
AcDbHatch
 10
0.0
 20
0.0
 30
0.0
210
0.0
220
0.0
230
1.0
  2
SOLID
 70
     1
 71
     1
 91
        1
 92
        1
 93
        1
 72
     4
 94
        3
 73
     0
 74
     0
 95
       41
 96
       37
 40
0.0
 40
0.0
 40
0.0
 40
0.0
 40
1.0
 40
1.0
 40
1.0
 40
2.0
 40
2.0
 40
2.0
 40
3.0
 40
3.0
 40
3.0
 40
4.0
 40
4.0
 40
4.0
 40
5.0
 40
5.0
 40
5.0
 40
6.0
 40
6.0
 40
6.0
 40
7.0
 40
7.0
 40
7.0
 40
8.0
 40
8.0
 40
8.0
 40
9.0
 40
9.0
 40
9.0
 40
10.0
 40
10.0
 40
10.0
 40
11.0
 40
11.0
 40
11.0
 40
12.0
 40
12.0
 40
12.0
 40
12.0
 10
131.5068738820538
 20
141.1317816487448
 10
131.2953450192595
 20
141.4700900253963
 10
131.1768337345669
 20
141.6423447996588
 10
130.8974364907131
 20
141.6423447996588
 10
130.6803954751424
 20
141.6423447996588
 10
130.5363904838589
 20
141.4673339490082
 10
130.5363904838589
 20
141.2558050862138
 10
130.5363904838589
 20
140.97640784236
 10
130.79305009751
 20
140.8578965576675
 10
131.0328287432834
 20
140.8665092963806
 10
131.0328287432834
 20
140.8665092963806
 10
131.0328287432834
 20
140.6267306506072
 10
131.0328287432834
 20
140.6267306506072
 10
130.6266519855725
 20
140.6039930204046
 10
130.3248616210646
 20
140.8465277425661
 10
130.3248616210646
 20
141.2695854681548
 10
130.3248616210646
 20
141.616851093068
 10
130.5281222546943
 20
141.8959038273732
 10
130.9001925671013
 20
141.8959038273732
 10
131.2529703447909
 20
141.8959038273732
 10
131.4276366858931
 20
141.658881257988
 10
131.585766568666
 20
141.4108343830501
 10
131.7352837127259
 20
141.1627875081121
 10
131.867919888908
 20
140.8947590793596
 10
132.1132106874578
 20
140.8492838189543
 10
132.1132106874578
 20
140.8492838189543
 10
132.1132106874578
 20
141.8762667831073
 10
132.1132106874578
 20
141.8762667831073
 10
132.1132106874578
 20
141.8762667831073
 10
132.3247395502521
 20
141.8762667831073
 10
132.3247395502521
 20
141.8762667831073
 10
132.3247395502521
 20
141.8762667831073
 10
132.3247395502521
 20
140.5702310846491
 10
132.3247395502521
 20
140.5702310846491
 10
131.8537949974185
 20
140.6067490967927
 10
131.6760280703796
 20
140.8492838189543
 10
131.5068738820538
 20
141.1317816487448
 97
        0
 97
        1
330
13C
 75
     2
 76
     1
 98
        1
 10
0.0
 20
0.0
450
        0
451
        0
460
0.0
461
0.0
452
        0
462
0.0
453
        0
470

  0
ENDBLK
  5
139
330
136
100
AcDbEntity
  8
0
100
AcDbBlockEnd
  0
BLOCK
  5
140
330
13E
100
AcDbEntity
  8
0
100
AcDbBlockBegin
  2
Block_21
 70
     0
 10
0.0
 20
0.0
 30
0.0
  3
Block_21
  1

  0
INSERT
  5
143
330
13E
100
AcDbEntity
  8
Sichtbar schmal (ANSI)
100
AcDbBlockReference
  2
Block_22
 10
0.0
 20
0.0
 30
0.0
  0
ENDBLK
  5
141
330
13E
100
AcDbEntity
  8
0
100
AcDbBlockEnd
  0
BLOCK
  5
144
330
142
100
AcDbEntity
  8
0
100
AcDbBlockBegin
  2
Block_22
 70
     0
 10
0.0
 20
0.0
 30
0.0
  3
Block_22
  1

  0
LINE
  5
146
330
142
100
AcDbEntity
  8
Sichtbar schmal (ANSI)
 62
    18
420
        0
370
     5
100
AcDbLine
 10
129.3107977649813
 20
139.6011795542653
 30
0.0
 11
129.3107977649813
 21
141.4837627481034
 31
0.0
  0
INSERT
  5
148
330
142
100
AcDbEntity
  8
Sichtbar schmal (ANSI)
100
AcDbBlockReference
  2
Block_23
 10
0.0
 20
0.0
 30
0.0
  0
INSERT
  5
14E
330
142
100
AcDbEntity
  8
Sichtbar schmal (ANSI)
100
AcDbBlockReference
  2
Block_24
 10
0.0
 20
0.0
 30
0.0
  0
ENDBLK
  5
145
330
142
100
AcDbEntity
  8
0
100
AcDbBlockEnd
  0
BLOCK
  5
149
330
147
100
AcDbEntity
  8
0
100
AcDbBlockBegin
  2
Block_23
 70
     0
 10
0.0
 20
0.0
 30
0.0
  3
Block_23
  1

  0
LWPOLYLINE
  5
14B
330
147
100
AcDbEntity
  8
Sichtbar schmal (ANSI)
100
AcDbPolyline
 90
        3
 70
     1
 43
0.0
 10
129.5321020862151
 20
140.2336344898168
 10
129.311476018155
 20
138.552460190785
 10
129.0894826778242
 20
140.2336344898168
  0
HATCH
  5
14C
330
147
100
AcDbEntity
  8
Sichtbar schmal (ANSI)
 62
    18
420
        0
440
 33554687
100
AcDbHatch
 10
0.0
 20
0.0
 30
0.0
210
0.0
220
0.0
230
1.0
  2
SOLID
 70
     1
 71
     1
 91
        1
 92
        1
 93
        3
 72
     1
 10
129.5321020862151
 20
140.2336344898168
 11
129.311476018155
 21
138.552460190785
 72
     1
 10
129.311476018155
 20
138.552460190785
 11
129.0894826778242
 21
140.2336344898168
 72
     1
 10
129.0894826778242
 20
140.2336344898168
 11
129.5321020862151
 21
140.2336344898168
 97
        1
330
14B
 75
     2
 76
     1
 98
        1
 10
0.0
 20
0.0
450
        0
451
        0
460
0.0
461
0.0
452
        0
462
0.0
453
        0
470

  0
ENDBLK
  5
14A
330
147
100
AcDbEntity
  8
0
100
AcDbBlockEnd
  0
BLOCK
  5
14F
330
14D
100
AcDbEntity
  8
0
100
AcDbBlockBegin
  2
Block_24
 70
     0
 10
0.0
 20
0.0
 30
0.0
  3
Block_24
  1

  0
LWPOLYLINE
  5
151
330
14D
100
AcDbEntity
  8
Sichtbar schmal (ANSI)
100
AcDbPolyline
 90
        3
 70
     1
 43
0.0
 10
129.5321020862151
 20
140.8513078125519
 10
129.3114867840784
 20
142.5324821115836
 10
129.0894826778242
 20
140.8513078125519
  0
HATCH
  5
152
330
14D
100
AcDbEntity
  8
Sichtbar schmal (ANSI)
 62
    18
420
        0
440
 33554687
100
AcDbHatch
 10
0.0
 20
0.0
 30
0.0
210
0.0
220
0.0
230
1.0
  2
SOLID
 70
     1
 71
     1
 91
        1
 92
        1
 93
        3
 72
     1
 10
129.5321020862151
 20
140.8513078125519
 11
129.3114867840784
 21
142.5324821115836
 72
     1
 10
129.3114867840784
 20
142.5324821115836
 11
129.0894826778242
 21
140.8513078125519
 72
     1
 10
129.0894826778242
 20
140.8513078125519
 11
129.5321020862151
 21
140.8513078125519
 97
        1
330
151
 75
     2
 76
     1
 98
        1
 10
0.0
 20
0.0
450
        0
451
        0
460
0.0
461
0.0
452
        0
462
0.0
453
        0
470

  0
ENDBLK
  5
150
330
14D
100
AcDbEntity
  8
0
100
AcDbBlockEnd
  0
BLOCK
  5
157
330
155
100
AcDbEntity
  8
0
100
AcDbBlockBegin
  2
Block_25
 70
     0
 10
0.0
 20
0.0
 30
0.0
  3
Block_25
  1

  0
INSERT
  5
15A
330
155
100
AcDbEntity
  8
Sichtbar schmal (ANSI)
100
AcDbBlockReference
  2
Block_26
 10
0.0
 20
0.0
 30
0.0
  0
ENDBLK
  5
158
330
155
100
AcDbEntity
  8
0
100
AcDbBlockEnd
  0
BLOCK
  5
15B
330
159
100
AcDbEntity
  8
0
100
AcDbBlockBegin
  2
Block_26
 70
     0
 10
0.0
 20
0.0
 30
0.0
  3
Block_26
  1

  0
SPLINE
  5
15D
330
159
100
AcDbEntity
  8
Sichtbar schmal (ANSI)
100
AcDbSpline
210
0.0
220
0.0
230
1.0
 70
     9
 71
     3
 72
    41
 73
    37
 74
     0
 42
0.0000000001
 43
0.0000000001
 40
0.0
 40
0.0
 40
0.0
 40
0.0
 40
1.0
 40
1.0
 40
1.0
 40
2.0
 40
2.0
 40
2.0
 40
3.0
 40
3.0
 40
3.0
 40
4.0
 40
4.0
 40
4.0
 40
5.0
 40
5.0
 40
5.0
 40
6.0
 40
6.0
 40
6.0
 40
7.0
 40
7.0
 40
7.0
 40
8.0
 40
8.0
 40
8.0
 40
9.0
 40
9.0
 40
9.0
 40
10.0
 40
10.0
 40
10.0
 40
11.0
 40
11.0
 40
11.0
 40
12.0
 40
12.0
 40
12.0
 40
12.0
 10
91.61335718195777
 20
114.4440049627084
 30
0.0
 10
91.95183781338357
 20
114.6555338255028
 30
0.0
 10
92.12374807809753
 20
114.7740451101954
 30
0.0
 10
92.12374807809753
 20
115.0534423540491
 30
0.0
 10
92.12374807809753
 20
115.2704833696199
 30
0.0
 10
91.94890948222111
 20
115.4144883609033
 30
0.0
 10
91.73738061942676
 20
115.4144883609033
 30
0.0
 10
91.45815563034727
 20
115.4144883609033
 30
0.0
 10
91.33964434565468
 20
115.1578287472522
 30
0.0
 10
91.34808482959353
 20
114.9180501014788
 30
0.0
 10
91.34808482959353
 20
114.9180501014788
 30
0.0
 10
91.10847843859442
 20
114.9180501014788
 30
0.0
 10
91.10847843859442
 20
114.9180501014788
 30
0.0
 10
91.08574080839176
 20
115.3242268591897
 30
0.0
 10
91.32844778532762
 20
115.6260172236976
 30
0.0
 10
91.75150551091629
 20
115.6260172236976
 30
0.0
 10
92.09842662628096
 20
115.6260172236976
 30
0.0
 10
92.37765161536044
 20
115.4227565900679
 30
0.0
 10
92.37765161536044
 20
115.0506862776609
 30
0.0
 10
92.37765161536044
 20
114.6979084999713
 30
0.0
 10
92.14080130074952
 20
114.5232421588692
 30
0.0
 10
91.89258217103727
 20
114.3651122760962
 30
0.0
 10
91.64436304132502
 20
114.2155951320364
 30
0.0
 10
91.37633461257259
 20
114.0829589558542
 30
0.0
 10
91.33120386171581
 20
113.8376681573044
 30
0.0
 10
91.33120386171581
 20
113.8376681573044
 30
0.0
 10
92.35801457109452
 20
113.8376681573044
 30
0.0
 10
92.35801457109452
 20
113.8376681573044
 30
0.0
 10
92.35801457109452
 20
113.8376681573044
 30
0.0
 10
92.35801457109452
 20
113.6261392945101
 30
0.0
 10
92.35801457109452
 20
113.6261392945101
 30
0.0
 10
92.35801457109452
 20
113.6261392945101
 30
0.0
 10
91.05197887263631
 20
113.6261392945101
 30
0.0
 10
91.05197887263631
 20
113.6261392945101
 30
0.0
 10
91.08866913955422
 20
114.0970838473438
 30
0.0
 10
91.33120386171581
 20
114.2748507743827
 30
0.0
 10
91.61335718195777
 20
114.4440049627084
 30
0.0
  0
HATCH
  5
15E
330
159
100
AcDbEntity
  8
Sichtbar schmal (ANSI)
 62
   250
420
  2039067
440
 33554687
100
AcDbHatch
 10
0.0
 20
0.0
 30
0.0
210
0.0
220
0.0
230
1.0
  2
SOLID
 70
     1
 71
     1
 91
        1
 92
        1
 93
        1
 72
     4
 94
        3
 73
     0
 74
     0
 95
       41
 96
       37
 40
0.0
 40
0.0
 40
0.0
 40
0.0
 40
1.0
 40
1.0
 40
1.0
 40
2.0
 40
2.0
 40
2.0
 40
3.0
 40
3.0
 40
3.0
 40
4.0
 40
4.0
 40
4.0
 40
5.0
 40
5.0
 40
5.0
 40
6.0
 40
6.0
 40
6.0
 40
7.0
 40
7.0
 40
7.0
 40
8.0
 40
8.0
 40
8.0
 40
9.0
 40
9.0
 40
9.0
 40
10.0
 40
10.0
 40
10.0
 40
11.0
 40
11.0
 40
11.0
 40
12.0
 40
12.0
 40
12.0
 40
12.0
 10
91.61335718195777
 20
114.4440049627084
 10
91.95183781338357
 20
114.6555338255028
 10
92.12374807809753
 20
114.7740451101954
 10
92.12374807809753
 20
115.0534423540491
 10
92.12374807809753
 20
115.2704833696199
 10
91.94890948222111
 20
115.4144883609033
 10
91.73738061942676
 20
115.4144883609033
 10
91.45815563034727
 20
115.4144883609033
 10
91.33964434565468
 20
115.1578287472522
 10
91.34808482959353
 20
114.9180501014788
 10
91.34808482959353
 20
114.9180501014788
 10
91.10847843859442
 20
114.9180501014788
 10
91.10847843859442
 20
114.9180501014788
 10
91.08574080839176
 20
115.3242268591897
 10
91.32844778532762
 20
115.6260172236976
 10
91.75150551091629
 20
115.6260172236976
 10
92.09842662628096
 20
115.6260172236976
 10
92.37765161536044
 20
115.4227565900679
 10
92.37765161536044
 20
115.0506862776609
 10
92.37765161536044
 20
114.6979084999713
 10
92.14080130074952
 20
114.5232421588692
 10
91.89258217103727
 20
114.3651122760962
 10
91.64436304132502
 20
114.2155951320364
 10
91.37633461257259
 20
114.0829589558542
 10
91.33120386171581
 20
113.8376681573044
 10
91.33120386171581
 20
113.8376681573044
 10
92.35801457109452
 20
113.8376681573044
 10
92.35801457109452
 20
113.8376681573044
 10
92.35801457109452
 20
113.8376681573044
 10
92.35801457109452
 20
113.6261392945101
 10
92.35801457109452
 20
113.6261392945101
 10
92.35801457109452
 20
113.6261392945101
 10
91.05197887263631
 20
113.6261392945101
 10
91.05197887263631
 20
113.6261392945101
 10
91.08866913955422
 20
114.0970838473438
 10
91.33120386171581
 20
114.2748507743827
 10
91.61335718195777
 20
114.4440049627084
 97
        0
 97
        1
330
15D
 75
     2
 76
     1
 98
        1
 10
0.0
 20
0.0
450
        0
451
        0
460
0.0
461
0.0
452
        0
462
0.0
453
        0
470

  0
SPLINE
  5
15F
330
159
100
AcDbEntity
  8
Sichtbar schmal (ANSI)
100
AcDbSpline
210
0.0
220
0.0
230
1.0
 70
     9
 71
     3
 72
    17
 73
    13
 74
     0
 42
0.0000000001
 43
0.0000000001
 40
0.0
 40
0.0
 40
0.0
 40
0.0
 40
1.0
 40
1.0
 40
1.0
 40
2.0
 40
2.0
 40
2.0
 40
3.0
 40
3.0
 40
3.0
 40
4.0
 40
4.0
 40
4.0
 40
4.0
 10
93.7069417083441
 20
114.9576686995592
 30
0.0
 10
93.7069417083441
 20
115.202959498109
 30
0.0
 10
93.56310897183492
 20
115.4144883609033
 30
0.0
 10
93.29525279785675
 20
115.4144883609033
 30
0.0
 10
93.0103434012266
 20
115.4144883609033
 30
0.0
 10
92.90302867686106
 20
115.1860785302312
 30
0.0
 10
92.90302867686106
 20
114.9404432221329
 30
0.0
 10
92.90302867686106
 20
114.7234022065622
 30
0.0
 10
93.06667071241042
 20
114.5173854965442
 30
0.0
 10
93.29800887424495
 20
114.5173854965442
 30
0.0
 10
93.54898408034539
 20
114.5173854965442
 30
0.0
 10
93.7069417083441
 20
114.720646130174
 30
0.0
 10
93.7069417083441
 20
114.9576686995592
 30
0.0
  0
SPLINE
  5
160
330
159
100
AcDbEntity
  8
Sichtbar schmal (ANSI)
100
AcDbSpline
210
0.0
220
0.0
230
1.0
 70
     9
 71
     3
 72
    35
 73
    31
 74
     0
 42
0.0000000001
 43
0.0000000001
 40
0.0
 40
0.0
 40
0.0
 40
0.0
 40
1.0
 40
1.0
 40
1.0
 40
2.0
 40
2.0
 40
2.0
 40
3.0
 40
3.0
 40
3.0
 40
4.0
 40
4.0
 40
4.0
 40
5.0
 40
5.0
 40
5.0
 40
6.0
 40
6.0
 40
6.0
 40
7.0
 40
7.0
 40
7.0
 40
8.0
 40
8.0
 40
8.0
 40
9.0
 40
9.0
 40
9.0
 40
10.0
 40
10.0
 40
10.0
 40
10.0
 10
92.9312784598401
 20
114.1084526624451
 30
0.0
 10
92.9510877588803
 20
113.9138047675285
 30
0.0
 10
93.10628931049079
 20
113.803906221549
 30
0.0
 10
93.29800887424495
 20
113.803906221549
 30
0.0
 10
93.59135875481397
 20
113.803906221549
 30
0.0
 10
93.73519149132315
 20
114.0578097588119
 30
0.0
 10
93.74931638281267
 20
114.5766411388905
 30
0.0
 10
93.74931638281267
 20
114.5766411388905
 30
0.0
 10
93.74363197526202
 20
114.5824978012155
 30
0.0
 10
93.74363197526202
 20
114.5824978012155
 30
0.0
 10
93.65337047354847
 20
114.4129991033412
 30
0.0
 10
93.47577580128385
 20
114.3058566337499
 30
0.0
 10
93.28112790636721
 20
114.3058566337499
 30
0.0
 10
92.8720228174938
 20
114.3058566337499
 30
0.0
 10
92.6492973943724
 20
114.5793972152787
 30
0.0
 10
92.6492973943724
 20
114.9745496674369
 30
0.0
 10
92.6492973943724
 20
115.3579887949452
 30
0.0
 10
92.92008189951303
 20
115.6260172236976
 30
0.0
 10
93.30644935818382
 20
115.6260172236976
 30
0.0
 10
93.67886418013931
 20
115.6260172236976
 30
0.0
 10
93.99185110497425
 20
115.4258571760046
 30
0.0
 10
93.99185110497425
 20
114.6696587169923
 30
0.0
 10
93.99185110497425
 20
113.9785725626512
 30
0.0
 10
93.78325057334238
 20
113.5923773587547
 30
0.0
 10
93.29800887424495
 20
113.5923773587547
 30
0.0
 10
92.96228431920736
 20
113.5923773587547
 30
0.0
 10
92.72250567343396
 20
113.7642876234686
 30
0.0
 10
92.69149981406672
 20
114.1084526624451
 30
0.0
 10
92.69149981406672
 20
114.1084526624451
 30
0.0
 10
92.9312784598401
 20
114.1084526624451
 30
0.0
 10
92.9312784598401
 20
114.1084526624451
 30
0.0
  0
HATCH
  5
161
330
159
100
AcDbEntity
  8
Sichtbar schmal (ANSI)
 62
   250
420
  2039067
440
 33554687
100
AcDbHatch
 10
0.0
 20
0.0
 30
0.0
210
0.0
220
0.0
230
1.0
  2
SOLID
 70
     1
 71
     1
 91
        2
 92
        1
 93
        1
 72
     4
 94
        3
 73
     0
 74
     0
 95
       17
 96
       13
 40
0.0
 40
0.0
 40
0.0
 40
0.0
 40
1.0
 40
1.0
 40
1.0
 40
2.0
 40
2.0
 40
2.0
 40
3.0
 40
3.0
 40
3.0
 40
4.0
 40
4.0
 40
4.0
 40
4.0
 10
93.7069417083441
 20
114.9576686995592
 10
93.7069417083441
 20
115.202959498109
 10
93.56310897183492
 20
115.4144883609033
 10
93.29525279785675
 20
115.4144883609033
 10
93.0103434012266
 20
115.4144883609033
 10
92.90302867686106
 20
115.1860785302312
 10
92.90302867686106
 20
114.9404432221329
 10
92.90302867686106
 20
114.7234022065622
 10
93.06667071241042
 20
114.5173854965442
 10
93.29800887424495
 20
114.5173854965442
 10
93.54898408034539
 20
114.5173854965442
 10
93.7069417083441
 20
114.720646130174
 10
93.7069417083441
 20
114.9576686995592
 97
        0
 97
        1
330
15F
 92
        1
 93
        1
 72
     4
 94
        3
 73
     0
 74
     0
 95
       35
 96
       31
 40
0.0
 40
0.0
 40
0.0
 40
0.0
 40
1.0
 40
1.0
 40
1.0
 40
2.0
 40
2.0
 40
2.0
 40
3.0
 40
3.0
 40
3.0
 40
4.0
 40
4.0
 40
4.0
 40
5.0
 40
5.0
 40
5.0
 40
6.0
 40
6.0
 40
6.0
 40
7.0
 40
7.0
 40
7.0
 40
8.0
 40
8.0
 40
8.0
 40
9.0
 40
9.0
 40
9.0
 40
10.0
 40
10.0
 40
10.0
 40
10.0
 10
92.9312784598401
 20
114.1084526624451
 10
92.9510877588803
 20
113.9138047675285
 10
93.10628931049079
 20
113.803906221549
 10
93.29800887424495
 20
113.803906221549
 10
93.59135875481397
 20
113.803906221549
 10
93.73519149132315
 20
114.0578097588119
 10
93.74931638281267
 20
114.5766411388905
 10
93.74931638281267
 20
114.5766411388905
 10
93.74363197526202
 20
114.5824978012155
 10
93.74363197526202
 20
114.5824978012155
 10
93.65337047354847
 20
114.4129991033412
 10
93.47577580128385
 20
114.3058566337499
 10
93.28112790636721
 20
114.3058566337499
 10
92.8720228174938
 20
114.3058566337499
 10
92.6492973943724
 20
114.5793972152787
 10
92.6492973943724
 20
114.9745496674369
 10
92.6492973943724
 20
115.3579887949452
 10
92.92008189951303
 20
115.6260172236976
 10
93.30644935818382
 20
115.6260172236976
 10
93.67886418013931
 20
115.6260172236976
 10
93.99185110497425
 20
115.4258571760046
 10
93.99185110497425
 20
114.6696587169923
 10
93.99185110497425
 20
113.9785725626512
 10
93.78325057334238
 20
113.5923773587547
 10
93.29800887424495
 20
113.5923773587547
 10
92.96228431920736
 20
113.5923773587547
 10
92.72250567343396
 20
113.7642876234686
 10
92.69149981406672
 20
114.1084526624451
 10
92.69149981406672
 20
114.1084526624451
 10
92.9312784598401
 20
114.1084526624451
 10
92.9312784598401
 20
114.1084526624451
 97
        0
 97
        1
330
160
 75
     2
 76
     1
 98
        1
 10
0.0
 20
0.0
450
        0
451
        0
460
0.0
461
0.0
452
        0
462
0.0
453
        0
470

  0
SPLINE
  5
162
330
159
100
AcDbEntity
  8
Sichtbar schmal (ANSI)
100
AcDbSpline
210
0.0
220
0.0
230
1.0
 70
    11
 71
     3
 72
    26
 73
    22
 74
     0
 42
0.0000000001
 43
0.0000000001
 40
0.0
 40
0.0
 40
0.0
 40
0.0
 40
1.0
 40
1.0
 40
1.0
 40
2.0
 40
2.0
 40
2.0
 40
3.0
 40
3.0
 40
3.0
 40
4.0
 40
4.0
 40
4.0
 40
5.0
 40
5.0
 40
5.0
 40
6.0
 40
6.0
 40
6.0
 40
7.0
 40
7.0
 40
7.0
 40
7.0
 10
94.88705916681643
 20
115.0589545068255
 30
0.0
 10
94.88705916681643
 20
115.0589545068255
 30
0.0
 10
94.36805553196355
 20
115.0589545068255
 30
0.0
 10
94.36805553196355
 20
115.0589545068255
 30
0.0
 10
94.36805553196355
 20
115.0589545068255
 30
0.0
 10
94.36805553196355
 20
115.2508463253539
 30
0.0
 10
94.36805553196355
 20
115.2508463253539
 30
0.0
 10
94.64159611349238
 20
115.2508463253539
 30
0.0
 10
94.88981524320463
 20
115.3214707828016
 30
0.0
 10
94.94338647800026
 20
115.6260172236976
 30
0.0
 10
94.94338647800026
 20
115.6260172236976
 30
0.0
 10
95.12683781258983
 20
115.6260172236976
 30
0.0
 10
95.12683781258983
 20
115.6260172236976
 30
0.0
 10
95.12683781258983
 20
115.6260172236976
 30
0.0
 10
95.12683781258983
 20
113.6261392945101
 30
0.0
 10
95.12683781258983
 20
113.6261392945101
 30
0.0
 10
95.12683781258983
 20
113.6261392945101
 30
0.0
 10
94.88705916681643
 20
113.6261392945101
 30
0.0
 10
94.88705916681643
 20
113.6261392945101
 30
0.0
 10
94.88705916681643
 20
113.6261392945101
 30
0.0
 10
94.88705916681643
 20
115.0589545068255
 30
0.0
 10
94.88705916681643
 20
115.0589545068255
 30
0.0
  0
HATCH
  5
163
330
159
100
AcDbEntity
  8
Sichtbar schmal (ANSI)
 62
   250
420
  2039067
440
 33554687
100
AcDbHatch
 10
0.0
 20
0.0
 30
0.0
210
0.0
220
0.0
230
1.0
  2
SOLID
 70
     1
 71
     1
 91
        1
 92
        1
 93
        1
 72
     4
 94
        3
 73
     0
 74
     0
 95
       26
 96
       22
 40
0.0
 40
0.0
 40
0.0
 40
0.0
 40
1.0
 40
1.0
 40
1.0
 40
2.0
 40
2.0
 40
2.0
 40
3.0
 40
3.0
 40
3.0
 40
4.0
 40
4.0
 40
4.0
 40
5.0
 40
5.0
 40
5.0
 40
6.0
 40
6.0
 40
6.0
 40
7.0
 40
7.0
 40
7.0
 40
7.0
 10
94.88705916681643
 20
115.0589545068255
 10
94.88705916681643
 20
115.0589545068255
 10
94.36805553196355
 20
115.0589545068255
 10
94.36805553196355
 20
115.0589545068255
 10
94.36805553196355
 20
115.0589545068255
 10
94.36805553196355
 20
115.2508463253539
 10
94.36805553196355
 20
115.2508463253539
 10
94.64159611349238
 20
115.2508463253539
 10
94.88981524320463
 20
115.3214707828016
 10
94.94338647800026
 20
115.6260172236976
 10
94.94338647800026
 20
115.6260172236976
 10
95.12683781258983
 20
115.6260172236976
 10
95.12683781258983
 20
115.6260172236976
 10
95.12683781258983
 20
115.6260172236976
 10
95.12683781258983
 20
113.6261392945101
 10
95.12683781258983
 20
113.6261392945101
 10
95.12683781258983
 20
113.6261392945101
 10
94.88705916681643
 20
113.6261392945101
 10
94.88705916681643
 20
113.6261392945101
 10
94.88705916681643
 20
113.6261392945101
 10
94.88705916681643
 20
115.0589545068255
 10
94.88705916681643
 20
115.0589545068255
 97
        0
 97
        1
330
162
 75
     2
 76
     1
 98
        1
 10
0.0
 20
0.0
450
        0
451
        0
460
0.0
461
0.0
452
        0
462
0.0
453
        0
470

  0
ENDBLK
  5
15C
330
159
100
AcDbEntity
  8
0
100
AcDbBlockEnd
  0
BLOCK
  5
166
330
164
100
AcDbEntity
  8
0
100
AcDbBlockBegin
  2
Block_27
 70
     0
 10
0.0
 20
0.0
 30
0.0
  3
Block_27
  1

  0
INSERT
  5
169
330
164
100
AcDbEntity
  8
Sichtbar schmal (ANSI)
100
AcDbBlockReference
  2
Block_28
 10
0.0
 20
0.0
 30
0.0
  0
ENDBLK
  5
167
330
164
100
AcDbEntity
  8
0
100
AcDbBlockEnd
  0
BLOCK
  5
16A
330
168
100
AcDbEntity
  8
0
100
AcDbBlockBegin
  2
Block_28
 70
     0
 10
0.0
 20
0.0
 30
0.0
  3
Block_28
  1

  0
LINE
  5
16C
330
168
100
AcDbEntity
  8
Sichtbar schmal (ANSI)
 62
    18
420
        0
370
     5
100
AcDbLine
 10
68.56051689129357
 20
116.4712606350803
 30
0.0
 11
118.2620750979301
 21
116.4712821669271
 31
0.0
  0
INSERT
  5
16E
330
168
100
AcDbEntity
  8
Sichtbar schmal (ANSI)
100
AcDbBlockReference
  2
Block_29
 10
0.0
 20
0.0
 30
0.0
  0
INSERT
  5
174
330
168
100
AcDbEntity
  8
Sichtbar schmal (ANSI)
100
AcDbBlockReference
  2
Block_30
 10
0.0
 20
0.0
 30
0.0
  0
ENDBLK
  5
16B
330
168
100
AcDbEntity
  8
0
100
AcDbBlockEnd
  0
BLOCK
  5
16F
330
16D
100
AcDbEntity
  8
0
100
AcDbBlockBegin
  2
Block_29
 70
     0
 10
0.0
 20
0.0
 30
0.0
  3
Block_29
  1

  0
LWPOLYLINE
  5
171
330
16D
100
AcDbEntity
  8
Sichtbar schmal (ANSI)
100
AcDbPolyline
 90
        3
 70
     1
 43
0.0
 10
69.19297182684509
 20
116.2499563138466
 10
67.51179752781336
 20
116.4705716159833
 10
69.19297182684509
 20
116.6925757222374
  0
HATCH
  5
172
330
16D
100
AcDbEntity
  8
Sichtbar schmal (ANSI)
 62
    18
420
        0
440
 33554687
100
AcDbHatch
 10
0.0
 20
0.0
 30
0.0
210
0.0
220
0.0
230
1.0
  2
SOLID
 70
     1
 71
     1
 91
        1
 92
        1
 93
        3
 72
     1
 10
69.19297182684509
 20
116.2499563138466
 11
67.51179752781336
 21
116.4705716159833
 72
     1
 10
67.51179752781336
 20
116.4705716159833
 11
69.19297182684509
 21
116.6925757222374
 72
     1
 10
69.19297182684509
 20
116.6925757222374
 11
69.19297182684509
 21
116.2499563138466
 97
        1
330
171
 75
     2
 76
     1
 98
        1
 10
0.0
 20
0.0
450
        0
451
        0
460
0.0
461
0.0
452
        0
462
0.0
453
        0
470

  0
ENDBLK
  5
170
330
16D
100
AcDbEntity
  8
0
100
AcDbBlockEnd
  0
BLOCK
  5
175
330
173
100
AcDbEntity
  8
0
100
AcDbBlockBegin
  2
Block_30
 70
     0
 10
0.0
 20
0.0
 30
0.0
  3
Block_30
  1

  0
LWPOLYLINE
  5
177
330
173
100
AcDbEntity
  8
Sichtbar schmal (ANSI)
100
AcDbPolyline
 90
        3
 70
     1
 43
0.0
 10
117.6296201623786
 20
116.24996707977
 10
119.3107944614103
 20
116.47059314783
 10
117.6296201623786
 20
116.6925972540842
  0
HATCH
  5
178
330
173
100
AcDbEntity
  8
Sichtbar schmal (ANSI)
 62
    18
420
        0
440
 33554687
100
AcDbHatch
 10
0.0
 20
0.0
 30
0.0
210
0.0
220
0.0
230
1.0
  2
SOLID
 70
     1
 71
     1
 91
        1
 92
        1
 93
        3
 72
     1
 10
117.6296201623786
 20
116.24996707977
 11
119.3107944614103
 21
116.47059314783
 72
     1
 10
119.3107944614103
 20
116.47059314783
 11
117.6296201623786
 21
116.6925972540842
 72
     1
 10
117.6296201623786
 20
116.6925972540842
 11
117.6296201623786
 21
116.24996707977
 97
        1
330
177
 75
     2
 76
     1
 98
        1
 10
0.0
 20
0.0
450
        0
451
        0
460
0.0
461
0.0
452
        0
462
0.0
453
        0
470

  0
ENDBLK
  5
176
330
173
100
AcDbEntity
  8
0
100
AcDbBlockEnd
  0
ENDSEC
  0
SECTION
  2
ENTITIES
  0
INSERT
  5
7B
330
70
100
AcDbEntity
  8
Sichtbar schmal (ANSI)
100
AcDbBlockReference
  2
Block_0
 10
0.0
 20
0.0
 30
0.0
  0
ENDSEC
  0
SECTION
  2
OBJECTS
  0
DICTIONARY
  5
C
330
0
100
AcDbDictionary
281
     1
  3
ACAD_COLOR
350
63
  3
ACAD_DETAILVIEWSTYLE
350
6A
  3
ACAD_GROUP
350
D
  3
ACAD_IMAGE_DICT
350
107
  3
ACAD_LAYOUT
350
62
  3
ACAD_MATERIAL
350
10
  3
ACAD_MLEADERSTYLE
350
66
  3
ACAD_MLINESTYLE
350
5F
  3
ACAD_PLOTSETTINGS
350
61
  3
ACAD_PLOTSTYLENAME
350
E
  3
ACAD_SCALELIST
350
42
  3
ACAD_SECTIONVIEWSTYLE
350
68
  3
ACAD_TABLESTYLE
350
64
  3
ACAD_VISUALSTYLE
350
29
  3
ACDB_RECOMPOSE_DATA
350
181
  3
AcDbVariableDictionary
350
179
  0
DICTIONARY
  5
63
102
{ACAD_REACTORS
330
C
102
}
330
C
100
AcDbDictionary
281
     1
  0
DICTIONARY
  5
6A
102
{ACAD_REACTORS
330
C
102
}
330
C
100
AcDbDictionary
281
     1
  3
Imperial24
350
6B
  0
DICTIONARY
  5
D
102
{ACAD_REACTORS
330
C
102
}
330
C
100
AcDbDictionary
281
     1
  0
DICTIONARY
  5
107
102
{ACAD_REACTORS
330
C
102
}
330
C
100
AcDbDictionary
281
     1
  3
UDQ12H_1.png
350
108
  0
DICTIONARY
  5
62
102
{ACAD_REACTORS
330
C
102
}
330
C
100
AcDbDictionary
281
     1
  3
Layout1
350
6F
  3
Layout2
350
77
  3
Model
350
73
  0
DICTIONARY
  5
10
102
{ACAD_REACTORS
330
C
102
}
330
C
100
AcDbDictionary
281
     1
  3
ByBlock
350
19
  3
ByLayer
350
11
  3
Global
350
21
  0
DICTIONARY
  5
66
102
{ACAD_REACTORS
330
C
102
}
330
C
100
AcDbDictionary
281
     1
  3
Standard
350
67
  0
DICTIONARY
  5
5F
102
{ACAD_REACTORS
330
C
102
}
330
C
100
AcDbDictionary
281
     1
  3
Standard
350
60
  0
DICTIONARY
  5
61
102
{ACAD_REACTORS
330
C
102
}
330
C
100
AcDbDictionary
281
     1
  0
ACDBDICTIONARYWDFLT
  5
E
102
{ACAD_REACTORS
330
C
102
}
330
C
100
AcDbDictionary
281
     1
  3
Normal
350
F
100
AcDbDictionaryWithDefault
340
F
  0
DICTIONARY
  5
42
102
{ACAD_REACTORS
330
C
102
}
330
C
100
AcDbDictionary
281
     1
  3
A0
350
43
  3
A1
350
44
  3
A2
350
45
  3
A3
350
46
  3
A4
350
47
  3
A5
350
48
  3
A6
350
49
  3
A7
350
4A
  3
A8
350
4B
  3
A9
350
4C
  3
B0
350
4D
  3
B1
350
4E
  3
B2
350
4F
  3
B3
350
50
  3
B4
350
51
  3
B5
350
52
  3
B6
350
53
  0
DICTIONARY
  5
68
102
{ACAD_REACTORS
330
C
102
}
330
C
100
AcDbDictionary
281
     1
  3
Imperial24
350
69
  0
DICTIONARY
  5
64
102
{ACAD_REACTORS
330
C
102
}
330
C
100
AcDbDictionary
281
     1
  3
Standard
350
65
  0
DICTIONARY
  5
29
102
{ACAD_REACTORS
330
C
102
}
330
C
100
AcDbDictionary
281
     1
  3
2dWireframe
350
2F
  3
Basic
350
2E
  3
Brighten
350
35
  3
ColorChange
350
39
  3
Conceptual
350
32
  3
Dim
350
34
  3
EdgeColorOff
350
41
  3
Facepattern
350
38
  3
Flat
350
2A
  3
FlatWithEdges
350
2B
  3
Gouraud
350
2C
  3
GouraudWithEdges
350
2D
  3
Hidden
350
31
  3
JitterOff
350
3F
  3
Linepattern
350
37
  3
OverhangOff
350
40
  3
Realistic
350
33
  3
Shaded
350
3E
  3
Shaded with edges
350
3D
  3
Shades of Gray
350
3A
  3
Sketchy
350
3B
  3
Thicken
350
36
  3
Wireframe
350
30
  3
X-Ray
350
3C
  0
XRECORD
  5
181
102
{ACAD_REACTORS
330
C
102
}
330
C
100
AcDbXrecord
280
     1
 90
        1
330
65
  0
DICTIONARY
  5
179
102
{ACAD_REACTORS
330
C
102
}
330
C
100
AcDbDictionary
281
     1
  3
CANNOSCALE
350
17E
  3
CMLEADERSTYLE
350
17B
  3
CTABLESTYLE
350
17A
  3
CVIEWDETAILSTYLE
350
17C
  3
CVIEWSECTIONSTYLE
350
17D
  0
ACDBDETAILVIEWSTYLE
  5
6B
102
{ACAD_REACTORS
330
6A
102
}
330
6A
100
AcDbModelDocViewStyle
 70
     0
  3
Imperial24
290
     1
300
Imperial24
 90
        0
100
AcDbDetailViewStyle
 70
     0
 71
     0
 90
        3
 71
     1
340
55
 62
   256
 40
0.24
340
0
 62
   256
 40
0.24
300

 40
0.36
280
     3
 71
     2
340
5D
 90
       25
 62
   256
 71
     3
340
55
 62
   256
 40
0.24
 90
        1
 40
0.75
 90
        1
300
%<\AcVar ViewType \f "%tc1">% %<\AcVar ViewDetailId>%\PSCALE %<\AcVar ViewScale \f "%sn">%
 71
     4
340
5D
 90
       25
 62
   256
340
5D
 90
       25
 62
   256
280
     0
  0
IMAGEDEF
  5
108
102
{ACAD_REACTORS
330
107
102
}
330
107
100
AcDbRasterImageDef
 90
        0
  1
/Users/pieroortoleva/Konzept Dropbox/Server1/Upload4Konzept/D/PPW/Auftrag_1384/1_benutzte_Dokumente/Zeichnungen_Export_PDF/DXF/Zeichnung_m_Bemaßung/UDQ12H_1.png
 10
1.0
 20
127.0
 11
0.3527336860670194
 21
0.3527336860670194
280
     1
281
     2
  0
LAYOUT
  5
6F
102
{ACAD_REACTORS
330
62
102
}
330
62
100
AcDbPlotSettings
  1

  2

  4

  6

 40
0.0
 41
0.0
 42
0.0
 43
0.0
 44
0.0
 45
0.0
 46
0.0
 47
0.0
 48
0.0
 49
0.0
140
0.0
141
0.0
142
1.0
143
1.0
 70
   688
 72
     0
 73
     0
 74
     5
  7

 75
    16
147
1.0
 76
     0
 77
     2
 78
   300
148
0.0
149
0.0
100
AcDbLayout
  1
Layout1
 70
     1
 71
     1
 10
0.0
 20
0.0
 11
12.0
 21
9.0
 12
0.0
 22
0.0
 32
0.0
 14
0.0
 24
0.0
 34
0.0
 15
0.0
 25
0.0
 35
0.0
146
0.0
 13
0.0
 23
0.0
 33
0.0
 16
1.0
 26
0.0
 36
0.0
 17
0.0
 27
1.0
 37
0.0
 76
     0
330
6C
  0
LAYOUT
  5
77
102
{ACAD_REACTORS
330
62
102
}
330
62
100
AcDbPlotSettings
  1

  2

  4

  6

 40
0.0
 41
0.0
 42
0.0
 43
0.0
 44
0.0
 45
0.0
 46
0.0
 47
0.0
 48
0.0
 49
0.0
140
0.0
141
0.0
142
1.0
143
1.0
 70
   688
 72
     0
 73
     0
 74
     5
  7

 75
    16
147
1.0
 76
     0
 77
     2
 78
   300
148
0.0
149
0.0
100
AcDbLayout
  1
Layout2
 70
     1
 71
     2
 10
0.0
 20
0.0
 11
12.0
 21
9.0
 12
0.0
 22
0.0
 32
0.0
 14
0.0
 24
0.0
 34
0.0
 15
0.0
 25
0.0
 35
0.0
146
0.0
 13
0.0
 23
0.0
 33
0.0
 16
1.0
 26
0.0
 36
0.0
 17
0.0
 27
1.0
 37
0.0
 76
     0
330
74
  0
LAYOUT
  5
73
102
{ACAD_REACTORS
330
62
102
}
330
62
100
AcDbPlotSettings
  1

  2

  4

  6

 40
0.0
 41
0.0
 42
0.0
 43
0.0
 44
0.0
 45
0.0
 46
0.0
 47
0.0
 48
0.0
 49
0.0
140
0.0
141
0.0
142
1.0
143
1.0
 70
  1712
 72
     0
 73
     0
 74
     0
  7

 75
     0
147
1.0
 76
     0
 77
     2
 78
   300
148
0.0
149
0.0
100
AcDbLayout
  1
Model
 70
     1
 71
     0
 10
0.0
 20
0.0
 11
12.0
 21
9.0
 12
0.0
 22
0.0
 32
0.0
 14
0.0
 24
0.0
 34
0.0
 15
0.0
 25
0.0
 35
0.0
146
0.0
 13
0.0
 23
0.0
 33
0.0
 16
1.0
 26
0.0
 36
0.0
 17
0.0
 27
1.0
 37
0.0
 76
     0
330
70
  0
MATERIAL
  5
19
102
{ACAD_XDICTIONARY
360
1A
102
}
102
{ACAD_REACTORS
330
10
102
}
330
10
100
AcDbMaterial
  1
ByBlock
 72
     0
 43
0.0208333333333333
 43
0.0
 43
0.0
 43
0.0
 43
0.0
 43
0.0208333333333333
 43
0.0
 43
0.0
 43
0.0
 43
0.0
 43
1.0
 43
0.0
 43
0.0
 43
0.0
 43
0.0
 43
1.0
 77
     0
 47
0.0208333333333333
 47
0.0
 47
0.0
 47
0.0
 47
0.0
 47
0.0208333333333333
 47
0.0
 47
0.0
 47
0.0
 47
0.0
 47
1.0
 47
0.0
 47
0.0
 47
0.0
 47
0.0
 47
1.0
171
     0
 49
0.0208333333333333
 49
0.0
 49
0.0
 49
0.0
 49
0.0
 49
0.0208333333333333
 49
0.0
 49
0.0
 49
0.0
 49
0.0
 49
1.0
 49
0.0
 49
0.0
 49
0.0
 49
0.0
 49
1.0
175
     0
142
0.0208333333333333
142
0.0
142
0.0
142
0.0
142
0.0
142
0.0208333333333333
142
0.0
142
0.0
142
0.0
142
0.0
142
1.0
142
0.0
142
0.0
142
0.0
142
0.0
142
1.0
179
     0
144
0.0208333333333333
144
0.0
144
0.0
144
0.0
144
0.0
144
0.0208333333333333
144
0.0
144
0.0
144
0.0
144
0.0
144
1.0
144
0.0
144
0.0
144
0.0
144
0.0
144
1.0
147
0.0208333333333333
147
0.0
147
0.0
147
0.0
147
0.0
147
0.0208333333333333
147
0.0
147
0.0
147
0.0
147
0.0
147
1.0
147
0.0
147
0.0
147
0.0
147
0.0
147
1.0
  0
MATERIAL
  5
11
102
{ACAD_XDICTIONARY
360
12
102
}
102
{ACAD_REACTORS
330
10
102
}
330
10
100
AcDbMaterial
  1
ByLayer
 72
     0
 43
0.0208333333333333
 43
0.0
 43
0.0
 43
0.0
 43
0.0
 43
0.0208333333333333
 43
0.0
 43
0.0
 43
0.0
 43
0.0
 43
1.0
 43
0.0
 43
0.0
 43
0.0
 43
0.0
 43
1.0
 77
     0
 47
0.0208333333333333
 47
0.0
 47
0.0
 47
0.0
 47
0.0
 47
0.0208333333333333
 47
0.0
 47
0.0
 47
0.0
 47
0.0
 47
1.0
 47
0.0
 47
0.0
 47
0.0
 47
0.0
 47
1.0
171
     0
 49
0.0208333333333333
 49
0.0
 49
0.0
 49
0.0
 49
0.0
 49
0.0208333333333333
 49
0.0
 49
0.0
 49
0.0
 49
0.0
 49
1.0
 49
0.0
 49
0.0
 49
0.0
 49
0.0
 49
1.0
175
     0
142
0.0208333333333333
142
0.0
142
0.0
142
0.0
142
0.0
142
0.0208333333333333
142
0.0
142
0.0
142
0.0
142
0.0
142
1.0
142
0.0
142
0.0
142
0.0
142
0.0
142
1.0
179
     0
144
0.0208333333333333
144
0.0
144
0.0
144
0.0
144
0.0
144
0.0208333333333333
144
0.0
144
0.0
144
0.0
144
0.0
144
1.0
144
0.0
144
0.0
144
0.0
144
0.0
144
1.0
147
0.0208333333333333
147
0.0
147
0.0
147
0.0
147
0.0
147
0.0208333333333333
147
0.0
147
0.0
147
0.0
147
0.0
147
1.0
147
0.0
147
0.0
147
0.0
147
0.0
147
1.0
  0
MATERIAL
  5
21
102
{ACAD_XDICTIONARY
360
22
102
}
102
{ACAD_REACTORS
330
10
102
}
330
10
100
AcDbMaterial
  1
Global
 72
     0
 43
0.0208333333333333
 43
0.0
 43
0.0
 43
0.0
 43
0.0
 43
0.0208333333333333
 43
0.0
 43
0.0
 43
0.0
 43
0.0
 43
1.0
 43
0.0
 43
0.0
 43
0.0
 43
0.0
 43
1.0
 77
     0
 47
0.0208333333333333
 47
0.0
 47
0.0
 47
0.0
 47
0.0
 47
0.0208333333333333
 47
0.0
 47
0.0
 47
0.0
 47
0.0
 47
1.0
 47
0.0
 47
0.0
 47
0.0
 47
0.0
 47
1.0
171
     0
 49
0.0208333333333333
 49
0.0
 49
0.0
 49
0.0
 49
0.0
 49
0.0208333333333333
 49
0.0
 49
0.0
 49
0.0
 49
0.0
 49
1.0
 49
0.0
 49
0.0
 49
0.0
 49
0.0
 49
1.0
175
     0
142
0.0208333333333333
142
0.0
142
0.0
142
0.0
142
0.0
142
0.0208333333333333
142
0.0
142
0.0
142
0.0
142
0.0
142
1.0
142
0.0
142
0.0
142
0.0
142
0.0
142
1.0
179
     0
144
0.0208333333333333
144
0.0
144
0.0
144
0.0
144
0.0
144
0.0208333333333333
144
0.0
144
0.0
144
0.0
144
0.0
144
1.0
144
0.0
144
0.0
144
0.0
144
0.0
144
1.0
147
0.0208333333333333
147
0.0
147
0.0
147
0.0
147
0.0
147
0.0208333333333333
147
0.0
147
0.0
147
0.0
147
0.0
147
1.0
147
0.0
147
0.0
147
0.0
147
0.0
147
1.0
  0
MLEADERSTYLE
  5
67
102
{ACAD_REACTORS
330
66
102
}
330
66
100
AcDbMLeaderStyle
179
     2
170
     2
171
     1
172
     0
 90
        2
 40
0.0
 41
0.0
173
     1
 91
-1056964608
340
5B
 92
       -2
290
     1
 42
0.09
291
     1
 43
0.36
  3
Standard
 44
0.18
300

342
55
174
     1
178
     6
175
     1
176
     0
 93
-1056964608
 45
0.18
292
     0
297
     0
 46
0.18
 94
-1056964608
 47
1.0
 49
1.0
140
1.0
293
     1
141
0.0
294
     1
177
     0
142
1.0
295
     1
296
     0
143
0.125
271
     0
272
     9
273
     9
298
     1
  0
MLINESTYLE
  5
60
102
{ACAD_REACTORS
330
5F
102
}
330
5F
100
AcDbMlineStyle
  2
STANDARD
 70
     0
  3

 62
   256
 51
90.0
 52
90.0
 71
     2
 49
0.5
 62
   256
  6
BYLAYER
 49
-0.5
 62
   256
  6
BYLAYER
  0
ACDBPLACEHOLDER
  5
F
102
{ACAD_REACTORS
330
E
102
}
330
E
  0
SCALE
  5
43
102
{ACAD_REACTORS
330
42
102
}
330
42
100
AcDbScale
 70
     0
300
1:1
140
1.0
141
1.0
290
     1
  0
SCALE
  5
44
102
{ACAD_REACTORS
330
42
102
}
330
42
100
AcDbScale
 70
     0
300
1/128" = 1'-0"
140
0.0078125
141
12.0
290
     0
  0
SCALE
  5
45
102
{ACAD_REACTORS
330
42
102
}
330
42
100
AcDbScale
 70
     0
300
1/64" = 1'-0"
140
0.015625
141
12.0
290
     0
  0
SCALE
  5
46
102
{ACAD_REACTORS
330
42
102
}
330
42
100
AcDbScale
 70
     0
300
1/32" = 1'-0"
140
0.03125
141
12.0
290
     0
  0
SCALE
  5
47
102
{ACAD_REACTORS
330
42
102
}
330
42
100
AcDbScale
 70
     0
300
1/16" = 1'-0"
140
0.0625
141
12.0
290
     0
  0
SCALE
  5
48
102
{ACAD_REACTORS
330
42
102
}
330
42
100
AcDbScale
 70
     0
300
3/32" = 1'-0"
140
0.09375
141
12.0
290
     0
  0
SCALE
  5
49
102
{ACAD_REACTORS
330
42
102
}
330
42
100
AcDbScale
 70
     0
300
1/8" = 1'-0"
140
0.125
141
12.0
290
     0
  0
SCALE
  5
4A
102
{ACAD_REACTORS
330
42
102
}
330
42
100
AcDbScale
 70
     0
300
3/16" = 1'-0"
140
0.1875
141
12.0
290
     0
  0
SCALE
  5
4B
102
{ACAD_REACTORS
330
42
102
}
330
42
100
AcDbScale
 70
     0
300
1/4" = 1'-0"
140
0.25
141
12.0
290
     0
  0
SCALE
  5
4C
102
{ACAD_REACTORS
330
42
102
}
330
42
100
AcDbScale
 70
     0
300
3/8" = 1'-0"
140
0.375
141
12.0
290
     0
  0
SCALE
  5
4D
102
{ACAD_REACTORS
330
42
102
}
330
42
100
AcDbScale
 70
     0
300
1/2" = 1'-0"
140
0.5
141
12.0
290
     0
  0
SCALE
  5
4E
102
{ACAD_REACTORS
330
42
102
}
330
42
100
AcDbScale
 70
     0
300
3/4" = 1'-0"
140
0.75
141
12.0
290
     0
  0
SCALE
  5
4F
102
{ACAD_REACTORS
330
42
102
}
330
42
100
AcDbScale
 70
     0
300
1" = 1'-0"
140
1.0
141
12.0
290
     0
  0
SCALE
  5
50
102
{ACAD_REACTORS
330
42
102
}
330
42
100
AcDbScale
 70
     0
300
1-1/2" = 1'-0"
140
1.5
141
12.0
290
     0
  0
SCALE
  5
51
102
{ACAD_REACTORS
330
42
102
}
330
42
100
AcDbScale
 70
     0
300
3" = 1'-0"
140
3.0
141
12.0
290
     0
  0
SCALE
  5
52
102
{ACAD_REACTORS
330
42
102
}
330
42
100
AcDbScale
 70
     0
300
6" = 1'-0"
140
6.0
141
12.0
290
     0
  0
SCALE
  5
53
102
{ACAD_REACTORS
330
42
102
}
330
42
100
AcDbScale
 70
     0
300
1'-0" = 1'-0"
140
12.0
141
12.0
290
     0
  0
ACDBSECTIONVIEWSTYLE
  5
69
102
{ACAD_REACTORS
330
68
102
}
330
68
100
AcDbModelDocViewStyle
 70
     0
  3
Imperial24
290
     1
300
Imperial24
 90
        0
100
AcDbSectionViewStyle
 70
     0
 71
     0
 90
       78
 71
     1
340
55
 62
   256
 40
0.24
340
0
340
0
 62
   256
 40
0.24
300
I, O, Q, S, X, Z
 40
0.48
 90
        3
 40
0.18
 90
        1
 71
     2
340
5D
 90
       25
 62
   256
340
5D
 90
       50
 62
   256
 40
0.24
 40
0.0
 40
0.24
 71
     3
340
55
 62
   256
 40
0.24
 90
        1
 40
0.75
 90
        1
300
%<\AcVar ViewType \f "%tc1">% %<\AcVar ViewSectionStartId>%-%<\AcVar ViewSectionEndId>%\PSCALE %<\AcVar ViewScale \f "%sn">%
 71
     4
 62
   256
 62
   257
300
ANSI31
 40
1.0
 90
        0
290
     0
290
     0
 90
        6
 40
0.0
 40
1.570796326794896
 40
0.2617993877991494
 40
1.308996938995747
 40
-0.2617993877991494
 40
1.832595714594046
  0
TABLESTYLE
  5
65
102
{ACAD_XDICTIONARY
360
17F
102
}
102
{ACAD_REACTORS
330
64
102
}
330
64
100
AcDbTableStyle
280
     0
  3
Standard
 70
     0
 71
     0
 40
0.06
 41
0.06
280
     0
281
     0
  7
Standard
140
0.18
170
     2
 62
     0
 63
     7
283
     0
 90
      512
 91
        0
  1

274
    -2
284
     1
 64
     0
275
    -2
285
     1
 65
     0
276
    -2
286
     1
 66
     0
277
    -2
287
     1
 67
     0
278
    -2
288
     1
 68
     0
279
    -2
289
     1
 69
     0
  7
Standard
140
0.25
170
     5
 62
     0
 63
     7
283
     0
 90
      512
 91
        0
  1

274
    -2
284
     1
 64
     0
275
    -2
285
     1
 65
     0
276
    -2
286
     1
 66
     0
277
    -2
287
     1
 67
     0
278
    -2
288
     1
 68
     0
279
    -2
289
     1
 69
     0
  7
Standard
140
0.18
170
     5
 62
     0
 63
     7
283
     0
 90
      512
 91
        0
  1

274
    -2
284
     1
 64
     0
275
    -2
285
     1
 65
     0
276
    -2
286
     1
 66
     0
277
    -2
287
     1
 67
     0
278
    -2
288
     1
 68
     0
279
    -2
289
     1
 69
     0
  0
VISUALSTYLE
  5
2F
102
{ACAD_REACTORS
330
29
102
}
330
29
100
AcDbVisualStyle
  2
2dWireframe
 70
     4
177
     3
291
     0
 70
    58
 90
        0
176
     1
 90
        2
176
     1
 90
        0
176
     1
 90
        0
176
     1
 40
0.6
176
     1
 40
30.0
176
     1
 62
     7
420
 16777215
176
     1
 90
        1
176
     1
 90
        4
176
     1
 62
     7
176
     1
 62
   257
176
     1
 90
        1
176
     1
 90
        1
176
     1
 40
1.0
176
     1
 90
        0
176
     1
 62
   257
176
     1
 40
1.0
176
     1
 90
        1
176
     1
 90
        6
176
     1
 90
        2
176
     1
 62
     7
176
     1
 90
        5
176
     1
 90
        0
176
     1
 90
        0
176
     1
290
     0
176
     1
 90
        1
176
     1
 40
0.0
176
     1
 90
        0
176
     1
290
     1
176
     1
290
     1
176
     1
290
     0
176
     1
290
     0
176
     1
290
     0
176
     1
290
     0
176
     1
290
     0
176
     1
290
     0
176
     1
290
     0
176
     1
 90
       50
176
     1
 40
0.0
176
     1
 40
1.0
176
     1
 90
        0
176
     1
 62
    18
420
        0
176
     1
 90
       50
176
     1
 90
        3
176
     1
 62
     5
420
      255
176
     1
290
     0
176
     1
 90
       50
176
     1
 90
       50
176
     1
 90
       50
176
     1
290
     0
176
     1
 90
       50
176
     1
 62
   256
176
     0
 40
1.0
176
     0
 90
        2
176
     1
  1
strokes_ogs.tif
176
     1
290
     0
176
     1
 40
1.0
176
     1
 40
1.0
176
     1
  0
VISUALSTYLE
  5
2E
102
{ACAD_REACTORS
330
29
102
}
330
29
100
AcDbVisualStyle
  2
Basic
 70
     7
177
     3
291
     1
 70
    58
 90
        1
176
     1
 90
        0
176
     1
 90
        1
176
     1
 90
        0
176
     1
 40
0.6
176
     1
 40
30.0
176
     1
 62
     7
420
 16777215
176
     1
 90
        0
176
     1
 90
        4
176
     1
 62
     7
176
     1
 62
   257
176
     1
 90
        1
176
     1
 90
        1
176
     1
 40
1.0
176
     1
 90
        8
176
     1
 62
     7
176
     1
 40
1.0
176
     1
 90
        1
176
     1
 90
        6
176
     1
 90
        2
176
     1
 62
     7
176
     1
 90
        5
176
     1
 90
        0
176
     1
 90
        0
176
     1
290
     0
176
     1
 90
        1
176
     1
 40
0.0
176
     1
 90
        0
176
     1
290
     0
176
     1
290
     1
176
     1
290
     1
176
     1
290
     0
176
     1
290
     0
176
     1
290
     0
176
     1
290
     0
176
     1
290
     0
176
     1
290
     0
176
     1
 90
       50
176
     1
 40
0.0
176
     1
 40
1.0
176
     1
 90
        0
176
     1
 62
    18
420
        0
176
     1
 90
       50
176
     1
 90
        3
176
     1
 62
     5
420
      255
176
     1
290
     0
176
     1
 90
       50
176
     1
 90
       50
176
     1
 90
       50
176
     1
290
     0
176
     1
 90
       50
176
     1
 62
   256
176
     0
 40
1.0
176
     0
 90
        2
176
     1
  1
strokes_ogs.tif
176
     1
290
     0
176
     1
 40
1.0
176
     1
 40
1.0
176
     1
  0
VISUALSTYLE
  5
35
102
{ACAD_REACTORS
330
29
102
}
330
29
100
AcDbVisualStyle
  2
Brighten
 70
    12
177
     3
291
     1
 70
    58
 90
        2
176
     1
 90
        2
176
     1
 90
        0
176
     1
 90
        0
176
     1
 40
0.6
176
     1
 40
30.0
176
     1
 62
     7
420
 16777215
176
     1
 90
        1
176
     1
 90
        4
176
     1
 62
     7
176
     1
 62
   257
176
     1
 90
        1
176
     1
 90
        1
176
     1
 40
1.0
176
     1
 90
        8
176
     1
 62
     7
176
     1
 40
1.0
176
     1
 90
        1
176
     1
 90
        6
176
     1
 90
        2
176
     1
 62
     7
176
     1
 90
        5
176
     1
 90
        0
176
     1
 90
        0
176
     1
290
     0
176
     1
 90
        1
176
     1
 40
50.0
176
     1
 90
        0
176
     1
290
     0
176
     1
290
     1
176
     1
290
     1
176
     1
290
     0
176
     1
290
     0
176
     1
290
     0
176
     1
290
     0
176
     1
290
     0
176
     1
290
     0
176
     1
 90
       50
176
     1
 40
0.0
176
     1
 40
1.0
176
     1
 90
        0
176
     1
 62
    18
420
        0
176
     1
 90
       50
176
     1
 90
        3
176
     1
 62
     5
420
      255
176
     1
290
     0
176
     1
 90
       50
176
     1
 90
       50
176
     1
 90
       50
176
     1
290
     0
176
     1
 90
       50
176
     1
 62
   256
176
     0
 40
1.0
176
     0
 90
        2
176
     1
  1
strokes_ogs.tif
176
     1
290
     0
176
     1
 40
1.0
176
     1
 40
1.0
176
     1
  0
VISUALSTYLE
  5
39
102
{ACAD_REACTORS
330
29
102
}
330
29
100
AcDbVisualStyle
  2
ColorChange
 70
    16
177
     3
291
     1
 70
    58
 90
        2
176
     1
 90
        2
176
     1
 90
        3
176
     1
 90
        0
176
     1
 40
0.6
176
     1
 40
30.0
176
     1
 62
     8
420
  8421504
176
     1
 90
        1
176
     1
 90
        4
176
     1
 62
     7
176
     1
 62
   257
176
     1
 90
        1
176
     1
 90
        1
176
     1
 40
1.0
176
     1
 90
        8
176
     1
 62
     8
420
  8421504
176
     1
 40
1.0
176
     1
 90
        1
176
     1
 90
        6
176
     1
 90
        2
176
     1
 62
     7
176
     1
 90
        5
176
     1
 90
        0
176
     1
 90
        0
176
     1
290
     0
176
     1
 90
        1
176
     1
 40
0.0
176
     1
 90
        0
176
     1
290
     0
176
     1
290
     1
176
     1
290
     1
176
     1
290
     0
176
     1
290
     0
176
     1
290
     0
176
     1
290
     0
176
     1
290
     0
176
     1
290
     0
176
     1
 90
       50
176
     1
 40
0.0
176
     1
 40
1.0
176
     1
 90
        0
176
     1
 62
    18
420
        0
176
     1
 90
       50
176
     1
 90
        3
176
     1
 62
     5
420
      255
176
     1
290
     0
176
     1
 90
       50
176
     1
 90
       50
176
     1
 90
       50
176
     1
290
     0
176
     1
 90
       50
176
     1
 62
   256
176
     0
 40
1.0
176
     0
 90
        2
176
     1
  1
strokes_ogs.tif
176
     1
290
     0
176
     1
 40
1.0
176
     1
 40
1.0
176
     1
  0
VISUALSTYLE
  5
32
102
{ACAD_REACTORS
330
29
102
}
330
29
100
AcDbVisualStyle
  2
Conceptual
 70
     9
177
     3
291
     0
 70
    58
 90
        3
176
     1
 90
        2
176
     1
 90
        0
176
     1
 90
        0
176
     1
 40
0.6
176
     1
 40
30.0
176
     1
 62
     7
420
 16777215
176
     1
 90
        2
176
     1
 90
        2
176
     1
 62
     7
176
     1
 62
   257
176
     1
 90
        1
176
     1
 90
        1
176
     1
 40
179.0
176
     1
 90
        8
176
     1
 62
     7
176
     1
 40
1.0
176
     1
 90
        1
176
     1
 90
        6
176
     1
 90
        2
176
     1
 62
     7
176
     1
 90
        3
176
     1
 90
        0
176
     1
 90
        0
176
     1
290
     0
176
     1
 90
        1
176
     1
 40
0.0
176
     1
 90
        0
176
     1
290
     0
176
     1
290
     1
176
     1
290
     1
176
     1
290
     0
176
     1
290
     0
176
     1
290
     0
176
     1
290
     0
176
     1
290
     0
176
     1
290
     0
176
     1
 90
       50
176
     1
 40
0.0
176
     1
 40
1.0
176
     1
 90
        0
176
     1
 62
    18
420
        0
176
     1
 90
       50
176
     1
 90
        3
176
     1
 62
     5
420
      255
176
     1
290
     0
176
     1
 90
       50
176
     1
 90
       50
176
     1
 90
       50
176
     1
290
     0
176
     1
 90
       50
176
     1
 62
   256
176
     0
 40
1.0
176
     0
 90
        2
176
     1
  1
strokes_ogs.tif
176
     1
290
     0
176
     1
 40
1.0
176
     1
 40
1.0
176
     1
  0
VISUALSTYLE
  5
34
102
{ACAD_REACTORS
330
29
102
}
330
29
100
AcDbVisualStyle
  2
Dim
 70
    11
177
     3
291
     1
 70
    58
 90
        2
176
     1
 90
        2
176
     1
 90
        0
176
     1
 90
        0
176
     1
 40
0.6
176
     1
 40
30.0
176
     1
 62
     7
420
 16777215
176
     1
 90
        1
176
     1
 90
        4
176
     1
 62
     7
176
     1
 62
   257
176
     1
 90
        1
176
     1
 90
        1
176
     1
 40
1.0
176
     1
 90
        8
176
     1
 62
     7
176
     1
 40
1.0
176
     1
 90
        1
176
     1
 90
        6
176
     1
 90
        2
176
     1
 62
     7
176
     1
 90
        5
176
     1
 90
        0
176
     1
 90
        0
176
     1
290
     0
176
     1
 90
        1
176
     1
 40
-50.0
176
     1
 90
        0
176
     1
290
     0
176
     1
290
     1
176
     1
290
     1
176
     1
290
     0
176
     1
290
     0
176
     1
290
     0
176
     1
290
     0
176
     1
290
     0
176
     1
290
     0
176
     1
 90
       50
176
     1
 40
0.0
176
     1
 40
1.0
176
     1
 90
        0
176
     1
 62
    18
420
        0
176
     1
 90
       50
176
     1
 90
        3
176
     1
 62
     5
420
      255
176
     1
290
     0
176
     1
 90
       50
176
     1
 90
       50
176
     1
 90
       50
176
     1
290
     0
176
     1
 90
       50
176
     1
 62
   256
176
     0
 40
1.0
176
     0
 90
        2
176
     1
  1
strokes_ogs.tif
176
     1
290
     0
176
     1
 40
1.0
176
     1
 40
1.0
176
     1
  0
VISUALSTYLE
  5
41
102
{ACAD_REACTORS
330
29
102
}
330
29
100
AcDbVisualStyle
  2
EdgeColorOff
 70
    22
177
     3
291
     1
 70
    58
 90
        2
176
     0
 90
        2
176
     0
 90
        0
176
     0
 90
        0
176
     0
 40
0.6
176
     0
 40
30.0
176
     0
 62
     7
420
 16777215
176
     0
 90
        1
176
     0
 90
        4
176
     0
 62
     7
176
     0
 62
   257
176
     0
 90
        1
176
     0
 90
        1
176
     0
 40
1.0
176
     0
 90
        8
176
     2
 62
     7
176
     0
 40
1.0
176
     0
 90
        1
176
     0
 90
        6
176
     0
 90
        2
176
     0
 62
     7
176
     0
 90
        5
176
     0
 90
        0
176
     0
 90
        0
176
     0
290
     0
176
     0
 90
        1
176
     0
 40
0.0
176
     0
 90
        0
176
     0
290
     0
176
     0
290
     1
176
     0
290
     1
176
     0
290
     0
176
     0
290
     0
176
     0
290
     0
176
     0
290
     0
176
     0
290
     0
176
     0
290
     0
176
     0
 90
       50
176
     0
 40
0.0
176
     0
 40
1.0
176
     0
 90
        0
176
     0
 62
    18
420
        0
176
     0
 90
       50
176
     0
 90
        3
176
     0
 62
     5
420
      255
176
     0
290
     0
176
     0
 90
       50
176
     0
 90
       50
176
     0
 90
       50
176
     0
290
     0
176
     0
 90
       50
176
     0
 62
   256
176
     0
 40
1.0
176
     0
 90
        2
176
     0
  1
strokes_ogs.tif
176
     0
290
     0
176
     0
 40
1.0
176
     0
 40
1.0
176
     0
  0
VISUALSTYLE
  5
38
102
{ACAD_REACTORS
330
29
102
}
330
29
100
AcDbVisualStyle
  2
Facepattern
 70
    15
177
     3
291
     1
 70
    58
 90
        2
176
     1
 90
        2
176
     1
 90
        0
176
     1
 90
        0
176
     1
 40
0.6
176
     1
 40
30.0
176
     1
 62
     7
420
 16777215
176
     1
 90
        1
176
     1
 90
        4
176
     1
 62
     7
176
     1
 62
   257
176
     1
 90
        1
176
     1
 90
        1
176
     1
 40
1.0
176
     1
 90
        8
176
     1
 62
     7
176
     1
 40
1.0
176
     1
 90
        1
176
     1
 90
        6
176
     1
 90
        2
176
     1
 62
     7
176
     1
 90
        5
176
     1
 90
        0
176
     1
 90
        0
176
     1
290
     0
176
     1
 90
        1
176
     1
 40
0.0
176
     1
 90
        0
176
     1
290
     0
176
     1
290
     1
176
     1
290
     1
176
     1
290
     0
176
     1
290
     0
176
     1
290
     0
176
     1
290
     0
176
     1
290
     0
176
     1
290
     0
176
     1
 90
       50
176
     1
 40
0.0
176
     1
 40
1.0
176
     1
 90
        0
176
     1
 62
    18
420
        0
176
     1
 90
       50
176
     1
 90
        3
176
     1
 62
     5
420
      255
176
     1
290
     0
176
     1
 90
       50
176
     1
 90
       50
176
     1
 90
       50
176
     1
290
     0
176
     1
 90
       50
176
     1
 62
   256
176
     0
 40
1.0
176
     0
 90
        2
176
     1
  1
strokes_ogs.tif
176
     1
290
     0
176
     1
 40
1.0
176
     1
 40
1.0
176
     1
  0
VISUALSTYLE
  5
2A
102
{ACAD_REACTORS
330
29
102
}
330
29
100
AcDbVisualStyle
  2
Flat
 70
     0
177
     3
291
     1
 70
    58
 90
        2
176
     1
 90
        1
176
     1
 90
        1
176
     1
 90
        2
176
     1
 40
0.6
176
     1
 40
30.0
176
     1
 62
     7
420
 16777215
176
     1
 90
        0
176
     1
 90
        0
176
     1
 62
     7
176
     1
 62
   257
176
     1
 90
        1
176
     1
 90
        1
176
     1
 40
1.0
176
     1
 90
        8
176
     1
 62
     7
176
     1
 40
1.0
176
     1
 90
        1
176
     1
 90
        6
176
     1
 90
        2
176
     1
 62
     7
176
     1
 90
        5
176
     1
 90
        0
176
     1
 90
        0
176
     1
290
     0
176
     1
 90
       13
176
     1
 40
0.0
176
     1
 90
        0
176
     1
290
     0
176
     1
290
     1
176
     1
290
     1
176
     1
290
     0
176
     1
290
     0
176
     1
290
     0
176
     1
290
     0
176
     1
290
     0
176
     1
290
     0
176
     1
 90
       50
176
     1
 40
0.0
176
     1
 40
1.0
176
     1
 90
        0
176
     1
 62
    18
420
        0
176
     1
 90
       50
176
     1
 90
        3
176
     1
 62
     5
420
      255
176
     1
290
     0
176
     1
 90
       50
176
     1
 90
       50
176
     1
 90
       50
176
     1
290
     0
176
     1
 90
       50
176
     1
 62
   256
176
     0
 40
1.0
176
     0
 90
        2
176
     1
  1
strokes_ogs.tif
176
     1
290
     0
176
     1
 40
1.0
176
     1
 40
1.0
176
     1
  0
VISUALSTYLE
  5
2B
102
{ACAD_REACTORS
330
29
102
}
330
29
100
AcDbVisualStyle
  2
FlatWithEdges
 70
     1
177
     3
291
     1
 70
    58
 90
        2
176
     1
 90
        1
176
     1
 90
        1
176
     1
 90
        2
176
     1
 40
0.6
176
     1
 40
30.0
176
     1
 62
     7
420
 16777215
176
     1
 90
        1
176
     1
 90
        0
176
     1
 62
     7
176
     1
 62
   257
176
     1
 90
        1
176
     1
 90
        1
176
     1
 40
1.0
176
     1
 90
        0
176
     1
 62
   257
176
     1
 40
1.0
176
     1
 90
        1
176
     1
 90
        6
176
     1
 90
        2
176
     1
 62
     7
176
     1
 90
        5
176
     1
 90
        0
176
     1
 90
        0
176
     1
290
     0
176
     1
 90
       13
176
     1
 40
0.0
176
     1
 90
        0
176
     1
290
     0
176
     1
290
     1
176
     1
290
     1
176
     1
290
     0
176
     1
290
     0
176
     1
290
     0
176
     1
290
     0
176
     1
290
     0
176
     1
290
     0
176
     1
 90
       50
176
     1
 40
0.0
176
     1
 40
1.0
176
     1
 90
        0
176
     1
 62
    18
420
        0
176
     1
 90
       50
176
     1
 90
        3
176
     1
 62
     5
420
      255
176
     1
290
     0
176
     1
 90
       50
176
     1
 90
       50
176
     1
 90
       50
176
     1
290
     0
176
     1
 90
       50
176
     1
 62
   256
176
     0
 40
1.0
176
     0
 90
        2
176
     1
  1
strokes_ogs.tif
176
     1
290
     0
176
     1
 40
1.0
176
     1
 40
1.0
176
     1
  0
VISUALSTYLE
  5
2C
102
{ACAD_REACTORS
330
29
102
}
330
29
100
AcDbVisualStyle
  2
Gouraud
 70
     2
177
     3
291
     1
 70
    58
 90
        2
176
     1
 90
        2
176
     1
 90
        1
176
     1
 90
        2
176
     1
 40
0.6
176
     1
 40
30.0
176
     1
 62
     7
420
 16777215
176
     1
 90
        0
176
     1
 90
        0
176
     1
 62
     7
176
     1
 62
   257
176
     1
 90
        1
176
     1
 90
        1
176
     1
 40
1.0
176
     1
 90
        0
176
     1
 62
     7
176
     1
 40
1.0
176
     1
 90
        1
176
     1
 90
        6
176
     1
 90
        2
176
     1
 62
     7
176
     1
 90
        5
176
     1
 90
        0
176
     1
 90
        0
176
     1
290
     0
176
     1
 90
       13
176
     1
 40
0.0
176
     1
 90
        0
176
     1
290
     0
176
     1
290
     1
176
     1
290
     1
176
     1
290
     0
176
     1
290
     0
176
     1
290
     0
176
     1
290
     0
176
     1
290
     0
176
     1
290
     0
176
     1
 90
       50
176
     1
 40
0.0
176
     1
 40
1.0
176
     1
 90
        0
176
     1
 62
    18
420
        0
176
     1
 90
       50
176
     1
 90
        3
176
     1
 62
     5
420
      255
176
     1
290
     0
176
     1
 90
       50
176
     1
 90
       50
176
     1
 90
       50
176
     1
290
     0
176
     1
 90
       50
176
     1
 62
   256
176
     0
 40
1.0
176
     0
 90
        2
176
     1
  1
strokes_ogs.tif
176
     1
290
     0
176
     1
 40
1.0
176
     1
 40
1.0
176
     1
  0
VISUALSTYLE
  5
2D
102
{ACAD_REACTORS
330
29
102
}
330
29
100
AcDbVisualStyle
  2
GouraudWithEdges
 70
     3
177
     3
291
     1
 70
    58
 90
        2
176
     1
 90
        2
176
     1
 90
        1
176
     1
 90
        2
176
     1
 40
0.6
176
     1
 40
30.0
176
     1
 62
     7
420
 16777215
176
     1
 90
        1
176
     1
 90
        0
176
     1
 62
     7
176
     1
 62
   257
176
     1
 90
        1
176
     1
 90
        1
176
     1
 40
1.0
176
     1
 90
        0
176
     1
 62
   257
176
     1
 40
1.0
176
     1
 90
        1
176
     1
 90
        6
176
     1
 90
        2
176
     1
 62
     7
176
     1
 90
        5
176
     1
 90
        0
176
     1
 90
        0
176
     1
290
     0
176
     1
 90
       13
176
     1
 40
0.0
176
     1
 90
        0
176
     1
290
     0
176
     1
290
     1
176
     1
290
     1
176
     1
290
     0
176
     1
290
     0
176
     1
290
     0
176
     1
290
     0
176
     1
290
     0
176
     1
290
     0
176
     1
 90
       50
176
     1
 40
0.0
176
     1
 40
1.0
176
     1
 90
        0
176
     1
 62
    18
420
        0
176
     1
 90
       50
176
     1
 90
        3
176
     1
 62
     5
420
      255
176
     1
290
     0
176
     1
 90
       50
176
     1
 90
       50
176
     1
 90
       50
176
     1
290
     0
176
     1
 90
       50
176
     1
 62
   256
176
     0
 40
1.0
176
     0
 90
        2
176
     1
  1
strokes_ogs.tif
176
     1
290
     0
176
     1
 40
1.0
176
     1
 40
1.0
176
     1
  0
VISUALSTYLE
  5
31
102
{ACAD_REACTORS
330
29
102
}
330
29
100
AcDbVisualStyle
  2
Hidden
 70
     6
177
     3
291
     0
 70
    58
 90
        1
176
     1
 90
        2
176
     1
 90
        2
176
     1
 90
        0
176
     1
 40
0.6
176
     1
 40
30.0
176
     1
 62
     7
420
 16777215
176
     1
 90
        2
176
     1
 90
        2
176
     1
 62
     7
176
     1
 62
   257
176
     1
 90
        2
176
     1
 90
        1
176
     1
 40
40.0
176
     1
 90
        0
176
     1
 62
   257
176
     1
 40
1.0
176
     1
 90
        1
176
     1
 90
        6
176
     1
 90
        2
176
     1
 62
     7
176
     1
 90
        3
176
     1
 90
        0
176
     1
 90
        0
176
     1
290
     0
176
     1
 90
        1
176
     1
 40
0.0
176
     1
 90
        0
176
     1
290
     0
176
     1
290
     1
176
     1
290
     1
176
     1
290
     0
176
     1
290
     0
176
     1
290
     0
176
     1
290
     0
176
     1
290
     0
176
     1
290
     0
176
     1
 90
       50
176
     1
 40
0.0
176
     1
 40
1.0
176
     1
 90
        0
176
     1
 62
    18
420
        0
176
     1
 90
       50
176
     1
 90
        3
176
     1
 62
     5
420
      255
176
     1
290
     0
176
     1
 90
       50
176
     1
 90
       50
176
     1
 90
       50
176
     1
290
     0
176
     1
 90
       50
176
     1
 62
   256
176
     0
 40
1.0
176
     0
 90
        2
176
     1
  1
strokes_ogs.tif
176
     1
290
     0
176
     1
 40
1.0
176
     1
 40
1.0
176
     1
  0
VISUALSTYLE
  5
3F
102
{ACAD_REACTORS
330
29
102
}
330
29
100
AcDbVisualStyle
  2
JitterOff
 70
    20
177
     3
291
     1
 70
    58
 90
        2
176
     0
 90
        2
176
     0
 90
        0
176
     0
 90
        0
176
     0
 40
0.6
176
     0
 40
30.0
176
     0
 62
     7
420
 16777215
176
     0
 90
        1
176
     0
 90
        4
176
     0
 62
     7
176
     0
 62
   257
176
     0
 90
        1
176
     0
 90
        1
176
     0
 40
1.0
176
     0
 90
       10
176
     2
 62
     7
176
     0
 40
1.0
176
     0
 90
        1
176
     0
 90
        6
176
     0
 90
        2
176
     0
 62
     7
176
     0
 90
        5
176
     0
 90
        0
176
     0
 90
        0
176
     0
290
     0
176
     0
 90
        1
176
     0
 40
0.0
176
     0
 90
        0
176
     0
290
     0
176
     0
290
     1
176
     0
290
     1
176
     0
290
     0
176
     0
290
     0
176
     0
290
     0
176
     0
290
     0
176
     0
290
     0
176
     0
290
     0
176
     0
 90
       50
176
     0
 40
0.0
176
     0
 40
1.0
176
     0
 90
        0
176
     0
 62
    18
420
        0
176
     0
 90
       50
176
     0
 90
        3
176
     0
 62
     5
420
      255
176
     0
290
     0
176
     0
 90
       50
176
     0
 90
       50
176
     0
 90
       50
176
     0
290
     0
176
     0
 90
       50
176
     0
 62
   256
176
     0
 40
1.0
176
     0
 90
        2
176
     0
  1
strokes_ogs.tif
176
     0
290
     0
176
     0
 40
1.0
176
     0
 40
1.0
176
     0
  0
VISUALSTYLE
  5
37
102
{ACAD_REACTORS
330
29
102
}
330
29
100
AcDbVisualStyle
  2
Linepattern
 70
    14
177
     3
291
     1
 70
    58
 90
        2
176
     1
 90
        2
176
     1
 90
        0
176
     1
 90
        0
176
     1
 40
0.6
176
     1
 40
30.0
176
     1
 62
     7
420
 16777215
176
     1
 90
        1
176
     1
 90
        4
176
     1
 62
     7
176
     1
 62
   257
176
     1
 90
        7
176
     1
 90
        7
176
     1
 40
1.0
176
     1
 90
        8
176
     1
 62
     7
176
     1
 40
1.0
176
     1
 90
        1
176
     1
 90
        6
176
     1
 90
        2
176
     1
 62
     7
176
     1
 90
        5
176
     1
 90
        0
176
     1
 90
        0
176
     1
290
     0
176
     1
 90
        1
176
     1
 40
0.0
176
     1
 90
        0
176
     1
290
     0
176
     1
290
     1
176
     1
290
     1
176
     1
290
     0
176
     1
290
     0
176
     1
290
     0
176
     1
290
     0
176
     1
290
     0
176
     1
290
     0
176
     1
 90
       50
176
     1
 40
0.0
176
     1
 40
1.0
176
     1
 90
        0
176
     1
 62
    18
420
        0
176
     1
 90
       50
176
     1
 90
        3
176
     1
 62
     5
420
      255
176
     1
290
     0
176
     1
 90
       50
176
     1
 90
       50
176
     1
 90
       50
176
     1
290
     0
176
     1
 90
       50
176
     1
 62
   256
176
     0
 40
1.0
176
     0
 90
        2
176
     1
  1
strokes_ogs.tif
176
     1
290
     0
176
     1
 40
1.0
176
     1
 40
1.0
176
     1
  0
VISUALSTYLE
  5
40
102
{ACAD_REACTORS
330
29
102
}
330
29
100
AcDbVisualStyle
  2
OverhangOff
 70
    21
177
     3
291
     1
 70
    58
 90
        2
176
     0
 90
        2
176
     0
 90
        0
176
     0
 90
        0
176
     0
 40
0.6
176
     0
 40
30.0
176
     0
 62
     7
420
 16777215
176
     0
 90
        1
176
     0
 90
        4
176
     0
 62
     7
176
     0
 62
   257
176
     0
 90
        1
176
     0
 90
        1
176
     0
 40
1.0
176
     0
 90
        9
176
     2
 62
     7
176
     0
 40
1.0
176
     0
 90
        1
176
     0
 90
        6
176
     0
 90
        2
176
     0
 62
     7
176
     0
 90
        5
176
     0
 90
        0
176
     0
 90
        0
176
     0
290
     0
176
     0
 90
        1
176
     0
 40
0.0
176
     0
 90
        0
176
     0
290
     0
176
     0
290
     1
176
     0
290
     1
176
     0
290
     0
176
     0
290
     0
176
     0
290
     0
176
     0
290
     0
176
     0
290
     0
176
     0
290
     0
176
     0
 90
       50
176
     0
 40
0.0
176
     0
 40
1.0
176
     0
 90
        0
176
     0
 62
    18
420
        0
176
     0
 90
       50
176
     0
 90
        3
176
     0
 62
     5
420
      255
176
     0
290
     0
176
     0
 90
       50
176
     0
 90
       50
176
     0
 90
       50
176
     0
290
     0
176
     0
 90
       50
176
     0
 62
   256
176
     0
 40
1.0
176
     0
 90
        2
176
     0
  1
strokes_ogs.tif
176
     0
290
     0
176
     0
 40
1.0
176
     0
 40
1.0
176
     0
  0
VISUALSTYLE
  5
33
102
{ACAD_REACTORS
330
29
102
}
330
29
100
AcDbVisualStyle
  2
Realistic
 70
     8
177
     3
291
     0
 70
    58
 90
        2
176
     1
 90
        3
176
     1
 90
        0
176
     1
 90
        2
176
     1
 40
0.6
176
     1
 40
30.0
176
     1
 62
     7
420
 16777215
176
     1
 90
        0
176
     1
 90
        0
176
     1
 62
     7
176
     1
 62
   257
176
     1
 90
        1
176
     1
 90
        1
176
     1
 40
1.0
176
     1
 90
        8
176
     1
 62
   257
176
     1
 40
1.0
176
     1
 90
        1
176
     1
 90
        6
176
     1
 90
        2
176
     1
 62
     7
176
     1
 90
        3
176
     1
 90
        0
176
     1
 90
        0
176
     1
290
     0
176
     1
 90
       13
176
     1
 40
0.0
176
     1
 90
        0
176
     1
290
     0
176
     1
290
     1
176
     1
290
     1
176
     1
290
     0
176
     1
290
     0
176
     1
290
     0
176
     1
290
     0
176
     1
290
     0
176
     1
290
     0
176
     1
 90
       50
176
     1
 40
0.0
176
     1
 40
1.0
176
     1
 90
        0
176
     1
 62
    18
420
        0
176
     1
 90
       50
176
     1
 90
        3
176
     1
 62
     5
420
      255
176
     1
290
     0
176
     1
 90
       50
176
     1
 90
       50
176
     1
 90
       50
176
     1
290
     0
176
     1
 90
       50
176
     1
 62
   256
176
     0
 40
1.0
176
     0
 90
        2
176
     1
  1
strokes_ogs.tif
176
     1
290
     0
176
     1
 40
1.0
176
     1
 40
1.0
176
     1
  0
VISUALSTYLE
  5
3E
102
{ACAD_REACTORS
330
29
102
}
330
29
100
AcDbVisualStyle
  2
Shaded
 70
    27
177
     3
291
     0
 70
    58
 90
        2
176
     1
 90
        2
176
     1
 90
        1
176
     1
 90
        2
176
     1
 40
0.6
176
     1
 40
30.0
176
     1
 62
     7
420
 16777215
176
     1
 90
        0
176
     1
 90
        4
176
     1
 62
     7
176
     1
 62
   257
176
     1
 90
        1
176
     1
 90
        1
176
     1
 40
1.0
176
     1
 90
        8
176
     1
 62
   257
176
     1
 40
1.0
176
     1
 90
        1
176
     1
 90
        6
176
     1
 90
        2
176
     1
 62
     8
420
  7895160
176
     1
 90
        3
176
     1
 90
        0
176
     1
 90
        0
176
     1
290
     0
176
     1
 90
        5
176
     1
 40
0.0
176
     1
 90
        0
176
     1
290
     0
176
     1
290
     1
176
     1
290
     1
176
     1
290
     0
176
     1
290
     0
176
     1
290
     0
176
     1
290
     0
176
     1
290
     0
176
     1
290
     0
176
     1
 90
       50
176
     1
 40
0.0
176
     1
 40
1.0
176
     1
 90
        0
176
     1
 62
    18
420
        0
176
     1
 90
       50
176
     1
 90
        3
176
     1
 62
     5
420
      255
176
     1
290
     0
176
     1
 90
       50
176
     1
 90
       50
176
     1
 90
       50
176
     1
290
     0
176
     1
 90
       50
176
     1
 62
   256
176
     0
 40
1.0
176
     0
 90
        2
176
     1
  1
strokes_ogs.tif
176
     1
290
     0
176
     1
 40
1.0
176
     1
 40
1.0
176
     1
  0
VISUALSTYLE
  5
3D
102
{ACAD_REACTORS
330
29
102
}
330
29
100
AcDbVisualStyle
  2
Shaded with edges
 70
    26
177
     3
291
     0
 70
    58
 90
        2
176
     1
 90
        2
176
     1
 90
        1
176
     1
 90
        2
176
     1
 40
0.6
176
     1
 40
30.0
176
     1
 62
     7
420
 16777215
176
     1
 90
        1
176
     1
 90
        2
176
     1
 62
     7
176
     1
 62
   257
176
     1
 90
        2
176
     1
 90
        1
176
     1
 40
1.0
176
     1
 90
        8
176
     1
 62
   257
176
     1
 40
1.0
176
     1
 90
        1
176
     1
 90
        6
176
     1
 90
        2
176
     1
 62
     7
176
     1
 90
        3
176
     1
 90
        0
176
     1
 90
        0
176
     1
290
     0
176
     1
 90
        5
176
     1
 40
0.0
176
     1
 90
        0
176
     1
290
     0
176
     1
290
     1
176
     1
290
     1
176
     1
290
     0
176
     1
290
     0
176
     1
290
     0
176
     1
290
     0
176
     1
290
     0
176
     1
290
     0
176
     1
 90
       50
176
     1
 40
0.0
176
     1
 40
1.0
176
     1
 90
        0
176
     1
 62
    18
420
        0
176
     1
 90
       50
176
     1
 90
        3
176
     1
 62
     5
420
      255
176
     1
290
     0
176
     1
 90
       50
176
     1
 90
       50
176
     1
 90
       50
176
     1
290
     0
176
     1
 90
       50
176
     1
 62
   256
176
     0
 40
1.0
176
     0
 90
        2
176
     1
  1
strokes_ogs.tif
176
     1
290
     0
176
     1
 40
1.0
176
     1
 40
1.0
176
     1
  0
VISUALSTYLE
  5
3A
102
{ACAD_REACTORS
330
29
102
}
330
29
100
AcDbVisualStyle
  2
Shades of Gray
 70
    23
177
     3
291
     0
 70
    58
 90
        2
176
     1
 90
        2
176
     1
 90
        3
176
     1
 90
        0
176
     1
 40
0.6
176
     1
 40
30.0
176
     1
 62
     7
420
 16777215
176
     1
 90
        2
176
     1
 90
        2
176
     1
 62
     7
176
     1
 62
     7
176
     1
 90
        1
176
     1
 90
        1
176
     1
 40
40.0
176
     1
 90
        8
176
     1
 62
     7
176
     1
 40
1.0
176
     1
 90
        1
176
     1
 90
        6
176
     1
 90
        2
176
     1
 62
     7
176
     1
 90
        3
176
     1
 90
        0
176
     1
 90
        0
176
     1
290
     0
176
     1
 90
        1
176
     1
 40
0.0
176
     1
 90
        0
176
     1
290
     0
176
     1
290
     1
176
     1
290
     1
176
     1
290
     0
176
     1
290
     0
176
     1
290
     0
176
     1
290
     0
176
     1
290
     0
176
     1
290
     0
176
     1
 90
       50
176
     1
 40
0.0
176
     1
 40
1.0
176
     1
 90
        0
176
     1
 62
    18
420
        0
176
     1
 90
       50
176
     1
 90
        3
176
     1
 62
     5
420
      255
176
     1
290
     0
176
     1
 90
       50
176
     1
 90
       50
176
     1
 90
       50
176
     1
290
     0
176
     1
 90
       50
176
     1
 62
   256
176
     0
 40
1.0
176
     0
 90
        2
176
     1
  1
strokes_ogs.tif
176
     1
290
     0
176
     1
 40
1.0
176
     1
 40
1.0
176
     1
  0
VISUALSTYLE
  5
3B
102
{ACAD_REACTORS
330
29
102
}
330
29
100
AcDbVisualStyle
  2
Sketchy
 70
    24
177
     3
291
     0
 70
    58
 90
        1
176
     1
 90
        2
176
     1
 90
        2
176
     1
 90
        0
176
     1
 40
0.6
176
     1
 40
30.0
176
     1
 62
     7
420
 16777215
176
     1
 90
        2
176
     1
 90
        2
176
     1
 62
     7
176
     1
 62
     7
176
     1
 90
        1
176
     1
 90
        1
176
     1
 40
40.0
176
     1
 90
       11
176
     1
 62
     7
176
     1
 40
1.0
176
     1
 90
        1
176
     1
 90
        6
176
     1
 90
        2
176
     1
 62
     7
176
     1
 90
        6
176
     1
 90
        0
176
     1
 90
        0
176
     1
290
     0
176
     1
 90
        1
176
     1
 40
0.0
176
     1
 90
        0
176
     1
290
     0
176
     1
290
     1
176
     1
290
     1
176
     1
290
     0
176
     1
290
     0
176
     1
290
     0
176
     1
290
     0
176
     1
290
     0
176
     1
290
     0
176
     1
 90
       50
176
     1
 40
0.0
176
     1
 40
1.0
176
     1
 90
        0
176
     1
 62
    18
420
        0
176
     1
 90
       50
176
     1
 90
        3
176
     1
 62
     5
420
      255
176
     1
290
     0
176
     1
 90
       50
176
     1
 90
       50
176
     1
 90
       50
176
     1
290
     0
176
     1
 90
       50
176
     1
 62
   256
176
     0
 40
1.0
176
     0
 90
        2
176
     1
  1
strokes_ogs.tif
176
     1
290
     0
176
     1
 40
1.0
176
     1
 40
1.0
176
     1
  0
VISUALSTYLE
  5
36
102
{ACAD_REACTORS
330
29
102
}
330
29
100
AcDbVisualStyle
  2
Thicken
 70
    13
177
     3
291
     1
 70
    58
 90
        2
176
     1
 90
        2
176
     1
 90
        0
176
     1
 90
        0
176
     1
 40
0.6
176
     1
 40
30.0
176
     1
 62
     7
420
 16777215
176
     1
 90
        1
176
     1
 90
        4
176
     1
 62
     7
176
     1
 62
   257
176
     1
 90
        1
176
     1
 90
        1
176
     1
 40
1.0
176
     1
 90
       12
176
     1
 62
     7
176
     1
 40
1.0
176
     1
 90
        1
176
     1
 90
        6
176
     1
 90
        2
176
     1
 62
     7
176
     1
 90
        5
176
     1
 90
        0
176
     1
 90
        0
176
     1
290
     0
176
     1
 90
        1
176
     1
 40
0.0
176
     1
 90
        0
176
     1
290
     0
176
     1
290
     1
176
     1
290
     1
176
     1
290
     0
176
     1
290
     0
176
     1
290
     0
176
     1
290
     0
176
     1
290
     0
176
     1
290
     0
176
     1
 90
       50
176
     1
 40
0.0
176
     1
 40
1.0
176
     1
 90
        0
176
     1
 62
    18
420
        0
176
     1
 90
       50
176
     1
 90
        3
176
     1
 62
     5
420
      255
176
     1
290
     0
176
     1
 90
       50
176
     1
 90
       50
176
     1
 90
       50
176
     1
290
     0
176
     1
 90
       50
176
     1
 62
   256
176
     0
 40
1.0
176
     0
 90
        2
176
     1
  1
strokes_ogs.tif
176
     1
290
     0
176
     1
 40
1.0
176
     1
 40
1.0
176
     1
  0
VISUALSTYLE
  5
30
102
{ACAD_REACTORS
330
29
102
}
330
29
100
AcDbVisualStyle
  2
Wireframe
 70
     5
177
     3
291
     0
 70
    58
 90
        0
176
     1
 90
        2
176
     1
 90
        0
176
     1
 90
        0
176
     1
 40
0.6
176
     1
 40
30.0
176
     1
 62
     7
420
 16777215
176
     1
 90
        1
176
     1
 90
        4
176
     1
 62
     7
176
     1
 62
   257
176
     1
 90
        1
176
     1
 90
        1
176
     1
 40
1.0
176
     1
 90
        0
176
     1
 62
   257
176
     1
 40
1.0
176
     1
 90
        1
176
     1
 90
        6
176
     1
 90
        2
176
     1
 62
     7
176
     1
 90
        3
176
     1
 90
        0
176
     1
 90
        0
176
     1
290
     0
176
     1
 90
        1
176
     1
 40
0.0
176
     1
 90
        0
176
     1
290
     0
176
     1
290
     1
176
     1
290
     1
176
     1
290
     0
176
     1
290
     0
176
     1
290
     0
176
     1
290
     0
176
     1
290
     0
176
     1
290
     0
176
     1
 90
       50
176
     1
 40
0.0
176
     1
 40
1.0
176
     1
 90
        0
176
     1
 62
    18
420
        0
176
     1
 90
       50
176
     1
 90
        3
176
     1
 62
     5
420
      255
176
     1
290
     0
176
     1
 90
       50
176
     1
 90
       50
176
     1
 90
       50
176
     1
290
     0
176
     1
 90
       50
176
     1
 62
   256
176
     0
 40
1.0
176
     0
 90
        2
176
     1
  1
strokes_ogs.tif
176
     1
290
     0
176
     1
 40
1.0
176
     1
 40
1.0
176
     1
  0
VISUALSTYLE
  5
3C
102
{ACAD_REACTORS
330
29
102
}
330
29
100
AcDbVisualStyle
  2
X-Ray
 70
    25
177
     3
291
     0
 70
    58
 90
        2
176
     1
 90
        2
176
     1
 90
        1
176
     1
 90
        1
176
     1
 40
0.5
176
     1
 40
30.0
176
     1
 62
     7
420
 16777215
176
     1
 90
        1
176
     1
 90
        0
176
     1
 62
     7
176
     1
 62
   257
176
     1
 90
        1
176
     1
 90
        1
176
     1
 40
1.0
176
     1
 90
        8
176
     1
 62
     7
176
     1
 40
1.0
176
     1
 90
        1
176
     1
 90
        6
176
     1
 90
        2
176
     1
 62
     7
176
     1
 90
        3
176
     1
 90
        0
176
     1
 90
        0
176
     1
290
     0
176
     1
 90
       13
176
     1
 40
0.0
176
     1
 90
        0
176
     1
290
     0
176
     1
290
     1
176
     1
290
     1
176
     1
290
     0
176
     1
290
     0
176
     1
290
     0
176
     1
290
     0
176
     1
290
     0
176
     1
290
     0
176
     1
 90
       50
176
     1
 40
0.0
176
     1
 40
1.0
176
     1
 90
        0
176
     1
 62
    18
420
        0
176
     1
 90
       50
176
     1
 90
        3
176
     1
 62
     5
420
      255
176
     1
290
     0
176
     1
 90
       50
176
     1
 90
       50
176
     1
 90
       50
176
     1
290
     0
176
     1
 90
       50
176
     1
 62
   256
176
     0
 40
1.0
176
     0
 90
        2
176
     1
  1
strokes_ogs.tif
176
     1
290
     0
176
     1
 40
1.0
176
     1
 40
1.0
176
     1
  0
DICTIONARYVAR
  5
17E
102
{ACAD_REACTORS
330
179
102
}
330
179
100
DictionaryVariables
280
     0
  1
1:1
  0
DICTIONARYVAR
  5
17B
102
{ACAD_REACTORS
330
179
102
}
330
179
100
DictionaryVariables
280
     0
  1
STANDARD
  0
DICTIONARYVAR
  5
17A
102
{ACAD_REACTORS
330
179
102
}
330
179
100
DictionaryVariables
280
     0
  1
STANDARD
  0
DICTIONARYVAR
  5
17C
102
{ACAD_REACTORS
330
179
102
}
330
179
100
DictionaryVariables
280
     0
  1
Imperial24
  0
DICTIONARYVAR
  5
17D
102
{ACAD_REACTORS
330
179
102
}
330
179
100
DictionaryVariables
280
     0
  1
Imperial24
  0
DICTIONARY
  5
1A
330
19
100
AcDbDictionary
280
     1
281
     1
  3
BUMPTILE
360
1C
  3
DIFFUSETILE
360
1B
  3
OPACITYTILE
360
1F
  3
REFLECTIONTILE
360
1E
  3
REFRACTIONTILE
360
20
  3
SPECULARTILE
360
1D
  0
DICTIONARY
  5
12
330
11
100
AcDbDictionary
280
     1
281
     1
  3
BUMPTILE
360
14
  3
DIFFUSETILE
360
13
  3
OPACITYTILE
360
17
  3
REFLECTIONTILE
360
16
  3
REFRACTIONTILE
360
18
  3
SPECULARTILE
360
15
  0
DICTIONARY
  5
22
330
21
100
AcDbDictionary
280
     1
281
     1
  3
BUMPTILE
360
24
  3
DIFFUSETILE
360
23
  3
OPACITYTILE
360
27
  3
REFLECTIONTILE
360
26
  3
REFRACTIONTILE
360
28
  3
SPECULARTILE
360
25
  0
DICTIONARY
  5
17F
330
65
100
AcDbDictionary
280
     1
281
     1
  3
ACAD_ROUNDTRIP_2008_TABLESTYLE_CELLSTYLEMAP
360
180
  0
XRECORD
  5
1C
102
{ACAD_REACTORS
330
1A
102
}
330
1A
100
AcDbXrecord
280
     1
270
     1
271
     1
  0
XRECORD
  5
1B
102
{ACAD_REACTORS
330
1A
102
}
330
1A
100
AcDbXrecord
280
     1
270
     1
271
     1
  0
XRECORD
  5
1F
102
{ACAD_REACTORS
330
1A
102
}
330
1A
100
AcDbXrecord
280
     1
270
     1
271
     1
  0
XRECORD
  5
1E
102
{ACAD_REACTORS
330
1A
102
}
330
1A
100
AcDbXrecord
280
     1
270
     1
271
     1
  0
XRECORD
  5
20
102
{ACAD_REACTORS
330
1A
102
}
330
1A
100
AcDbXrecord
280
     1
270
     1
271
     1
  0
XRECORD
  5
1D
102
{ACAD_REACTORS
330
1A
102
}
330
1A
100
AcDbXrecord
280
     1
270
     1
271
     1
  0
XRECORD
  5
14
102
{ACAD_REACTORS
330
12
102
}
330
12
100
AcDbXrecord
280
     1
270
     1
271
     1
  0
XRECORD
  5
13
102
{ACAD_REACTORS
330
12
102
}
330
12
100
AcDbXrecord
280
     1
270
     1
271
     1
  0
XRECORD
  5
17
102
{ACAD_REACTORS
330
12
102
}
330
12
100
AcDbXrecord
280
     1
270
     1
271
     1
  0
XRECORD
  5
16
102
{ACAD_REACTORS
330
12
102
}
330
12
100
AcDbXrecord
280
     1
270
     1
271
     1
  0
XRECORD
  5
18
102
{ACAD_REACTORS
330
12
102
}
330
12
100
AcDbXrecord
280
     1
270
     1
271
     1
  0
XRECORD
  5
15
102
{ACAD_REACTORS
330
12
102
}
330
12
100
AcDbXrecord
280
     1
270
     1
271
     1
  0
XRECORD
  5
24
102
{ACAD_REACTORS
330
22
102
}
330
22
100
AcDbXrecord
280
     1
270
     1
271
     1
  0
XRECORD
  5
23
102
{ACAD_REACTORS
330
22
102
}
330
22
100
AcDbXrecord
280
     1
270
     1
271
     1
  0
XRECORD
  5
27
102
{ACAD_REACTORS
330
22
102
}
330
22
100
AcDbXrecord
280
     1
270
     1
271
     1
  0
XRECORD
  5
26
102
{ACAD_REACTORS
330
22
102
}
330
22
100
AcDbXrecord
280
     1
270
     1
271
     1
  0
XRECORD
  5
28
102
{ACAD_REACTORS
330
22
102
}
330
22
100
AcDbXrecord
280
     1
270
     1
271
     1
  0
XRECORD
  5
25
102
{ACAD_REACTORS
330
22
102
}
330
22
100
AcDbXrecord
280
     1
270
     1
271
     1
  0
CELLSTYLEMAP
  5
180
102
{ACAD_REACTORS
330
17F
102
}
330
17F
100
AcDbCellStyleMap
 90
        3
300
CELLSTYLE
  1
TABLEFORMAT_BEGIN
 90
        5
170
     1
 91
        0
 92
    32768
 62
   257
 93
        1
300
CONTENTFORMAT
  1
CONTENTFORMAT_BEGIN
 90
        0
 91
        0
 92
      512
 93
        0
300

 40
0.0
140
1.0
 94
        5
 62
     0
340
55
144
0.25
309
CONTENTFORMAT_END
171
     0
 94
        0
309
TABLEFORMAT_END
  1
CELLSTYLE_BEGIN
 90
        1
 91
        1
300
_TITLE
309
CELLSTYLE_END
300
CELLSTYLE
  1
TABLEFORMAT_BEGIN
 90
        5
170
     1
 91
        0
 92
        0
 62
   257
 93
        1
300
CONTENTFORMAT
  1
CONTENTFORMAT_BEGIN
 90
        0
 91
        0
 92
      512
 93
        0
300

 40
0.0
140
1.0
 94
        5
 62
     0
340
55
144
0.18
309
CONTENTFORMAT_END
171
     0
 94
        0
309
TABLEFORMAT_END
  1
CELLSTYLE_BEGIN
 90
        2
 91
        1
300
_HEADER
309
CELLSTYLE_END
300
CELLSTYLE
  1
TABLEFORMAT_BEGIN
 90
        5
170
     1
 91
        0
 92
        0
 62
   257
 93
        1
300
CONTENTFORMAT
  1
CONTENTFORMAT_BEGIN
 90
        0
 91
        0
 92
      512
 93
        0
300

 40
0.0
140
1.0
 94
        2
 62
     0
340
55
144
0.18
309
CONTENTFORMAT_END
171
     0
 94
        0
309
TABLEFORMAT_END
  1
CELLSTYLE_BEGIN
 90
        3
 91
        2
300
_DATA
309
CELLSTYLE_END
  0
ENDSEC
  0
EOF
