999
DXF file: bkb2002w3.dxf
999
Pro/ENGINEER 2022024 by Parametric Technology Corporation
  0
SECTION
  2
HEADER
  9
$EXTMAX
 10
210.0
 20
297.0
 30
0.0
  9
$EXTMIN
 10
0.0
 20
0.0
 30
0.0
  9
$LIMMIN
 10
0.0
 20
0.0
  9
$LIMMAX
 10
210.0
 20
297.0
  9
$VIEWCTR
 10
105.0
 20
148.5
  9
$VIEWSIZE
 40
297.0
  9
$CLAYER
  8
0
  9
$LTSCALE
 40
19.36
  9
$CELTYPE
  6
BYLAYER
  9
$DIMSCALE
 40
1.0
  9
$DIMASZ
 40
3.5
  9
$DIMEXO
 40
0.0
  9
$DIMDLI
 40
13.376
  9
$DIMEXE
 40
1.5
  9
$DIMCEN
 40
3.168
  9
$DIMLFAC
 40
1.0
  9
$DIMBLK
  1
_FILLED
  9
$DIMALT
 70
0
  9
$DIMALTF
 40
0.0393700787
  9
$DIMTXT
 40
3.0
  9
$AUNITS
 70
0
  9
$PDMODE
 70
3
  9
$PDSIZE
 40
0.3125
  9
$TILEMODE
 70
1
  0
ENDSEC
  0
SECTION
  2
TABLES
  0
TABLE
  2
LTYPE
 70
6
  0
LTYPE
  2
BYBLOCK
 70
0
  3

 72
65
 73
0
 40
0.0
  0
LTYPE
  2
BYLAYER
 70
0
  3

 72
65
 73
0
 40
0.0
  0
LTYPE
  2
CONTINUOUS
 70
64
  3
Solid line
 72
65
 73
0
 40
0.0
  0
LTYPE
  2
CENTER
 70
64
  3
____ _ ____ _ ____ _ ____ _ ____ _ ____ _ ____
 72
65
 73
4
 40
0.6
 49
0.375
 49
-0.075
 49
0.075
 49
-0.075
  0
LTYPE
  2
HIDDEN
 70
64
  3
- - - - - - - - - - - - - - - - - - - -
 72
65
 73
2
 40
0.2
 49
0.1
 49
-0.1
  0
LTYPE
  2
PHANTOM
 70
64
  3
_____ _ _ _____ _ _ _____ _ _ _____
 72
65
 73
6
 40
0.8
 49
0.45
 49
-0.05
 49
0.1
 49
-0.05
 49
0.1
 49
-0.05
  0
LTYPE
  2
DOT
 70
64
  3
. . . . . . . . . . . . . . . . . . . .
 72
65
 73
2
 40
0.2
 49
0.1
 49
-0.1
  0
LTYPE
  2
DASHED
 70
64
  3
- - - - - - - - - - - - - - - - - - - -
 72
65
 73
2
 40
0.2
 49
0.1
 49
-0.1
  0
ENDTAB
  0
TABLE
  2
LAYER
 70
36
  0
LAYER
  2
0
 70
0
 62
7
  6
CONTINUOUS
  0
LAYER
  2
DEFAULT_1
 70
0
 62
7
  6
CENTER
  0
LAYER
  2
DEFAULT_2
 70
0
 62
8
  6
HIDDEN
  0
LAYER
  2
DEFAULT_3
 70
0
 62
7
  6
PHANTOM
  0
LAYER
  2
01_STARTBEZUEGE
 70
0
 62
7
  6
CONTINUOUS
  0
LAYER
  2
ASSEMBLY
 70
0
 62
7
  6
CONTINUOUS
  0
LAYER
  2
AXIS
 70
0
 62
7
  6
CONTINUOUS
  0
LAYER
  2
BEZUGSACHSEN
 70
0
 62
7
  6
CONTINUOUS
  0
LAYER
  2
BEZUGSEBENEN
 70
0
 62
7
  6
CONTINUOUS
  0
LAYER
  2
BEZUGSPUNKTE
 70
0
 62
7
  6
CONTINUOUS
  0
LAYER
  2
BOHRUNGEN
 70
0
 62
7
  6
CONTINUOUS
  0
LAYER
  2
CSYS
 70
0
 62
7
  6
CONTINUOUS
  0
LAYER
  2
FASEN
 70
0
 62
7
  6
CONTINUOUS
  0
LAYER
  2
GEWINDE
 70
0
 62
7
  6
CONTINUOUS
  0
LAYER
  2
KOORDINATENSYSTEME
 70
0
 62
7
  6
CONTINUOUS
  0
LAYER
  2
KURVEN
 70
0
 62
7
  6
CONTINUOUS
  0
LAYER
  2
NOTIZ
 70
0
 62
7
  6
CONTINUOUS
  0
LAYER
  2
PLANES
 70
0
 62
7
  6
CONTINUOUS
  0
LAYER
  2
RUNDUNGEN
 70
0
 62
7
  6
CONTINUOUS
  0
LAYER
  2
SKELETON_MODELS
 70
0
 62
7
  6
CONTINUOUS
  0
ENDTAB
  0
TABLE
  2
STYLE
 70
1
  0
STYLE
  2
STANDARD
 70
0
 40
0.0
 41
0.8
 50
0.0
 71
0
 42
0.2
  3
txt
  4

  0
STYLE
  2
TEXTSTYLE_1
 70
0
 40
0.0
 41
0.8
 50
0.0
 71
0
 42
0.2
  3
gdt
  4

  0
ENDTAB
  0
ENDSEC
  0
SECTION
  2
BLOCKS
  0
BLOCK
  8
0
  2
_FILLED
 70
64
 10
0.0
 20
0.0
  0
SOLID
  8
0
  6
BYBLOCK
 62
0
 10
0.0
 20
0.0
 11
-1.0
 21
0.125
 12
-1.0
 22
-0.125
 13
-1.0
 23
-0.125
  0
ENDBLK
  8
0
  6
BYBLOCK
 62
0
  0
ENDSEC
  0
SECTION
  2
ENTITIES
  0
LINE
  8
0
 62
7
  6
CONTINUOUS
 10
-21.8007138608
 20
133.3356038073
 11
-21.8007138608
 21
181.1356038073
  0
LINE
  8
0
 62
7
  6
CONTINUOUS
 10
-19.2007138608
 20
131.1356038073
 11
-19.2007138608
 21
170.3356038073
  0
LINE
  8
0
 62
7
  6
CONTINUOUS
 10
-21.8007138608
 20
133.3356038073
 11
-20.3007138608
 21
131.1356038073
  0
LINE
  8
0
 62
7
  6
CONTINUOUS
 10
-12.1007138608
 20
170.3356038073
 11
-12.1007138608
 21
176.6856038073
  0
LINE
  8
0
 62
7
  6
CONTINUOUS
 10
-12.1007138608
 20
177.7856038073
 11
-12.1007138608
 21
181.1356038073
  0
LINE
  8
0
 62
7
  6
CONTINUOUS
 10
-9.3540136931
 20
179.9356038073
 11
-9.3540136931
 21
177.9356038073
  0
LINE
  8
0
 62
7
  6
CONTINUOUS
 10
7.8992861392
 20
176.6856038073
 11
7.8992861392
 21
177.7856038073
  0
LINE
  8
0
 62
7
  6
CONTINUOUS
 10
11.4506208882
 20
179.9356038073
 11
12.8447002113
 21
181.2356038073
  0
LINE
  8
0
 62
7
  6
CONTINUOUS
 10
19.6992861392
 20
177.9356038073
 11
19.6992861392
 21
134.2356038073
  0
LINE
  8
0
 62
7
  6
CONTINUOUS
 10
21.6992861392
 20
181.2356038073
 11
21.6992861392
 21
134.2356038073
  0
LINE
  8
0
 62
7
  6
CONTINUOUS
 10
-20.3007138608
 20
131.1356038073
 11
-19.2007138608
 21
131.1356038073
  0
LINE
  8
0
 62
7
  6
CONTINUOUS
 10
21.6992861392
 20
134.2356038073
 11
19.6992861392
 21
134.2356038073
  0
LINE
  8
0
 62
7
  6
CONTINUOUS
 10
-19.2007138608
 20
170.3356038073
 11
-12.1007138608
 21
170.3356038073
  0
LINE
  8
0
 62
7
  6
CONTINUOUS
 10
21.6992861392
 20
175.2356038073
 11
171.1992861392
 21
175.2356038073
  0
LINE
  8
0
 62
7
  6
CONTINUOUS
 10
-12.1007138608
 20
176.6856038073
 11
7.8992861392
 21
176.6856038073
  0
LINE
  8
0
 62
7
  6
CONTINUOUS
 10
7.8992861392
 20
177.7856038073
 11
-12.1007138608
 21
177.7856038073
  0
LINE
  8
0
 62
7
  6
CONTINUOUS
 10
-9.3540136931
 20
177.9356038073
 11
19.6992861392
 21
177.9356038073
  0
LINE
  8
0
 62
7
  6
CONTINUOUS
 10
11.4506208882
 20
179.9356038073
 11
-9.3540136931
 21
179.9356038073
  0
LINE
  8
0
 62
7
  6
CONTINUOUS
 10
-12.1007138608
 20
181.1356038073
 11
-21.8007138608
 21
181.1356038073
  0
LINE
  8
0
 62
7
  6
CONTINUOUS
 10
12.8447002113
 20
181.2356038073
 11
21.6992861392
 21
181.2356038073
  0
LINE
  8
0
 62
3
  6
CONTINUOUS
 10
21.6992861392
 20
181.2356038073
 11
171.1992861392
 21
181.2356038073
  0
LINE
  8
0
 62
7
  6
CONTINUOUS
 10
171.1992861392
 20
181.2356038073
 11
171.1992861392
 21
175.2356038073
  0
ENDSEC
  0
EOF
