999
DXF file: bkb3002.dxf
999
Pro/ENGINEER 2022024 by Parametric Technology Corporation
  0
SECTION
  2
HEADER
  9
$EXTMAX
 10
420.0
 20
297.0
 30
0.0
  9
$EXTMIN
 10
0.0
 20
-0.0
 30
0.0
  9
$LIMMIN
 10
0.0
 20
-0.0
  9
$LIMMAX
 10
420.0
 20
297.0
  9
$VIEWCTR
 10
210.0
 20
148.5
  9
$VIEWSIZE
 40
297.0
  9
$CLAYER
  8
0
  9
$LTSCALE
 40
23.1
  9
$CELTYPE
  6
BYLAYER
  9
$DIMSCALE
 40
1.0
  9
$DIMASZ
 40
3.5
  9
$DIMEXO
 40
0.0
  9
$DIMDLI
 40
15.96
  9
$DIMEXE
 40
1.5
  9
$DIMCEN
 40
3.78
  9
$DIMLFAC
 40
1.0
  9
$DIMBLK
  1
_FILLED
  9
$DIMALT
 70
0
  9
$DIMALTF
 40
0.0393700787
  9
$DIMTXT
 40
3.5
  9
$AUNITS
 70
0
  9
$PDMODE
 70
3
  9
$PDSIZE
 40
0.3125
  9
$TILEMODE
 70
1
  0
ENDSEC
  0
SECTION
  2
TABLES
  0
TABLE
  2
LTYPE
 70
6
  0
LTYPE
  2
BYBLOCK
 70
0
  3

 72
65
 73
0
 40
0.0
  0
LTYPE
  2
BYLAYER
 70
0
  3

 72
65
 73
0
 40
0.0
  0
LTYPE
  2
CONTINUOUS
 70
64
  3
Solid line
 72
65
 73
0
 40
0.0
  0
LTYPE
  2
CENTER
 70
64
  3
____ _ ____ _ ____ _ ____ _ ____ _ ____ _ ____
 72
65
 73
4
 40
0.6
 49
0.375
 49
-0.075
 49
0.075
 49
-0.075
  0
LTYPE
  2
HIDDEN
 70
64
  3
- - - - - - - - - - - - - - - - - - - -
 72
65
 73
2
 40
0.2
 49
0.1
 49
-0.1
  0
LTYPE
  2
PHANTOM
 70
64
  3
_____ _ _ _____ _ _ _____ _ _ _____
 72
65
 73
6
 40
0.8
 49
0.45
 49
-0.05
 49
0.1
 49
-0.05
 49
0.1
 49
-0.05
  0
LTYPE
  2
DOT
 70
64
  3
. . . . . . . . . . . . . . . . . . . .
 72
65
 73
2
 40
0.2
 49
0.1
 49
-0.1
  0
LTYPE
  2
DASHED
 70
64
  3
- - - - - - - - - - - - - - - - - - - -
 72
65
 73
2
 40
0.2
 49
0.1
 49
-0.1
  0
ENDTAB
  0
TABLE
  2
LAYER
 70
36
  0
LAYER
  2
0
 70
0
 62
7
  6
CONTINUOUS
  0
LAYER
  2
DEFAULT_1
 70
0
 62
7
  6
CENTER
  0
LAYER
  2
DEFAULT_2
 70
0
 62
8
  6
HIDDEN
  0
LAYER
  2
DEFAULT_3
 70
0
 62
7
  6
PHANTOM
  0
LAYER
  2
01_STARTBEZUEGE
 70
0
 62
7
  6
CONTINUOUS
  0
LAYER
  2
ASSEMBLY
 70
0
 62
7
  6
CONTINUOUS
  0
LAYER
  2
AXIS
 70
0
 62
7
  6
CONTINUOUS
  0
LAYER
  2
BEZUGSACHSEN
 70
0
 62
7
  6
CONTINUOUS
  0
LAYER
  2
BEZUGSEBENEN
 70
0
 62
7
  6
CONTINUOUS
  0
LAYER
  2
BEZUGSPUNKTE
 70
0
 62
7
  6
CONTINUOUS
  0
LAYER
  2
BOHRUNGEN
 70
0
 62
7
  6
CONTINUOUS
  0
LAYER
  2
CSYS
 70
0
 62
7
  6
CONTINUOUS
  0
LAYER
  2
FASEN
 70
0
 62
7
  6
CONTINUOUS
  0
LAYER
  2
GEWINDE
 70
0
 62
7
  6
CONTINUOUS
  0
LAYER
  2
KOORDINATENSYSTEME
 70
0
 62
7
  6
CONTINUOUS
  0
LAYER
  2
KURVEN
 70
0
 62
7
  6
CONTINUOUS
  0
LAYER
  2
NOTIZ
 70
0
 62
7
  6
CONTINUOUS
  0
LAYER
  2
PLANES
 70
0
 62
7
  6
CONTINUOUS
  0
LAYER
  2
RUNDUNGEN
 70
0
 62
7
  6
CONTINUOUS
  0
LAYER
  2
SKELETON_MODELS
 70
0
 62
7
  6
CONTINUOUS
  0
ENDTAB
  0
TABLE
  2
STYLE
 70
1
  0
STYLE
  2
STANDARD
 70
0
 40
0.0
 41
0.7
 50
0.0
 71
0
 42
0.2
  3
txt
  4

  0
STYLE
  2
TEXTSTYLE_1
 70
0
 40
0.0
 41
0.8
 50
0.0
 71
0
 42
0.2
  3
gdt
  4

  0
ENDTAB
  0
ENDSEC
  0
SECTION
  2
BLOCKS
  0
BLOCK
  8
0
  2
_FILLED
 70
64
 10
0.0
 20
0.0
  0
SOLID
  8
0
  6
BYBLOCK
 62
0
 10
0.0
 20
0.0
 11
-1.0
 21
0.125
 12
-1.0
 22
-0.125
 13
-1.0
 23
-0.125
  0
ENDBLK
  8
0
  6
BYBLOCK
 62
0
  0
ENDSEC
  0
SECTION
  2
ENTITIES
  0
LINE
  8
0
 62
7
  6
CONTINUOUS
 10
1.4183306709
 20
107.7236821086
 11
1.4183306709
 21
155.5236821086
  0
LINE
  8
0
 62
7
  6
CONTINUOUS
 10
4.0183306709
 20
105.5236821086
 11
4.0183306709
 21
144.7236821086
  0
LINE
  8
0
 62
7
  6
CONTINUOUS
 10
11.1183306709
 20
144.7236821086
 11
11.1183306709
 21
151.0736821086
  0
LINE
  8
0
 62
7
  6
CONTINUOUS
 10
11.1183306709
 20
152.1736821086
 11
11.1183306709
 21
155.5236821086
  0
LINE
  8
0
 62
7
  6
CONTINUOUS
 10
13.8650308386
 20
154.3236821086
 11
13.8650308386
 21
152.3236821086
  0
LINE
  8
0
 62
7
  6
CONTINUOUS
 10
1.4183306709
 20
107.7236821086
 11
2.9183306709
 21
105.5236821086
  0
LINE
  8
0
 62
7
  6
CONTINUOUS
 10
31.1183306709
 20
151.0736821086
 11
31.1183306709
 21
152.1736821086
  0
LINE
  8
0
 62
7
  6
CONTINUOUS
 10
42.9183306709
 20
152.3236821086
 11
42.9183306709
 21
108.6236821086
  0
LINE
  8
0
 62
7
  6
CONTINUOUS
 10
44.9183306709
 20
155.6236821086
 11
44.9183306709
 21
108.6236821086
  0
LINE
  8
0
 62
7
  6
CONTINUOUS
 10
34.66966542
 20
154.3236821086
 11
36.063744743
 21
155.6236821086
  0
LINE
  8
0
 62
7
  6
CONTINUOUS
 10
2.9183306709
 20
105.5236821086
 11
4.0183306709
 21
105.5236821086
  0
LINE
  8
0
 62
7
  6
CONTINUOUS
 10
44.9183306709
 20
108.6236821086
 11
42.9183306709
 21
108.6236821086
  0
LINE
  8
0
 62
7
  6
CONTINUOUS
 10
4.0183306709
 20
144.7236821086
 11
11.1183306709
 21
144.7236821086
  0
LINE
  8
0
 62
7
  6
CONTINUOUS
 10
11.1183306709
 20
151.0736821086
 11
31.1183306709
 21
151.0736821086
  0
LINE
  8
0
 62
7
  6
CONTINUOUS
 10
31.1183306709
 20
152.1736821086
 11
11.1183306709
 21
152.1736821086
  0
LINE
  8
0
 62
7
  6
CONTINUOUS
 10
13.8650308386
 20
152.3236821086
 11
42.9183306709
 21
152.3236821086
  0
LINE
  8
0
 62
7
  6
CONTINUOUS
 10
44.9183306709
 20
152.6236821086
 11
294.4183306709
 21
152.6236821086
  0
LINE
  8
0
 62
7
  6
CONTINUOUS
 10
34.66966542
 20
154.3236821086
 11
13.8650308386
 21
154.3236821086
  0
LINE
  8
0
 62
7
  6
CONTINUOUS
 10
11.1183306709
 20
155.5236821086
 11
1.4183306709
 21
155.5236821086
  0
LINE
  8
0
 62
7
  6
CONTINUOUS
 10
36.063744743
 20
155.6236821086
 11
44.9183306709
 21
155.6236821086
  0
LINE
  8
0
 62
3
  6
CONTINUOUS
 10
44.9183306709
 20
155.6236821086
 11
294.4183306709
 21
155.6236821086
  0
LINE
  8
0
 62
7
  6
CONTINUOUS
 10
294.4183306709
 20
155.6236821086
 11
294.4183306709
 21
152.6236821086
  0
ENDSEC
  0
EOF
