999
DXF file: bkb200532.dxf
999
Pro/ENGINEER 2022024 by Parametric Technology Corporation
  0
SECTION
  2
HEADER
  9
$EXTMAX
 10
210.0
 20
297.0
 30
0.0
  9
$EXTMIN
 10
0.0
 20
0.0
 30
0.0
  9
$LIMMIN
 10
0.0
 20
0.0
  9
$LIMMAX
 10
210.0
 20
297.0
  9
$VIEWCTR
 10
105.0
 20
148.5
  9
$VIEWSIZE
 40
297.0
  9
$CLAYER
  8
0
  9
$LTSCALE
 40
19.36
  9
$CELTYPE
  6
BYLAYER
  9
$DIMSCALE
 40
1.0
  9
$DIMASZ
 40
3.5
  9
$DIMEXO
 40
0.0
  9
$DIMDLI
 40
13.376
  9
$DIMEXE
 40
1.5
  9
$DIMCEN
 40
3.168
  9
$DIMLFAC
 40
1.0
  9
$DIMBLK
  1
_FILLED
  9
$DIMALT
 70
0
  9
$DIMALTF
 40
0.0393700787
  9
$DIMTXT
 40
3.0
  9
$AUNITS
 70
0
  9
$PDMODE
 70
3
  9
$PDSIZE
 40
0.3125
  9
$TILEMODE
 70
1
  0
ENDSEC
  0
SECTION
  2
TABLES
  0
TABLE
  2
LTYPE
 70
6
  0
LTYPE
  2
BYBLOCK
 70
0
  3

 72
65
 73
0
 40
0.0
  0
LTYPE
  2
BYLAYER
 70
0
  3

 72
65
 73
0
 40
0.0
  0
LTYPE
  2
CONTINUOUS
 70
64
  3
Solid line
 72
65
 73
0
 40
0.0
  0
LTYPE
  2
CENTER
 70
64
  3
____ _ ____ _ ____ _ ____ _ ____ _ ____ _ ____
 72
65
 73
4
 40
0.6
 49
0.375
 49
-0.075
 49
0.075
 49
-0.075
  0
LTYPE
  2
HIDDEN
 70
64
  3
- - - - - - - - - - - - - - - - - - - -
 72
65
 73
2
 40
0.2
 49
0.1
 49
-0.1
  0
LTYPE
  2
PHANTOM
 70
64
  3
_____ _ _ _____ _ _ _____ _ _ _____
 72
65
 73
6
 40
0.8
 49
0.45
 49
-0.05
 49
0.1
 49
-0.05
 49
0.1
 49
-0.05
  0
LTYPE
  2
DOT
 70
64
  3
. . . . . . . . . . . . . . . . . . . .
 72
65
 73
2
 40
0.2
 49
0.1
 49
-0.1
  0
LTYPE
  2
DASHED
 70
64
  3
- - - - - - - - - - - - - - - - - - - -
 72
65
 73
2
 40
0.2
 49
0.1
 49
-0.1
  0
ENDTAB
  0
TABLE
  2
LAYER
 70
36
  0
LAYER
  2
0
 70
0
 62
7
  6
CONTINUOUS
  0
LAYER
  2
DEFAULT_1
 70
0
 62
7
  6
CENTER
  0
LAYER
  2
DEFAULT_2
 70
0
 62
8
  6
HIDDEN
  0
LAYER
  2
DEFAULT_3
 70
0
 62
7
  6
PHANTOM
  0
LAYER
  2
01_STARTBEZUEGE
 70
0
 62
7
  6
CONTINUOUS
  0
LAYER
  2
AXIS
 70
0
 62
7
  6
CONTINUOUS
  0
LAYER
  2
BEZUGSACHSEN
 70
0
 62
7
  6
CONTINUOUS
  0
LAYER
  2
BEZUGSEBENEN
 70
0
 62
7
  6
CONTINUOUS
  0
LAYER
  2
BEZUGSPUNKTE
 70
0
 62
7
  6
CONTINUOUS
  0
LAYER
  2
BOHRUNGEN
 70
0
 62
7
  6
CONTINUOUS
  0
LAYER
  2
CSYS
 70
0
 62
7
  6
CONTINUOUS
  0
LAYER
  2
FASEN
 70
0
 62
7
  6
CONTINUOUS
  0
LAYER
  2
GEWINDE
 70
0
 62
7
  6
CONTINUOUS
  0
LAYER
  2
KOORDINATENSYSTEME
 70
0
 62
7
  6
CONTINUOUS
  0
LAYER
  2
NOTIZ
 70
0
 62
7
  6
CONTINUOUS
  0
LAYER
  2
PLANES
 70
0
 62
7
  6
CONTINUOUS
  0
LAYER
  2
RUNDUNGEN
 70
0
 62
7
  6
CONTINUOUS
  0
ENDTAB
  0
TABLE
  2
STYLE
 70
1
  0
STYLE
  2
STANDARD
 70
0
 40
0.0
 41
0.8
 50
0.0
 71
0
 42
0.2
  3
txt
  4

  0
STYLE
  2
TEXTSTYLE_1
 70
0
 40
0.0
 41
0.8
 50
0.0
 71
0
 42
0.2
  3
gdt
  4

  0
ENDTAB
  0
ENDSEC
  0
SECTION
  2
BLOCKS
  0
BLOCK
  8
0
  2
_FILLED
 70
64
 10
0.0
 20
0.0
  0
SOLID
  8
0
  6
BYBLOCK
 62
0
 10
0.0
 20
0.0
 11
-1.0
 21
0.125
 12
-1.0
 22
-0.125
 13
-1.0
 23
-0.125
  0
ENDBLK
  8
0
  6
BYBLOCK
 62
0
  0
ENDSEC
  0
SECTION
  2
ENTITIES
  0
LINE
  8
0
 62
7
  6
CONTINUOUS
 10
-70.4633774539
 20
293.6979848305
 11
-70.4633774539
 21
290.6979848305
  0
LINE
  8
0
 62
7
  6
CONTINUOUS
 10
79.0366225461
 20
293.6979848305
 11
79.0366225461
 21
246.6979848305
  0
LINE
  8
0
 62
7
  6
CONTINUOUS
 10
274.0366225461
 20
243.6979848305
 11
119.9366225461
 21
243.6979848305
  0
LINE
  8
0
 62
7
  6
CONTINUOUS
 10
274.0366225461
 20
245.8979848305
 11
122.7366225461
 21
245.8979848305
  0
LINE
  8
0
 62
7
  6
CONTINUOUS
 10
79.0366225461
 20
246.6979848305
 11
119.9366225461
 21
246.6979848305
  0
LINE
  8
0
 62
7
  6
CONTINUOUS
 10
81.0366225461
 20
246.6979848305
 11
81.0366225461
 21
290.3979848305
  0
LINE
  8
0
 62
7
  6
CONTINUOUS
 10
92.8366225461
 20
289.2479848305
 11
92.8366225461
 21
290.3479848305
  0
LINE
  8
0
 62
7
  6
CONTINUOUS
 10
110.3319157156
 20
290.3979848305
 11
110.3319157156
 21
292.3979848305
  0
LINE
  8
0
 62
7
  6
CONTINUOUS
 10
112.8366225461
 20
282.8979848305
 11
112.8366225461
 21
289.2479848305
  0
LINE
  8
0
 62
7
  6
CONTINUOUS
 10
112.8366225461
 20
290.3479848305
 11
112.8366225461
 21
293.6979848305
  0
LINE
  8
0
 62
7
  6
CONTINUOUS
 10
89.4319157156
 20
292.3979848305
 11
88.0378363926
 21
293.6979848305
  0
LINE
  8
0
 62
7
  6
CONTINUOUS
 10
119.9366225461
 20
243.6979848305
 11
119.9366225461
 21
282.8979848305
  0
LINE
  8
0
 62
7
  6
CONTINUOUS
 10
122.5366225461
 20
293.6979848305
 11
122.5366225461
 21
245.8979848305
  0
LINE
  8
0
 62
7
  6
CONTINUOUS
 10
122.7366225461
 20
293.6979848305
 11
122.7366225461
 21
245.8979848305
  0
LINE
  8
0
 62
7
  6
CONTINUOUS
 10
119.9366225461
 20
282.8979848305
 11
112.8366225461
 21
282.8979848305
  0
LINE
  8
0
 62
7
  6
CONTINUOUS
 10
92.8366225461
 20
289.2479848305
 11
112.8366225461
 21
289.2479848305
  0
LINE
  8
0
 62
7
  6
CONTINUOUS
 10
92.8366225461
 20
290.3479848305
 11
112.8366225461
 21
290.3479848305
  0
LINE
  8
0
 62
7
  6
CONTINUOUS
 10
81.0366225461
 20
290.3979848305
 11
112.8366225461
 21
290.3979848305
  0
LINE
  8
0
 62
7
  6
CONTINUOUS
 10
-70.4633774539
 20
290.6979848305
 11
79.0366225461
 21
290.6979848305
  0
LINE
  8
0
 62
7
  6
CONTINUOUS
 10
89.4319157156
 20
292.3979848305
 11
112.8366225461
 21
292.3979848305
  0
LINE
  8
0
 62
7
  6
CONTINUOUS
 10
121.0366225461
 20
243.6979848305
 11
122.5366225461
 21
245.8979848305
  0
LINE
  8
0
 62
7
  6
CONTINUOUS
 10
121.2366225461
 20
243.6979848305
 11
122.7366225461
 21
245.8979848305
  0
LINE
  8
0
 62
3
  6
CONTINUOUS
 10
-70.4633774539
 20
293.6979848305
 11
79.0366225461
 21
293.6979848305
  0
LINE
  8
0
 62
7
  6
CONTINUOUS
 10
79.0366225461
 20
293.6979848305
 11
274.0366225461
 21
293.6979848305
  0
LINE
  8
0
 62
7
  6
CONTINUOUS
 10
274.0366225461
 20
243.6979848305
 11
274.0366225461
 21
293.6979848305
  0
LINE
  8
0
 62
3
  6
CONTINUOUS
 10
-70.4633774539
 20
222.3931840363
 11
-70.4633774539
 21
-122.1068159637
  0
LINE
  8
0
 62
3
  6
CONTINUOUS
 10
-70.4633774539
 20
-122.1068159637
 11
79.0366225461
 21
-122.1068159637
  0
LINE
  8
0
 62
7
  6
CONTINUOUS
 10
79.0366225461
 20
-122.1068159637
 11
122.5366225461
 21
-122.1068159637
  0
LINE
  8
0
 62
3
  6
CONTINUOUS
 10
79.0366225461
 20
-122.1068159637
 11
79.0366225461
 21
72.8931840363
  0
LINE
  8
0
 62
7
  6
CONTINUOUS
 10
122.7366225461
 20
29.3931840363
 11
274.0366225461
 21
29.3931840363
  0
LINE
  8
0
 62
7
  6
CONTINUOUS
 10
88.0378363926
 20
63.8919701898
 11
88.0378363926
 21
-122.1068159637
  0
LINE
  8
0
 62
7
  6
CONTINUOUS
 10
89.4319157156
 20
62.4978908668
 11
89.4319157156
 21
-122.1068159637
  0
LINE
  8
0
 62
7
  6
CONTINUOUS
 10
113.0366225461
 20
39.0931840363
 11
274.0366225461
 21
39.0931840363
  0
LINE
  8
0
 62
7
  6
CONTINUOUS
 10
110.3319157156
 20
41.5978908668
 11
274.0366225461
 21
41.5978908668
  0
LINE
  8
0
 62
7
  6
CONTINUOUS
 10
79.0366225461
 20
72.8931840363
 11
110.3319157156
 21
41.5978908668
  0
LINE
  8
0
 62
7
  6
CONTINUOUS
 10
110.5319157156
 20
41.5978908668
 11
112.8366225461
 21
39.2931840363
  0
LINE
  8
0
 62
7
  6
CONTINUOUS
 10
113.0366225461
 20
39.0931840363
 11
122.7366225461
 21
29.3931840363
  0
LINE
  8
0
 62
7
  6
CONTINUOUS
 10
110.6319157156
 20
41.5978908668
 11
122.5366225461
 21
29.6931840363
  0
LINE
  8
0
 62
7
  6
CONTINUOUS
 10
110.3319157156
 20
-122.1068159637
 11
110.3319157156
 21
41.5978908668
  0
LINE
  8
0
 62
7
  6
CONTINUOUS
 10
112.8366225461
 20
-122.1068159637
 11
112.8366225461
 21
39.3931840363
  0
LINE
  8
0
 62
7
  6
CONTINUOUS
 10
274.0366225461
 20
62.4978908668
 11
89.4319157156
 21
62.4978908668
  0
LINE
  8
0
 62
7
  6
CONTINUOUS
 10
274.0366225461
 20
63.8919701898
 11
88.0378363926
 21
63.8919701898
  0
LINE
  8
0
 62
7
  6
CONTINUOUS
 10
122.5366225461
 20
-122.1068159637
 11
122.5366225461
 21
29.6931840363
  0
LINE
  8
0
 62
3
  6
CONTINUOUS
 10
79.0366225461
 20
72.8931840363
 11
274.0366225461
 21
72.8931840363
  0
LINE
  8
0
 62
7
  6
CONTINUOUS
 10
274.0366225461
 20
29.3931840363
 11
274.0366225461
 21
72.8931840363
  0
LINE
  8
0
 62
3
  6
CONTINUOUS
 10
274.0366225461
 20
72.8931840363
 11
274.0366225461
 21
222.3931840363
  0
LINE
  8
0
 62
3
  6
CONTINUOUS
 10
274.0366225461
 20
222.3931840363
 11
-70.4633774539
 21
222.3931840363
  0
ENDSEC
  0
EOF
