999
DXF file: bkb200542.dxf
999
Pro/ENGINEER 2022024 by Parametric Technology Corporation
  0
SECTION
  2
HEADER
  9
$EXTMAX
 10
594.0
 20
420.0
 30
0.0
  9
$EXTMIN
 10
0.0
 20
0.0
 30
0.0
  9
$LIMMIN
 10
0.0
 20
0.0
  9
$LIMMAX
 10
594.0
 20
420.0
  9
$VIEWCTR
 10
297.0
 20
210.0
  9
$VIEWSIZE
 40
420.0
  9
$CLAYER
  8
0
  9
$LTSCALE
 40
32.67
  9
$CELTYPE
  6
BYLAYER
  9
$DIMSCALE
 40
1.0
  9
$DIMASZ
 40
3.5
  9
$DIMEXO
 40
0.0
  9
$DIMDLI
 40
22.572
  9
$DIMEXE
 40
1.5
  9
$DIMCEN
 40
5.346
  9
$DIMLFAC
 40
1.0
  9
$DIMBLK
  1
_FILLED
  9
$DIMALT
 70
0
  9
$DIMALTF
 40
0.0393700787
  9
$DIMTXT
 40
3.5
  9
$AUNITS
 70
0
  9
$PDMODE
 70
3
  9
$PDSIZE
 40
0.3125
  9
$TILEMODE
 70
1
  0
ENDSEC
  0
SECTION
  2
TABLES
  0
TABLE
  2
LTYPE
 70
6
  0
LTYPE
  2
BYBLOCK
 70
0
  3

 72
65
 73
0
 40
0.0
  0
LTYPE
  2
BYLAYER
 70
0
  3

 72
65
 73
0
 40
0.0
  0
LTYPE
  2
CONTINUOUS
 70
64
  3
Solid line
 72
65
 73
0
 40
0.0
  0
LTYPE
  2
CENTER
 70
64
  3
____ _ ____ _ ____ _ ____ _ ____ _ ____ _ ____
 72
65
 73
4
 40
0.6
 49
0.375
 49
-0.075
 49
0.075
 49
-0.075
  0
LTYPE
  2
HIDDEN
 70
64
  3
- - - - - - - - - - - - - - - - - - - -
 72
65
 73
2
 40
0.2
 49
0.1
 49
-0.1
  0
LTYPE
  2
PHANTOM
 70
64
  3
_____ _ _ _____ _ _ _____ _ _ _____
 72
65
 73
6
 40
0.8
 49
0.45
 49
-0.05
 49
0.1
 49
-0.05
 49
0.1
 49
-0.05
  0
LTYPE
  2
DOT
 70
64
  3
. . . . . . . . . . . . . . . . . . . .
 72
65
 73
2
 40
0.2
 49
0.1
 49
-0.1
  0
LTYPE
  2
DASHED
 70
64
  3
- - - - - - - - - - - - - - - - - - - -
 72
65
 73
2
 40
0.2
 49
0.1
 49
-0.1
  0
ENDTAB
  0
TABLE
  2
LAYER
 70
36
  0
LAYER
  2
0
 70
0
 62
7
  6
CONTINUOUS
  0
LAYER
  2
DEFAULT_1
 70
0
 62
7
  6
CENTER
  0
LAYER
  2
DEFAULT_2
 70
0
 62
8
  6
HIDDEN
  0
LAYER
  2
DEFAULT_3
 70
0
 62
7
  6
PHANTOM
  0
LAYER
  2
01_STARTBEZUEGE
 70
0
 62
7
  6
CONTINUOUS
  0
LAYER
  2
AXIS
 70
0
 62
7
  6
CONTINUOUS
  0
LAYER
  2
BEZUGSACHSEN
 70
0
 62
7
  6
CONTINUOUS
  0
LAYER
  2
BEZUGSEBENEN
 70
0
 62
7
  6
CONTINUOUS
  0
LAYER
  2
BEZUGSPUNKTE
 70
0
 62
7
  6
CONTINUOUS
  0
LAYER
  2
BOHRUNGEN
 70
0
 62
7
  6
CONTINUOUS
  0
LAYER
  2
CSYS
 70
0
 62
7
  6
CONTINUOUS
  0
LAYER
  2
FASEN
 70
0
 62
7
  6
CONTINUOUS
  0
LAYER
  2
GEWINDE
 70
0
 62
7
  6
CONTINUOUS
  0
LAYER
  2
KOORDINATENSYSTEME
 70
0
 62
7
  6
CONTINUOUS
  0
LAYER
  2
NOTIZ
 70
0
 62
7
  6
CONTINUOUS
  0
LAYER
  2
PLANES
 70
0
 62
7
  6
CONTINUOUS
  0
LAYER
  2
RUNDUNGEN
 70
0
 62
7
  6
CONTINUOUS
  0
ENDTAB
  0
TABLE
  2
STYLE
 70
1
  0
STYLE
  2
STANDARD
 70
0
 40
0.0
 41
0.7
 50
0.0
 71
0
 42
0.2
  3
txt
  4

  0
STYLE
  2
TEXTSTYLE_1
 70
0
 40
0.0
 41
0.8
 50
0.0
 71
0
 42
0.2
  3
gdt
  4

  0
ENDTAB
  0
ENDSEC
  0
SECTION
  2
BLOCKS
  0
BLOCK
  8
0
  2
_FILLED
 70
64
 10
0.0
 20
0.0
  0
SOLID
  8
0
  6
BYBLOCK
 62
0
 10
0.0
 20
0.0
 11
-1.0
 21
0.125
 12
-1.0
 22
-0.125
 13
-1.0
 23
-0.125
  0
ENDBLK
  8
0
  6
BYBLOCK
 62
0
  0
ENDSEC
  0
SECTION
  2
ENTITIES
  0
LINE
  8
0
 62
7
  6
CONTINUOUS
 10
116.478704777
 20
383.5084107348
 11
116.478704777
 21
431.3084107348
  0
LINE
  8
0
 62
7
  6
CONTINUOUS
 10
119.078704777
 20
381.3084107348
 11
119.078704777
 21
420.5084107348
  0
LINE
  8
0
 62
7
  6
CONTINUOUS
 10
126.178704777
 20
420.5084107348
 11
126.178704777
 21
426.8584107348
  0
LINE
  8
0
 62
7
  6
CONTINUOUS
 10
126.178704777
 20
427.9584107348
 11
126.178704777
 21
431.3084107348
  0
LINE
  8
0
 62
7
  6
CONTINUOUS
 10
128.578704777
 20
428.0084107348
 11
128.578704777
 21
430.0084107348
  0
LINE
  8
0
 62
7
  6
CONTINUOUS
 10
128.6834116075
 20
428.0084107348
 11
128.6834116075
 21
430.0084107348
  0
LINE
  8
0
 62
7
  6
CONTINUOUS
 10
116.478704777
 20
383.5084107348
 11
117.978704777
 21
381.3084107348
  0
LINE
  8
0
 62
7
  6
CONTINUOUS
 10
146.178704777
 20
426.8584107348
 11
146.178704777
 21
427.9584107348
  0
LINE
  8
0
 62
7
  6
CONTINUOUS
 10
157.8739979466
 20
384.3084107348
 11
157.8739979466
 21
428.0084107348
  0
LINE
  8
0
 62
7
  6
CONTINUOUS
 10
157.978704777
 20
384.3084107348
 11
157.978704777
 21
428.0084107348
  0
LINE
  8
0
 62
7
  6
CONTINUOUS
 10
159.978704777
 20
431.3084107348
 11
159.978704777
 21
384.3084107348
  0
LINE
  8
0
 62
7
  6
CONTINUOUS
 10
149.478704777
 20
430.0084107348
 11
150.8727841001
 21
431.3084107348
  0
LINE
  8
0
 62
7
  6
CONTINUOUS
 10
149.5834116075
 20
430.0084107348
 11
150.9774909305
 21
431.3084107348
  0
LINE
  8
0
 62
7
  6
CONTINUOUS
 10
117.978704777
 20
381.3084107348
 11
463.978704777
 21
381.3084107348
  0
LINE
  8
0
 62
7
  6
CONTINUOUS
 10
157.8739979466
 20
384.3084107348
 11
463.978704777
 21
384.3084107348
  0
LINE
  8
0
 62
7
  6
CONTINUOUS
 10
309.478704777
 20
431.3084107348
 11
309.478704777
 21
428.3084107348
  0
LINE
  8
0
 62
7
  6
CONTINUOUS
 10
119.078704777
 20
420.5084107348
 11
157.8739979466
 21
420.5084107348
  0
LINE
  8
0
 62
7
  6
CONTINUOUS
 10
126.178704777
 20
426.8584107348
 11
157.8739979466
 21
426.8584107348
  0
LINE
  8
0
 62
7
  6
CONTINUOUS
 10
126.178704777
 20
427.9584107348
 11
157.8739979466
 21
427.9584107348
  0
LINE
  8
0
 62
7
  6
CONTINUOUS
 10
157.978704777
 20
428.0084107348
 11
128.578704777
 21
428.0084107348
  0
LINE
  8
0
 62
7
  6
CONTINUOUS
 10
159.978704777
 20
428.3084107348
 11
463.978704777
 21
428.3084107348
  0
LINE
  8
0
 62
7
  6
CONTINUOUS
 10
128.578704777
 20
430.0084107348
 11
149.5834116075
 21
430.0084107348
  0
LINE
  8
0
 62
7
  6
CONTINUOUS
 10
116.478704777
 20
431.3084107348
 11
159.978704777
 21
431.3084107348
  0
LINE
  8
0
 62
3
  6
CONTINUOUS
 10
159.978704777
 20
431.3084107348
 11
463.978704777
 21
431.3084107348
  0
LINE
  8
0
 62
7
  6
CONTINUOUS
 10
463.978704777
 20
381.3084107348
 11
463.978704777
 21
431.3084107348
  0
LINE
  8
0
 62
7
  6
CONTINUOUS
 10
116.478704777
 20
349.1458572206
 11
116.478704777
 21
1.6458572206
  0
LINE
  8
0
 62
7
  6
CONTINUOUS
 10
126.178704777
 20
339.4458572206
 11
126.178704777
 21
1.6458572206
  0
LINE
  8
0
 62
7
  6
CONTINUOUS
 10
116.478704777
 20
1.6458572206
 11
159.978704777
 21
1.6458572206
  0
LINE
  8
0
 62
3
  6
CONTINUOUS
 10
159.978704777
 20
1.6458572206
 11
309.478704777
 21
1.6458572206
  0
LINE
  8
0
 62
7
  6
CONTINUOUS
 10
128.6834116075
 20
337.0458572206
 11
128.6834116075
 21
1.6458572206
  0
LINE
  8
0
 62
7
  6
CONTINUOUS
 10
149.5834116075
 20
1.6458572206
 11
149.5834116075
 21
315.9364435596
  0
LINE
  8
0
 62
7
  6
CONTINUOUS
 10
150.9774909305
 20
1.6458572206
 11
150.9774909305
 21
314.7517778975
  0
LINE
  8
0
 62
3
  6
CONTINUOUS
 10
159.978704777
 20
305.6458572206
 11
159.978704777
 21
1.6458572206
  0
LINE
  8
0
 62
7
  6
CONTINUOUS
 10
159.978704777
 20
305.6458572206
 11
159.978704777
 21
305.750564051
  0
LINE
  8
0
 62
3
  6
CONTINUOUS
 10
309.478704777
 20
156.1458572206
 11
463.978704777
 21
156.1458572206
  0
LINE
  8
0
 62
7
  6
CONTINUOUS
 10
159.8739979466
 20
305.6458572206
 11
128.578704777
 21
336.9411503901
  0
LINE
  8
0
 62
7
  6
CONTINUOUS
 10
128.6834116075
 20
336.9411503901
 11
116.478704777
 21
349.1458572206
  0
LINE
  8
0
 62
7
  6
CONTINUOUS
 10
159.978704777
 20
305.750564051
 11
128.6834116075
 21
337.0458572206
  0
LINE
  8
0
 62
3
  6
CONTINUOUS
 10
309.478704777
 20
1.6458572206
 11
309.478704777
 21
156.1458572206
  0
LINE
  8
0
 62
3
  6
CONTINUOUS
 10
463.978704777
 20
305.6458572206
 11
159.978704777
 21
305.6458572206
  0
LINE
  8
0
 62
7
  6
CONTINUOUS
 10
159.8739979466
 20
305.6458572206
 11
159.978704777
 21
305.6458572206
  0
LINE
  8
0
 62
7
  6
CONTINUOUS
 10
150.8727841001
 20
314.6470710671
 11
463.978704777
 21
314.6470710671
  0
LINE
  8
0
 62
7
  6
CONTINUOUS
 10
149.688118438
 20
316.0411503901
 11
463.978704777
 21
316.0411503901
  0
LINE
  8
0
 62
7
  6
CONTINUOUS
 10
463.978704777
 20
336.9411503901
 11
128.578704777
 21
336.9411503901
  0
LINE
  8
0
 62
7
  6
CONTINUOUS
 10
463.978704777
 20
339.4458572206
 11
126.178704777
 21
339.4458572206
  0
LINE
  8
0
 62
3
  6
CONTINUOUS
 10
463.978704777
 20
156.1458572206
 11
463.978704777
 21
305.6458572206
  0
LINE
  8
0
 62
7
  6
CONTINUOUS
 10
463.978704777
 20
305.6458572206
 11
463.978704777
 21
349.1458572206
  0
LINE
  8
0
 62
7
  6
CONTINUOUS
 10
463.978704777
 20
349.1458572206
 11
116.478704777
 21
349.1458572206
  0
ENDSEC
  0
EOF
