999
DXF file: bkb200542w3.dxf
999
Pro/ENGINEER 2022024 by Parametric Technology Corporation
  0
SECTION
  2
HEADER
  9
$EXTMAX
 10
210.0
 20
297.0
 30
0.0
  9
$EXTMIN
 10
0.0
 20
0.0
 30
0.0
  9
$LIMMIN
 10
0.0
 20
0.0
  9
$LIMMAX
 10
210.0
 20
297.0
  9
$VIEWCTR
 10
105.0
 20
148.5
  9
$VIEWSIZE
 40
297.0
  9
$CLAYER
  8
0
  9
$LTSCALE
 40
19.36
  9
$CELTYPE
  6
BYLAYER
  9
$DIMSCALE
 40
1.0
  9
$DIMASZ
 40
3.5
  9
$DIMEXO
 40
0.0
  9
$DIMDLI
 40
13.376
  9
$DIMEXE
 40
1.5
  9
$DIMCEN
 40
3.168
  9
$DIMLFAC
 40
1.0
  9
$DIMBLK
  1
_FILLED
  9
$DIMALT
 70
0
  9
$DIMALTF
 40
0.0393700787
  9
$DIMTXT
 40
3.0
  9
$AUNITS
 70
0
  9
$PDMODE
 70
3
  9
$PDSIZE
 40
0.3125
  9
$TILEMODE
 70
1
  0
ENDSEC
  0
SECTION
  2
TABLES
  0
TABLE
  2
LTYPE
 70
6
  0
LTYPE
  2
BYBLOCK
 70
0
  3

 72
65
 73
0
 40
0.0
  0
LTYPE
  2
BYLAYER
 70
0
  3

 72
65
 73
0
 40
0.0
  0
LTYPE
  2
CONTINUOUS
 70
64
  3
Solid line
 72
65
 73
0
 40
0.0
  0
LTYPE
  2
CENTER
 70
64
  3
____ _ ____ _ ____ _ ____ _ ____ _ ____ _ ____
 72
65
 73
4
 40
0.6
 49
0.375
 49
-0.075
 49
0.075
 49
-0.075
  0
LTYPE
  2
HIDDEN
 70
64
  3
- - - - - - - - - - - - - - - - - - - -
 72
65
 73
2
 40
0.2
 49
0.1
 49
-0.1
  0
LTYPE
  2
PHANTOM
 70
64
  3
_____ _ _ _____ _ _ _____ _ _ _____
 72
65
 73
6
 40
0.8
 49
0.45
 49
-0.05
 49
0.1
 49
-0.05
 49
0.1
 49
-0.05
  0
LTYPE
  2
DOT
 70
64
  3
. . . . . . . . . . . . . . . . . . . .
 72
65
 73
2
 40
0.2
 49
0.1
 49
-0.1
  0
LTYPE
  2
DASHED
 70
64
  3
- - - - - - - - - - - - - - - - - - - -
 72
65
 73
2
 40
0.2
 49
0.1
 49
-0.1
  0
ENDTAB
  0
TABLE
  2
LAYER
 70
36
  0
LAYER
  2
0
 70
0
 62
7
  6
CONTINUOUS
  0
LAYER
  2
DEFAULT_1
 70
0
 62
7
  6
CENTER
  0
LAYER
  2
DEFAULT_2
 70
0
 62
8
  6
HIDDEN
  0
LAYER
  2
DEFAULT_3
 70
0
 62
7
  6
PHANTOM
  0
LAYER
  2
01_STARTBEZUEGE
 70
0
 62
7
  6
CONTINUOUS
  0
LAYER
  2
AXIS
 70
0
 62
7
  6
CONTINUOUS
  0
LAYER
  2
BEZUGSACHSEN
 70
0
 62
7
  6
CONTINUOUS
  0
LAYER
  2
BEZUGSEBENEN
 70
0
 62
7
  6
CONTINUOUS
  0
LAYER
  2
BEZUGSPUNKTE
 70
0
 62
7
  6
CONTINUOUS
  0
LAYER
  2
BOHRUNGEN
 70
0
 62
7
  6
CONTINUOUS
  0
LAYER
  2
CSYS
 70
0
 62
7
  6
CONTINUOUS
  0
LAYER
  2
FASEN
 70
0
 62
7
  6
CONTINUOUS
  0
LAYER
  2
GEWINDE
 70
0
 62
7
  6
CONTINUOUS
  0
LAYER
  2
KOORDINATENSYSTEME
 70
0
 62
7
  6
CONTINUOUS
  0
LAYER
  2
NOTIZ
 70
0
 62
7
  6
CONTINUOUS
  0
LAYER
  2
PLANES
 70
0
 62
7
  6
CONTINUOUS
  0
LAYER
  2
RUNDUNGEN
 70
0
 62
7
  6
CONTINUOUS
  0
ENDTAB
  0
TABLE
  2
STYLE
 70
1
  0
STYLE
  2
STANDARD
 70
0
 40
0.0
 41
0.8
 50
0.0
 71
0
 42
0.2
  3
txt
  4

  0
STYLE
  2
TEXTSTYLE_1
 70
0
 40
0.0
 41
0.8
 50
0.0
 71
0
 42
0.2
  3
gdt
  4

  0
ENDTAB
  0
ENDSEC
  0
SECTION
  2
BLOCKS
  0
BLOCK
  8
0
  2
_FILLED
 70
64
 10
0.0
 20
0.0
  0
SOLID
  8
0
  6
BYBLOCK
 62
0
 10
0.0
 20
0.0
 11
-1.0
 21
0.125
 12
-1.0
 22
-0.125
 13
-1.0
 23
-0.125
  0
ENDBLK
  8
0
  6
BYBLOCK
 62
0
  0
ENDSEC
  0
SECTION
  2
ENTITIES
  0
LINE
  8
0
 62
7
  6
CONTINUOUS
 10
-114.2010707912
 20
238.2455086258
 11
-114.2010707912
 21
286.0455086258
  0
LINE
  8
0
 62
7
  6
CONTINUOUS
 10
-111.6010707912
 20
236.0455086258
 11
-111.6010707912
 21
275.2455086258
  0
LINE
  8
0
 62
7
  6
CONTINUOUS
 10
-104.5010707912
 20
275.2455086258
 11
-104.5010707912
 21
281.5955086258
  0
LINE
  8
0
 62
7
  6
CONTINUOUS
 10
-104.5010707912
 20
282.6955086258
 11
-104.5010707912
 21
286.0455086258
  0
LINE
  8
0
 62
7
  6
CONTINUOUS
 10
-102.1010707912
 20
282.7455086258
 11
-102.1010707912
 21
284.7455086258
  0
LINE
  8
0
 62
7
  6
CONTINUOUS
 10
-101.9963639607
 20
282.7455086258
 11
-101.9963639607
 21
284.7455086258
  0
LINE
  8
0
 62
7
  6
CONTINUOUS
 10
-114.2010707912
 20
238.2455086258
 11
-112.7010707912
 21
236.0455086258
  0
LINE
  8
0
 62
7
  6
CONTINUOUS
 10
-84.5010707912
 20
281.5955086258
 11
-84.5010707912
 21
282.6955086258
  0
LINE
  8
0
 62
7
  6
CONTINUOUS
 10
-72.8057776217
 20
239.0455086258
 11
-72.8057776217
 21
282.7455086258
  0
LINE
  8
0
 62
7
  6
CONTINUOUS
 10
-72.7010707912
 20
239.0455086258
 11
-72.7010707912
 21
282.7455086258
  0
LINE
  8
0
 62
7
  6
CONTINUOUS
 10
-70.7010707912
 20
286.0455086258
 11
-70.7010707912
 21
239.0455086258
  0
LINE
  8
0
 62
7
  6
CONTINUOUS
 10
-81.2010707912
 20
284.7455086258
 11
-79.8069914682
 21
286.0455086258
  0
LINE
  8
0
 62
7
  6
CONTINUOUS
 10
-81.0963639607
 20
284.7455086258
 11
-79.7022846377
 21
286.0455086258
  0
LINE
  8
0
 62
7
  6
CONTINUOUS
 10
233.2989292088
 20
236.0455086258
 11
-112.7010707912
 21
236.0455086258
  0
LINE
  8
0
 62
7
  6
CONTINUOUS
 10
233.2989292088
 20
239.0455086258
 11
-72.8057776217
 21
239.0455086258
  0
LINE
  8
0
 62
7
  6
CONTINUOUS
 10
78.7989292088
 20
286.0455086258
 11
78.7989292088
 21
280.0455086258
  0
LINE
  8
0
 62
7
  6
CONTINUOUS
 10
-72.8057776217
 20
275.2455086258
 11
-111.6010707912
 21
275.2455086258
  0
LINE
  8
0
 62
7
  6
CONTINUOUS
 10
-70.7010707912
 20
280.0455086258
 11
233.2989292088
 21
280.0455086258
  0
LINE
  8
0
 62
7
  6
CONTINUOUS
 10
-104.5010707912
 20
281.5955086258
 11
-72.8057776217
 21
281.5955086258
  0
LINE
  8
0
 62
7
  6
CONTINUOUS
 10
-72.8057776217
 20
282.6955086258
 11
-104.5010707912
 21
282.6955086258
  0
LINE
  8
0
 62
7
  6
CONTINUOUS
 10
-72.7010707912
 20
282.7455086258
 11
-102.1010707912
 21
282.7455086258
  0
LINE
  8
0
 62
7
  6
CONTINUOUS
 10
-81.0963639607
 20
284.7455086258
 11
-102.1010707912
 21
284.7455086258
  0
LINE
  8
0
 62
7
  6
CONTINUOUS
 10
-70.7010707912
 20
286.0455086258
 11
-114.2010707912
 21
286.0455086258
  0
LINE
  8
0
 62
3
  6
CONTINUOUS
 10
-70.7010707912
 20
286.0455086258
 11
233.2989292088
 21
286.0455086258
  0
LINE
  8
0
 62
7
  6
CONTINUOUS
 10
233.2989292088
 20
236.0455086258
 11
233.2989292088
 21
286.0455086258
  0
LINE
  8
0
 62
7
  6
CONTINUOUS
 10
-114.2010707912
 20
219.510261749
 11
-114.2010707912
 21
-127.989738251
  0
LINE
  8
0
 62
7
  6
CONTINUOUS
 10
-104.5010707912
 20
209.810261749
 11
-104.5010707912
 21
-127.989738251
  0
LINE
  8
0
 62
3
  6
CONTINUOUS
 10
-70.7010707912
 20
-127.989738251
 11
78.7989292088
 21
-127.989738251
  0
LINE
  8
0
 62
7
  6
CONTINUOUS
 10
-70.7010707912
 20
-127.989738251
 11
-114.2010707912
 21
-127.989738251
  0
LINE
  8
0
 62
7
  6
CONTINUOUS
 10
-101.9963639607
 20
207.410261749
 11
-101.9963639607
 21
-127.989738251
  0
LINE
  8
0
 62
7
  6
CONTINUOUS
 10
-81.0963639607
 20
-127.989738251
 11
-81.0963639607
 21
186.300848088
  0
LINE
  8
0
 62
7
  6
CONTINUOUS
 10
-79.7022846377
 20
-127.989738251
 11
-79.7022846377
 21
185.1161824259
  0
LINE
  8
0
 62
3
  6
CONTINUOUS
 10
-70.7010707912
 20
176.010261749
 11
-70.7010707912
 21
-127.989738251
  0
LINE
  8
0
 62
7
  6
CONTINUOUS
 10
-70.7010707912
 20
176.010261749
 11
-70.7010707912
 21
176.1149685794
  0
LINE
  8
0
 62
3
  6
CONTINUOUS
 10
78.7989292088
 20
26.510261749
 11
233.2989292088
 21
26.510261749
  0
LINE
  8
0
 62
7
  6
CONTINUOUS
 10
-70.8057776217
 20
176.010261749
 11
-102.1010707912
 21
207.3055549185
  0
LINE
  8
0
 62
7
  6
CONTINUOUS
 10
-101.9963639607
 20
207.3055549185
 11
-114.2010707912
 21
219.510261749
  0
LINE
  8
0
 62
7
  6
CONTINUOUS
 10
-70.7010707912
 20
176.1149685794
 11
-101.9963639607
 21
207.410261749
  0
LINE
  8
0
 62
3
  6
CONTINUOUS
 10
78.7989292088
 20
-127.989738251
 11
78.7989292088
 21
26.510261749
  0
LINE
  8
0
 62
7
  6
CONTINUOUS
 10
-70.8057776217
 20
176.010261749
 11
-70.7010707912
 21
176.010261749
  0
LINE
  8
0
 62
3
  6
CONTINUOUS
 10
233.2989292088
 20
176.010261749
 11
-70.7010707912
 21
176.010261749
  0
LINE
  8
0
 62
7
  6
CONTINUOUS
 10
-79.8069914682
 20
185.0114755955
 11
233.2989292088
 21
185.0114755955
  0
LINE
  8
0
 62
7
  6
CONTINUOUS
 10
-80.9916571303
 20
186.4055549185
 11
233.2989292088
 21
186.4055549185
  0
LINE
  8
0
 62
7
  6
CONTINUOUS
 10
233.2989292088
 20
207.3055549185
 11
-102.1010707912
 21
207.3055549185
  0
LINE
  8
0
 62
7
  6
CONTINUOUS
 10
233.2989292088
 20
209.810261749
 11
-104.5010707912
 21
209.810261749
  0
LINE
  8
0
 62
3
  6
CONTINUOUS
 10
233.2989292088
 20
26.510261749
 11
233.2989292088
 21
176.010261749
  0
LINE
  8
0
 62
7
  6
CONTINUOUS
 10
233.2989292088
 20
176.010261749
 11
233.2989292088
 21
219.510261749
  0
LINE
  8
0
 62
7
  6
CONTINUOUS
 10
233.2989292088
 20
219.510261749
 11
-114.2010707912
 21
219.510261749
  0
ENDSEC
  0
EOF
