999
DXF file: bkb200601.dxf
999
Pro/ENGINEER 2022024 by Parametric Technology Corporation
  0
SECTION
  2
HEADER
  9
$EXTMAX
 10
297.0
 20
210.0
 30
0.0
  9
$EXTMIN
 10
0.0
 20
0.0
 30
0.0
  9
$LIMMIN
 10
0.0
 20
0.0
  9
$LIMMAX
 10
297.0
 20
210.0
  9
$VIEWCTR
 10
148.5
 20
105.0
  9
$VIEWSIZE
 40
210.0
  9
$CLAYER
  8
0
  9
$LTSCALE
 40
16.335
  9
$CELTYPE
  6
BYLAYER
  9
$DIMSCALE
 40
1.0
  9
$DIMASZ
 40
3.5
  9
$DIMEXO
 40
0.0
  9
$DIMDLI
 40
11.286
  9
$DIMEXE
 40
1.5
  9
$DIMCEN
 40
2.673
  9
$DIMLFAC
 40
1.0
  9
$DIMBLK
  1
_FILLED
  9
$DIMALT
 70
0
  9
$DIMALTF
 40
0.0393700787
  9
$DIMTXT
 40
3.0
  9
$AUNITS
 70
0
  9
$PDMODE
 70
3
  9
$PDSIZE
 40
0.3125
  9
$TILEMODE
 70
1
  0
ENDSEC
  0
SECTION
  2
TABLES
  0
TABLE
  2
LTYPE
 70
6
  0
LTYPE
  2
BYBLOCK
 70
0
  3

 72
65
 73
0
 40
0.0
  0
LTYPE
  2
BYLAYER
 70
0
  3

 72
65
 73
0
 40
0.0
  0
LTYPE
  2
CONTINUOUS
 70
64
  3
Solid line
 72
65
 73
0
 40
0.0
  0
LTYPE
  2
CENTER
 70
64
  3
____ _ ____ _ ____ _ ____ _ ____ _ ____ _ ____
 72
65
 73
4
 40
0.6
 49
0.375
 49
-0.075
 49
0.075
 49
-0.075
  0
LTYPE
  2
HIDDEN
 70
64
  3
- - - - - - - - - - - - - - - - - - - -
 72
65
 73
2
 40
0.2
 49
0.1
 49
-0.1
  0
LTYPE
  2
PHANTOM
 70
64
  3
_____ _ _ _____ _ _ _____ _ _ _____
 72
65
 73
6
 40
0.8
 49
0.45
 49
-0.05
 49
0.1
 49
-0.05
 49
0.1
 49
-0.05
  0
LTYPE
  2
DOT
 70
64
  3
. . . . . . . . . . . . . . . . . . . .
 72
65
 73
2
 40
0.2
 49
0.1
 49
-0.1
  0
LTYPE
  2
DASHED
 70
64
  3
- - - - - - - - - - - - - - - - - - - -
 72
65
 73
2
 40
0.2
 49
0.1
 49
-0.1
  0
ENDTAB
  0
TABLE
  2
LAYER
 70
36
  0
LAYER
  2
0
 70
0
 62
7
  6
CONTINUOUS
  0
LAYER
  2
DEFAULT_1
 70
0
 62
7
  6
CENTER
  0
LAYER
  2
DEFAULT_2
 70
0
 62
8
  6
HIDDEN
  0
LAYER
  2
DEFAULT_3
 70
0
 62
7
  6
PHANTOM
  0
LAYER
  2
01_STARTBEZUEGE
 70
0
 62
7
  6
CONTINUOUS
  0
LAYER
  2
ASSEMBLY
 70
0
 62
7
  6
CONTINUOUS
  0
LAYER
  2
AUSFORMSCHRAEGEN
 70
0
 62
7
  6
CONTINUOUS
  0
LAYER
  2
AXIS
 70
0
 62
7
  6
CONTINUOUS
  0
LAYER
  2
BEZUGSACHSEN
 70
0
 62
7
  6
CONTINUOUS
  0
LAYER
  2
BEZUGSEBENEN
 70
0
 62
7
  6
CONTINUOUS
  0
LAYER
  2
BEZUGSPUNKTE
 70
0
 62
7
  6
CONTINUOUS
  0
LAYER
  2
BOHRUNGEN
 70
0
 62
7
  6
CONTINUOUS
  0
LAYER
  2
CSYS
 70
0
 62
7
  6
CONTINUOUS
  0
LAYER
  2
FASEN
 70
0
 62
7
  6
CONTINUOUS
  0
LAYER
  2
FLAECHEN
 70
0
 62
7
  6
CONTINUOUS
  0
LAYER
  2
GEWINDE
 70
0
 62
7
  6
CONTINUOUS
  0
LAYER
  2
GTOL
 70
0
 62
7
  6
CONTINUOUS
  0
LAYER
  2
KONSTRUKTIONSELEMENTE
 70
0
 62
7
  6
CONTINUOUS
  0
LAYER
  2
KOORDINATENSYSTEME
 70
0
 62
7
  6
CONTINUOUS
  0
LAYER
  2
KURVEN
 70
0
 62
7
  6
CONTINUOUS
  0
LAYER
  2
NOTIZ
 70
0
 62
7
  6
CONTINUOUS
  0
LAYER
  2
PLANES
 70
0
 62
7
  6
CONTINUOUS
  0
LAYER
  2
RUNDUNGEN
 70
0
 62
7
  6
CONTINUOUS
  0
LAYER
  2
SKELETON_MODELS
 70
0
 62
7
  6
CONTINUOUS
  0
LAYER
  2
STARTBEZUEGE
 70
0
 62
7
  6
CONTINUOUS
  0
LAYER
  2
SURFACES
 70
0
 62
7
  6
CONTINUOUS
  0
LAYER
  2
VOLUMEN
 70
0
 62
7
  6
CONTINUOUS
  0
LAYER
  2
XSEC_DATUMS
 70
0
 62
7
  6
CONTINUOUS
  0
ENDTAB
  0
TABLE
  2
STYLE
 70
1
  0
STYLE
  2
STANDARD
 70
0
 40
0.0
 41
0.8
 50
0.0
 71
0
 42
0.2
  3
txt
  4

  0
STYLE
  2
TEXTSTYLE_1
 70
0
 40
0.0
 41
0.8
 50
0.0
 71
0
 42
0.2
  3
gdt
  4

  0
ENDTAB
  0
ENDSEC
  0
SECTION
  2
BLOCKS
  0
BLOCK
  8
0
  2
_FILLED
 70
64
 10
0.0
 20
0.0
  0
SOLID
  8
0
  6
BYBLOCK
 62
0
 10
0.0
 20
0.0
 11
-1.0
 21
0.125
 12
-1.0
 22
-0.125
 13
-1.0
 23
-0.125
  0
ENDBLK
  8
0
  6
BYBLOCK
 62
0
  0
ENDSEC
  0
SECTION
  2
ENTITIES
  0
LINE
  8
BEZUGSACHSEN
 62
3
  6
CONTINUOUS
 10
-2.3343062165
 20
70.0960101874
 11
-2.3343062165
 21
125.0960101874
  0
LINE
  8
BEZUGSACHSEN
 62
7
  6
CONTINUOUS
 10
-0.3343062165
 20
70.0960101874
 11
-0.3343062165
 21
125.0960101874
  0
LINE
  8
0
 62
3
  6
CONTINUOUS
 10
-0.1343062165
 20
113.2960101874
 11
-0.1343062165
 21
120.8960101874
  0
LINE
  8
KONSTRUKTIONSELEMENTE
 62
9
  6
CONTINUOUS
 10
0.6656937835
 20
67.0960101874
 11
0.6656937835
 21
69.0960101874
  0
LINE
  8
0
 62
7
  6
CONTINUOUS
 10
0.8656937835
 20
113.2960101874
 11
0.8656937835
 21
120.8960101874
  0
LINE
  8
0
 62
9
  6
CONTINUOUS
 10
1.8656937835
 20
122.8960101874
 11
1.8656937835
 21
121.8960101874
  0
LINE
  8
0
 62
7
  6
CONTINUOUS
 10
2.2656937835
 20
114.2798852179
 11
2.2656937835
 21
92.3960101874
  0
LINE
  8
0
 62
7
  6
CONTINUOUS
 10
3.7656937835
 20
106.5960101874
 11
3.7656937835
 21
114.2798852179
  0
LINE
  8
0
 62
7
  6
CONTINUOUS
 10
12.2656937835
 20
92.3960101874
 11
12.2656937835
 21
106.3960101874
  0
LINE
  8
BEZUGSACHSEN
 62
7
  6
CONTINUOUS
 10
42.6656937835
 20
69.1960101874
 11
42.6656937835
 21
71.0960101874
  0
LINE
  8
0
 62
7
  6
CONTINUOUS
 10
47.0656937835
 20
119.5960101874
 11
47.0656937835
 21
117.5960101874
  0
LINE
  8
BEZUGSACHSEN
 62
7
  6
CONTINUOUS
 10
52.6656937835
 20
69.1960101874
 11
52.6656937835
 21
71.0960101874
  0
LINE
  8
0
 62
9
  6
CONTINUOUS
 10
57.0656937835
 20
119.5960101874
 11
57.0656937835
 21
117.5960101874
  0
LINE
  8
0
 62
7
  6
CONTINUOUS
 10
58.0656937835
 20
72.0960101874
 11
58.0656937835
 21
116.5960101874
  0
LINE
  8
0
 62
3
  6
CONTINUOUS
 10
60.0656937835
 20
72.0960101874
 11
60.0656937835
 21
116.5960101874
  0
LINE
  8
0
 62
9
  6
CONTINUOUS
 10
61.0656937835
 20
69.0960101874
 11
61.0656937835
 21
71.0960101874
  0
LINE
  8
BEZUGSACHSEN
 62
3
  6
CONTINUOUS
 10
194.6656937835
 20
67.0960101874
 11
0.6656937835
 21
67.0960101874
  0
LINE
  8
BEZUGSACHSEN
 62
7
  6
CONTINUOUS
 10
0.6656937835
 20
69.0960101874
 11
194.6656937835
 21
69.0960101874
  0
LINE
  8
BEZUGSACHSEN
 62
9
  6
CONTINUOUS
 10
52.6656937835
 20
69.1960101874
 11
42.6656937835
 21
69.1960101874
  0
LINE
  8
BEZUGSACHSEN
 62
9
  6
CONTINUOUS
 10
142.6656937835
 20
69.1960101874
 11
152.6656937835
 21
69.1960101874
  0
LINE
  8
KONSTRUKTIONSELEMENTE
 62
9
  6
CONTINUOUS
 10
197.6656937835
 20
70.0960101874
 11
195.6656937835
 21
70.0960101874
  0
LINE
  8
KONSTRUKTIONSELEMENTE
 62
9
  6
CONTINUOUS
 10
-2.3343062165
 20
70.0960101874
 11
-0.3343062165
 21
70.0960101874
  0
LINE
  8
BEZUGSACHSEN
 62
7
  6
CONTINUOUS
 10
152.6656937835
 20
71.0960101874
 11
142.6656937835
 21
71.0960101874
  0
LINE
  8
BEZUGSACHSEN
 62
7
  6
CONTINUOUS
 10
42.6656937835
 20
71.0960101874
 11
52.6656937835
 21
71.0960101874
  0
LINE
  8
0
 62
3
  6
CONTINUOUS
 10
61.0656937835
 20
71.0960101874
 11
80.0656937835
 21
71.0960101874
  0
LINE
  8
0
 62
9
  6
CONTINUOUS
 10
58.0656937835
 20
72.0960101874
 11
60.0656937835
 21
72.0960101874
  0
LINE
  8
KONSTRUKTIONSELEMENTE
 62
7
  6
CONTINUOUS
 10
193.6656937835
 20
72.0960101874
 11
195.6656937835
 21
72.0960101874
  0
LINE
  8
0
 62
7
  6
CONTINUOUS
 10
80.0656937835
 20
71.0960101874
 11
80.0656937835
 21
69.0960101874
  0
LINE
  8
0
 62
7
  6
CONTINUOUS
 10
85.0656937835
 20
121.5960101874
 11
85.0656937835
 21
69.0960101874
  0
LINE
  8
0
 62
7
  6
CONTINUOUS
 10
183.1656937835
 20
91.8960101874
 11
193.6656937835
 21
91.8960101874
  0
LINE
  8
0
 62
7
  6
CONTINUOUS
 10
2.2656937835
 20
92.3960101874
 11
12.2656937835
 21
92.3960101874
  0
LINE
  8
0
 62
7
  6
CONTINUOUS
 10
109.6656937835
 20
121.5960101874
 11
109.6656937835
 21
69.0960101874
  0
LINE
  8
0
 62
7
  6
CONTINUOUS
 10
169.4656937835
 20
104.8960101874
 11
183.1656937835
 21
104.8960101874
  0
LINE
  8
0
 62
7
  6
CONTINUOUS
 10
12.2656937835
 20
106.3960101874
 11
3.9656937835
 21
106.3960101874
  0
LINE
  8
0
 62
7
  6
CONTINUOUS
 10
-0.1343062165
 20
113.2960101874
 11
0.8656937835
 21
113.2960101874
  0
LINE
  8
0
 62
7
  6
CONTINUOUS
 10
2.2656937835
 20
114.2798852179
 11
3.7656937835
 21
114.2798852179
  0
LINE
  8
0
 62
9
  6
CONTINUOUS
 10
60.0656937835
 20
116.5960101874
 11
58.0656937835
 21
116.5960101874
  0
LINE
  8
0
 62
7
  6
CONTINUOUS
 10
57.0656937835
 20
117.5960101874
 11
47.0656937835
 21
117.5960101874
  0
LINE
  8
0
 62
3
  6
CONTINUOUS
 10
57.0656937835
 20
119.5960101874
 11
47.0656937835
 21
119.5960101874
  0
LINE
  8
0
 62
9
  6
CONTINUOUS
 10
-0.1343062165
 20
120.8960101874
 11
0.8656937835
 21
120.8960101874
  0
LINE
  8
0
 62
7
  6
CONTINUOUS
 10
85.0656937835
 20
121.5960101874
 11
109.6656937835
 21
121.5960101874
  0
LINE
  8
0
 62
7
  6
CONTINUOUS
 10
195.4656937835
 20
121.8960101874
 11
1.8656937835
 21
121.8960101874
  0
LINE
  8
KONSTRUKTIONSELEMENTE
 62
7
  6
CONTINUOUS
 10
195.6656937835
 20
122.0960101874
 11
195.4656937835
 21
122.0960101874
  0
LINE
  8
0
 62
3
  6
CONTINUOUS
 10
195.4656937835
 20
122.8960101874
 11
1.8656937835
 21
122.8960101874
  0
LINE
  8
BEZUGSACHSEN
 62
7
  6
CONTINUOUS
 10
-0.3343062165
 20
123.0960101874
 11
-2.3343062165
 21
123.0960101874
  0
LINE
  8
FASEN
 62
7
  6
CONTINUOUS
 10
195.6656937835
 20
123.0960101874
 11
197.6656937835
 21
123.0960101874
  0
LINE
  8
BEZUGSACHSEN
 62
7
  6
CONTINUOUS
 10
-0.3343062165
 20
125.0960101874
 11
-2.3343062165
 21
125.0960101874
  0
LINE
  8
FASEN
 62
7
  6
CONTINUOUS
 10
195.6656937835
 20
125.0960101874
 11
197.6656937835
 21
125.0960101874
  0
LINE
  8
BEZUGSACHSEN
 62
7
  6
CONTINUOUS
 10
142.6656937835
 20
71.0960101874
 11
142.6656937835
 21
69.1960101874
  0
LINE
  8
BEZUGSACHSEN
 62
7
  6
CONTINUOUS
 10
152.6656937835
 20
71.0960101874
 11
152.6656937835
 21
69.1960101874
  0
LINE
  8
0
 62
7
  6
CONTINUOUS
 10
169.4656937835
 20
121.8960101874
 11
169.4656937835
 21
104.8960101874
  0
LINE
  8
0
 62
7
  6
CONTINUOUS
 10
183.1656937835
 20
104.8960101874
 11
183.1656937835
 21
91.8960101874
  0
LINE
  8
KONSTRUKTIONSELEMENTE
 62
7
  6
CONTINUOUS
 10
193.6656937835
 20
121.8960101874
 11
193.6656937835
 21
72.0960101874
  0
LINE
  8
KONSTRUKTIONSELEMENTE
 62
9
  6
CONTINUOUS
 10
194.6656937835
 20
67.0960101874
 11
194.6656937835
 21
69.0960101874
  0
LINE
  8
0
 62
7
  6
CONTINUOUS
 10
195.4656937835
 20
122.8960101874
 11
195.4656937835
 21
121.8960101874
  0
LINE
  8
FASEN
 62
7
  6
CONTINUOUS
 10
195.6656937835
 20
70.0960101874
 11
195.6656937835
 21
125.0960101874
  0
LINE
  8
FASEN
 62
3
  6
CONTINUOUS
 10
197.6656937835
 20
70.0960101874
 11
197.6656937835
 21
125.0960101874
  0
ARC
  8
0
 62
7
  6
CONTINUOUS
 10
61.0656937835
 20
72.0960101874
 40
3.0
 50
180.0
 51
270.0
  0
ARC
  8
0
 62
3
  6
CONTINUOUS
 10
57.0656937835
 20
116.5960101874
 40
3.0
 50
0.0
 51
90.0
  0
ARC
  8
KONSTRUKTIONSELEMENTE
 62
3
  6
CONTINUOUS
 10
194.6656937835
 20
70.0960101874
 40
3.0
 50
270.0
 51
360.0
  0
ARC
  8
KONSTRUKTIONSELEMENTE
 62
3
  6
CONTINUOUS
 10
0.6656937835
 20
70.0960101874
 40
3.0
 50
180.0
 51
270.0
  0
ARC
  8
0
 62
3
  6
CONTINUOUS
 10
1.8656937835
 20
120.8960101874
 40
2.0
 50
90.0
 51
180.0
  0
ARC
  8
0
 62
7
  6
CONTINUOUS
 10
57.0656937835
 20
116.5960101874
 40
1.0
 50
0.0
 51
90.0
  0
ARC
  8
0
 62
7
  6
CONTINUOUS
 10
1.8656937835
 20
120.8960101874
 40
1.0
 50
90.0
 51
180.0
  0
ARC
  8
KONSTRUKTIONSELEMENTE
 62
7
  6
CONTINUOUS
 10
194.6656937835
 20
70.0960101874
 40
1.0
 50
270.0
 51
360.0
  0
ARC
  8
KONSTRUKTIONSELEMENTE
 62
7
  6
CONTINUOUS
 10
0.6656937835
 20
70.0960101874
 40
1.0
 50
180.0
 51
270.0
  0
ARC
  8
0
 62
3
  6
CONTINUOUS
 10
61.0656937835
 20
72.0960101874
 40
1.0
 50
180.0
 51
270.0
  0
ARC
  8
0
 62
7
  6
CONTINUOUS
 10
3.9656937835
 20
106.5960101874
 40
0.2
 50
180.0
 51
270.0
  0
ARC
  8
BEZUGSACHSEN
 62
7
  6
CONTINUOUS
 10
52.7656937835
 20
69.1960101874
 40
0.1
 50
180.0
 51
270.0
  0
ARC
  8
BEZUGSACHSEN
 62
7
  6
CONTINUOUS
 10
42.5656937835
 20
69.1960101874
 40
0.1
 50
270.0
 51
360.0
  0
ARC
  8
BEZUGSACHSEN
 62
7
  6
CONTINUOUS
 10
142.5656937835
 20
69.1960101874
 40
0.1
 50
270.0
 51
360.0
  0
ARC
  8
BEZUGSACHSEN
 62
7
  6
CONTINUOUS
 10
152.7656937835
 20
69.1960101874
 40
0.1
 50
180.0
 51
270.0
  0
ENDSEC
  0
EOF
