999
DXF file: bkb300532.dxf
999
Pro/ENGINEER 2022024 by Parametric Technology Corporation
  0
SECTION
  2
HEADER
  9
$EXTMAX
 10
420.0
 20
594.0
 30
0.0
  9
$EXTMIN
 10
0.0
 20
0.0
 30
0.0
  9
$LIMMIN
 10
0.0
 20
0.0
  9
$LIMMAX
 10
420.0
 20
594.0
  9
$VIEWCTR
 10
210.0
 20
297.0
  9
$VIEWSIZE
 40
594.0
  9
$CLAYER
  8
0
  9
$LTSCALE
 40
38.72
  9
$CELTYPE
  6
BYLAYER
  9
$DIMSCALE
 40
1.0
  9
$DIMASZ
 40
3.5
  9
$DIMEXO
 40
0.0
  9
$DIMDLI
 40
26.752
  9
$DIMEXE
 40
1.5
  9
$DIMCEN
 40
6.336
  9
$DIMLFAC
 40
1.0
  9
$DIMBLK
  1
_FILLED
  9
$DIMALT
 70
0
  9
$DIMALTF
 40
0.0393700787
  9
$DIMTXT
 40
3.5
  9
$AUNITS
 70
0
  9
$PDMODE
 70
3
  9
$PDSIZE
 40
0.3125
  9
$TILEMODE
 70
1
  0
ENDSEC
  0
SECTION
  2
TABLES
  0
TABLE
  2
LTYPE
 70
6
  0
LTYPE
  2
BYBLOCK
 70
0
  3

 72
65
 73
0
 40
0.0
  0
LTYPE
  2
BYLAYER
 70
0
  3

 72
65
 73
0
 40
0.0
  0
LTYPE
  2
CONTINUOUS
 70
64
  3
Solid line
 72
65
 73
0
 40
0.0
  0
LTYPE
  2
CENTER
 70
64
  3
____ _ ____ _ ____ _ ____ _ ____ _ ____ _ ____
 72
65
 73
4
 40
0.6
 49
0.375
 49
-0.075
 49
0.075
 49
-0.075
  0
LTYPE
  2
HIDDEN
 70
64
  3
- - - - - - - - - - - - - - - - - - - -
 72
65
 73
2
 40
0.2
 49
0.1
 49
-0.1
  0
LTYPE
  2
PHANTOM
 70
64
  3
_____ _ _ _____ _ _ _____ _ _ _____
 72
65
 73
6
 40
0.8
 49
0.45
 49
-0.05
 49
0.1
 49
-0.05
 49
0.1
 49
-0.05
  0
LTYPE
  2
DOT
 70
64
  3
. . . . . . . . . . . . . . . . . . . .
 72
65
 73
2
 40
0.2
 49
0.1
 49
-0.1
  0
LTYPE
  2
DASHED
 70
64
  3
- - - - - - - - - - - - - - - - - - - -
 72
65
 73
2
 40
0.2
 49
0.1
 49
-0.1
  0
ENDTAB
  0
TABLE
  2
LAYER
 70
36
  0
LAYER
  2
0
 70
0
 62
7
  6
CONTINUOUS
  0
LAYER
  2
DEFAULT_1
 70
0
 62
7
  6
CENTER
  0
LAYER
  2
DEFAULT_2
 70
0
 62
8
  6
HIDDEN
  0
LAYER
  2
DEFAULT_3
 70
0
 62
7
  6
PHANTOM
  0
LAYER
  2
01_STARTBEZUEGE
 70
0
 62
7
  6
CONTINUOUS
  0
LAYER
  2
AXIS
 70
0
 62
7
  6
CONTINUOUS
  0
LAYER
  2
BEZUGSACHSEN
 70
0
 62
7
  6
CONTINUOUS
  0
LAYER
  2
BEZUGSEBENEN
 70
0
 62
7
  6
CONTINUOUS
  0
LAYER
  2
BEZUGSPUNKTE
 70
0
 62
7
  6
CONTINUOUS
  0
LAYER
  2
BOHRUNGEN
 70
0
 62
7
  6
CONTINUOUS
  0
LAYER
  2
CSYS
 70
0
 62
7
  6
CONTINUOUS
  0
LAYER
  2
FASEN
 70
0
 62
7
  6
CONTINUOUS
  0
LAYER
  2
GEWINDE
 70
0
 62
7
  6
CONTINUOUS
  0
LAYER
  2
KOORDINATENSYSTEME
 70
0
 62
7
  6
CONTINUOUS
  0
LAYER
  2
NOTIZ
 70
0
 62
7
  6
CONTINUOUS
  0
LAYER
  2
PLANES
 70
0
 62
7
  6
CONTINUOUS
  0
LAYER
  2
RUNDUNGEN
 70
0
 62
7
  6
CONTINUOUS
  0
ENDTAB
  0
TABLE
  2
STYLE
 70
1
  0
STYLE
  2
STANDARD
 70
0
 40
0.0
 41
0.7
 50
0.0
 71
0
 42
0.2
  3
txt
  4

  0
STYLE
  2
TEXTSTYLE_1
 70
0
 40
0.0
 41
0.8
 50
0.0
 71
0
 42
0.2
  3
gdt
  4

  0
ENDTAB
  0
ENDSEC
  0
SECTION
  2
BLOCKS
  0
BLOCK
  8
0
  2
_FILLED
 70
64
 10
0.0
 20
0.0
  0
SOLID
  8
0
  6
BYBLOCK
 62
0
 10
0.0
 20
0.0
 11
-1.0
 21
0.125
 12
-1.0
 22
-0.125
 13
-1.0
 23
-0.125
  0
ENDBLK
  8
0
  6
BYBLOCK
 62
0
  0
ENDSEC
  0
SECTION
  2
ENTITIES
  0
LINE
  8
0
 62
7
  6
CONTINUOUS
 10
93.7949283752
 20
369.504574294
 11
93.7949283752
 21
366.504574294
  0
LINE
  8
0
 62
7
  6
CONTINUOUS
 10
538.2949283752
 20
319.504574294
 11
384.1949283752
 21
319.504574294
  0
LINE
  8
0
 62
7
  6
CONTINUOUS
 10
538.2949283752
 20
321.704574294
 11
386.9949283752
 21
321.704574294
  0
LINE
  8
0
 62
7
  6
CONTINUOUS
 10
343.2949283752
 20
322.504574294
 11
384.1949283752
 21
322.504574294
  0
LINE
  8
0
 62
7
  6
CONTINUOUS
 10
384.1949283752
 20
358.704574294
 11
377.0949283752
 21
358.704574294
  0
LINE
  8
0
 62
7
  6
CONTINUOUS
 10
343.2949283752
 20
369.504574294
 11
343.2949283752
 21
322.504574294
  0
LINE
  8
0
 62
7
  6
CONTINUOUS
 10
345.2949283752
 20
322.504574294
 11
345.2949283752
 21
366.204574294
  0
LINE
  8
0
 62
7
  6
CONTINUOUS
 10
357.0949283752
 20
365.054574294
 11
377.0949283752
 21
365.054574294
  0
LINE
  8
0
 62
7
  6
CONTINUOUS
 10
357.0949283752
 20
366.154574294
 11
377.0949283752
 21
366.154574294
  0
LINE
  8
0
 62
7
  6
CONTINUOUS
 10
345.2949283752
 20
366.204574294
 11
377.0949283752
 21
366.204574294
  0
LINE
  8
0
 62
7
  6
CONTINUOUS
 10
93.7949283752
 20
366.504574294
 11
343.2949283752
 21
366.504574294
  0
LINE
  8
0
 62
7
  6
CONTINUOUS
 10
353.6902215447
 20
368.204574294
 11
377.0949283752
 21
368.204574294
  0
LINE
  8
0
 62
3
  6
CONTINUOUS
 10
93.7949283752
 20
369.504574294
 11
343.2949283752
 21
369.504574294
  0
LINE
  8
0
 62
7
  6
CONTINUOUS
 10
343.2949283752
 20
369.504574294
 11
538.2949283752
 21
369.504574294
  0
LINE
  8
0
 62
7
  6
CONTINUOUS
 10
357.0949283752
 20
365.054574294
 11
357.0949283752
 21
366.154574294
  0
LINE
  8
0
 62
7
  6
CONTINUOUS
 10
353.6902215447
 20
368.204574294
 11
352.2961422217
 21
369.504574294
  0
LINE
  8
0
 62
7
  6
CONTINUOUS
 10
374.5902215447
 20
366.204574294
 11
374.5902215447
 21
368.204574294
  0
LINE
  8
0
 62
7
  6
CONTINUOUS
 10
377.0949283752
 20
358.704574294
 11
377.0949283752
 21
365.054574294
  0
LINE
  8
0
 62
7
  6
CONTINUOUS
 10
377.0949283752
 20
366.154574294
 11
377.0949283752
 21
369.504574294
  0
LINE
  8
0
 62
7
  6
CONTINUOUS
 10
384.1949283752
 20
319.504574294
 11
384.1949283752
 21
358.704574294
  0
LINE
  8
0
 62
7
  6
CONTINUOUS
 10
386.7949283752
 20
369.504574294
 11
386.7949283752
 21
321.704574294
  0
LINE
  8
0
 62
7
  6
CONTINUOUS
 10
386.9949283752
 20
369.504574294
 11
386.9949283752
 21
321.704574294
  0
LINE
  8
0
 62
7
  6
CONTINUOUS
 10
385.2949283752
 20
319.504574294
 11
386.7949283752
 21
321.704574294
  0
LINE
  8
0
 62
7
  6
CONTINUOUS
 10
385.4949283752
 20
319.504574294
 11
386.9949283752
 21
321.704574294
  0
LINE
  8
0
 62
7
  6
CONTINUOUS
 10
538.2949283752
 20
319.504574294
 11
538.2949283752
 21
369.504574294
  0
LINE
  8
0
 62
3
  6
CONTINUOUS
 10
93.7949283752
 20
296.3694652589
 11
93.7949283752
 21
-148.1305347411
  0
LINE
  8
0
 62
3
  6
CONTINUOUS
 10
93.7949283752
 20
-148.1305347411
 11
343.2949283752
 21
-148.1305347411
  0
LINE
  8
0
 62
7
  6
CONTINUOUS
 10
343.2949283752
 20
-148.1305347411
 11
386.7949283752
 21
-148.1305347411
  0
LINE
  8
0
 62
7
  6
CONTINUOUS
 10
386.9949283752
 20
3.3694652589
 11
538.2949283752
 21
3.3694652589
  0
LINE
  8
0
 62
7
  6
CONTINUOUS
 10
377.2949283752
 20
13.0694652589
 11
538.2949283752
 21
13.0694652589
  0
LINE
  8
0
 62
7
  6
CONTINUOUS
 10
374.5902215447
 20
15.5741720893
 11
538.2949283752
 21
15.5741720893
  0
LINE
  8
0
 62
7
  6
CONTINUOUS
 10
538.2949283752
 20
36.4741720893
 11
353.6902215447
 21
36.4741720893
  0
LINE
  8
0
 62
7
  6
CONTINUOUS
 10
538.2949283752
 20
37.8682514124
 11
352.2961422217
 21
37.8682514124
  0
LINE
  8
0
 62
3
  6
CONTINUOUS
 10
343.2949283752
 20
46.8694652589
 11
538.2949283752
 21
46.8694652589
  0
LINE
  8
0
 62
7
  6
CONTINUOUS
 10
343.2949283752
 20
46.8694652589
 11
374.5902215447
 21
15.5741720893
  0
LINE
  8
0
 62
7
  6
CONTINUOUS
 10
374.7902215447
 20
15.5741720893
 11
377.0949283752
 21
13.2694652589
  0
LINE
  8
0
 62
7
  6
CONTINUOUS
 10
377.2949283752
 20
13.0694652589
 11
386.9949283752
 21
3.3694652589
  0
LINE
  8
0
 62
7
  6
CONTINUOUS
 10
374.8902215447
 20
15.5741720893
 11
386.7949283752
 21
3.6694652589
  0
LINE
  8
0
 62
3
  6
CONTINUOUS
 10
343.2949283752
 20
-148.1305347411
 11
343.2949283752
 21
46.8694652589
  0
LINE
  8
0
 62
7
  6
CONTINUOUS
 10
352.2961422217
 20
37.8682514124
 11
352.2961422217
 21
-148.1305347411
  0
LINE
  8
0
 62
7
  6
CONTINUOUS
 10
353.6902215447
 20
36.4741720893
 11
353.6902215447
 21
-148.1305347411
  0
LINE
  8
0
 62
7
  6
CONTINUOUS
 10
374.5902215447
 20
-148.1305347411
 11
374.5902215447
 21
15.5741720893
  0
LINE
  8
0
 62
7
  6
CONTINUOUS
 10
377.0949283752
 20
-148.1305347411
 11
377.0949283752
 21
13.3694652589
  0
LINE
  8
0
 62
7
  6
CONTINUOUS
 10
386.7949283752
 20
-148.1305347411
 11
386.7949283752
 21
3.6694652589
  0
LINE
  8
0
 62
7
  6
CONTINUOUS
 10
538.2949283752
 20
3.3694652589
 11
538.2949283752
 21
46.8694652589
  0
LINE
  8
0
 62
3
  6
CONTINUOUS
 10
538.2949283752
 20
46.8694652589
 11
538.2949283752
 21
296.3694652589
  0
LINE
  8
0
 62
3
  6
CONTINUOUS
 10
538.2949283752
 20
296.3694652589
 11
93.7949283752
 21
296.3694652589
  0
ENDSEC
  0
EOF
