999
DXF file: bkb300532w3.dxf
999
Pro/ENGINEER 2022024 by Parametric Technology Corporation
  0
SECTION
  2
HEADER
  9
$EXTMAX
 10
594.0
 20
420.0
 30
0.0
  9
$EXTMIN
 10
0.0
 20
0.0
 30
0.0
  9
$LIMMIN
 10
0.0
 20
0.0
  9
$LIMMAX
 10
594.0
 20
420.0
  9
$VIEWCTR
 10
297.0
 20
210.0
  9
$VIEWSIZE
 40
420.0
  9
$CLAYER
  8
0
  9
$LTSCALE
 40
32.67
  9
$CELTYPE
  6
BYLAYER
  9
$DIMSCALE
 40
1.0
  9
$DIMASZ
 40
3.5
  9
$DIMEXO
 40
0.0
  9
$DIMDLI
 40
22.572
  9
$DIMEXE
 40
1.5
  9
$DIMCEN
 40
5.346
  9
$DIMLFAC
 40
1.0
  9
$DIMBLK
  1
_FILLED
  9
$DIMALT
 70
0
  9
$DIMALTF
 40
0.0393700787
  9
$DIMTXT
 40
3.5
  9
$AUNITS
 70
0
  9
$PDMODE
 70
3
  9
$PDSIZE
 40
0.3125
  9
$TILEMODE
 70
1
  0
ENDSEC
  0
SECTION
  2
TABLES
  0
TABLE
  2
LTYPE
 70
6
  0
LTYPE
  2
BYBLOCK
 70
0
  3

 72
65
 73
0
 40
0.0
  0
LTYPE
  2
BYLAYER
 70
0
  3

 72
65
 73
0
 40
0.0
  0
LTYPE
  2
CONTINUOUS
 70
64
  3
Solid line
 72
65
 73
0
 40
0.0
  0
LTYPE
  2
CENTER
 70
64
  3
____ _ ____ _ ____ _ ____ _ ____ _ ____ _ ____
 72
65
 73
4
 40
0.6
 49
0.375
 49
-0.075
 49
0.075
 49
-0.075
  0
LTYPE
  2
HIDDEN
 70
64
  3
- - - - - - - - - - - - - - - - - - - -
 72
65
 73
2
 40
0.2
 49
0.1
 49
-0.1
  0
LTYPE
  2
PHANTOM
 70
64
  3
_____ _ _ _____ _ _ _____ _ _ _____
 72
65
 73
6
 40
0.8
 49
0.45
 49
-0.05
 49
0.1
 49
-0.05
 49
0.1
 49
-0.05
  0
LTYPE
  2
DOT
 70
64
  3
. . . . . . . . . . . . . . . . . . . .
 72
65
 73
2
 40
0.2
 49
0.1
 49
-0.1
  0
LTYPE
  2
DASHED
 70
64
  3
- - - - - - - - - - - - - - - - - - - -
 72
65
 73
2
 40
0.2
 49
0.1
 49
-0.1
  0
ENDTAB
  0
TABLE
  2
LAYER
 70
36
  0
LAYER
  2
0
 70
0
 62
7
  6
CONTINUOUS
  0
LAYER
  2
DEFAULT_1
 70
0
 62
7
  6
CENTER
  0
LAYER
  2
DEFAULT_2
 70
0
 62
8
  6
HIDDEN
  0
LAYER
  2
DEFAULT_3
 70
0
 62
7
  6
PHANTOM
  0
LAYER
  2
01_STARTBEZUEGE
 70
0
 62
7
  6
CONTINUOUS
  0
LAYER
  2
AXIS
 70
0
 62
7
  6
CONTINUOUS
  0
LAYER
  2
BEZUGSACHSEN
 70
0
 62
7
  6
CONTINUOUS
  0
LAYER
  2
BEZUGSEBENEN
 70
0
 62
7
  6
CONTINUOUS
  0
LAYER
  2
BEZUGSPUNKTE
 70
0
 62
7
  6
CONTINUOUS
  0
LAYER
  2
BOHRUNGEN
 70
0
 62
7
  6
CONTINUOUS
  0
LAYER
  2
CSYS
 70
0
 62
7
  6
CONTINUOUS
  0
LAYER
  2
FASEN
 70
0
 62
7
  6
CONTINUOUS
  0
LAYER
  2
GEWINDE
 70
0
 62
7
  6
CONTINUOUS
  0
LAYER
  2
KOORDINATENSYSTEME
 70
0
 62
7
  6
CONTINUOUS
  0
LAYER
  2
NOTIZ
 70
0
 62
7
  6
CONTINUOUS
  0
LAYER
  2
PLANES
 70
0
 62
7
  6
CONTINUOUS
  0
LAYER
  2
RUNDUNGEN
 70
0
 62
7
  6
CONTINUOUS
  0
ENDTAB
  0
TABLE
  2
STYLE
 70
1
  0
STYLE
  2
STANDARD
 70
0
 40
0.0
 41
0.7
 50
0.0
 71
0
 42
0.2
  3
txt
  4

  0
STYLE
  2
TEXTSTYLE_1
 70
0
 40
0.0
 41
0.8
 50
0.0
 71
0
 42
0.2
  3
gdt
  4

  0
ENDTAB
  0
ENDSEC
  0
SECTION
  2
BLOCKS
  0
BLOCK
  8
0
  2
_FILLED
 70
64
 10
0.0
 20
0.0
  0
SOLID
  8
0
  6
BYBLOCK
 62
0
 10
0.0
 20
0.0
 11
-1.0
 21
0.125
 12
-1.0
 22
-0.125
 13
-1.0
 23
-0.125
  0
ENDBLK
  8
0
  6
BYBLOCK
 62
0
  0
ENDSEC
  0
SECTION
  2
ENTITIES
  0
LINE
  8
0
 62
7
  6
CONTINUOUS
 10
60.3388578275
 20
482.2578374601
 11
60.3388578275
 21
476.2578374601
  0
LINE
  8
0
 62
7
  6
CONTINUOUS
 10
504.8388578275
 20
432.2578374601
 11
350.7388578275
 21
432.2578374601
  0
LINE
  8
0
 62
7
  6
CONTINUOUS
 10
504.8388578275
 20
434.4578374601
 11
353.5388578275
 21
434.4578374601
  0
LINE
  8
0
 62
7
  6
CONTINUOUS
 10
309.8388578275
 20
435.2578374601
 11
350.7388578275
 21
435.2578374601
  0
LINE
  8
0
 62
7
  6
CONTINUOUS
 10
350.7388578275
 20
471.4578374601
 11
343.6388578275
 21
471.4578374601
  0
LINE
  8
0
 62
7
  6
CONTINUOUS
 10
309.8388578275
 20
482.2578374601
 11
309.8388578275
 21
435.2578374601
  0
LINE
  8
0
 62
7
  6
CONTINUOUS
 10
311.8388578275
 20
435.2578374601
 11
311.8388578275
 21
478.9578374601
  0
LINE
  8
0
 62
7
  6
CONTINUOUS
 10
60.3388578275
 20
476.2578374601
 11
309.8388578275
 21
476.2578374601
  0
LINE
  8
0
 62
7
  6
CONTINUOUS
 10
323.6388578275
 20
477.8078374601
 11
343.6388578275
 21
477.8078374601
  0
LINE
  8
0
 62
7
  6
CONTINUOUS
 10
323.6388578275
 20
478.9078374601
 11
343.6388578275
 21
478.9078374601
  0
LINE
  8
0
 62
7
  6
CONTINUOUS
 10
311.8388578275
 20
478.9578374601
 11
343.6388578275
 21
478.9578374601
  0
LINE
  8
0
 62
7
  6
CONTINUOUS
 10
320.234150997
 20
480.9578374601
 11
343.6388578275
 21
480.9578374601
  0
LINE
  8
0
 62
3
  6
CONTINUOUS
 10
60.3388578275
 20
482.2578374601
 11
309.8388578275
 21
482.2578374601
  0
LINE
  8
0
 62
7
  6
CONTINUOUS
 10
309.8388578275
 20
482.2578374601
 11
504.8388578275
 21
482.2578374601
  0
LINE
  8
0
 62
7
  6
CONTINUOUS
 10
323.6388578275
 20
477.8078374601
 11
323.6388578275
 21
478.9078374601
  0
LINE
  8
0
 62
7
  6
CONTINUOUS
 10
320.234150997
 20
480.9578374601
 11
318.840071674
 21
482.2578374601
  0
LINE
  8
0
 62
7
  6
CONTINUOUS
 10
341.134150997
 20
478.9578374601
 11
341.134150997
 21
480.9578374601
  0
LINE
  8
0
 62
7
  6
CONTINUOUS
 10
343.6388578275
 20
471.4578374601
 11
343.6388578275
 21
477.8078374601
  0
LINE
  8
0
 62
7
  6
CONTINUOUS
 10
343.6388578275
 20
478.9078374601
 11
343.6388578275
 21
482.2578374601
  0
LINE
  8
0
 62
7
  6
CONTINUOUS
 10
350.7388578275
 20
432.2578374601
 11
350.7388578275
 21
471.4578374601
  0
LINE
  8
0
 62
7
  6
CONTINUOUS
 10
353.3388578275
 20
482.2578374601
 11
353.3388578275
 21
434.4578374601
  0
LINE
  8
0
 62
7
  6
CONTINUOUS
 10
353.5388578275
 20
482.2578374601
 11
353.5388578275
 21
434.4578374601
  0
LINE
  8
0
 62
7
  6
CONTINUOUS
 10
351.8388578275
 20
432.2578374601
 11
353.3388578275
 21
434.4578374601
  0
LINE
  8
0
 62
7
  6
CONTINUOUS
 10
352.0388578275
 20
432.2578374601
 11
353.5388578275
 21
434.4578374601
  0
LINE
  8
0
 62
7
  6
CONTINUOUS
 10
504.8388578275
 20
432.2578374601
 11
504.8388578275
 21
482.2578374601
  0
LINE
  8
0
 62
3
  6
CONTINUOUS
 10
60.3388578275
 20
377.541034345
 11
60.3388578275
 21
-66.958965655
  0
LINE
  8
0
 62
3
  6
CONTINUOUS
 10
60.3388578275
 20
-66.958965655
 11
309.8388578275
 21
-66.958965655
  0
LINE
  8
0
 62
7
  6
CONTINUOUS
 10
309.8388578275
 20
-66.958965655
 11
353.3388578275
 21
-66.958965655
  0
LINE
  8
0
 62
7
  6
CONTINUOUS
 10
353.5388578275
 20
84.541034345
 11
504.8388578275
 21
84.541034345
  0
LINE
  8
0
 62
7
  6
CONTINUOUS
 10
343.8388578275
 20
94.241034345
 11
504.8388578275
 21
94.241034345
  0
LINE
  8
0
 62
7
  6
CONTINUOUS
 10
341.134150997
 20
96.7457411755
 11
504.8388578275
 21
96.7457411755
  0
LINE
  8
0
 62
7
  6
CONTINUOUS
 10
504.8388578275
 20
117.6457411755
 11
320.234150997
 21
117.6457411755
  0
LINE
  8
0
 62
7
  6
CONTINUOUS
 10
504.8388578275
 20
119.0398204985
 11
318.840071674
 21
119.0398204985
  0
LINE
  8
0
 62
3
  6
CONTINUOUS
 10
309.8388578275
 20
128.041034345
 11
504.8388578275
 21
128.041034345
  0
LINE
  8
0
 62
7
  6
CONTINUOUS
 10
309.8388578275
 20
128.041034345
 11
341.134150997
 21
96.7457411755
  0
LINE
  8
0
 62
7
  6
CONTINUOUS
 10
341.334150997
 20
96.7457411755
 11
343.6388578275
 21
94.441034345
  0
LINE
  8
0
 62
7
  6
CONTINUOUS
 10
343.8388578275
 20
94.241034345
 11
353.5388578275
 21
84.541034345
  0
LINE
  8
0
 62
7
  6
CONTINUOUS
 10
341.434150997
 20
96.7457411755
 11
353.3388578275
 21
84.841034345
  0
LINE
  8
0
 62
3
  6
CONTINUOUS
 10
309.8388578275
 20
-66.958965655
 11
309.8388578275
 21
128.041034345
  0
LINE
  8
0
 62
7
  6
CONTINUOUS
 10
318.840071674
 20
119.0398204985
 11
318.840071674
 21
-66.958965655
  0
LINE
  8
0
 62
7
  6
CONTINUOUS
 10
320.234150997
 20
117.6457411755
 11
320.234150997
 21
-66.958965655
  0
LINE
  8
0
 62
7
  6
CONTINUOUS
 10
341.134150997
 20
-66.958965655
 11
341.134150997
 21
96.7457411755
  0
LINE
  8
0
 62
7
  6
CONTINUOUS
 10
343.6388578275
 20
-66.958965655
 11
343.6388578275
 21
94.541034345
  0
LINE
  8
0
 62
7
  6
CONTINUOUS
 10
353.3388578275
 20
-66.958965655
 11
353.3388578275
 21
84.841034345
  0
LINE
  8
0
 62
7
  6
CONTINUOUS
 10
504.8388578275
 20
84.541034345
 11
504.8388578275
 21
128.041034345
  0
LINE
  8
0
 62
3
  6
CONTINUOUS
 10
504.8388578275
 20
128.041034345
 11
504.8388578275
 21
377.541034345
  0
LINE
  8
0
 62
3
  6
CONTINUOUS
 10
504.8388578275
 20
377.541034345
 11
60.3388578275
 21
377.541034345
  0
ENDSEC
  0
EOF
