999
DXF file: bkb300542.dxf
999
Pro/ENGINEER 2022024 by Parametric Technology Corporation
  0
SECTION
  2
HEADER
  9
$EXTMAX
 10
594.0
 20
420.0
 30
0.0
  9
$EXTMIN
 10
0.0
 20
0.0
 30
0.0
  9
$LIMMIN
 10
0.0
 20
0.0
  9
$LIMMAX
 10
594.0
 20
420.0
  9
$VIEWCTR
 10
297.0
 20
210.0
  9
$VIEWSIZE
 40
420.0
  9
$CLAYER
  8
0
  9
$LTSCALE
 40
32.67
  9
$CELTYPE
  6
BYLAYER
  9
$DIMSCALE
 40
1.0
  9
$DIMASZ
 40
3.5
  9
$DIMEXO
 40
0.0
  9
$DIMDLI
 40
22.572
  9
$DIMEXE
 40
1.5
  9
$DIMCEN
 40
5.346
  9
$DIMLFAC
 40
1.0
  9
$DIMBLK
  1
_FILLED
  9
$DIMALT
 70
0
  9
$DIMALTF
 40
0.0393700787
  9
$DIMTXT
 40
3.5
  9
$AUNITS
 70
0
  9
$PDMODE
 70
3
  9
$PDSIZE
 40
0.3125
  9
$TILEMODE
 70
1
  0
ENDSEC
  0
SECTION
  2
TABLES
  0
TABLE
  2
LTYPE
 70
6
  0
LTYPE
  2
BYBLOCK
 70
0
  3

 72
65
 73
0
 40
0.0
  0
LTYPE
  2
BYLAYER
 70
0
  3

 72
65
 73
0
 40
0.0
  0
LTYPE
  2
CONTINUOUS
 70
64
  3
Solid line
 72
65
 73
0
 40
0.0
  0
LTYPE
  2
CENTER
 70
64
  3
____ _ ____ _ ____ _ ____ _ ____ _ ____ _ ____
 72
65
 73
4
 40
0.6
 49
0.375
 49
-0.075
 49
0.075
 49
-0.075
  0
LTYPE
  2
HIDDEN
 70
64
  3
- - - - - - - - - - - - - - - - - - - -
 72
65
 73
2
 40
0.2
 49
0.1
 49
-0.1
  0
LTYPE
  2
PHANTOM
 70
64
  3
_____ _ _ _____ _ _ _____ _ _ _____
 72
65
 73
6
 40
0.8
 49
0.45
 49
-0.05
 49
0.1
 49
-0.05
 49
0.1
 49
-0.05
  0
LTYPE
  2
DOT
 70
64
  3
. . . . . . . . . . . . . . . . . . . .
 72
65
 73
2
 40
0.2
 49
0.1
 49
-0.1
  0
LTYPE
  2
DASHED
 70
64
  3
- - - - - - - - - - - - - - - - - - - -
 72
65
 73
2
 40
0.2
 49
0.1
 49
-0.1
  0
ENDTAB
  0
TABLE
  2
LAYER
 70
36
  0
LAYER
  2
0
 70
0
 62
7
  6
CONTINUOUS
  0
LAYER
  2
DEFAULT_1
 70
0
 62
7
  6
CENTER
  0
LAYER
  2
DEFAULT_2
 70
0
 62
8
  6
HIDDEN
  0
LAYER
  2
DEFAULT_3
 70
0
 62
7
  6
PHANTOM
  0
LAYER
  2
01_STARTBEZUEGE
 70
0
 62
7
  6
CONTINUOUS
  0
LAYER
  2
AXIS
 70
0
 62
7
  6
CONTINUOUS
  0
LAYER
  2
BEZUGSACHSEN
 70
0
 62
7
  6
CONTINUOUS
  0
LAYER
  2
BEZUGSEBENEN
 70
0
 62
7
  6
CONTINUOUS
  0
LAYER
  2
BEZUGSPUNKTE
 70
0
 62
7
  6
CONTINUOUS
  0
LAYER
  2
BOHRUNGEN
 70
0
 62
7
  6
CONTINUOUS
  0
LAYER
  2
CSYS
 70
0
 62
7
  6
CONTINUOUS
  0
LAYER
  2
FASEN
 70
0
 62
7
  6
CONTINUOUS
  0
LAYER
  2
GEWINDE
 70
0
 62
7
  6
CONTINUOUS
  0
LAYER
  2
KOORDINATENSYSTEME
 70
0
 62
7
  6
CONTINUOUS
  0
LAYER
  2
NOTIZ
 70
0
 62
7
  6
CONTINUOUS
  0
LAYER
  2
PLANES
 70
0
 62
7
  6
CONTINUOUS
  0
LAYER
  2
RUNDUNGEN
 70
0
 62
7
  6
CONTINUOUS
  0
ENDTAB
  0
TABLE
  2
STYLE
 70
1
  0
STYLE
  2
STANDARD
 70
0
 40
0.0
 41
0.7
 50
0.0
 71
0
 42
0.2
  3
txt
  4

  0
STYLE
  2
TEXTSTYLE_1
 70
0
 40
0.0
 41
0.8
 50
0.0
 71
0
 42
0.2
  3
gdt
  4

  0
ENDTAB
  0
ENDSEC
  0
SECTION
  2
BLOCKS
  0
BLOCK
  8
0
  2
_FILLED
 70
64
 10
0.0
 20
0.0
  0
SOLID
  8
0
  6
BYBLOCK
 62
0
 10
0.0
 20
0.0
 11
-1.0
 21
0.125
 12
-1.0
 22
-0.125
 13
-1.0
 23
-0.125
  0
ENDBLK
  8
0
  6
BYBLOCK
 62
0
  0
ENDSEC
  0
SECTION
  2
ENTITIES
  0
LINE
  8
0
 62
7
  6
CONTINUOUS
 10
72.5671832425
 20
438.5383972667
 11
72.5671832425
 21
488.5383972667
  0
LINE
  8
0
 62
7
  6
CONTINUOUS
 10
75.1671832425
 20
438.5383972667
 11
75.1671832425
 21
477.7383972667
  0
LINE
  8
0
 62
7
  6
CONTINUOUS
 10
82.2671832425
 20
477.7383972667
 11
82.2671832425
 21
484.0883972667
  0
LINE
  8
0
 62
7
  6
CONTINUOUS
 10
82.2671832425
 20
485.1883972667
 11
82.2671832425
 21
488.5383972667
  0
LINE
  8
0
 62
7
  6
CONTINUOUS
 10
84.6671832425
 20
485.2383972667
 11
84.6671832425
 21
487.2383972667
  0
LINE
  8
0
 62
7
  6
CONTINUOUS
 10
84.771890073
 20
485.2383972667
 11
84.771890073
 21
487.2383972667
  0
LINE
  8
0
 62
7
  6
CONTINUOUS
 10
102.2671832425
 20
484.0883972667
 11
102.2671832425
 21
485.1883972667
  0
LINE
  8
0
 62
7
  6
CONTINUOUS
 10
113.962476412
 20
441.5383972667
 11
113.962476412
 21
485.2383972667
  0
LINE
  8
0
 62
7
  6
CONTINUOUS
 10
114.0671832425
 20
441.5383972667
 11
114.0671832425
 21
485.2383972667
  0
LINE
  8
0
 62
7
  6
CONTINUOUS
 10
116.0671832425
 20
488.5383972667
 11
116.0671832425
 21
441.5383972667
  0
LINE
  8
0
 62
7
  6
CONTINUOUS
 10
105.5671832425
 20
487.2383972667
 11
106.9612625655
 21
488.5383972667
  0
LINE
  8
0
 62
7
  6
CONTINUOUS
 10
105.671890073
 20
487.2383972667
 11
107.065969396
 21
488.5383972667
  0
LINE
  8
0
 62
7
  6
CONTINUOUS
 10
72.5671832425
 20
438.5383972667
 11
520.0671832425
 21
438.5383972667
  0
LINE
  8
0
 62
7
  6
CONTINUOUS
 10
113.962476412
 20
441.5383972667
 11
520.0671832425
 21
441.5383972667
  0
LINE
  8
0
 62
7
  6
CONTINUOUS
 10
75.1671832425
 20
477.7383972667
 11
113.962476412
 21
477.7383972667
  0
LINE
  8
0
 62
7
  6
CONTINUOUS
 10
82.2671832425
 20
484.0883972667
 11
113.962476412
 21
484.0883972667
  0
LINE
  8
0
 62
7
  6
CONTINUOUS
 10
82.2671832425
 20
485.1883972667
 11
113.962476412
 21
485.1883972667
  0
LINE
  8
0
 62
7
  6
CONTINUOUS
 10
114.0671832425
 20
485.2383972667
 11
84.6671832425
 21
485.2383972667
  0
LINE
  8
0
 62
7
  6
CONTINUOUS
 10
116.0671832425
 20
485.5383972667
 11
520.0671832425
 21
485.5383972667
  0
LINE
  8
0
 62
7
  6
CONTINUOUS
 10
84.6671832425
 20
487.2383972667
 11
105.671890073
 21
487.2383972667
  0
LINE
  8
0
 62
7
  6
CONTINUOUS
 10
72.5671832425
 20
488.5383972667
 11
116.0671832425
 21
488.5383972667
  0
LINE
  8
0
 62
3
  6
CONTINUOUS
 10
116.0671832425
 20
488.5383972667
 11
520.0671832425
 21
488.5383972667
  0
LINE
  8
0
 62
7
  6
CONTINUOUS
 10
365.5671832425
 20
488.5383972667
 11
365.5671832425
 21
485.5383972667
  0
LINE
  8
0
 62
7
  6
CONTINUOUS
 10
520.0671832425
 20
438.5383972667
 11
520.0671832425
 21
488.5383972667
  0
LINE
  8
0
 62
7
  6
CONTINUOUS
 10
72.5671832425
 20
393.9190224796
 11
72.5671832425
 21
-53.5809775204
  0
LINE
  8
0
 62
7
  6
CONTINUOUS
 10
82.2671832425
 20
384.2190224796
 11
82.2671832425
 21
-53.5809775204
  0
LINE
  8
0
 62
7
  6
CONTINUOUS
 10
84.771890073
 20
381.8190224796
 11
84.771890073
 21
-53.5809775204
  0
LINE
  8
0
 62
7
  6
CONTINUOUS
 10
72.5671832425
 20
-53.5809775204
 11
116.0671832425
 21
-53.5809775204
  0
LINE
  8
0
 62
3
  6
CONTINUOUS
 10
116.0671832425
 20
-53.5809775204
 11
365.5671832425
 21
-53.5809775204
  0
LINE
  8
0
 62
7
  6
CONTINUOUS
 10
105.671890073
 20
-53.5809775204
 11
105.671890073
 21
360.7096088186
  0
LINE
  8
0
 62
7
  6
CONTINUOUS
 10
107.065969396
 20
-53.5809775204
 11
107.065969396
 21
359.5249431565
  0
LINE
  8
0
 62
3
  6
CONTINUOUS
 10
116.0671832425
 20
350.4190224796
 11
116.0671832425
 21
-53.5809775204
  0
LINE
  8
0
 62
7
  6
CONTINUOUS
 10
116.0671832425
 20
350.4190224796
 11
116.0671832425
 21
350.52372931
  0
LINE
  8
0
 62
3
  6
CONTINUOUS
 10
365.5671832425
 20
100.9190224796
 11
520.0671832425
 21
100.9190224796
  0
LINE
  8
0
 62
7
  6
CONTINUOUS
 10
115.962476412
 20
350.4190224796
 11
84.6671832425
 21
381.7143156491
  0
LINE
  8
0
 62
7
  6
CONTINUOUS
 10
84.771890073
 20
381.7143156491
 11
72.5671832425
 21
393.9190224796
  0
LINE
  8
0
 62
7
  6
CONTINUOUS
 10
116.0671832425
 20
350.52372931
 11
84.771890073
 21
381.8190224796
  0
LINE
  8
0
 62
3
  6
CONTINUOUS
 10
365.5671832425
 20
-53.5809775204
 11
365.5671832425
 21
100.9190224796
  0
LINE
  8
0
 62
3
  6
CONTINUOUS
 10
520.0671832425
 20
350.4190224796
 11
116.0671832425
 21
350.4190224796
  0
LINE
  8
0
 62
7
  6
CONTINUOUS
 10
115.962476412
 20
350.4190224796
 11
116.0671832425
 21
350.4190224796
  0
LINE
  8
0
 62
7
  6
CONTINUOUS
 10
106.9612625655
 20
359.4202363261
 11
520.0671832425
 21
359.4202363261
  0
LINE
  8
0
 62
7
  6
CONTINUOUS
 10
105.7765969034
 20
360.8143156491
 11
520.0671832425
 21
360.8143156491
  0
LINE
  8
0
 62
7
  6
CONTINUOUS
 10
520.0671832425
 20
381.7143156491
 11
84.6671832425
 21
381.7143156491
  0
LINE
  8
0
 62
3
  6
CONTINUOUS
 10
520.0671832425
 20
100.9190224796
 11
520.0671832425
 21
350.4190224796
  0
LINE
  8
0
 62
7
  6
CONTINUOUS
 10
520.0671832425
 20
350.4190224796
 11
520.0671832425
 21
393.9190224796
  0
LINE
  8
0
 62
7
  6
CONTINUOUS
 10
520.0671832425
 20
384.2190224796
 11
82.2671832425
 21
384.2190224796
  0
LINE
  8
0
 62
7
  6
CONTINUOUS
 10
520.0671832425
 20
393.9190224796
 11
72.5671832425
 21
393.9190224796
  0
ENDSEC
  0
EOF
