999
DXF file: bkb300542w3.dxf
999
Pro/ENGINEER 2022024 by Parametric Technology Corporation
  0
SECTION
  2
HEADER
  9
$EXTMAX
 10
594.0
 20
420.0
 30
0.0
  9
$EXTMIN
 10
0.0
 20
0.0
 30
0.0
  9
$LIMMIN
 10
0.0
 20
0.0
  9
$LIMMAX
 10
594.0
 20
420.0
  9
$VIEWCTR
 10
297.0
 20
210.0
  9
$VIEWSIZE
 40
420.0
  9
$CLAYER
  8
0
  9
$LTSCALE
 40
32.67
  9
$CELTYPE
  6
BYLAYER
  9
$DIMSCALE
 40
1.0
  9
$DIMASZ
 40
3.5
  9
$DIMEXO
 40
0.0
  9
$DIMDLI
 40
22.572
  9
$DIMEXE
 40
1.5
  9
$DIMCEN
 40
5.346
  9
$DIMLFAC
 40
1.0
  9
$DIMBLK
  1
_FILLED
  9
$DIMALT
 70
0
  9
$DIMALTF
 40
0.0393700787
  9
$DIMTXT
 40
3.5
  9
$AUNITS
 70
0
  9
$PDMODE
 70
3
  9
$PDSIZE
 40
0.3125
  9
$TILEMODE
 70
1
  0
ENDSEC
  0
SECTION
  2
TABLES
  0
TABLE
  2
LTYPE
 70
6
  0
LTYPE
  2
BYBLOCK
 70
0
  3

 72
65
 73
0
 40
0.0
  0
LTYPE
  2
BYLAYER
 70
0
  3

 72
65
 73
0
 40
0.0
  0
LTYPE
  2
CONTINUOUS
 70
64
  3
Solid line
 72
65
 73
0
 40
0.0
  0
LTYPE
  2
CENTER
 70
64
  3
____ _ ____ _ ____ _ ____ _ ____ _ ____ _ ____
 72
65
 73
4
 40
0.6
 49
0.375
 49
-0.075
 49
0.075
 49
-0.075
  0
LTYPE
  2
HIDDEN
 70
64
  3
- - - - - - - - - - - - - - - - - - - -
 72
65
 73
2
 40
0.2
 49
0.1
 49
-0.1
  0
LTYPE
  2
PHANTOM
 70
64
  3
_____ _ _ _____ _ _ _____ _ _ _____
 72
65
 73
6
 40
0.8
 49
0.45
 49
-0.05
 49
0.1
 49
-0.05
 49
0.1
 49
-0.05
  0
LTYPE
  2
DOT
 70
64
  3
. . . . . . . . . . . . . . . . . . . .
 72
65
 73
2
 40
0.2
 49
0.1
 49
-0.1
  0
LTYPE
  2
DASHED
 70
64
  3
- - - - - - - - - - - - - - - - - - - -
 72
65
 73
2
 40
0.2
 49
0.1
 49
-0.1
  0
ENDTAB
  0
TABLE
  2
LAYER
 70
36
  0
LAYER
  2
0
 70
0
 62
7
  6
CONTINUOUS
  0
LAYER
  2
DEFAULT_1
 70
0
 62
7
  6
CENTER
  0
LAYER
  2
DEFAULT_2
 70
0
 62
8
  6
HIDDEN
  0
LAYER
  2
DEFAULT_3
 70
0
 62
7
  6
PHANTOM
  0
LAYER
  2
01_STARTBEZUEGE
 70
0
 62
7
  6
CONTINUOUS
  0
LAYER
  2
AXIS
 70
0
 62
7
  6
CONTINUOUS
  0
LAYER
  2
BEZUGSACHSEN
 70
0
 62
7
  6
CONTINUOUS
  0
LAYER
  2
BEZUGSEBENEN
 70
0
 62
7
  6
CONTINUOUS
  0
LAYER
  2
BEZUGSPUNKTE
 70
0
 62
7
  6
CONTINUOUS
  0
LAYER
  2
BOHRUNGEN
 70
0
 62
7
  6
CONTINUOUS
  0
LAYER
  2
CSYS
 70
0
 62
7
  6
CONTINUOUS
  0
LAYER
  2
FASEN
 70
0
 62
7
  6
CONTINUOUS
  0
LAYER
  2
GEWINDE
 70
0
 62
7
  6
CONTINUOUS
  0
LAYER
  2
KOORDINATENSYSTEME
 70
0
 62
7
  6
CONTINUOUS
  0
LAYER
  2
NOTIZ
 70
0
 62
7
  6
CONTINUOUS
  0
LAYER
  2
PLANES
 70
0
 62
7
  6
CONTINUOUS
  0
LAYER
  2
RUNDUNGEN
 70
0
 62
7
  6
CONTINUOUS
  0
ENDTAB
  0
TABLE
  2
STYLE
 70
1
  0
STYLE
  2
STANDARD
 70
0
 40
0.0
 41
0.7
 50
0.0
 71
0
 42
0.2
  3
txt
  4

  0
STYLE
  2
TEXTSTYLE_1
 70
0
 40
0.0
 41
0.8
 50
0.0
 71
0
 42
0.2
  3
gdt
  4

  0
ENDTAB
  0
ENDSEC
  0
SECTION
  2
BLOCKS
  0
BLOCK
  8
0
  2
_FILLED
 70
64
 10
0.0
 20
0.0
  0
SOLID
  8
0
  6
BYBLOCK
 62
0
 10
0.0
 20
0.0
 11
-1.0
 21
0.125
 12
-1.0
 22
-0.125
 13
-1.0
 23
-0.125
  0
ENDBLK
  8
0
  6
BYBLOCK
 62
0
  0
ENDSEC
  0
SECTION
  2
ENTITIES
  0
LINE
  8
0
 62
7
  6
CONTINUOUS
 10
73.3667569389
 20
425.0189072484
 11
73.3667569389
 21
475.0189072484
  0
LINE
  8
0
 62
7
  6
CONTINUOUS
 10
75.9667569389
 20
425.0189072484
 11
75.9667569389
 21
464.2189072484
  0
LINE
  8
0
 62
7
  6
CONTINUOUS
 10
83.0667569389
 20
464.2189072484
 11
83.0667569389
 21
470.5689072484
  0
LINE
  8
0
 62
7
  6
CONTINUOUS
 10
83.0667569389
 20
471.6689072484
 11
83.0667569389
 21
475.0189072484
  0
LINE
  8
0
 62
7
  6
CONTINUOUS
 10
85.4667569389
 20
471.7189072484
 11
85.4667569389
 21
473.7189072484
  0
LINE
  8
0
 62
7
  6
CONTINUOUS
 10
85.5714637694
 20
471.7189072484
 11
85.5714637694
 21
473.7189072484
  0
LINE
  8
0
 62
7
  6
CONTINUOUS
 10
103.0667569389
 20
470.5689072484
 11
103.0667569389
 21
471.6689072484
  0
LINE
  8
0
 62
7
  6
CONTINUOUS
 10
114.7620501084
 20
428.0189072484
 11
114.7620501084
 21
471.7189072484
  0
LINE
  8
0
 62
7
  6
CONTINUOUS
 10
114.8667569389
 20
428.0189072484
 11
114.8667569389
 21
471.7189072484
  0
LINE
  8
0
 62
7
  6
CONTINUOUS
 10
116.8667569389
 20
475.0189072484
 11
116.8667569389
 21
428.0189072484
  0
LINE
  8
0
 62
7
  6
CONTINUOUS
 10
106.3667569389
 20
473.7189072484
 11
107.7608362619
 21
475.0189072484
  0
LINE
  8
0
 62
7
  6
CONTINUOUS
 10
106.4714637694
 20
473.7189072484
 11
107.8655430924
 21
475.0189072484
  0
LINE
  8
0
 62
7
  6
CONTINUOUS
 10
73.3667569389
 20
425.0189072484
 11
520.8667569389
 21
425.0189072484
  0
LINE
  8
0
 62
7
  6
CONTINUOUS
 10
114.7620501084
 20
428.0189072484
 11
520.8667569389
 21
428.0189072484
  0
LINE
  8
0
 62
7
  6
CONTINUOUS
 10
75.9667569389
 20
464.2189072484
 11
114.7620501084
 21
464.2189072484
  0
LINE
  8
0
 62
7
  6
CONTINUOUS
 10
116.8667569389
 20
469.0189072484
 11
520.8667569389
 21
469.0189072484
  0
LINE
  8
0
 62
7
  6
CONTINUOUS
 10
83.0667569389
 20
470.5689072484
 11
114.7620501084
 21
470.5689072484
  0
LINE
  8
0
 62
7
  6
CONTINUOUS
 10
83.0667569389
 20
471.6689072484
 11
114.7620501084
 21
471.6689072484
  0
LINE
  8
0
 62
7
  6
CONTINUOUS
 10
114.8667569389
 20
471.7189072484
 11
85.4667569389
 21
471.7189072484
  0
LINE
  8
0
 62
7
  6
CONTINUOUS
 10
85.4667569389
 20
473.7189072484
 11
106.4714637694
 21
473.7189072484
  0
LINE
  8
0
 62
7
  6
CONTINUOUS
 10
73.3667569389
 20
475.0189072484
 11
116.8667569389
 21
475.0189072484
  0
LINE
  8
0
 62
3
  6
CONTINUOUS
 10
116.8667569389
 20
475.0189072484
 11
520.8667569389
 21
475.0189072484
  0
LINE
  8
0
 62
7
  6
CONTINUOUS
 10
366.3667569389
 20
475.0189072484
 11
366.3667569389
 21
469.0189072484
  0
LINE
  8
0
 62
7
  6
CONTINUOUS
 10
520.8667569389
 20
425.0189072484
 11
520.8667569389
 21
475.0189072484
  0
LINE
  8
0
 62
7
  6
CONTINUOUS
 10
73.3667569389
 20
367.8323682109
 11
73.3667569389
 21
-79.6676317891
  0
LINE
  8
0
 62
7
  6
CONTINUOUS
 10
83.0667569389
 20
358.1323682109
 11
83.0667569389
 21
-79.6676317891
  0
LINE
  8
0
 62
7
  6
CONTINUOUS
 10
85.5714637694
 20
355.7323682109
 11
85.5714637694
 21
-79.6676317891
  0
LINE
  8
0
 62
7
  6
CONTINUOUS
 10
73.3667569389
 20
-79.6676317891
 11
116.8667569389
 21
-79.6676317891
  0
LINE
  8
0
 62
3
  6
CONTINUOUS
 10
116.8667569389
 20
-79.6676317891
 11
366.3667569389
 21
-79.6676317891
  0
LINE
  8
0
 62
7
  6
CONTINUOUS
 10
106.4714637694
 20
-79.6676317891
 11
106.4714637694
 21
334.6229545499
  0
LINE
  8
0
 62
7
  6
CONTINUOUS
 10
107.8655430924
 20
-79.6676317891
 11
107.8655430924
 21
333.4382888878
  0
LINE
  8
0
 62
3
  6
CONTINUOUS
 10
116.8667569389
 20
324.3323682109
 11
116.8667569389
 21
-79.6676317891
  0
LINE
  8
0
 62
7
  6
CONTINUOUS
 10
116.8667569389
 20
324.3323682109
 11
116.8667569389
 21
324.4370750413
  0
LINE
  8
0
 62
3
  6
CONTINUOUS
 10
366.3667569389
 20
74.8323682109
 11
520.8667569389
 21
74.8323682109
  0
LINE
  8
0
 62
7
  6
CONTINUOUS
 10
116.7620501084
 20
324.3323682109
 11
85.4667569389
 21
355.6276613804
  0
LINE
  8
0
 62
7
  6
CONTINUOUS
 10
85.5714637694
 20
355.6276613804
 11
73.3667569389
 21
367.8323682109
  0
LINE
  8
0
 62
7
  6
CONTINUOUS
 10
116.8667569389
 20
324.4370750413
 11
85.5714637694
 21
355.7323682109
  0
LINE
  8
0
 62
3
  6
CONTINUOUS
 10
366.3667569389
 20
-79.6676317891
 11
366.3667569389
 21
74.8323682109
  0
LINE
  8
0
 62
3
  6
CONTINUOUS
 10
520.8667569389
 20
324.3323682109
 11
116.8667569389
 21
324.3323682109
  0
LINE
  8
0
 62
7
  6
CONTINUOUS
 10
116.7620501084
 20
324.3323682109
 11
116.8667569389
 21
324.3323682109
  0
LINE
  8
0
 62
7
  6
CONTINUOUS
 10
107.7608362619
 20
333.3335820574
 11
520.8667569389
 21
333.3335820574
  0
LINE
  8
0
 62
7
  6
CONTINUOUS
 10
106.5761705998
 20
334.7276613804
 11
520.8667569389
 21
334.7276613804
  0
LINE
  8
0
 62
7
  6
CONTINUOUS
 10
520.8667569389
 20
355.6276613804
 11
85.4667569389
 21
355.6276613804
  0
LINE
  8
0
 62
3
  6
CONTINUOUS
 10
520.8667569389
 20
74.8323682109
 11
520.8667569389
 21
324.3323682109
  0
LINE
  8
0
 62
7
  6
CONTINUOUS
 10
520.8667569389
 20
324.3323682109
 11
520.8667569389
 21
367.8323682109
  0
LINE
  8
0
 62
7
  6
CONTINUOUS
 10
520.8667569389
 20
358.1323682109
 11
83.0667569389
 21
358.1323682109
  0
LINE
  8
0
 62
7
  6
CONTINUOUS
 10
520.8667569389
 20
367.8323682109
 11
73.3667569389
 21
367.8323682109
  0
ENDSEC
  0
EOF
