999
DXF file: bkb20060541.dxf
999
Pro/ENGINEER 2022024 by Parametric Technology Corporation
  0
SECTION
  2
HEADER
  9
$EXTMAX
 10
594.0
 20
420.0
 30
0.0
  9
$EXTMIN
 10
0.0
 20
0.0
 30
0.0
  9
$LIMMIN
 10
0.0
 20
0.0
  9
$LIMMAX
 10
594.0
 20
420.0
  9
$VIEWCTR
 10
297.0
 20
210.0
  9
$VIEWSIZE
 40
420.0
  9
$CLAYER
  8
0
  9
$LTSCALE
 40
32.67
  9
$CELTYPE
  6
BYLAYER
  9
$DIMSCALE
 40
1.0
  9
$DIMASZ
 40
3.5
  9
$DIMEXO
 40
0.0
  9
$DIMDLI
 40
22.572
  9
$DIMEXE
 40
1.5
  9
$DIMCEN
 40
5.346
  9
$DIMLFAC
 40
1.0
  9
$DIMBLK
  1
_FILLED
  9
$DIMALT
 70
0
  9
$DIMALTF
 40
0.0393700787
  9
$DIMTXT
 40
3.5
  9
$AUNITS
 70
0
  9
$PDMODE
 70
3
  9
$PDSIZE
 40
0.3125
  9
$TILEMODE
 70
1
  0
ENDSEC
  0
SECTION
  2
TABLES
  0
TABLE
  2
LTYPE
 70
6
  0
LTYPE
  2
BYBLOCK
 70
0
  3

 72
65
 73
0
 40
0.0
  0
LTYPE
  2
BYLAYER
 70
0
  3

 72
65
 73
0
 40
0.0
  0
LTYPE
  2
CONTINUOUS
 70
64
  3
Solid line
 72
65
 73
0
 40
0.0
  0
LTYPE
  2
CENTER
 70
64
  3
____ _ ____ _ ____ _ ____ _ ____ _ ____ _ ____
 72
65
 73
4
 40
0.6
 49
0.375
 49
-0.075
 49
0.075
 49
-0.075
  0
LTYPE
  2
HIDDEN
 70
64
  3
- - - - - - - - - - - - - - - - - - - -
 72
65
 73
2
 40
0.2
 49
0.1
 49
-0.1
  0
LTYPE
  2
PHANTOM
 70
64
  3
_____ _ _ _____ _ _ _____ _ _ _____
 72
65
 73
6
 40
0.8
 49
0.45
 49
-0.05
 49
0.1
 49
-0.05
 49
0.1
 49
-0.05
  0
LTYPE
  2
DOT
 70
64
  3
. . . . . . . . . . . . . . . . . . . .
 72
65
 73
2
 40
0.2
 49
0.1
 49
-0.1
  0
LTYPE
  2
DASHED
 70
64
  3
- - - - - - - - - - - - - - - - - - - -
 72
65
 73
2
 40
0.2
 49
0.1
 49
-0.1
  0
ENDTAB
  0
TABLE
  2
LAYER
 70
36
  0
LAYER
  2
0
 70
0
 62
7
  6
CONTINUOUS
  0
LAYER
  2
DEFAULT_1
 70
0
 62
7
  6
CENTER
  0
LAYER
  2
DEFAULT_2
 70
0
 62
8
  6
HIDDEN
  0
LAYER
  2
DEFAULT_3
 70
0
 62
7
  6
PHANTOM
  0
LAYER
  2
01_STARTBEZUEGE
 70
0
 62
7
  6
CONTINUOUS
  0
LAYER
  2
AUSFORMSCHRAEGEN
 70
0
 62
7
  6
CONTINUOUS
  0
LAYER
  2
BEZUGSACHSEN
 70
0
 62
7
  6
CONTINUOUS
  0
LAYER
  2
BEZUGSEBENEN
 70
0
 62
7
  6
CONTINUOUS
  0
LAYER
  2
BEZUGSPUNKTE
 70
0
 62
7
  6
CONTINUOUS
  0
LAYER
  2
BOHRUNGEN
 70
0
 62
7
  6
CONTINUOUS
  0
LAYER
  2
EBENEN
 70
0
 62
7
  6
CONTINUOUS
  0
LAYER
  2
FASEN
 70
0
 62
7
  6
CONTINUOUS
  0
LAYER
  2
FLAECHEN
 70
0
 62
7
  6
CONTINUOUS
  0
LAYER
  2
GEWINDE
 70
0
 62
7
  6
CONTINUOUS
  0
LAYER
  2
GTOL
 70
0
 62
7
  6
CONTINUOUS
  0
LAYER
  2
KONSTRUKTIONSELEMENTE
 70
0
 62
7
  6
CONTINUOUS
  0
LAYER
  2
KOORDINATENSYSTEME
 70
0
 62
7
  6
CONTINUOUS
  0
LAYER
  2
KURVEN
 70
0
 62
7
  6
CONTINUOUS
  0
LAYER
  2
NOTIZ
 70
0
 62
7
  6
CONTINUOUS
  0
LAYER
  2
RUNDUNGEN
 70
0
 62
7
  6
CONTINUOUS
  0
LAYER
  2
SURFACES
 70
0
 62
7
  6
CONTINUOUS
  0
LAYER
  2
VOLUMEN
 70
0
 62
7
  6
CONTINUOUS
  0
LAYER
  2
XSEC_DATUMS
 70
0
 62
7
  6
CONTINUOUS
  0
ENDTAB
  0
TABLE
  2
STYLE
 70
1
  0
STYLE
  2
STANDARD
 70
0
 40
0.0
 41
0.7
 50
0.0
 71
0
 42
0.2
  3
txt
  4

  0
STYLE
  2
TEXTSTYLE_1
 70
0
 40
0.0
 41
0.8
 50
0.0
 71
0
 42
0.2
  3
gdt
  4

  0
ENDTAB
  0
ENDSEC
  0
SECTION
  2
BLOCKS
  0
BLOCK
  8
0
  2
_FILLED
 70
64
 10
0.0
 20
0.0
  0
SOLID
  8
0
  6
BYBLOCK
 62
0
 10
0.0
 20
0.0
 11
-1.0
 21
0.125
 12
-1.0
 22
-0.125
 13
-1.0
 23
-0.125
  0
ENDBLK
  8
0
  6
BYBLOCK
 62
0
  0
ENDSEC
  0
SECTION
  2
ENTITIES
  0
LINE
  8
KONSTRUKTIONSELEMENTE
 62
3
  6
CONTINUOUS
 10
107.4506021615
 20
324.5425596546
 11
107.4506021615
 21
327.5425596546
  0
LINE
  8
BEZUGSACHSEN
 62
3
  6
CONTINUOUS
 10
107.4506021615
 20
327.5425596546
 11
107.4506021615
 21
380.5425596546
  0
LINE
  8
BEZUGSACHSEN
 62
3
  6
CONTINUOUS
 10
107.4506021615
 20
380.5425596546
 11
109.4506021615
 21
382.5425596546
  0
LINE
  8
KONSTRUKTIONSELEMENTE
 62
3
  6
CONTINUOUS
 10
257.4506021615
 20
324.5425596546
 11
257.4506021615
 21
327.5425596546
  0
LINE
  8
FASEN
 62
3
  6
CONTINUOUS
 10
257.4506021615
 20
327.5425596546
 11
257.4506021615
 21
382.5425596546
  0
LINE
  8
FASEN
 62
7
  6
CONTINUOUS
 10
259.4506021615
 20
327.5425596546
 11
259.4506021615
 21
382.5425596546
  0
LINE
  8
0
 62
7
  6
CONTINUOUS
 10
259.6506021615
 20
380.3425596546
 11
259.6506021615
 21
379.8425596546
  0
LINE
  8
BEZUGSACHSEN
 62
7
  6
CONTINUOUS
 10
260.0241952903
 20
328.5425596546
 11
260.0241952903
 21
326.6425596546
  0
LINE
  8
KONSTRUKTIONSELEMENTE
 62
9
  6
CONTINUOUS
 10
260.4506021615
 20
324.5425596546
 11
260.4506021615
 21
326.5425596546
  0
LINE
  8
0
 62
7
  6
CONTINUOUS
 10
261.1506021615
 20
380.3425596546
 11
261.1506021615
 21
379.3425596546
  0
LINE
  8
KONSTRUKTIONSELEMENTE
 62
7
  6
CONTINUOUS
 10
261.4506021615
 20
379.8425596546
 11
261.4506021615
 21
329.8425596546
  0
LINE
  8
BEZUGSACHSEN
 62
3
  6
CONTINUOUS
 10
454.4506021615
 20
324.5425596546
 11
260.4506021615
 21
324.5425596546
  0
LINE
  8
KONSTRUKTIONSELEMENTE
 62
3
  6
CONTINUOUS
 10
107.4506021615
 20
324.5425596546
 11
260.4506021615
 21
324.5425596546
  0
LINE
  8
KONSTRUKTIONSELEMENTE
 62
7
  6
CONTINUOUS
 10
257.4506021615
 20
326.5425596546
 11
257.6224628996
 21
326.5425596546
  0
LINE
  8
BEZUGSACHSEN
 62
7
  6
CONTINUOUS
 10
260.4506021615
 20
326.5425596546
 11
454.4506021615
 21
326.5425596546
  0
LINE
  8
BEZUGSACHSEN
 62
9
  6
CONTINUOUS
 10
260.0241952903
 20
326.6425596546
 11
270.0241952903
 21
326.6425596546
  0
LINE
  8
BEZUGSACHSEN
 62
9
  6
CONTINUOUS
 10
302.4506021615
 20
326.6425596546
 11
312.4506021615
 21
326.6425596546
  0
LINE
  8
BEZUGSACHSEN
 62
9
  6
CONTINUOUS
 10
374.1663309141
 20
326.6425596546
 11
384.1663309141
 21
326.6425596546
  0
LINE
  8
BEZUGSACHSEN
 62
9
  6
CONTINUOUS
 10
402.4506021615
 20
326.6425596546
 11
412.4506021615
 21
326.6425596546
  0
LINE
  8
KONSTRUKTIONSELEMENTE
 62
9
  6
CONTINUOUS
 10
457.4506021615
 20
327.5425596546
 11
455.4506021615
 21
327.5425596546
  0
LINE
  8
KONSTRUKTIONSELEMENTE
 62
9
  6
CONTINUOUS
 10
107.4506021615
 20
327.5425596546
 11
259.4506021615
 21
327.5425596546
  0
LINE
  8
KONSTRUKTIONSELEMENTE
 62
9
  6
CONTINUOUS
 10
370.0506021615
 20
327.5425596546
 11
374.1663309141
 21
327.5425596546
  0
LINE
  8
KONSTRUKTIONSELEMENTE
 62
9
  6
CONTINUOUS
 10
384.1663309141
 20
327.5425596546
 11
402.4506021615
 21
327.5425596546
  0
LINE
  8
KONSTRUKTIONSELEMENTE
 62
9
  6
CONTINUOUS
 10
412.4506021615
 20
327.5425596546
 11
454.4506021615
 21
327.5425596546
  0
LINE
  8
KONSTRUKTIONSELEMENTE
 62
7
  6
CONTINUOUS
 10
454.4506021615
 20
327.5425596546
 11
455.4506021615
 21
327.5425596546
  0
LINE
  8
BEZUGSACHSEN
 62
7
  6
CONTINUOUS
 10
412.4506021615
 20
328.5425596546
 11
402.4506021615
 21
328.5425596546
  0
LINE
  8
BEZUGSACHSEN
 62
7
  6
CONTINUOUS
 10
384.1663309141
 20
328.5425596546
 11
374.1663309141
 21
328.5425596546
  0
LINE
  8
BEZUGSACHSEN
 62
7
  6
CONTINUOUS
 10
312.4506021615
 20
328.5425596546
 11
302.4506021615
 21
328.5425596546
  0
LINE
  8
BEZUGSACHSEN
 62
7
  6
CONTINUOUS
 10
270.0241952903
 20
328.5425596546
 11
260.0241952903
 21
328.5425596546
  0
LINE
  8
0
 62
3
  6
CONTINUOUS
 10
294.5506021615
 20
328.5425596546
 11
302.4506021615
 21
328.5425596546
  0
LINE
  8
0
 62
3
  6
CONTINUOUS
 10
312.4506021615
 20
328.5425596546
 11
345.4506021615
 21
328.5425596546
  0
LINE
  8
0
 62
9
  6
CONTINUOUS
 10
345.4506021615
 20
329.5425596546
 11
294.5506021615
 21
329.5425596546
  0
LINE
  8
KONSTRUKTIONSELEMENTE
 62
7
  6
CONTINUOUS
 10
261.4506021615
 20
329.8425596546
 11
259.4506021615
 21
329.8425596546
  0
LINE
  8
BEZUGSACHSEN
 62
7
  6
CONTINUOUS
 10
270.0241952903
 20
328.5425596546
 11
270.0241952903
 21
326.6425596546
  0
LINE
  8
0
 62
7
  6
CONTINUOUS
 10
271.9506021615
 20
349.3425596546
 11
271.9506021615
 21
362.3425596546
  0
LINE
  8
0
 62
7
  6
CONTINUOUS
 10
285.6506021615
 20
362.3425596546
 11
285.6506021615
 21
379.3425596546
  0
LINE
  8
0
 62
7
  6
CONTINUOUS
 10
261.4506021615
 20
349.3425596546
 11
271.9506021615
 21
349.3425596546
  0
LINE
  8
0
 62
7
  6
CONTINUOUS
 10
452.8506021615
 20
349.8425596546
 11
442.8506021615
 21
349.8425596546
  0
LINE
  8
0
 62
7
  6
CONTINUOUS
 10
370.0506021615
 20
349.8425596546
 11
427.9506021615
 21
349.8425596546
  0
LINE
  8
0
 62
7
  6
CONTINUOUS
 10
294.5506021615
 20
326.5425596546
 11
294.5506021615
 21
379.0425596546
  0
LINE
  8
0
 62
7
  6
CONTINUOUS
 10
285.6506021615
 20
362.3425596546
 11
271.9506021615
 21
362.3425596546
  0
LINE
  8
0
 62
7
  6
CONTINUOUS
 10
370.0506021615
 20
363.8425596546
 11
427.9506021615
 21
363.8425596546
  0
LINE
  8
0
 62
7
  6
CONTINUOUS
 10
442.8506021615
 20
363.8425596546
 11
451.1506021615
 21
363.8425596546
  0
LINE
  8
0
 62
9
  6
CONTINUOUS
 10
370.0506021615
 20
364.0425596546
 11
394.0027215669
 21
364.0425596546
  0
LINE
  8
0
 62
9
  6
CONTINUOUS
 10
399.8984827561
 20
364.0425596546
 11
427.9506021615
 21
364.0425596546
  0
LINE
  8
BEZUGSACHSEN
 62
7
  6
CONTINUOUS
 10
302.4506021615
 20
328.5425596546
 11
302.4506021615
 21
326.6425596546
  0
LINE
  8
BEZUGSACHSEN
 62
7
  6
CONTINUOUS
 10
312.4506021615
 20
328.5425596546
 11
312.4506021615
 21
326.6425596546
  0
LINE
  8
0
 62
3
  6
CONTINUOUS
 10
427.9506021615
 20
370.7425596546
 11
451.3506021615
 21
370.7425596546
  0
LINE
  8
0
 62
3
  6
CONTINUOUS
 10
452.8506021615
 20
370.7425596546
 11
454.2506021615
 21
370.7425596546
  0
LINE
  8
0
 62
7
  6
CONTINUOUS
 10
454.2506021615
 20
370.7425596546
 11
455.2506021615
 21
370.7425596546
  0
LINE
  8
0
 62
7
  6
CONTINUOUS
 10
370.0506021615
 20
371.7264346851
 11
427.9506021615
 21
371.7264346851
  0
LINE
  8
0
 62
7
  6
CONTINUOUS
 10
451.3506021615
 20
371.7264346851
 11
452.8506021615
 21
371.7264346851
  0
LINE
  8
0
 62
7
  6
CONTINUOUS
 10
454.2506021615
 20
372.2425596546
 11
455.2506021615
 21
372.2425596546
  0
LINE
  8
0
 62
9
  6
CONTINUOUS
 10
294.5506021615
 20
374.0425596546
 11
345.4506021615
 21
374.0425596546
  0
LINE
  8
0
 62
3
  6
CONTINUOUS
 10
294.5506021615
 20
377.0425596546
 11
345.4506021615
 21
377.0425596546
  0
LINE
  8
0
 62
9
  6
CONTINUOUS
 10
294.5506021615
 20
378.3425596546
 11
345.4506021615
 21
378.3425596546
  0
LINE
  8
0
 62
9
  6
CONTINUOUS
 10
370.0506021615
 20
378.3425596546
 11
455.2506021615
 21
378.3425596546
  0
LINE
  8
0
 62
7
  6
CONTINUOUS
 10
370.0506021615
 20
379.0425596546
 11
345.4506021615
 21
379.0425596546
  0
LINE
  8
0
 62
7
  6
CONTINUOUS
 10
294.5506021615
 20
379.0425596546
 11
285.6506021615
 21
379.0425596546
  0
LINE
  8
0
 62
3
  6
CONTINUOUS
 10
261.1506021615
 20
379.3425596546
 11
453.2506021615
 21
379.3425596546
  0
LINE
  8
KONSTRUKTIONSELEMENTE
 62
7
  6
CONTINUOUS
 10
259.4506021615
 20
379.8425596546
 11
261.4506021615
 21
379.8425596546
  0
LINE
  8
0
 62
7
  6
CONTINUOUS
 10
259.4506021615
 20
380.3425596546
 11
453.2506021615
 21
380.3425596546
  0
LINE
  8
FASEN
 62
7
  6
CONTINUOUS
 10
259.4506021615
 20
380.5425596546
 11
257.4506021615
 21
380.5425596546
  0
LINE
  8
BEZUGSACHSEN
 62
7
  6
CONTINUOUS
 10
455.4506021615
 20
380.5425596546
 11
457.4506021615
 21
380.5425596546
  0
LINE
  8
KONSTRUKTIONSELEMENTE
 62
7
  6
CONTINUOUS
 10
455.4506021615
 20
382.5425596546
 11
259.4506021615
 21
382.5425596546
  0
LINE
  8
FASEN
 62
7
  6
CONTINUOUS
 10
259.4506021615
 20
382.5425596546
 11
257.4506021615
 21
382.5425596546
  0
LINE
  8
KONSTRUKTIONSELEMENTE
 62
3
  6
CONTINUOUS
 10
257.4506021615
 20
382.5425596546
 11
109.4506021615
 21
382.5425596546
  0
LINE
  8
BEZUGSACHSEN
 62
7
  6
CONTINUOUS
 10
455.4506021615
 20
382.5425596546
 11
457.4506021615
 21
382.5425596546
  0
LINE
  8
0
 62
7
  6
CONTINUOUS
 10
345.4506021615
 20
326.5425596546
 11
345.4506021615
 21
379.0425596546
  0
LINE
  8
0
 62
7
  6
CONTINUOUS
 10
370.0506021615
 20
326.5425596546
 11
370.0506021615
 21
379.0425596546
  0
LINE
  8
BEZUGSACHSEN
 62
7
  6
CONTINUOUS
 10
374.1663309141
 20
328.5425596546
 11
374.1663309141
 21
326.6425596546
  0
LINE
  8
BEZUGSACHSEN
 62
7
  6
CONTINUOUS
 10
384.1663309141
 20
328.5425596546
 11
384.1663309141
 21
326.6425596546
  0
LINE
  8
BEZUGSACHSEN
 62
7
  6
CONTINUOUS
 10
402.4506021615
 20
326.6425596546
 11
402.4506021615
 21
328.5425596546
  0
LINE
  8
BEZUGSACHSEN
 62
7
  6
CONTINUOUS
 10
412.4506021615
 20
326.6425596546
 11
412.4506021615
 21
328.5425596546
  0
LINE
  8
0
 62
7
  6
CONTINUOUS
 10
427.9506021615
 20
349.8425596546
 11
427.9506021615
 21
371.7264346851
  0
LINE
  8
0
 62
7
  6
CONTINUOUS
 10
442.8506021615
 20
349.8425596546
 11
442.8506021615
 21
363.8425596546
  0
LINE
  8
0
 62
7
  6
CONTINUOUS
 10
451.3506021615
 20
364.0425596546
 11
451.3506021615
 21
371.7264346851
  0
LINE
  8
0
 62
7
  6
CONTINUOUS
 10
452.8506021615
 20
371.7264346851
 11
452.8506021615
 21
349.8425596546
  0
LINE
  8
0
 62
9
  6
CONTINUOUS
 10
453.2506021615
 20
380.3425596546
 11
453.2506021615
 21
379.3425596546
  0
LINE
  8
0
 62
3
  6
CONTINUOUS
 10
454.2506021615
 20
370.7425596546
 11
454.2506021615
 21
378.3425596546
  0
LINE
  8
KONSTRUKTIONSELEMENTE
 62
9
  6
CONTINUOUS
 10
454.4506021615
 20
324.5425596546
 11
454.4506021615
 21
326.5425596546
  0
LINE
  8
KONSTRUKTIONSELEMENTE
 62
7
  6
CONTINUOUS
 10
454.4506021615
 20
326.5425596546
 11
454.4506021615
 21
327.5425596546
  0
LINE
  8
0
 62
7
  6
CONTINUOUS
 10
455.2506021615
 20
378.3425596546
 11
455.2506021615
 21
370.7425596546
  0
LINE
  8
BEZUGSACHSEN
 62
7
  6
CONTINUOUS
 10
455.4506021615
 20
327.5425596546
 11
455.4506021615
 21
382.5425596546
  0
LINE
  8
BEZUGSACHSEN
 62
3
  6
CONTINUOUS
 10
457.4506021615
 20
327.5425596546
 11
457.4506021615
 21
382.5425596546
  0
LINE
  8
BEZUGSACHSEN
 62
7
  6
CONTINUOUS
 10
107.4506021615
 20
281.9586412989
 11
107.4506021615
 21
87.9586412989
  0
LINE
  8
KONSTRUKTIONSELEMENTE
 62
7
  6
CONTINUOUS
 10
107.4506021615
 20
87.9586412989
 11
107.4506021615
 21
86.9586412989
  0
LINE
  8
BEZUGSACHSEN
 62
7
  6
CONTINUOUS
 10
107.4506021615
 20
86.9586412989
 11
107.4506021615
 21
84.9586412989
  0
LINE
  8
KONSTRUKTIONSELEMENTE
 62
7
  6
CONTINUOUS
 10
107.4506021615
 20
281.9586412989
 11
107.4506021615
 21
282.9586412989
  0
LINE
  8
FASEN
 62
7
  6
CONTINUOUS
 10
107.4506021615
 20
282.9586412989
 11
107.4506021615
 21
284.9586412989
  0
LINE
  8
KONSTRUKTIONSELEMENTE
 62
7
  6
CONTINUOUS
 10
107.9506021615
 20
88.6586412989
 11
107.9506021615
 21
86.9586412989
  0
LINE
  8
0
 62
7
  6
CONTINUOUS
 10
107.9506021615
 20
88.6586412989
 11
107.9506021615
 21
282.7586412989
  0
LINE
  8
BEZUGSACHSEN
 62
7
  6
CONTINUOUS
 10
109.4506021615
 20
86.9586412989
 11
109.4506021615
 21
84.9586412989
  0
LINE
  8
FASEN
 62
7
  6
CONTINUOUS
 10
109.4506021615
 20
282.9586412989
 11
109.4506021615
 21
284.9586412989
  0
POLYLINE
  8
0
 62
7
  6
CONTINUOUS
 66
1
 70
0
  0
VERTEX
  8
0
 62
7
  6
CONTINUOUS
 10
454.2330667535
 20
281.0201667126
  0
VERTEX
  8
0
 62
7
  6
CONTINUOUS
 10
454.1261166673
 20
280.9894046089
  0
VERTEX
  8
0
 62
7
  6
CONTINUOUS
 10
454.0714346406
 20
280.9740278322
  0
SEQEND
  0
LINE
  8
0
 62
3
  6
CONTINUOUS
 10
453.6052235202
 20
280.9432656555
 11
453.5481214043
 21
280.9124960888
  0
LINE
  8
0
 62
3
  6
CONTINUOUS
 10
453.5481214043
 20
280.9124960888
 11
453.4899279978
 21
280.8817235576
  0
LINE
  8
0
 62
3
  6
CONTINUOUS
 10
453.4899279978
 20
280.8817235576
 11
453.4308645384
 21
280.8509527912
  0
LINE
  8
0
 62
3
  6
CONTINUOUS
 10
453.4308645384
 20
280.8509527912
 11
453.3411064094
 21
280.8047978923
  0
LINE
  8
0
 62
3
  6
CONTINUOUS
 10
453.3411064094
 20
280.8047978923
 11
453.2506021615
 21
280.7586412989
  0
LINE
  8
KONSTRUKTIONSELEMENTE
 62
7
  6
CONTINUOUS
 10
260.4506021615
 20
-65.0413587011
 11
259.4506021615
 21
-65.0413587011
  0
LINE
  8
FASEN
 62
7
  6
CONTINUOUS
 10
259.4506021615
 20
-65.0413587011
 11
257.4506021615
 21
-65.0413587011
  0
LINE
  8
BEZUGSACHSEN
 62
7
  6
CONTINUOUS
 10
260.4506021615
 20
-65.0413587011
 11
454.4506021615
 21
-65.0413587011
  0
LINE
  8
KONSTRUKTIONSELEMENTE
 62
7
  6
CONTINUOUS
 10
454.4506021615
 20
-65.0413587011
 11
455.4506021615
 21
-65.0413587011
  0
LINE
  8
BEZUGSACHSEN
 62
7
  6
CONTINUOUS
 10
455.4506021615
 20
-65.0413587011
 11
457.4506021615
 21
-65.0413587011
  0
LINE
  8
KONSTRUKTIONSELEMENTE
 62
7
  6
CONTINUOUS
 10
259.4506021615
 20
-64.5413587011
 11
261.1506021615
 21
-64.5413587011
  0
LINE
  8
0
 62
7
  6
CONTINUOUS
 10
261.1506021615
 20
-64.5413587011
 11
455.2506021615
 21
-64.5413587011
  0
LINE
  8
FASEN
 62
7
  6
CONTINUOUS
 10
259.4506021615
 20
-63.0413587011
 11
257.4506021615
 21
-63.0413587011
  0
LINE
  8
BEZUGSACHSEN
 62
7
  6
CONTINUOUS
 10
455.4506021615
 20
-63.0413587011
 11
457.4506021615
 21
-63.0413587011
  0
LINE
  8
0
 62
3
  6
CONTINUOUS
 10
453.2506021615
 20
280.7586412989
 11
453.4172725505
 21
280.8891703896
  0
POLYLINE
  8
0
 62
3
  6
CONTINUOUS
 66
1
 70
0
  0
VERTEX
  8
0
 62
3
  6
CONTINUOUS
 10
453.4172725505
 20
280.8891703896
  0
VERTEX
  8
0
 62
3
  6
CONTINUOUS
 10
453.528394404
 20
280.9750920041
  0
VERTEX
  8
0
 62
3
  6
CONTINUOUS
 10
453.5839587104
 20
281.0174779561
  0
VERTEX
  8
0
 62
3
  6
CONTINUOUS
 10
453.6395305444
 20
281.0593766812
  0
VERTEX
  8
0
 62
3
  6
CONTINUOUS
 10
453.6950955846
 20
281.1006975898
  0
VERTEX
  8
0
 62
3
  6
CONTINUOUS
 10
453.7506356088
 20
281.1413490009
  0
VERTEX
  8
0
 62
3
  6
CONTINUOUS
 10
453.8061674926
 20
281.1812665189
  0
VERTEX
  8
0
 62
3
  6
CONTINUOUS
 10
453.8617022647
 20
281.2203822434
  0
VERTEX
  8
0
 62
3
  6
CONTINUOUS
 10
453.9172392435
 20
281.258621176
  0
VERTEX
  8
0
 62
3
  6
CONTINUOUS
 10
453.972781677
 20
281.2959126181
  0
VERTEX
  8
0
 62
3
  6
CONTINUOUS
 10
454.0283288048
 20
281.3321848369
  0
VERTEX
  8
0
 62
3
  6
CONTINUOUS
 10
454.0838812886
 20
281.3673689515
  0
VERTEX
  8
0
 62
3
  6
CONTINUOUS
 10
454.1394381096
 20
281.4013970562
  0
VERTEX
  8
0
 62
3
  6
CONTINUOUS
 10
454.1949989838
 20
281.4342039302
  0
VERTEX
  8
0
 62
3
  6
CONTINUOUS
 10
454.2505623688
 20
281.4657259804
  0
VERTEX
  8
0
 62
3
  6
CONTINUOUS
 10
454.3061270318
 20
281.4959023537
  0
VERTEX
  8
0
 62
3
  6
CONTINUOUS
 10
454.3616917596
 20
281.5246748812
  0
VERTEX
  8
0
 62
3
  6
CONTINUOUS
 10
454.4172548177
 20
281.5519879405
  0
VERTEX
  8
0
 62
3
  6
CONTINUOUS
 10
454.4728165368
 20
281.5777898083
  0
VERTEX
  8
0
 62
3
  6
CONTINUOUS
 10
454.5283760406
 20
281.6020310995
  0
VERTEX
  8
0
 62
3
  6
CONTINUOUS
 10
454.5839352153
 20
281.6246665929
  0
VERTEX
  8
0
 62
3
  6
CONTINUOUS
 10
454.6394960561
 20
281.6456539474
  0
VERTEX
  8
0
 62
3
  6
CONTINUOUS
 10
454.6950573601
 20
281.6649526555
  0
VERTEX
  8
0
 62
3
  6
CONTINUOUS
 10
454.750621443
 20
281.6825266265
  0
VERTEX
  8
0
 62
3
  6
CONTINUOUS
 10
454.8061797431
 20
281.6983398362
  0
VERTEX
  8
0
 62
3
  6
CONTINUOUS
 10
454.8617192934
 20
281.7123596716
  0
VERTEX
  8
0
 62
3
  6
CONTINUOUS
 10
454.9172556251
 20
281.7245644413
  0
VERTEX
  8
0
 62
3
  6
CONTINUOUS
 10
454.9728014364
 20
281.734933405
  0
VERTEX
  8
0
 62
3
  6
CONTINUOUS
 10
455.0283522601
 20
281.7434452767
  0
VERTEX
  8
0
 62
3
  6
CONTINUOUS
 10
455.0839079203
 20
281.7500833333
  0
VERTEX
  8
0
 62
3
  6
CONTINUOUS
 10
455.1394682412
 20
281.7548344355
  0
VERTEX
  8
0
 62
3
  6
CONTINUOUS
 10
455.195032959
 20
281.7576890529
  0
VERTEX
  8
0
 62
3
  6
CONTINUOUS
 10
455.2506021615
 20
281.7586412989
  0
SEQEND
  0
LINE
  8
0
 62
7
  6
CONTINUOUS
 10
107.9506021615
 20
88.6586412989
 11
109.4506021615
 21
87.1586412989
  0
LINE
  8
0
 62
7
  6
CONTINUOUS
 10
259.6506021615
 20
-63.0413587011
 11
261.1506021615
 21
-64.5413587011
  0
LINE
  8
FASEN
 62
3
  6
CONTINUOUS
 10
257.4506021615
 20
-65.0413587011
 11
257.4506021615
 21
-63.0413587011
  0
LINE
  8
KONSTRUKTIONSELEMENTE
 62
3
  6
CONTINUOUS
 10
257.4506021615
 20
-63.0413587011
 11
257.4506021615
 21
84.9586412989
  0
LINE
  8
KONSTRUKTIONSELEMENTE
 62
7
  6
CONTINUOUS
 10
258.9506021615
 20
87.1586412989
 11
258.9506021615
 21
86.9586412989
  0
LINE
  8
KONSTRUKTIONSELEMENTE
 62
7
  6
CONTINUOUS
 10
259.2506021615
 20
84.9586412989
 11
259.2506021615
 21
86.9586412989
  0
LINE
  8
FASEN
 62
7
  6
CONTINUOUS
 10
259.4506021615
 20
-63.0413587011
 11
259.4506021615
 21
-65.0413587011
  0
LINE
  8
KONSTRUKTIONSELEMENTE
 62
7
  6
CONTINUOUS
 10
259.4506021615
 20
-63.0413587011
 11
259.4506021615
 21
87.1586412989
  0
LINE
  8
0
 62
7
  6
CONTINUOUS
 10
259.6506021615
 20
87.1586412989
 11
259.6506021615
 21
-63.0413587011
  0
LINE
  8
KONSTRUKTIONSELEMENTE
 62
9
  6
CONTINUOUS
 10
260.4506021615
 20
-65.0413587011
 11
260.4506021615
 21
-64.5413587011
  0
LINE
  8
0
 62
7
  6
CONTINUOUS
 10
453.2506021615
 20
280.7586412989
 11
453.4105886427
 21
281.0092866982
  0
LINE
  8
0
 62
7
  6
CONTINUOUS
 10
453.4105886427
 20
281.0092866982
 11
453.4905869079
 21
281.1333803921
  0
LINE
  8
0
 62
7
  6
CONTINUOUS
 10
453.4905869079
 20
281.1333803921
 11
453.5706001604
 21
281.2560180286
  0
POLYLINE
  8
0
 62
7
  6
CONTINUOUS
 66
1
 70
0
  0
VERTEX
  8
0
 62
7
  6
CONTINUOUS
 10
453.5706001604
 20
281.2560180286
  0
VERTEX
  8
0
 62
7
  6
CONTINUOUS
 10
453.6505364468
 20
281.3765771146
  0
VERTEX
  8
0
 62
7
  6
CONTINUOUS
 10
453.6905077039
 20
281.4359775356
  0
VERTEX
  8
0
 62
7
  6
CONTINUOUS
 10
453.7304853434
 20
281.4947197895
  0
VERTEX
  8
0
 62
7
  6
CONTINUOUS
 10
453.7704754327
 20
281.5527543833
  0
VERTEX
  8
0
 62
7
  6
CONTINUOUS
 10
453.8104726892
 20
281.6100158587
  0
VERTEX
  8
0
 62
7
  6
CONTINUOUS
 10
453.8504710769
 20
281.6664388288
  0
VERTEX
  8
0
 62
7
  6
CONTINUOUS
 10
453.8904789225
 20
281.7219790042
  0
VERTEX
  8
0
 62
7
  6
CONTINUOUS
 10
453.9305057067
 20
281.7765937157
  0
VERTEX
  8
0
 62
7
  6
CONTINUOUS
 10
453.9705419319
 20
281.830215007
  0
VERTEX
  8
0
 62
7
  6
CONTINUOUS
 10
454.0105832436
 20
281.8827834767
  0
VERTEX
  8
0
 62
7
  6
CONTINUOUS
 10
454.0506236933
 20
281.934239166
  0
VERTEX
  8
0
 62
7
  6
CONTINUOUS
 10
454.0906548483
 20
281.9845207985
  0
VERTEX
  8
0
 62
7
  6
CONTINUOUS
 10
454.1306798074
 20
282.0335832524
  0
VERTEX
  8
0
 62
7
  6
CONTINUOUS
 10
454.1706987732
 20
282.0813788606
  0
VERTEX
  8
0
 62
7
  6
CONTINUOUS
 10
454.2107120031
 20
282.1278612811
  0
VERTEX
  8
0
 62
7
  6
CONTINUOUS
 10
454.250719426
 20
282.1729851034
  0
VERTEX
  8
0
 62
7
  6
CONTINUOUS
 10
454.29072223
 20
282.216707655
  0
VERTEX
  8
0
 62
7
  6
CONTINUOUS
 10
454.3307209748
 20
282.2589868532
  0
VERTEX
  8
0
 62
7
  6
CONTINUOUS
 10
454.3707174746
 20
282.2997832369
  0
VERTEX
  8
0
 62
7
  6
CONTINUOUS
 10
454.4107132165
 20
282.3390582361
  0
VERTEX
  8
0
 62
7
  6
CONTINUOUS
 10
454.4507097417
 20
282.3767746097
  0
VERTEX
  8
0
 62
7
  6
CONTINUOUS
 10
454.4907114403
 20
282.4128989256
  0
VERTEX
  8
0
 62
7
  6
CONTINUOUS
 10
454.5307112525
 20
282.4473889629
  0
VERTEX
  8
0
 62
7
  6
CONTINUOUS
 10
454.5707038923
 20
282.4802066914
  0
VERTEX
  8
0
 62
7
  6
CONTINUOUS
 10
454.6106884289
 20
282.5113199367
  0
VERTEX
  8
0
 62
7
  6
CONTINUOUS
 10
454.6506572046
 20
282.5406935983
  0
VERTEX
  8
0
 62
7
  6
CONTINUOUS
 10
454.6906251151
 20
282.5683107552
  0
VERTEX
  8
0
 62
7
  6
CONTINUOUS
 10
454.7306063506
 20
282.5941531636
  0
VERTEX
  8
0
 62
7
  6
CONTINUOUS
 10
454.7705953695
 20
282.6181903432
  0
VERTEX
  8
0
 62
7
  6
CONTINUOUS
 10
454.8105925011
 20
282.6403976966
  0
VERTEX
  8
0
 62
7
  6
CONTINUOUS
 10
454.8505943232
 20
282.6607505267
  0
VERTEX
  8
0
 62
7
  6
CONTINUOUS
 10
454.8905980723
 20
282.6792268782
  0
VERTEX
  8
0
 62
7
  6
CONTINUOUS
 10
454.9306021021
 20
282.6958075979
  0
VERTEX
  8
0
 62
7
  6
CONTINUOUS
 10
454.970603343
 20
282.7104752276
  0
VERTEX
  8
0
 62
7
  6
CONTINUOUS
 10
455.0106033012
 20
282.7232161358
  0
VERTEX
  8
0
 62
7
  6
CONTINUOUS
 10
455.0506022487
 20
282.7340180015
  0
VERTEX
  8
0
 62
7
  6
CONTINUOUS
 10
455.0906008179
 20
282.742870437
  0
VERTEX
  8
0
 62
7
  6
CONTINUOUS
 10
455.1305995515
 20
282.7497648423
  0
VERTEX
  8
0
 62
7
  6
CONTINUOUS
 10
455.1705989916
 20
282.7546944431
  0
VERTEX
  8
0
 62
7
  6
CONTINUOUS
 10
455.2105999521
 20
282.7576543106
  0
VERTEX
  8
0
 62
7
  6
CONTINUOUS
 10
455.2506021615
 20
282.7586412989
  0
SEQEND
  0
LINE
  8
KONSTRUKTIONSELEMENTE
 62
3
  6
CONTINUOUS
 10
259.2506021615
 20
84.9586412989
 11
109.4506021615
 21
84.9586412989
  0
LINE
  8
BEZUGSACHSEN
 62
3
  6
CONTINUOUS
 10
107.4506021615
 20
84.9586412989
 11
109.4506021615
 21
84.9586412989
  0
LINE
  8
KONSTRUKTIONSELEMENTE
 62
7
  6
CONTINUOUS
 10
259.2506021615
 20
84.9586412989
 11
259.4506021615
 21
84.9586412989
  0
LINE
  8
BEZUGSACHSEN
 62
7
  6
CONTINUOUS
 10
109.4506021615
 20
86.9586412989
 11
107.4506021615
 21
86.9586412989
  0
LINE
  8
KONSTRUKTIONSELEMENTE
 62
7
  6
CONTINUOUS
 10
109.4506021615
 20
86.9586412989
 11
259.2506021615
 21
86.9586412989
  0
LINE
  8
0
 62
7
  6
CONTINUOUS
 10
109.4506021615
 20
87.1586412989
 11
259.6506021615
 21
87.1586412989
  0
LINE
  8
KONSTRUKTIONSELEMENTE
 62
9
  6
CONTINUOUS
 10
107.4506021615
 20
87.9586412989
 11
107.9506021615
 21
87.9586412989
  0
POLYLINE
  8
0
 62
3
  6
CONTINUOUS
 66
1
 70
0
  0
VERTEX
  8
0
 62
3
  6
CONTINUOUS
 10
454.2293878364
 20
281.4537133093
  0
VERTEX
  8
0
 62
3
  6
CONTINUOUS
 10
454.2283276341
 20
281.4509454877
  0
VERTEX
  8
0
 62
3
  6
CONTINUOUS
 10
454.2215413034
 20
281.4355586819
  0
VERTEX
  8
0
 62
3
  6
CONTINUOUS
 10
454.2138773382
 20
281.4201880595
  0
VERTEX
  8
0
 62
3
  6
CONTINUOUS
 10
454.2053380325
 20
281.4048208333
  0
VERTEX
  8
0
 62
3
  6
CONTINUOUS
 10
454.1959255869
 20
281.3894473961
  0
VERTEX
  8
0
 62
3
  6
CONTINUOUS
 10
454.185649315
 20
281.3740703145
  0
VERTEX
  8
0
 62
3
  6
CONTINUOUS
 10
454.1745169621
 20
281.3586882408
  0
VERTEX
  8
0
 62
3
  6
CONTINUOUS
 10
454.1625395786
 20
281.3433033116
  0
VERTEX
  8
0
 62
3
  6
CONTINUOUS
 10
454.1497297722
 20
281.3279180228
  0
VERTEX
  8
0
 62
3
  6
CONTINUOUS
 10
454.1360969608
 20
281.3125299486
  0
VERTEX
  8
0
 62
3
  6
CONTINUOUS
 10
454.1216502228
 20
281.2971360572
  0
VERTEX
  8
0
 62
3
  6
CONTINUOUS
 10
454.1064062281
 20
281.2817406628
  0
VERTEX
  8
0
 62
3
  6
CONTINUOUS
 10
454.0903824672
 20
281.266347323
  0
VERTEX
  8
0
 62
3
  6
CONTINUOUS
 10
454.0735930362
 20
281.250955275
  0
VERTEX
  8
0
 62
3
  6
CONTINUOUS
 10
454.0560541634
 20
281.2355651228
  0
VERTEX
  8
0
 62
3
  6
CONTINUOUS
 10
454.0377814799
 20
281.2201763232
  0
VERTEX
  8
0
 62
3
  6
CONTINUOUS
 10
454.0187914851
 20
281.2047885786
  0
VERTEX
  8
0
 62
3
  6
CONTINUOUS
 10
453.9991014852
 20
281.1894017555
  0
VERTEX
  8
0
 62
3
  6
CONTINUOUS
 10
453.9787292992
 20
281.1740156485
  0
VERTEX
  8
0
 62
3
  6
CONTINUOUS
 10
453.9576934986
 20
281.1586301753
  0
VERTEX
  8
0
 62
3
  6
CONTINUOUS
 10
453.9360131985
 20
281.143245223
  0
VERTEX
  8
0
 62
3
  6
CONTINUOUS
 10
453.9137080799
 20
281.1278606782
  0
VERTEX
  8
0
 62
3
  6
CONTINUOUS
 10
453.8907984192
 20
281.1124764589
  0
VERTEX
  8
0
 62
3
  6
CONTINUOUS
 10
453.8673048391
 20
281.0970923595
  0
VERTEX
  8
0
 62
3
  6
CONTINUOUS
 10
453.8432485765
 20
281.0817082465
  0
VERTEX
  8
0
 62
3
  6
CONTINUOUS
 10
453.8186510975
 20
281.0663238223
  0
VERTEX
  8
0
 62
3
  6
CONTINUOUS
 10
453.793533921
 20
281.0509385462
  0
VERTEX
  8
0
 62
3
  6
CONTINUOUS
 10
453.7679208854
 20
281.0355530148
  0
VERTEX
  8
0
 62
3
  6
CONTINUOUS
 10
453.7418344575
 20
281.0201667126
  0
VERTEX
  8
0
 62
3
  6
CONTINUOUS
 10
453.7153032374
 20
281.0047824359
  0
VERTEX
  8
0
 62
3
  6
CONTINUOUS
 10
453.6883594144
 20
280.9894046089
  0
VERTEX
  8
0
 62
3
  6
CONTINUOUS
 10
453.661018401
 20
280.9740278322
  0
VERTEX
  8
0
 62
3
  6
CONTINUOUS
 10
453.6332971677
 20
280.9586476791
  0
VERTEX
  8
0
 62
3
  6
CONTINUOUS
 10
453.6052235202
 20
280.9432656555
  0
SEQEND
  0
POLYLINE
  8
0
 62
7
  6
CONTINUOUS
 66
1
 70
0
  0
VERTEX
  8
0
 62
7
  6
CONTINUOUS
 10
455.2506021615
 20
281.5586412989
  0
VERTEX
  8
0
 62
7
  6
CONTINUOUS
 10
455.2496898317
 20
281.5432575368
  0
VERTEX
  8
0
 62
7
  6
CONTINUOUS
 10
455.2469536975
 20
281.5278738714
  0
VERTEX
  8
0
 62
7
  6
CONTINUOUS
 10
455.2423963742
 20
281.5124905407
  0
VERTEX
  8
0
 62
7
  6
CONTINUOUS
 10
455.2360218
 20
281.4971068308
  0
VERTEX
  8
0
 62
7
  6
CONTINUOUS
 10
455.2278353753
 20
281.4817222659
  0
VERTEX
  8
0
 62
7
  6
CONTINUOUS
 10
455.2178439315
 20
281.46633637
  0
VERTEX
  8
0
 62
7
  6
CONTINUOUS
 10
455.2060531066
 20
281.4509454877
  0
VERTEX
  8
0
 62
7
  6
CONTINUOUS
 10
455.1924804452
 20
281.4355586819
  0
VERTEX
  8
0
 62
7
  6
CONTINUOUS
 10
455.177152515
 20
281.4201880595
  0
VERTEX
  8
0
 62
7
  6
CONTINUOUS
 10
455.1600739035
 20
281.4048208333
  0
VERTEX
  8
0
 62
7
  6
CONTINUOUS
 10
455.1412490123
 20
281.3894473961
  0
VERTEX
  8
0
 62
7
  6
CONTINUOUS
 10
455.1206964684
 20
281.3740703145
  0
VERTEX
  8
0
 62
7
  6
CONTINUOUS
 10
455.0984317627
 20
281.3586882408
  0
VERTEX
  8
0
 62
7
  6
CONTINUOUS
 10
455.0744769957
 20
281.3433033116
  0
VERTEX
  8
0
 62
7
  6
CONTINUOUS
 10
455.0488573828
 20
281.3279180228
  0
VERTEX
  8
0
 62
7
  6
CONTINUOUS
 10
455.0215917601
 20
281.3125299486
  0
VERTEX
  8
0
 62
7
  6
CONTINUOUS
 10
454.992698284
 20
281.2971360572
  0
VERTEX
  8
0
 62
7
  6
CONTINUOUS
 10
454.9622102947
 20
281.2817406628
  0
VERTEX
  8
0
 62
7
  6
CONTINUOUS
 10
454.9301627728
 20
281.266347323
  0
VERTEX
  8
0
 62
7
  6
CONTINUOUS
 10
454.8965839109
 20
281.250955275
  0
VERTEX
  8
0
 62
7
  6
CONTINUOUS
 10
454.8615061652
 20
281.2355651228
  0
VERTEX
  8
0
 62
7
  6
CONTINUOUS
 10
454.8249607982
 20
281.2201763232
  0
VERTEX
  8
0
 62
7
  6
CONTINUOUS
 10
454.7869808087
 20
281.2047885786
  0
VERTEX
  8
0
 62
7
  6
CONTINUOUS
 10
454.7476008089
 20
281.1894017555
  0
VERTEX
  8
0
 62
7
  6
CONTINUOUS
 10
454.7068564368
 20
281.1740156485
  0
VERTEX
  8
0
 62
7
  6
CONTINUOUS
 10
454.6647848356
 20
281.1586301753
  0
VERTEX
  8
0
 62
7
  6
CONTINUOUS
 10
454.6214242354
 20
281.143245223
  0
VERTEX
  8
0
 62
7
  6
CONTINUOUS
 10
454.5768139982
 20
281.1278606782
  0
VERTEX
  8
0
 62
7
  6
CONTINUOUS
 10
454.5309946768
 20
281.1124764589
  0
VERTEX
  8
0
 62
7
  6
CONTINUOUS
 10
454.4840075166
 20
281.0970923595
  0
VERTEX
  8
0
 62
7
  6
CONTINUOUS
 10
454.4358949915
 20
281.0817082465
  0
VERTEX
  8
0
 62
7
  6
CONTINUOUS
 10
454.3867000335
 20
281.0663238223
  0
VERTEX
  8
0
 62
7
  6
CONTINUOUS
 10
454.3364656805
 20
281.0509385462
  0
VERTEX
  8
0
 62
7
  6
CONTINUOUS
 10
454.2852396092
 20
281.0355530148
  0
VERTEX
  8
0
 62
7
  6
CONTINUOUS
 10
454.2330667535
 20
281.0201667126
  0
SEQEND
  0
LINE
  8
0
 62
9
  6
CONTINUOUS
 10
453.2506021615
 20
280.7586412989
 11
453.2506021615
 21
-64.5413587011
  0
LINE
  8
KONSTRUKTIONSELEMENTE
 62
9
  6
CONTINUOUS
 10
454.4506021615
 20
-65.0413587011
 11
454.4506021615
 21
-64.5413587011
  0
LINE
  8
KONSTRUKTIONSELEMENTE
 62
9
  6
CONTINUOUS
 10
454.4506021615
 20
281.5586412989
 11
454.4506021615
 21
281.56747385
  0
LINE
  8
KONSTRUKTIONSELEMENTE
 62
7
  6
CONTINUOUS
 10
454.4506021615
 20
282.7586412989
 11
454.4506021615
 21
282.9586412989
  0
LINE
  8
0
 62
7
  6
CONTINUOUS
 10
455.2506021615
 20
282.7586412989
 11
455.2506021615
 21
281.7586412989
  0
LINE
  8
0
 62
7
  6
CONTINUOUS
 10
455.2506021615
 20
281.5586412989
 11
455.2506021615
 21
-64.5413587011
  0
LINE
  8
BEZUGSACHSEN
 62
7
  6
CONTINUOUS
 10
455.4506021615
 20
-63.0413587011
 11
455.4506021615
 21
-65.0413587011
  0
LINE
  8
KONSTRUKTIONSELEMENTE
 62
7
  6
CONTINUOUS
 10
455.4506021615
 20
-63.0413587011
 11
455.4506021615
 21
282.9586412989
  0
LINE
  8
KONSTRUKTIONSELEMENTE
 62
7
  6
CONTINUOUS
 10
457.2506021615
 20
284.9586412989
 11
457.2506021615
 21
282.9586412989
  0
LINE
  8
BEZUGSACHSEN
 62
3
  6
CONTINUOUS
 10
457.4506021615
 20
-65.0413587011
 11
457.4506021615
 21
-63.0413587011
  0
LINE
  8
KONSTRUKTIONSELEMENTE
 62
3
  6
CONTINUOUS
 10
457.4506021615
 20
-63.0413587011
 11
457.4506021615
 21
282.9586412989
  0
LINE
  8
0
 62
7
  6
CONTINUOUS
 10
454.0714346406
 20
280.9740278322
 11
453.9598448789
 21
280.9432656555
  0
LINE
  8
0
 62
7
  6
CONTINUOUS
 10
453.9598448789
 20
280.9432656555
 11
453.8456406471
 21
280.9124960888
  0
LINE
  8
0
 62
7
  6
CONTINUOUS
 10
453.8456406471
 20
280.9124960888
 11
453.7292538341
 21
280.8817235576
  0
LINE
  8
0
 62
7
  6
CONTINUOUS
 10
453.7292538341
 20
280.8817235576
 11
453.5515444278
 21
280.8355677913
  0
LINE
  8
0
 62
7
  6
CONTINUOUS
 10
453.5515444278
 20
280.8355677913
 11
453.2506021615
 21
280.7586412989
  0
LINE
  8
0
 62
9
  6
CONTINUOUS
 10
107.9506021615
 20
280.7586412989
 11
453.2506021615
 21
280.7586412989
  0
LINE
  8
0
 62
7
  6
CONTINUOUS
 10
455.2506021615
 20
281.5586412989
 11
454.4315821539
 21
281.5586412989
  0
LINE
  8
KONSTRUKTIONSELEMENTE
 62
9
  6
CONTINUOUS
 10
107.4506021615
 20
281.9586412989
 11
107.9506021615
 21
281.9586412989
  0
LINE
  8
KONSTRUKTIONSELEMENTE
 62
7
  6
CONTINUOUS
 10
455.2506021615
 20
281.9586412989
 11
455.4506021615
 21
281.9586412989
  0
LINE
  8
0
 62
7
  6
CONTINUOUS
 10
107.9506021615
 20
282.7586412989
 11
455.2506021615
 21
282.7586412989
  0
LINE
  8
KONSTRUKTIONSELEMENTE
 62
7
  6
CONTINUOUS
 10
457.4506021615
 20
282.9586412989
 11
109.4506021615
 21
282.9586412989
  0
LINE
  8
FASEN
 62
7
  6
CONTINUOUS
 10
109.4506021615
 20
282.9586412989
 11
107.4506021615
 21
282.9586412989
  0
LINE
  8
FASEN
 62
3
  6
CONTINUOUS
 10
107.4506021615
 20
284.9586412989
 11
109.4506021615
 21
284.9586412989
  0
LINE
  8
KONSTRUKTIONSELEMENTE
 62
3
  6
CONTINUOUS
 10
109.4506021615
 20
284.9586412989
 11
457.2506021615
 21
284.9586412989
  0
ARC
  8
0
 62
7
  6
CONTINUOUS
 10
396.9506021615
 20
367.4425596546
 40
4.5
 50
229.0739366904
 51
233.1301023542
  0
ARC
  8
0
 62
7
  6
CONTINUOUS
 10
396.9506021615
 20
367.4425596546
 40
4.5
 50
306.8698976458
 51
310.9260633096
  0
ARC
  8
KONSTRUKTIONSELEMENTE
 62
3
  6
CONTINUOUS
 10
260.4506021615
 20
327.5425596546
 40
3.0
 50
180.0
 51
270.0
  0
ARC
  8
KONSTRUKTIONSELEMENTE
 62
3
  6
CONTINUOUS
 10
454.4506021615
 20
327.5425596546
 40
3.0
 50
270.0
 51
360.0
  0
ARC
  8
0
 62
7
  6
CONTINUOUS
 10
453.2506021615
 20
378.3425596546
 40
2.0
 50
0.0
 51
90.0
  0
ARC
  8
KONSTRUKTIONSELEMENTE
 62
7
  6
CONTINUOUS
 10
260.4506021615
 20
327.5425596546
 40
1.0
 50
180.0
 51
270.0
  0
ARC
  8
KONSTRUKTIONSELEMENTE
 62
7
  6
CONTINUOUS
 10
454.4506021615
 20
327.5425596546
 40
1.0
 50
270.0
 51
360.0
  0
ARC
  8
0
 62
3
  6
CONTINUOUS
 10
453.2506021615
 20
378.3425596546
 40
1.0
 50
0.0
 51
90.0
  0
ARC
  8
0
 62
7
  6
CONTINUOUS
 10
451.1506021615
 20
364.0425596546
 40
0.2
 50
270.0
 51
360.0
  0
ARC
  8
BEZUGSACHSEN
 62
7
  6
CONTINUOUS
 10
312.5506021615
 20
326.6425596546
 40
0.1
 50
180.0
 51
270.0
  0
ARC
  8
BEZUGSACHSEN
 62
7
  6
CONTINUOUS
 10
302.3506021615
 20
326.6425596546
 40
0.1
 50
270.0
 51
360.0
  0
ARC
  8
BEZUGSACHSEN
 62
7
  6
CONTINUOUS
 10
412.5506021615
 20
326.6425596546
 40
0.1
 50
180.0
 51
270.0
  0
ARC
  8
BEZUGSACHSEN
 62
7
  6
CONTINUOUS
 10
402.3506021615
 20
326.6425596546
 40
0.1
 50
270.0
 51
360.0
  0
ARC
  8
BEZUGSACHSEN
 62
7
  6
CONTINUOUS
 10
259.9241952903
 20
326.6425596546
 40
0.1
 50
357.5313565219
 51
360.0
  0
ARC
  8
BEZUGSACHSEN
 62
7
  6
CONTINUOUS
 10
270.1241952903
 20
326.6425596546
 40
0.1
 50
180.0
 51
270.0
  0
ARC
  8
BEZUGSACHSEN
 62
7
  6
CONTINUOUS
 10
384.2663309141
 20
326.6425596546
 40
0.1
 50
180.0
 51
270.0
  0
ARC
  8
BEZUGSACHSEN
 62
7
  6
CONTINUOUS
 10
374.0663309141
 20
326.6425596546
 40
0.1
 50
270.0
 51
360.0
  0
ENDSEC
  0
EOF
