999
DXF file: bkb300801.dxf
999
Pro/ENGINEER 2022024 by Parametric Technology Corporation
  0
SECTION
  2
HEADER
  9
$EXTMAX
 10
594.0
 20
420.0
 30
0.0
  9
$EXTMIN
 10
0.0
 20
0.0
 30
0.0
  9
$LIMMIN
 10
0.0
 20
0.0
  9
$LIMMAX
 10
594.0
 20
420.0
  9
$VIEWCTR
 10
297.0
 20
210.0
  9
$VIEWSIZE
 40
420.0
  9
$CLAYER
  8
0
  9
$LTSCALE
 40
32.67
  9
$CELTYPE
  6
BYLAYER
  9
$DIMSCALE
 40
1.0
  9
$DIMASZ
 40
3.5
  9
$DIMEXO
 40
0.0
  9
$DIMDLI
 40
22.572
  9
$DIMEXE
 40
1.5
  9
$DIMCEN
 40
5.346
  9
$DIMLFAC
 40
1.0
  9
$DIMBLK
  1
_FILLED
  9
$DIMALT
 70
0
  9
$DIMALTF
 40
0.0393700787
  9
$DIMTXT
 40
3.5
  9
$AUNITS
 70
0
  9
$PDMODE
 70
3
  9
$PDSIZE
 40
0.3125
  9
$TILEMODE
 70
1
  0
ENDSEC
  0
SECTION
  2
TABLES
  0
TABLE
  2
LTYPE
 70
6
  0
LTYPE
  2
BYBLOCK
 70
0
  3

 72
65
 73
0
 40
0.0
  0
LTYPE
  2
BYLAYER
 70
0
  3

 72
65
 73
0
 40
0.0
  0
LTYPE
  2
CONTINUOUS
 70
64
  3
Solid line
 72
65
 73
0
 40
0.0
  0
LTYPE
  2
CENTER
 70
64
  3
____ _ ____ _ ____ _ ____ _ ____ _ ____ _ ____
 72
65
 73
4
 40
0.6
 49
0.375
 49
-0.075
 49
0.075
 49
-0.075
  0
LTYPE
  2
HIDDEN
 70
64
  3
- - - - - - - - - - - - - - - - - - - -
 72
65
 73
2
 40
0.2
 49
0.1
 49
-0.1
  0
LTYPE
  2
PHANTOM
 70
64
  3
_____ _ _ _____ _ _ _____ _ _ _____
 72
65
 73
6
 40
0.8
 49
0.45
 49
-0.05
 49
0.1
 49
-0.05
 49
0.1
 49
-0.05
  0
LTYPE
  2
DOT
 70
64
  3
. . . . . . . . . . . . . . . . . . . .
 72
65
 73
2
 40
0.2
 49
0.1
 49
-0.1
  0
LTYPE
  2
DASHED
 70
64
  3
- - - - - - - - - - - - - - - - - - - -
 72
65
 73
2
 40
0.2
 49
0.1
 49
-0.1
  0
ENDTAB
  0
TABLE
  2
LAYER
 70
36
  0
LAYER
  2
0
 70
0
 62
7
  6
CONTINUOUS
  0
LAYER
  2
DEFAULT_1
 70
0
 62
7
  6
CENTER
  0
LAYER
  2
DEFAULT_2
 70
0
 62
8
  6
HIDDEN
  0
LAYER
  2
DEFAULT_3
 70
0
 62
7
  6
PHANTOM
  0
LAYER
  2
01_STARTBEZUEGE
 70
0
 62
7
  6
CONTINUOUS
  0
LAYER
  2
ASSEMBLY
 70
0
 62
7
  6
CONTINUOUS
  0
LAYER
  2
AUSFORMSCHRAEGEN
 70
0
 62
7
  6
CONTINUOUS
  0
LAYER
  2
AXIS
 70
0
 62
7
  6
CONTINUOUS
  0
LAYER
  2
BEZUGSACHSEN
 70
0
 62
7
  6
CONTINUOUS
  0
LAYER
  2
BEZUGSEBENEN
 70
0
 62
7
  6
CONTINUOUS
  0
LAYER
  2
BEZUGSPUNKTE
 70
0
 62
7
  6
CONTINUOUS
  0
LAYER
  2
BOHRUNGEN
 70
0
 62
7
  6
CONTINUOUS
  0
LAYER
  2
CSYS
 70
0
 62
7
  6
CONTINUOUS
  0
LAYER
  2
FASEN
 70
0
 62
7
  6
CONTINUOUS
  0
LAYER
  2
FLAECHEN
 70
0
 62
7
  6
CONTINUOUS
  0
LAYER
  2
GEWINDE
 70
0
 62
7
  6
CONTINUOUS
  0
LAYER
  2
GTOL
 70
0
 62
7
  6
CONTINUOUS
  0
LAYER
  2
KONSTRUKTIONSELEMENTE
 70
0
 62
7
  6
CONTINUOUS
  0
LAYER
  2
KOORDINATENSYSTEME
 70
0
 62
7
  6
CONTINUOUS
  0
LAYER
  2
KURVEN
 70
0
 62
7
  6
CONTINUOUS
  0
LAYER
  2
MANIKIN
 70
0
 62
7
  6
CONTINUOUS
  0
LAYER
  2
NOTIZ
 70
0
 62
7
  6
CONTINUOUS
  0
LAYER
  2
PLANES
 70
0
 62
7
  6
CONTINUOUS
  0
LAYER
  2
RUNDUNGEN
 70
0
 62
7
  6
CONTINUOUS
  0
LAYER
  2
SKELETON_MODELS
 70
0
 62
7
  6
CONTINUOUS
  0
LAYER
  2
STARTBEZUEGE
 70
0
 62
7
  6
CONTINUOUS
  0
LAYER
  2
SURFACES
 70
0
 62
7
  6
CONTINUOUS
  0
LAYER
  2
VOLUMEN
 70
0
 62
7
  6
CONTINUOUS
  0
LAYER
  2
XSEC_DATUMS
 70
0
 62
7
  6
CONTINUOUS
  0
ENDTAB
  0
TABLE
  2
STYLE
 70
1
  0
STYLE
  2
STANDARD
 70
0
 40
0.0
 41
0.7
 50
0.0
 71
0
 42
0.2
  3
txt
  4

  0
STYLE
  2
TEXTSTYLE_1
 70
0
 40
0.0
 41
0.8
 50
0.0
 71
0
 42
0.2
  3
gdt
  4

  0
ENDTAB
  0
ENDSEC
  0
SECTION
  2
BLOCKS
  0
BLOCK
  8
0
  2
_FILLED
 70
64
 10
0.0
 20
0.0
  0
SOLID
  8
0
  6
BYBLOCK
 62
0
 10
0.0
 20
0.0
 11
-1.0
 21
0.125
 12
-1.0
 22
-0.125
 13
-1.0
 23
-0.125
  0
ENDBLK
  8
0
  6
BYBLOCK
 62
0
  0
ENDSEC
  0
SECTION
  2
ENTITIES
  0
LINE
  8
FASEN
 62
3
  6
CONTINUOUS
 10
101.3647164537
 20
185.056793131
 11
101.3647164537
 21
260.056793131
  0
LINE
  8
FASEN
 62
7
  6
CONTINUOUS
 10
103.3647164537
 20
185.056793131
 11
103.3647164537
 21
260.056793131
  0
LINE
  8
0
 62
7
  6
CONTINUOUS
 10
103.6147164537
 20
257.856793131
 11
103.6147164537
 21
256.856793131
  0
LINE
  8
KONSTRUKTIONSELEMENTE
 62
9
  6
CONTINUOUS
 10
104.3647164537
 20
182.056793131
 11
104.3647164537
 21
184.056793131
  0
LINE
  8
KONSTRUKTIONSELEMENTE
 62
7
  6
CONTINUOUS
 10
105.3647164537
 20
257.056793131
 11
105.3647164537
 21
207.056793131
  0
LINE
  8
0
 62
7
  6
CONTINUOUS
 10
115.8647164537
 20
226.856793131
 11
115.8647164537
 21
239.856793131
  0
LINE
  8
0
 62
7
  6
CONTINUOUS
 10
129.5647164537
 20
239.856793131
 11
129.5647164537
 21
256.856793131
  0
LINE
  8
BEZUGSACHSEN
 62
7
  6
CONTINUOUS
 10
146.3647164537
 20
186.056793131
 11
146.3647164537
 21
184.156793131
  0
LINE
  8
BEZUGSACHSEN
 62
7
  6
CONTINUOUS
 10
156.3647164537
 20
186.056793131
 11
156.3647164537
 21
184.156793131
  0
LINE
  8
0
 62
7
  6
CONTINUOUS
 10
188.7647164537
 20
256.556793131
 11
188.7647164537
 21
184.056793131
  0
POLYLINE
  8
0
 62
7
  6
CONTINUOUS
 66
1
 70
0
  0
VERTEX
  8
0
 62
7
  6
CONTINUOUS
 10
305.8464802291
 20
184.2287444016
  0
VERTEX
  8
0
 62
7
  6
CONTINUOUS
 10
305.8479117743
 20
184.228971303
  0
VERTEX
  8
0
 62
7
  6
CONTINUOUS
 10
305.8492859347
 20
184.2291956383
  0
VERTEX
  8
0
 62
7
  6
CONTINUOUS
 10
305.8506048887
 20
184.229417652
  0
VERTEX
  8
0
 62
7
  6
CONTINUOUS
 10
305.8518710839
 20
184.2296375823
  0
VERTEX
  8
0
 62
7
  6
CONTINUOUS
 10
305.8530861206
 20
184.2298556301
  0
VERTEX
  8
0
 62
7
  6
CONTINUOUS
 10
305.8542518739
 20
184.2300719869
  0
VERTEX
  8
0
 62
7
  6
CONTINUOUS
 10
305.8553699664
 20
184.2302869187
  0
VERTEX
  8
0
 62
7
  6
CONTINUOUS
 10
305.8564421752
 20
184.2305006518
  0
VERTEX
  8
0
 62
7
  6
CONTINUOUS
 10
305.8574699124
 20
184.2307134962
  0
VERTEX
  8
0
 62
7
  6
CONTINUOUS
 10
305.8584547686
 20
184.2309257076
  0
VERTEX
  8
0
 62
7
  6
CONTINUOUS
 10
305.8593979851
 20
184.2311376753
  0
VERTEX
  8
0
 62
7
  6
CONTINUOUS
 10
305.8603009938
 20
184.2313497049
  0
VERTEX
  8
0
 62
7
  6
CONTINUOUS
 10
305.8611648131
 20
184.2315623043
  0
VERTEX
  8
0
 62
7
  6
CONTINUOUS
 10
305.8619906861
 20
184.2317758463
  0
VERTEX
  8
0
 62
7
  6
CONTINUOUS
 10
305.8627793711
 20
184.2319910423
  0
VERTEX
  8
0
 62
7
  6
CONTINUOUS
 10
305.8635319479
 20
184.2322083813
  0
VERTEX
  8
0
 62
7
  6
CONTINUOUS
 10
305.8642486951
 20
184.2324289033
  0
VERTEX
  8
0
 62
7
  6
CONTINUOUS
 10
305.8649304514
 20
184.2326532638
  0
VERTEX
  8
0
 62
7
  6
CONTINUOUS
 10
305.8655766167
 20
184.2328831059
  0
VERTEX
  8
0
 62
7
  6
CONTINUOUS
 10
305.8661873292
 20
184.2331191038
  0
VERTEX
  8
0
 62
7
  6
CONTINUOUS
 10
305.8667612125
 20
184.2333648197
  0
VERTEX
  8
0
 62
7
  6
CONTINUOUS
 10
305.8672994183
 20
184.233621493
  0
VERTEX
  8
0
 62
7
  6
CONTINUOUS
 10
305.8677944992
 20
184.2338967661
  0
VERTEX
  8
0
 62
7
  6
CONTINUOUS
 10
305.868251026
 20
184.2341896553
  0
VERTEX
  8
0
 62
7
  6
CONTINUOUS
 10
305.8686340951
 20
184.2345272773
  0
VERTEX
  8
0
 62
7
  6
CONTINUOUS
 10
305.8689061545
 20
184.234939769
  0
VERTEX
  8
0
 62
7
  6
CONTINUOUS
 10
305.8690797214
 20
184.2354170849
  0
SEQEND
  0
LINE
  8
0
 62
7
  6
CONTINUOUS
 10
305.8434353559
 20
184.2282821256
 11
305.8464802291
 21
184.2287444016
  0
LINE
  8
0
 62
7
  6
CONTINUOUS
 10
305.8401330614
 20
184.2278074604
 11
305.8434353559
 21
184.2282821256
  0
LINE
  8
0
 62
7
  6
CONTINUOUS
 10
305.8365543893
 20
184.2273192245
 11
305.8401330614
 21
184.2278074604
  0
LINE
  8
0
 62
7
  6
CONTINUOUS
 10
305.8326780227
 20
184.2268161478
 11
305.8365543893
 21
184.2273192245
  0
LINE
  8
0
 62
7
  6
CONTINUOUS
 10
305.8284808829
 20
184.2262969699
 11
305.8326780227
 21
184.2268161478
  0
LINE
  8
0
 62
7
  6
CONTINUOUS
 10
305.8239380418
 20
184.2257604307
 11
305.8284808829
 21
184.2262969699
  0
LINE
  8
0
 62
7
  6
CONTINUOUS
 10
305.8190225499
 20
184.2252052539
 11
305.8239380418
 21
184.2257604307
  0
LINE
  8
0
 62
7
  6
CONTINUOUS
 10
305.8137052799
 20
184.2246301371
 11
305.8190225499
 21
184.2252052539
  0
LINE
  8
0
 62
7
  6
CONTINUOUS
 10
305.8049064563
 20
184.2237271366
 11
305.8137052799
 21
184.2246301371
  0
LINE
  8
0
 62
7
  6
CONTINUOUS
 10
305.7950153233
 20
184.2227715539
 11
305.8049064563
 21
184.2237271366
  0
LINE
  8
0
 62
7
  6
CONTINUOUS
 10
305.7839003623
 20
184.2217584216
 11
305.7950153233
 21
184.2227715539
  0
LINE
  8
0
 62
7
  6
CONTINUOUS
 10
305.7714128018
 20
184.2206823041
 11
305.7839003623
 21
184.2217584216
  0
LINE
  8
0
 62
7
  6
CONTINUOUS
 10
305.7523184593
 20
184.2191380974
 11
305.7714128018
 21
184.2206823041
  0
LINE
  8
0
 62
7
  6
CONTINUOUS
 10
305.7300219214
 20
184.2174561825
 11
305.7523184593
 21
184.2191380974
  0
LINE
  8
0
 62
7
  6
CONTINUOUS
 10
305.7039969689
 20
184.2156203328
 11
305.7300219214
 21
184.2174561825
  0
LINE
  8
0
 62
7
  6
CONTINUOUS
 10
305.6652736221
 20
184.2130809695
 11
305.7039969689
 21
184.2156203328
  0
LINE
  8
0
 62
7
  6
CONTINUOUS
 10
305.6381844276
 20
184.211410985
 11
305.6652736221
 21
184.2130809695
  0
LINE
  8
0
 62
7
  6
CONTINUOUS
 10
213.3647164537
 20
256.556793131
 11
213.3647164537
 21
184.056793131
  0
LINE
  8
0
 62
7
  6
CONTINUOUS
 10
305.5736251562
 20
184.2076955737
 11
305.6381844276
 21
184.211410985
  0
LINE
  8
0
 62
7
  6
CONTINUOUS
 10
305.4923195873
 20
184.2034060015
 11
305.5736251562
 21
184.2076955737
  0
LINE
  8
0
 62
7
  6
CONTINUOUS
 10
305.3705263988
 20
184.1975356815
 11
305.4923195873
 21
184.2034060015
  0
LINE
  8
0
 62
7
  6
CONTINUOUS
 10
305.184929148
 20
184.1894355124
 11
305.3705263988
 21
184.1975356815
  0
LINE
  8
0
 62
7
  6
CONTINUOUS
 10
304.856995167
 20
184.1766560947
 11
305.184929148
 21
184.1894355124
  0
LINE
  8
0
 62
7
  6
CONTINUOUS
 10
304.2565259724
 20
184.1561136437
 11
304.856995167
 21
184.1766560947
  0
LINE
  8
0
 62
7
  6
CONTINUOUS
 10
303.4042276146
 20
184.1304249687
 11
304.2565259724
 21
184.1561136437
  0
LINE
  8
0
 62
7
  6
CONTINUOUS
 10
302.3844106341
 20
184.1027726668
 11
303.4042276146
 21
184.1304249687
  0
LINE
  8
0
 62
7
  6
CONTINUOUS
 10
301.1288625574
 20
184.0716639791
 11
302.3844106341
 21
184.1027726668
  0
LINE
  8
0
 62
9
  6
CONTINUOUS
 10
305.8690797214
 20
184.2354170849
 11
301.3647164537
 21
184.1567931316
  0
LINE
  8
BEZUGSACHSEN
 62
3
  6
CONTINUOUS
 10
398.3647164537
 20
182.056793131
 11
104.3647164537
 21
182.056793131
  0
LINE
  8
BEZUGSACHSEN
 62
7
  6
CONTINUOUS
 10
104.3647164537
 20
184.056793131
 11
398.3647164537
 21
184.056793131
  0
LINE
  8
BEZUGSACHSEN
 62
9
  6
CONTINUOUS
 10
356.3647164537
 20
184.156793131
 11
346.3647164537
 21
184.156793131
  0
LINE
  8
BEZUGSACHSEN
 62
9
  6
CONTINUOUS
 10
146.3647164537
 20
184.156793131
 11
156.3647164537
 21
184.156793131
  0
LINE
  8
KONSTRUKTIONSELEMENTE
 62
9
  6
CONTINUOUS
 10
401.3647164537
 20
185.056793131
 11
399.3647164537
 21
185.056793131
  0
LINE
  8
KONSTRUKTIONSELEMENTE
 62
9
  6
CONTINUOUS
 10
101.3647164537
 20
185.056793131
 11
103.3647164537
 21
185.056793131
  0
LINE
  8
0
 62
3
  6
CONTINUOUS
 10
338.4647164537
 20
186.056793131
 11
319.4647164537
 21
186.056793131
  0
LINE
  8
BEZUGSACHSEN
 62
7
  6
CONTINUOUS
 10
156.3647164537
 20
186.056793131
 11
146.3647164537
 21
186.056793131
  0
LINE
  8
BEZUGSACHSEN
 62
7
  6
CONTINUOUS
 10
346.3647164537
 20
186.056793131
 11
356.3647164537
 21
186.056793131
  0
LINE
  8
0
 62
9
  6
CONTINUOUS
 10
341.4647164537
 20
187.056793131
 11
339.4647164537
 21
187.056793131
  0
LINE
  8
0
 62
9
  6
CONTINUOUS
 10
301.3647164537
 20
184.1567931316
 11
296.8603531859
 21
184.2354170849
  0
LINE
  8
0
 62
7
  6
CONTINUOUS
 10
301.1288625574
 20
184.0830427002
 11
300.5239906442
 21
184.0981675838
  0
LINE
  8
0
 62
7
  6
CONTINUOUS
 10
300.5239906442
 20
184.0981675838
 11
300.004818824
 21
184.1117119513
  0
LINE
  8
0
 62
7
  6
CONTINUOUS
 10
300.004818824
 20
184.1117119513
 11
299.4579266644
 21
184.1266686589
  0
LINE
  8
0
 62
7
  6
CONTINUOUS
 10
299.4579266644
 20
184.1266686589
 11
299.0057046505
 21
184.1397074572
  0
LINE
  8
0
 62
7
  6
CONTINUOUS
 10
299.0057046505
 20
184.1397074572
 11
298.6315748911
 21
184.1510864528
  0
LINE
  8
0
 62
7
  6
CONTINUOUS
 10
298.6315748911
 20
184.1510864528
 11
298.2669431402
 21
184.1628567503
  0
LINE
  8
0
 62
7
  6
CONTINUOUS
 10
298.2669431402
 20
184.1628567503
 11
297.9763752272
 21
184.172885816
  0
LINE
  8
0
 62
7
  6
CONTINUOUS
 10
297.9763752272
 20
184.172885816
 11
297.7111281043
 21
184.1827501822
  0
LINE
  8
0
 62
7
  6
CONTINUOUS
 10
297.7111281043
 20
184.1827501822
 11
297.5077993866
 21
184.1909745246
  0
LINE
  8
0
 62
7
  6
CONTINUOUS
 10
297.5077993866
 20
184.1909745246
 11
297.3328586328
 21
184.1987463085
  0
LINE
  8
0
 62
7
  6
CONTINUOUS
 10
297.3328586328
 20
184.1987463085
 11
297.2178403248
 21
184.2043909108
  0
LINE
  8
0
 62
7
  6
CONTINUOUS
 10
297.2178403248
 20
184.2043909108
 11
297.1409289803
 21
184.2085235495
  0
LINE
  8
0
 62
7
  6
CONTINUOUS
 10
297.1409289803
 20
184.2085235495
 11
297.0797646229
 21
184.2121096044
  0
LINE
  8
0
 62
7
  6
CONTINUOUS
 10
297.0797646229
 20
184.2121096044
 11
297.0385070982
 21
184.2147403179
  0
LINE
  8
0
 62
7
  6
CONTINUOUS
 10
297.0385070982
 20
184.2147403179
 11
297.0107580368
 21
184.216640809
  0
LINE
  8
0
 62
7
  6
CONTINUOUS
 10
297.0107580368
 20
184.216640809
 11
296.9869580922
 21
184.2183813338
  0
LINE
  8
0
 62
7
  6
CONTINUOUS
 10
296.9869580922
 20
184.2183813338
 11
296.9665505146
 21
184.2199788298
  0
LINE
  8
0
 62
7
  6
CONTINUOUS
 10
296.9665505146
 20
184.2199788298
 11
296.9531807882
 21
184.2210923449
  0
LINE
  8
0
 62
7
  6
CONTINUOUS
 10
296.9531807882
 20
184.2210923449
 11
296.9412762071
 21
184.2221396068
  0
LINE
  8
0
 62
7
  6
CONTINUOUS
 10
296.9412762071
 20
184.2221396068
 11
296.9306811855
 21
184.223125938
  0
LINE
  8
0
 62
7
  6
CONTINUOUS
 10
296.9306811855
 20
184.223125938
 11
296.9212461024
 21
184.2240573411
  0
LINE
  8
0
 62
7
  6
CONTINUOUS
 10
296.9212461024
 20
184.2240573411
 11
296.9128475457
 21
184.2249386042
  0
LINE
  8
0
 62
7
  6
CONTINUOUS
 10
296.9128475457
 20
184.2249386042
 11
296.9077692751
 21
184.2255005155
  0
LINE
  8
0
 62
7
  6
CONTINUOUS
 10
296.9077692751
 20
184.2255005155
 11
296.9030727169
 21
184.2260434686
  0
LINE
  8
0
 62
7
  6
CONTINUOUS
 10
296.9030727169
 20
184.2260434686
 11
296.8987303956
 21
184.2265687367
  0
LINE
  8
0
 62
7
  6
CONTINUOUS
 10
296.8987303956
 20
184.2265687367
 11
296.8947168901
 21
184.2270775724
  0
LINE
  8
0
 62
7
  6
CONTINUOUS
 10
296.8947168901
 20
184.2270775724
 11
296.8910086778
 21
184.2275712208
  0
POLYLINE
  8
0
 62
7
  6
CONTINUOUS
 66
1
 70
0
  0
VERTEX
  8
0
 62
7
  6
CONTINUOUS
 10
296.8910086778
 20
184.2275712208
  0
VERTEX
  8
0
 62
7
  6
CONTINUOUS
 10
296.8875840056
 20
184.2280509319
  0
VERTEX
  8
0
 62
7
  6
CONTINUOUS
 10
296.8859715981
 20
184.2282859589
  0
SEQEND
  0
POLYLINE
  8
0
 62
7
  6
CONTINUOUS
 66
1
 70
0
  0
VERTEX
  8
0
 62
7
  6
CONTINUOUS
 10
296.8859715981
 20
184.2282859589
  0
VERTEX
  8
0
 62
7
  6
CONTINUOUS
 10
296.8829349765
 20
184.2287471699
  0
VERTEX
  8
0
 62
7
  6
CONTINUOUS
 10
296.8815065046
 20
184.2289736563
  0
VERTEX
  8
0
 62
7
  6
CONTINUOUS
 10
296.8801355528
 20
184.2291975308
  0
VERTEX
  8
0
 62
7
  6
CONTINUOUS
 10
296.8788196138
 20
184.2294190891
  0
VERTEX
  8
0
 62
7
  6
CONTINUOUS
 10
296.8775561655
 20
184.22963858
  0
VERTEX
  8
0
 62
7
  6
CONTINUOUS
 10
296.8763434772
 20
184.2298562341
  0
VERTEX
  8
0
 62
7
  6
CONTINUOUS
 10
296.8751794488
 20
184.2300722869
  0
VERTEX
  8
0
 62
7
  6
CONTINUOUS
 10
296.8740626659
 20
184.2302869725
  0
VERTEX
  8
0
 62
7
  6
CONTINUOUS
 10
296.8729915002
 20
184.2305004955
  0
VERTEX
  8
0
 62
7
  6
CONTINUOUS
 10
296.8719644943
 20
184.2307131796
  0
VERTEX
  8
0
 62
7
  6
CONTINUOUS
 10
296.8709800466
 20
184.2309252878
  0
VERTEX
  8
0
 62
7
  6
CONTINUOUS
 10
296.8700369617
 20
184.231137207
  0
VERTEX
  8
0
 62
7
  6
CONTINUOUS
 10
296.8691338445
 20
184.2313492406
  0
VERTEX
  8
0
 62
7
  6
CONTINUOUS
 10
296.8682696919
 20
184.2315619015
  0
VERTEX
  8
0
 62
7
  6
CONTINUOUS
 10
296.867443281
 20
184.2317755644
  0
VERTEX
  8
0
 62
7
  6
CONTINUOUS
 10
296.8666538758
 20
184.2319909471
  0
VERTEX
  8
0
 62
7
  6
CONTINUOUS
 10
296.8659004171
 20
184.2322085415
  0
VERTEX
  8
0
 62
7
  6
CONTINUOUS
 10
296.8651826517
 20
184.2324293995
  0
VERTEX
  8
0
 62
7
  6
CONTINUOUS
 10
296.864499791
 20
184.2326541679
  0
VERTEX
  8
0
 62
7
  6
CONTINUOUS
 10
296.8638523821
 20
184.2328845538
  0
VERTEX
  8
0
 62
7
  6
CONTINUOUS
 10
296.8632401309
 20
184.2331213164
  0
VERTEX
  8
0
 62
7
  6
CONTINUOUS
 10
296.8626647724
 20
184.2333679458
  0
VERTEX
  8
0
 62
7
  6
CONTINUOUS
 10
296.8621252246
 20
184.2336258065
  0
VERTEX
  8
0
 62
7
  6
CONTINUOUS
 10
296.8616296443
 20
184.2339020345
  0
VERTEX
  8
0
 62
7
  6
CONTINUOUS
 10
296.861174551
 20
184.2341952849
  0
VERTEX
  8
0
 62
7
  6
CONTINUOUS
 10
296.8607937751
 20
184.2345323642
  0
VERTEX
  8
0
 62
7
  6
CONTINUOUS
 10
296.8605240705
 20
184.2349429257
  0
VERTEX
  8
0
 62
7
  6
CONTINUOUS
 10
296.8603531859
 20
184.2354170849
  0
SEQEND
  0
LINE
  8
KONSTRUKTIONSELEMENTE
 62
7
  6
CONTINUOUS
 10
105.3647164537
 20
207.056793131
 11
103.3647164537
 21
207.056793131
  0
LINE
  8
0
 62
7
  6
CONTINUOUS
 10
105.3647164537
 20
226.856793131
 11
115.8647164537
 21
226.856793131
  0
LINE
  8
0
 62
7
  6
CONTINUOUS
 10
396.7647164537
 20
227.356793131
 11
386.7647164537
 21
227.356793131
  0
LINE
  8
0
 62
7
  6
CONTINUOUS
 10
129.5647164537
 20
239.856793131
 11
115.8647164537
 21
239.856793131
  0
LINE
  8
0
 62
7
  6
CONTINUOUS
 10
386.7647164537
 20
241.356793131
 11
395.0647164537
 21
241.356793131
  0
LINE
  8
0
 62
7
  6
CONTINUOUS
 10
297.4844850053
 20
252.7645796964
 11
297.5568429801
 21
252.7763029512
  0
LINE
  8
0
 62
7
  6
CONTINUOUS
 10
297.5568429801
 20
252.7763029512
 11
297.6359191485
 21
252.7884391109
  0
LINE
  8
0
 62
7
  6
CONTINUOUS
 10
297.6359191485
 20
252.7884391109
 11
297.722285645
 21
252.8010083215
  0
LINE
  8
0
 62
7
  6
CONTINUOUS
 10
297.722285645
 20
252.8010083215
 11
297.816546335
 21
252.8140289186
  0
LINE
  8
0
 62
7
  6
CONTINUOUS
 10
297.816546335
 20
252.8140289186
 11
297.9193692439
 21
252.8275219017
  0
LINE
  8
0
 62
7
  6
CONTINUOUS
 10
297.9193692439
 20
252.8275219017
 11
298.031476704
 21
252.8415087377
  0
LINE
  8
0
 62
7
  6
CONTINUOUS
 10
298.031476704
 20
252.8415087377
 11
298.1536553179
 21
252.8560120763
  0
LINE
  8
0
 62
7
  6
CONTINUOUS
 10
298.1536553179
 20
252.8560120763
 11
298.2867435011
 21
252.8710538738
  0
LINE
  8
0
 62
7
  6
CONTINUOUS
 10
298.2867435011
 20
252.8710538738
 11
298.4316960683
 21
252.8866617538
  0
LINE
  8
0
 62
7
  6
CONTINUOUS
 10
298.4316960683
 20
252.8866617538
 11
298.5895851504
 21
252.9028677952
  0
LINE
  8
0
 62
7
  6
CONTINUOUS
 10
298.5895851504
 20
252.9028677952
 11
298.76149547
 21
252.9196969562
  0
LINE
  8
0
 62
7
  6
CONTINUOUS
 10
298.76149547
 20
252.9196969562
 11
298.948575627
 21
252.9371727793
  0
LINE
  8
0
 62
7
  6
CONTINUOUS
 10
298.948575627
 20
252.9371727793
 11
299.1520991457
 21
252.9553228295
  0
LINE
  8
0
 62
7
  6
CONTINUOUS
 10
299.1520991457
 20
252.9553228295
 11
299.3734329098
 21
252.9741748543
  0
LINE
  8
0
 62
7
  6
CONTINUOUS
 10
299.3734329098
 20
252.9741748543
 11
299.6141008006
 21
252.9937612614
  0
LINE
  8
0
 62
7
  6
CONTINUOUS
 10
299.6141008006
 20
252.9937612614
 11
299.8758153433
 21
253.0141203093
  0
LINE
  8
0
 62
7
  6
CONTINUOUS
 10
299.8758153433
 20
253.0141203093
 11
300.1603633539
 21
253.0352860773
  0
LINE
  8
0
 62
7
  6
CONTINUOUS
 10
300.1603633539
 20
253.0352860773
 11
300.4696066876
 21
253.0572887828
  0
LINE
  8
0
 62
7
  6
CONTINUOUS
 10
300.4696066876
 20
253.0572887828
 11
300.8056041969
 21
253.0801633044
  0
POLYLINE
  8
0
 62
7
  6
CONTINUOUS
 66
1
 70
0
  0
VERTEX
  8
0
 62
7
  6
CONTINUOUS
 10
300.8056041969
 20
253.0801633044
  0
VERTEX
  8
0
 62
7
  6
CONTINUOUS
 10
301.1707549764
 20
253.1039495297
  0
VERTEX
  8
0
 62
7
  6
CONTINUOUS
 10
301.3647164537
 20
253.1161916165
  0
SEQEND
  0
LINE
  8
0
 62
7
  6
CONTINUOUS
 10
399.2147164537
 20
248.256793131
 11
398.2147164537
 21
248.256793131
  0
LINE
  8
0
 62
7
  6
CONTINUOUS
 10
395.2647164537
 20
249.2406681615
 11
396.7647164537
 21
249.2406681615
  0
LINE
  8
0
 62
9
  6
CONTINUOUS
 10
339.4647164537
 20
251.556793131
 11
341.4647164537
 21
251.556793131
  0
LINE
  8
0
 62
9
  6
CONTINUOUS
 10
296.8603531859
 20
252.556793131
 11
305.8690797214
 21
252.556793131
  0
LINE
  8
0
 62
7
  6
CONTINUOUS
 10
342.4647164537
 20
252.556793131
 11
352.4647164537
 21
252.556793131
  0
LINE
  8
0
 62
7
  6
CONTINUOUS
 10
289.3647164537
 20
184.056793131
 11
289.3647164537
 21
256.556793131
  0
LINE
  8
0
 62
3
  6
CONTINUOUS
 10
342.4647164537
 20
254.556793131
 11
352.4647164537
 21
254.556793131
  0
LINE
  8
0
 62
9
  6
CONTINUOUS
 10
399.2147164537
 20
255.856793131
 11
398.2147164537
 21
255.856793131
  0
LINE
  8
0
 62
7
  6
CONTINUOUS
 10
313.9647164537
 20
256.556793131
 11
289.3647164537
 21
256.556793131
  0
LINE
  8
0
 62
7
  6
CONTINUOUS
 10
188.7647164537
 20
256.556793131
 11
213.3647164537
 21
256.556793131
  0
LINE
  8
0
 62
7
  6
CONTINUOUS
 10
103.6147164537
 20
256.856793131
 11
397.2147164537
 21
256.856793131
  0
LINE
  8
KONSTRUKTIONSELEMENTE
 62
7
  6
CONTINUOUS
 10
103.3647164537
 20
257.056793131
 11
105.3647164537
 21
257.056793131
  0
LINE
  8
0
 62
3
  6
CONTINUOUS
 10
103.6147164537
 20
257.856793131
 11
397.2147164537
 21
257.856793131
  0
LINE
  8
FASEN
 62
7
  6
CONTINUOUS
 10
103.3647164537
 20
258.056793131
 11
101.3647164537
 21
258.056793131
  0
LINE
  8
BEZUGSACHSEN
 62
7
  6
CONTINUOUS
 10
399.3647164537
 20
258.056793131
 11
401.3647164537
 21
258.056793131
  0
LINE
  8
FASEN
 62
7
  6
CONTINUOUS
 10
103.3647164537
 20
260.056793131
 11
101.3647164537
 21
260.056793131
  0
LINE
  8
BEZUGSACHSEN
 62
7
  6
CONTINUOUS
 10
399.3647164537
 20
260.056793131
 11
401.3647164537
 21
260.056793131
  0
LINE
  8
0
 62
7
  6
CONTINUOUS
 10
301.7450967377
 20
253.0919393328
 11
301.3647164537
 21
253.1161916165
  0
LINE
  8
0
 62
7
  6
CONTINUOUS
 10
302.0953063393
 20
253.0686146089
 11
301.7450967377
 21
253.0919393328
  0
LINE
  8
0
 62
7
  6
CONTINUOUS
 10
302.4176518713
 20
253.0461809882
 11
302.0953063393
 21
253.0686146089
  0
LINE
  8
0
 62
7
  6
CONTINUOUS
 10
302.7143076396
 20
253.0246005156
 11
302.4176518713
 21
253.0461809882
  0
LINE
  8
0
 62
7
  6
CONTINUOUS
 10
302.9872164016
 20
253.003841688
 11
302.7143076396
 21
253.0246005156
  0
LINE
  8
0
 62
7
  6
CONTINUOUS
 10
303.2381834736
 20
252.983873896
 11
302.9872164016
 21
253.003841688
  0
LINE
  8
0
 62
7
  6
CONTINUOUS
 10
303.4689775276
 20
252.9646595579
 11
303.2381834736
 21
252.983873896
  0
LINE
  8
0
 62
7
  6
CONTINUOUS
 10
303.6812326458
 20
252.946161729
 11
303.4689775276
 21
252.9646595579
  0
LINE
  8
0
 62
7
  6
CONTINUOUS
 10
303.8763678973
 20
252.9283524142
 11
303.6812326458
 21
252.946161729
  0
LINE
  8
0
 62
7
  6
CONTINUOUS
 10
304.0557108728
 20
252.9112032627
 11
303.8763678973
 21
252.9283524142
  0
LINE
  8
0
 62
7
  6
CONTINUOUS
 10
304.2204772851
 20
252.8946880649
 11
304.0557108728
 21
252.9112032627
  0
LINE
  8
0
 62
7
  6
CONTINUOUS
 10
304.371761409
 20
252.8787848117
 11
304.2204772851
 21
252.8946880649
  0
LINE
  8
0
 62
7
  6
CONTINUOUS
 10
304.5106479464
 20
252.863464566
 11
304.371761409
 21
252.8787848117
  0
LINE
  8
0
 62
7
  6
CONTINUOUS
 10
304.6381764108
 20
252.848694354
 11
304.5106479464
 21
252.863464566
  0
LINE
  8
0
 62
7
  6
CONTINUOUS
 10
304.755216373
 20
252.8344522482
 11
304.6381764108
 21
252.848694354
  0
LINE
  8
0
 62
7
  6
CONTINUOUS
 10
304.8625878519
 20
252.8207150503
 11
304.755216373
 21
252.8344522482
  0
LINE
  8
0
 62
7
  6
CONTINUOUS
 10
304.9610429959
 20
252.8074609047
 11
304.8625878519
 21
252.8207150503
  0
LINE
  8
0
 62
7
  6
CONTINUOUS
 10
305.0512760978
 20
252.7946686487
 11
304.9610429959
 21
252.8074609047
  0
LINE
  8
0
 62
7
  6
CONTINUOUS
 10
305.1339277904
 20
252.7823177857
 11
305.0512760978
 21
252.7946686487
  0
LINE
  8
0
 62
7
  6
CONTINUOUS
 10
296.8603531859
 20
184.2354170849
 11
296.8603531859
 21
252.556793131
  0
LINE
  8
0
 62
7
  6
CONTINUOUS
 10
301.1288625574
 20
184.0830427002
 11
301.1288625574
 21
184.0716639791
  0
LINE
  8
KONSTRUKTIONSELEMENTE
 62
7
  6
CONTINUOUS
 10
301.3647164537
 20
184.1567931316
 11
301.3647164537
 21
252.556793131
  0
LINE
  8
0
 62
7
  6
CONTINUOUS
 10
301.3647164537
 20
252.556793131
 11
301.3647164537
 21
253.1161916165
  0
POLYLINE
  8
0
 62
7
  6
CONTINUOUS
 66
1
 70
0
  0
VERTEX
  8
0
 62
7
  6
CONTINUOUS
 10
296.8603531859
 20
252.556793131
  0
VERTEX
  8
0
 62
7
  6
CONTINUOUS
 10
296.8604693013
 20
252.5597761689
  0
VERTEX
  8
0
 62
7
  6
CONTINUOUS
 10
296.8608843834
 20
252.5628529242
  0
VERTEX
  8
0
 62
7
  6
CONTINUOUS
 10
296.8615866897
 20
252.5660258015
  0
VERTEX
  8
0
 62
7
  6
CONTINUOUS
 10
296.8626114475
 20
252.5692875868
  0
VERTEX
  8
0
 62
7
  6
CONTINUOUS
 10
296.8639812421
 20
252.5726306881
  0
VERTEX
  8
0
 62
7
  6
CONTINUOUS
 10
296.8657222581
 20
252.5760586442
  0
VERTEX
  8
0
 62
7
  6
CONTINUOUS
 10
296.8678672396
 20
252.5795808063
  0
VERTEX
  8
0
 62
7
  6
CONTINUOUS
 10
296.8704190943
 20
252.5831721459
  0
VERTEX
  8
0
 62
7
  6
CONTINUOUS
 10
296.8733907533
 20
252.5868128445
  0
VERTEX
  8
0
 62
7
  6
CONTINUOUS
 10
296.8767848902
 20
252.5904966241
  0
VERTEX
  8
0
 62
7
  6
CONTINUOUS
 10
296.8806070735
 20
252.5942111983
  0
VERTEX
  8
0
 62
7
  6
CONTINUOUS
 10
296.8848615498
 20
252.5979547739
  0
VERTEX
  8
0
 62
7
  6
CONTINUOUS
 10
296.8895530356
 20
252.6017218757
  0
VERTEX
  8
0
 62
7
  6
CONTINUOUS
 10
296.8946856893
 20
252.6055112629
  0
VERTEX
  8
0
 62
7
  6
CONTINUOUS
 10
296.9002624724
 20
252.6093193879
  0
VERTEX
  8
0
 62
7
  6
CONTINUOUS
 10
296.9062916929
 20
252.6131476965
  0
VERTEX
  8
0
 62
7
  6
CONTINUOUS
 10
296.9127792106
 20
252.6169959101
  0
VERTEX
  8
0
 62
7
  6
CONTINUOUS
 10
296.9197353318
 20
252.6208656542
  0
VERTEX
  8
0
 62
7
  6
CONTINUOUS
 10
296.9271656656
 20
252.6247567669
  0
VERTEX
  8
0
 62
7
  6
CONTINUOUS
 10
296.9350901627
 20
252.6286743311
  0
VERTEX
  8
0
 62
7
  6
CONTINUOUS
 10
296.9435255931
 20
252.6326229836
  0
VERTEX
  8
0
 62
7
  6
CONTINUOUS
 10
296.9524871065
 20
252.6366038997
  0
VERTEX
  8
0
 62
7
  6
CONTINUOUS
 10
296.9619891857
 20
252.6406191097
  0
VERTEX
  8
0
 62
7
  6
CONTINUOUS
 10
296.9720506019
 20
252.644670685
  0
VERTEX
  8
0
 62
7
  6
CONTINUOUS
 10
296.9826879132
 20
252.6487606721
  0
VERTEX
  8
0
 62
7
  6
CONTINUOUS
 10
296.9939222417
 20
252.652891177
  0
VERTEX
  8
0
 62
7
  6
CONTINUOUS
 10
297.0057712139
 20
252.6570639249
  0
VERTEX
  8
0
 62
7
  6
CONTINUOUS
 10
297.018261875
 20
252.661282105
  0
VERTEX
  8
0
 62
7
  6
CONTINUOUS
 10
297.0314171393
 20
252.6655484855
  0
VERTEX
  8
0
 62
7
  6
CONTINUOUS
 10
297.0452670261
 20
252.6698660539
  0
VERTEX
  8
0
 62
7
  6
CONTINUOUS
 10
297.0598401656
 20
252.6742383004
  0
VERTEX
  8
0
 62
7
  6
CONTINUOUS
 10
297.0751636389
 20
252.6786664857
  0
VERTEX
  8
0
 62
7
  6
CONTINUOUS
 10
297.091263164
 20
252.683152297
  0
VERTEX
  8
0
 62
7
  6
CONTINUOUS
 10
297.1081714604
 20
252.6876979454
  0
VERTEX
  8
0
 62
7
  6
CONTINUOUS
 10
297.1259179704
 20
252.6923054874
  0
VERTEX
  8
0
 62
7
  6
CONTINUOUS
 10
297.144538243
 20
252.696977074
  0
VERTEX
  8
0
 62
7
  6
CONTINUOUS
 10
297.1640650806
 20
252.7017148987
  0
VERTEX
  8
0
 62
7
  6
CONTINUOUS
 10
297.1845361649
 20
252.7065208891
  0
VERTEX
  8
0
 62
7
  6
CONTINUOUS
 10
297.2059847771
 20
252.7113967031
  0
VERTEX
  8
0
 62
7
  6
CONTINUOUS
 10
297.2284569211
 20
252.7163453442
  0
VERTEX
  8
0
 62
7
  6
CONTINUOUS
 10
297.2519925409
 20
252.7213693136
  0
VERTEX
  8
0
 62
7
  6
CONTINUOUS
 10
297.276643098
 20
252.7264717757
  0
VERTEX
  8
0
 62
7
  6
CONTINUOUS
 10
297.3024585897
 20
252.7316564095
  0
VERTEX
  8
0
 62
7
  6
CONTINUOUS
 10
297.3294833529
 20
252.7369241717
  0
VERTEX
  8
0
 62
7
  6
CONTINUOUS
 10
297.3577593339
 20
252.742276323
  0
VERTEX
  8
0
 62
7
  6
CONTINUOUS
 10
297.3873437013
 20
252.7477156306
  0
VERTEX
  8
0
 62
7
  6
CONTINUOUS
 10
297.4182880202
 20
252.7532445475
  0
VERTEX
  8
0
 62
7
  6
CONTINUOUS
 10
297.4506510465
 20
252.7588652763
  0
VERTEX
  8
0
 62
7
  6
CONTINUOUS
 10
297.4844850053
 20
252.7645796964
  0
SEQEND
  0
POLYLINE
  8
0
 62
7
  6
CONTINUOUS
 66
1
 70
0
  0
VERTEX
  8
0
 62
7
  6
CONTINUOUS
 10
301.3647164537
 20
184.1567931315
  0
VERTEX
  8
0
 62
7
  6
CONTINUOUS
 10
301.3646325085
 20
184.1550044104
  0
VERTEX
  8
0
 62
7
  6
CONTINUOUS
 10
301.3643431876
 20
184.1531682156
  0
VERTEX
  8
0
 62
7
  6
CONTINUOUS
 10
301.3638565872
 20
184.1512856161
  0
VERTEX
  8
0
 62
7
  6
CONTINUOUS
 10
301.3631484185
 20
184.1493534047
  0
VERTEX
  8
0
 62
7
  6
CONTINUOUS
 10
301.362196465
 20
184.1473607956
  0
VERTEX
  8
0
 62
7
  6
CONTINUOUS
 10
301.361002606
 20
184.1453315943
  0
VERTEX
  8
0
 62
7
  6
CONTINUOUS
 10
301.3595597665
 20
184.1432841893
  0
VERTEX
  8
0
 62
7
  6
CONTINUOUS
 10
301.3578725929
 20
184.1412240464
  0
VERTEX
  8
0
 62
7
  6
CONTINUOUS
 10
301.3559423524
 20
184.1391622891
  0
VERTEX
  8
0
 62
7
  6
CONTINUOUS
 10
301.3537721077
 20
184.1371003318
  0
VERTEX
  8
0
 62
7
  6
CONTINUOUS
 10
301.351365341
 20
184.1350435073
  0
VERTEX
  8
0
 62
7
  6
CONTINUOUS
 10
301.3487220611
 20
184.1329911831
  0
VERTEX
  8
0
 62
7
  6
CONTINUOUS
 10
301.345844248
 20
184.130944874
  0
VERTEX
  8
0
 62
7
  6
CONTINUOUS
 10
301.3427294693
 20
184.1289034709
  0
VERTEX
  8
0
 62
7
  6
CONTINUOUS
 10
301.3393774459
 20
184.1268667605
  0
VERTEX
  8
0
 62
7
  6
CONTINUOUS
 10
301.3357836974
 20
184.1248335704
  0
VERTEX
  8
0
 62
7
  6
CONTINUOUS
 10
301.3319457154
 20
184.1228030032
  0
VERTEX
  8
0
 62
7
  6
CONTINUOUS
 10
301.3278573045
 20
184.1207740214
  0
VERTEX
  8
0
 62
7
  6
CONTINUOUS
 10
301.3235140038
 20
184.1187455648
  0
VERTEX
  8
0
 62
7
  6
CONTINUOUS
 10
301.3189081008
 20
184.1167168047
  0
VERTEX
  8
0
 62
7
  6
CONTINUOUS
 10
301.3140334361
 20
184.1146867553
  0
VERTEX
  8
0
 62
7
  6
CONTINUOUS
 10
301.3088808891
 20
184.1126548283
  0
VERTEX
  8
0
 62
7
  6
CONTINUOUS
 10
301.3034427817
 20
184.1106202177
  0
VERTEX
  8
0
 62
7
  6
CONTINUOUS
 10
301.2977086267
 20
184.1085825912
  0
VERTEX
  8
0
 62
7
  6
CONTINUOUS
 10
301.2916693308
 20
184.1065413685
  0
VERTEX
  8
0
 62
7
  6
CONTINUOUS
 10
301.2853130333
 20
184.1044964883
  0
VERTEX
  8
0
 62
7
  6
CONTINUOUS
 10
301.2786292664
 20
184.1024476188
  0
VERTEX
  8
0
 62
7
  6
CONTINUOUS
 10
301.2716047593
 20
184.1003949905
  0
VERTEX
  8
0
 62
7
  6
CONTINUOUS
 10
301.264227671
 20
184.0983385403
  0
VERTEX
  8
0
 62
7
  6
CONTINUOUS
 10
301.2564832445
 20
184.0962788164
  0
VERTEX
  8
0
 62
7
  6
CONTINUOUS
 10
301.248358228
 20
184.0942160456
  0
VERTEX
  8
0
 62
7
  6
CONTINUOUS
 10
301.2398362642
 20
184.0921511296
  0
VERTEX
  8
0
 62
7
  6
CONTINUOUS
 10
301.2309026068
 20
184.0900846096
  0
VERTEX
  8
0
 62
7
  6
CONTINUOUS
 10
301.2215391707
 20
184.0880177941
  0
VERTEX
  8
0
 62
7
  6
CONTINUOUS
 10
301.2117296132
 20
184.0859515774
  0
VERTEX
  8
0
 62
7
  6
CONTINUOUS
 10
301.2014539595
 20
184.0838877429
  0
VERTEX
  8
0
 62
7
  6
CONTINUOUS
 10
301.1906941435
 20
184.08182759
  0
VERTEX
  8
0
 62
7
  6
CONTINUOUS
 10
301.1794280969
 20
184.0797734652
  0
VERTEX
  8
0
 62
7
  6
CONTINUOUS
 10
301.1676358581
 20
184.0777271385
  0
VERTEX
  8
0
 62
7
  6
CONTINUOUS
 10
301.1552930416
 20
184.075691639
  0
VERTEX
  8
0
 62
7
  6
CONTINUOUS
 10
301.1423647281
 20
184.0736710383
  0
VERTEX
  8
0
 62
7
  6
CONTINUOUS
 10
301.1288625574
 20
184.0716639791
  0
SEQEND
  0
POLYLINE
  8
0
 62
7
  6
CONTINUOUS
 66
1
 70
0
  0
VERTEX
  8
0
 62
7
  6
CONTINUOUS
 10
305.8690797214
 20
252.556793131
  0
VERTEX
  8
0
 62
7
  6
CONTINUOUS
 10
305.868963606
 20
252.5597761689
  0
VERTEX
  8
0
 62
7
  6
CONTINUOUS
 10
305.868548524
 20
252.5628529242
  0
VERTEX
  8
0
 62
7
  6
CONTINUOUS
 10
305.8678462177
 20
252.5660258015
  0
VERTEX
  8
0
 62
7
  6
CONTINUOUS
 10
305.8668214598
 20
252.5692875868
  0
VERTEX
  8
0
 62
7
  6
CONTINUOUS
 10
305.8654516653
 20
252.5726306881
  0
VERTEX
  8
0
 62
7
  6
CONTINUOUS
 10
305.8637106493
 20
252.5760586442
  0
VERTEX
  8
0
 62
7
  6
CONTINUOUS
 10
305.8615656677
 20
252.5795808063
  0
VERTEX
  8
0
 62
7
  6
CONTINUOUS
 10
305.859013813
 20
252.5831721459
  0
VERTEX
  8
0
 62
7
  6
CONTINUOUS
 10
305.856042154
 20
252.5868128445
  0
VERTEX
  8
0
 62
7
  6
CONTINUOUS
 10
305.8526480171
 20
252.5904966241
  0
VERTEX
  8
0
 62
7
  6
CONTINUOUS
 10
305.8488258338
 20
252.5942111983
  0
VERTEX
  8
0
 62
7
  6
CONTINUOUS
 10
305.8445713575
 20
252.5979547739
  0
VERTEX
  8
0
 62
7
  6
CONTINUOUS
 10
305.8398798718
 20
252.6017218757
  0
VERTEX
  8
0
 62
7
  6
CONTINUOUS
 10
305.834747218
 20
252.6055112629
  0
VERTEX
  8
0
 62
7
  6
CONTINUOUS
 10
305.829170435
 20
252.6093193879
  0
VERTEX
  8
0
 62
7
  6
CONTINUOUS
 10
305.8231412145
 20
252.6131476965
  0
VERTEX
  8
0
 62
7
  6
CONTINUOUS
 10
305.8166536967
 20
252.6169959101
  0
VERTEX
  8
0
 62
7
  6
CONTINUOUS
 10
305.8096975756
 20
252.6208656542
  0
VERTEX
  8
0
 62
7
  6
CONTINUOUS
 10
305.8022672417
 20
252.6247567669
  0
VERTEX
  8
0
 62
7
  6
CONTINUOUS
 10
305.7943427447
 20
252.628674331
  0
VERTEX
  8
0
 62
7
  6
CONTINUOUS
 10
305.7859073143
 20
252.6326229836
  0
VERTEX
  8
0
 62
7
  6
CONTINUOUS
 10
305.7769458008
 20
252.6366038997
  0
VERTEX
  8
0
 62
7
  6
CONTINUOUS
 10
305.7674437217
 20
252.6406191097
  0
VERTEX
  8
0
 62
7
  6
CONTINUOUS
 10
305.7573823055
 20
252.644670685
  0
VERTEX
  8
0
 62
7
  6
CONTINUOUS
 10
305.7467449942
 20
252.6487606721
  0
VERTEX
  8
0
 62
7
  6
CONTINUOUS
 10
305.7355106657
 20
252.6528911769
  0
VERTEX
  8
0
 62
7
  6
CONTINUOUS
 10
305.7236616935
 20
252.6570639249
  0
VERTEX
  8
0
 62
7
  6
CONTINUOUS
 10
305.7111710324
 20
252.661282105
  0
VERTEX
  8
0
 62
7
  6
CONTINUOUS
 10
305.6980157681
 20
252.6655484854
  0
VERTEX
  8
0
 62
7
  6
CONTINUOUS
 10
305.6841658813
 20
252.6698660539
  0
VERTEX
  8
0
 62
7
  6
CONTINUOUS
 10
305.6695927418
 20
252.6742383004
  0
VERTEX
  8
0
 62
7
  6
CONTINUOUS
 10
305.6542692685
 20
252.6786664857
  0
VERTEX
  8
0
 62
7
  6
CONTINUOUS
 10
305.6381697434
 20
252.683152297
  0
VERTEX
  8
0
 62
7
  6
CONTINUOUS
 10
305.621261447
 20
252.6876979453
  0
VERTEX
  8
0
 62
7
  6
CONTINUOUS
 10
305.603514937
 20
252.6923054874
  0
VERTEX
  8
0
 62
7
  6
CONTINUOUS
 10
305.5848946644
 20
252.696977074
  0
VERTEX
  8
0
 62
7
  6
CONTINUOUS
 10
305.5653678268
 20
252.7017148986
  0
VERTEX
  8
0
 62
7
  6
CONTINUOUS
 10
305.5448967425
 20
252.7065208891
  0
VERTEX
  8
0
 62
7
  6
CONTINUOUS
 10
305.5234481303
 20
252.7113967031
  0
VERTEX
  8
0
 62
7
  6
CONTINUOUS
 10
305.5009759863
 20
252.7163453442
  0
VERTEX
  8
0
 62
7
  6
CONTINUOUS
 10
305.4774403665
 20
252.7213693136
  0
VERTEX
  8
0
 62
7
  6
CONTINUOUS
 10
305.4527898094
 20
252.7264717756
  0
VERTEX
  8
0
 62
7
  6
CONTINUOUS
 10
305.4269743177
 20
252.7316564095
  0
VERTEX
  8
0
 62
7
  6
CONTINUOUS
 10
305.3999495545
 20
252.7369241717
  0
VERTEX
  8
0
 62
7
  6
CONTINUOUS
 10
305.3716735735
 20
252.742276323
  0
VERTEX
  8
0
 62
7
  6
CONTINUOUS
 10
305.3420892062
 20
252.7477156305
  0
VERTEX
  8
0
 62
7
  6
CONTINUOUS
 10
305.3111448872
 20
252.7532445475
  0
VERTEX
  8
0
 62
7
  6
CONTINUOUS
 10
305.2787818609
 20
252.7588652763
  0
VERTEX
  8
0
 62
7
  6
CONTINUOUS
 10
305.2449479022
 20
252.7645796964
  0
VERTEX
  8
0
 62
7
  6
CONTINUOUS
 10
305.2095718537
 20
252.7703912302
  0
VERTEX
  8
0
 62
7
  6
CONTINUOUS
 10
305.1339277904
 20
252.7823177857
  0
SEQEND
  0
LINE
  8
0
 62
7
  6
CONTINUOUS
 10
305.8690797214
 20
252.556793131
 11
305.8690797214
 21
184.2354170849
  0
LINE
  8
0
 62
7
  6
CONTINUOUS
 10
313.9647164537
 20
184.056793131
 11
313.9647164537
 21
256.556793131
  0
POLYLINE
  8
0
 62
7
  6
CONTINUOUS
 66
1
 70
0
  0
VERTEX
  8
0
 62
7
  6
CONTINUOUS
 10
301.3643708884
 20
184.1534952903
  0
VERTEX
  8
0
 62
7
  6
CONTINUOUS
 10
301.3639230437
 20
184.1517994311
  0
VERTEX
  8
0
 62
7
  6
CONTINUOUS
 10
301.3632728114
 20
184.1500684118
  0
VERTEX
  8
0
 62
7
  6
CONTINUOUS
 10
301.3624011244
 20
184.1482918076
  0
VERTEX
  8
0
 62
7
  6
CONTINUOUS
 10
301.361308145
 20
184.1464892905
  0
VERTEX
  8
0
 62
7
  6
CONTINUOUS
 10
301.3599857294
 20
184.1446746365
  0
VERTEX
  8
0
 62
7
  6
CONTINUOUS
 10
301.3584397282
 20
184.1428551098
  0
VERTEX
  8
0
 62
7
  6
CONTINUOUS
 10
301.3566719291
 20
184.1410421176
  0
VERTEX
  8
0
 62
7
  6
CONTINUOUS
 10
301.3546863774
 20
184.1392370074
  0
VERTEX
  8
0
 62
7
  6
CONTINUOUS
 10
301.3524872794
 20
184.1374451064
  0
VERTEX
  8
0
 62
7
  6
CONTINUOUS
 10
301.3500759405
 20
184.1356658832
  0
VERTEX
  8
0
 62
7
  6
CONTINUOUS
 10
301.3474555217
 20
184.1339009884
  0
VERTEX
  8
0
 62
7
  6
CONTINUOUS
 10
301.344624663
 20
184.1321492036
  0
VERTEX
  8
0
 62
7
  6
CONTINUOUS
 10
301.3415847005
 20
184.130410504
  0
VERTEX
  8
0
 62
7
  6
CONTINUOUS
 10
301.3383307074
 20
184.1286829607
  0
VERTEX
  8
0
 62
7
  6
CONTINUOUS
 10
301.3348602521
 20
184.1269650531
  0
VERTEX
  8
0
 62
7
  6
CONTINUOUS
 10
301.3311671851
 20
184.1252555318
  0
VERTEX
  8
0
 62
7
  6
CONTINUOUS
 10
301.3272464007
 20
184.1235527142
  0
VERTEX
  8
0
 62
7
  6
CONTINUOUS
 10
301.3230923371
 20
184.1218563791
  0
VERTEX
  8
0
 62
7
  6
CONTINUOUS
 10
301.3187002305
 20
184.1201658893
  0
VERTEX
  8
0
 62
7
  6
CONTINUOUS
 10
301.3140625805
 20
184.1184808102
  0
VERTEX
  8
0
 62
7
  6
CONTINUOUS
 10
301.3091731826
 20
184.1168005654
  0
VERTEX
  8
0
 62
7
  6
CONTINUOUS
 10
301.3040233854
 20
184.115124943
  0
VERTEX
  8
0
 62
7
  6
CONTINUOUS
 10
301.2986057123
 20
184.1134535284
  0
VERTEX
  8
0
 62
7
  6
CONTINUOUS
 10
301.2929104357
 20
184.1117863535
  0
VERTEX
  8
0
 62
7
  6
CONTINUOUS
 10
301.2869290353
 20
184.1101232409
  0
VERTEX
  8
0
 62
7
  6
CONTINUOUS
 10
301.2806504129
 20
184.1084644031
  0
VERTEX
  8
0
 62
7
  6
CONTINUOUS
 10
301.2740644453
 20
184.1068097737
  0
VERTEX
  8
0
 62
7
  6
CONTINUOUS
 10
301.2671596875
 20
184.1051600124
  0
VERTEX
  8
0
 62
7
  6
CONTINUOUS
 10
301.259926863
 20
184.1035157166
  0
VERTEX
  8
0
 62
7
  6
CONTINUOUS
 10
301.2523493432
 20
184.1018770071
  0
VERTEX
  8
0
 62
7
  6
CONTINUOUS
 10
301.2444122221
 20
184.1002437709
  0
VERTEX
  8
0
 62
7
  6
CONTINUOUS
 10
301.236101055
 20
184.0986173061
  0
VERTEX
  8
0
 62
7
  6
CONTINUOUS
 10
301.2274017049
 20
184.096998345
  0
VERTEX
  8
0
 62
7
  6
CONTINUOUS
 10
301.218298343
 20
184.0953884717
  0
VERTEX
  8
0
 62
7
  6
CONTINUOUS
 10
301.2087764681
 20
184.093788905
  0
VERTEX
  8
0
 62
7
  6
CONTINUOUS
 10
301.1988179601
 20
184.0922014734
  0
VERTEX
  8
0
 62
7
  6
CONTINUOUS
 10
301.1884064989
 20
184.09062765
  0
VERTEX
  8
0
 62
7
  6
CONTINUOUS
 10
301.1775221832
 20
184.0890697202
  0
VERTEX
  8
0
 62
7
  6
CONTINUOUS
 10
301.1661468633
 20
184.0875295092
  0
VERTEX
  8
0
 62
7
  6
CONTINUOUS
 10
301.1542589647
 20
184.086009871
  0
VERTEX
  8
0
 62
7
  6
CONTINUOUS
 10
301.1418274096
 20
184.0845147008
  0
VERTEX
  8
0
 62
7
  6
CONTINUOUS
 10
301.1288625574
 20
184.0830427002
  0
SEQEND
  0
LINE
  8
0
 62
7
  6
CONTINUOUS
 10
319.4647164537
 20
186.056793131
 11
319.4647164537
 21
184.056793131
  0
LINE
  8
0
 62
9
  6
CONTINUOUS
 10
338.4647164537
 20
184.056793131
 11
338.4647164537
 21
186.056793131
  0
LINE
  8
0
 62
3
  6
CONTINUOUS
 10
339.4647164537
 20
251.556793131
 11
339.4647164537
 21
187.056793131
  0
LINE
  8
0
 62
7
  6
CONTINUOUS
 10
341.4647164537
 20
251.556793131
 11
341.4647164537
 21
187.056793131
  0
LINE
  8
0
 62
9
  6
CONTINUOUS
 10
342.4647164537
 20
254.556793131
 11
342.4647164537
 21
252.556793131
  0
LINE
  8
BEZUGSACHSEN
 62
7
  6
CONTINUOUS
 10
346.3647164537
 20
184.156793131
 11
346.3647164537
 21
186.056793131
  0
LINE
  8
0
 62
7
  6
CONTINUOUS
 10
352.4647164537
 20
254.556793131
 11
352.4647164537
 21
252.556793131
  0
LINE
  8
BEZUGSACHSEN
 62
7
  6
CONTINUOUS
 10
356.3647164537
 20
184.156793131
 11
356.3647164537
 21
186.056793131
  0
LINE
  8
0
 62
7
  6
CONTINUOUS
 10
386.7647164537
 20
227.356793131
 11
386.7647164537
 21
241.356793131
  0
LINE
  8
0
 62
7
  6
CONTINUOUS
 10
395.2647164537
 20
241.556793131
 11
395.2647164537
 21
249.2406681615
  0
LINE
  8
0
 62
7
  6
CONTINUOUS
 10
396.7647164537
 20
249.2406681615
 11
396.7647164537
 21
227.356793131
  0
LINE
  8
0
 62
9
  6
CONTINUOUS
 10
397.2147164537
 20
257.856793131
 11
397.2147164537
 21
256.856793131
  0
LINE
  8
0
 62
7
  6
CONTINUOUS
 10
398.2147164537
 20
255.856793131
 11
398.2147164537
 21
248.256793131
  0
LINE
  8
KONSTRUKTIONSELEMENTE
 62
9
  6
CONTINUOUS
 10
398.3647164537
 20
182.056793131
 11
398.3647164537
 21
184.056793131
  0
LINE
  8
0
 62
3
  6
CONTINUOUS
 10
399.2147164537
 20
255.856793131
 11
399.2147164537
 21
248.256793131
  0
LINE
  8
BEZUGSACHSEN
 62
7
  6
CONTINUOUS
 10
399.3647164537
 20
185.056793131
 11
399.3647164537
 21
260.056793131
  0
LINE
  8
BEZUGSACHSEN
 62
3
  6
CONTINUOUS
 10
401.3647164537
 20
185.056793131
 11
401.3647164537
 21
260.056793131
  0
ARC
  8
0
 62
7
  6
CONTINUOUS
 10
338.4647164537
 20
187.056793131
 40
3.0
 50
270.0
 51
360.0
  0
ARC
  8
0
 62
3
  6
CONTINUOUS
 10
342.4647164537
 20
251.556793131
 40
3.0
 50
90.0
 51
180.0
  0
ARC
  8
KONSTRUKTIONSELEMENTE
 62
3
  6
CONTINUOUS
 10
104.3647164537
 20
185.056793131
 40
3.0
 50
180.0
 51
270.0
  0
ARC
  8
KONSTRUKTIONSELEMENTE
 62
3
  6
CONTINUOUS
 10
398.3647164537
 20
185.056793131
 40
3.0
 50
270.0
 51
360.0
  0
ARC
  8
0
 62
3
  6
CONTINUOUS
 10
397.2147164537
 20
255.856793131
 40
2.0
 50
0.0
 51
90.0
  0
ARC
  8
0
 62
7
  6
CONTINUOUS
 10
342.4647164537
 20
251.556793131
 40
1.0
 50
90.0
 51
180.0
  0
ARC
  8
0
 62
7
  6
CONTINUOUS
 10
397.2147164537
 20
255.856793131
 40
1.0
 50
0.0
 51
90.0
  0
ARC
  8
KONSTRUKTIONSELEMENTE
 62
7
  6
CONTINUOUS
 10
104.3647164537
 20
185.056793131
 40
1.0
 50
180.0
 51
270.0
  0
ARC
  8
KONSTRUKTIONSELEMENTE
 62
7
  6
CONTINUOUS
 10
398.3647164537
 20
185.056793131
 40
1.0
 50
270.0
 51
360.0
  0
ARC
  8
0
 62
3
  6
CONTINUOUS
 10
338.4647164537
 20
187.056793131
 40
1.0
 50
270.0
 51
360.0
  0
ARC
  8
0
 62
7
  6
CONTINUOUS
 10
395.0647164537
 20
241.556793131
 40
0.2
 50
270.0
 51
360.0
  0
ARC
  8
BEZUGSACHSEN
 62
7
  6
CONTINUOUS
 10
346.2647164537
 20
184.156793131
 40
0.1
 50
270.0
 51
360.0
  0
ARC
  8
BEZUGSACHSEN
 62
7
  6
CONTINUOUS
 10
356.4647164537
 20
184.156793131
 40
0.1
 50
180.0
 51
270.0
  0
ARC
  8
BEZUGSACHSEN
 62
7
  6
CONTINUOUS
 10
156.4647164537
 20
184.156793131
 40
0.1
 50
180.0
 51
270.0
  0
ARC
  8
BEZUGSACHSEN
 62
7
  6
CONTINUOUS
 10
146.2647164537
 20
184.156793131
 40
0.1
 50
270.0
 51
360.0
  0
ENDSEC
  0
EOF
