999
DXF file: bkb30080541.dxf
999
Pro/ENGINEER 2022024 by Parametric Technology Corporation
  0
SECTION
  2
HEADER
  9
$EXTMAX
 10
594.0
 20
420.0
 30
0.0
  9
$EXTMIN
 10
0.0
 20
0.0
 30
0.0
  9
$LIMMIN
 10
0.0
 20
0.0
  9
$LIMMAX
 10
594.0
 20
420.0
  9
$VIEWCTR
 10
297.0
 20
210.0
  9
$VIEWSIZE
 40
420.0
  9
$CLAYER
  8
0
  9
$LTSCALE
 40
32.67
  9
$CELTYPE
  6
BYLAYER
  9
$DIMSCALE
 40
1.0
  9
$DIMASZ
 40
3.5
  9
$DIMEXO
 40
0.0
  9
$DIMDLI
 40
22.572
  9
$DIMEXE
 40
1.5
  9
$DIMCEN
 40
5.346
  9
$DIMLFAC
 40
1.0
  9
$DIMBLK
  1
_FILLED
  9
$DIMALT
 70
0
  9
$DIMALTF
 40
0.0393700787
  9
$DIMTXT
 40
3.5
  9
$AUNITS
 70
0
  9
$PDMODE
 70
3
  9
$PDSIZE
 40
0.3125
  9
$TILEMODE
 70
1
  0
ENDSEC
  0
SECTION
  2
TABLES
  0
TABLE
  2
LTYPE
 70
6
  0
LTYPE
  2
BYBLOCK
 70
0
  3

 72
65
 73
0
 40
0.0
  0
LTYPE
  2
BYLAYER
 70
0
  3

 72
65
 73
0
 40
0.0
  0
LTYPE
  2
CONTINUOUS
 70
64
  3
Solid line
 72
65
 73
0
 40
0.0
  0
LTYPE
  2
CENTER
 70
64
  3
____ _ ____ _ ____ _ ____ _ ____ _ ____ _ ____
 72
65
 73
4
 40
0.6
 49
0.375
 49
-0.075
 49
0.075
 49
-0.075
  0
LTYPE
  2
HIDDEN
 70
64
  3
- - - - - - - - - - - - - - - - - - - -
 72
65
 73
2
 40
0.2
 49
0.1
 49
-0.1
  0
LTYPE
  2
PHANTOM
 70
64
  3
_____ _ _ _____ _ _ _____ _ _ _____
 72
65
 73
6
 40
0.8
 49
0.45
 49
-0.05
 49
0.1
 49
-0.05
 49
0.1
 49
-0.05
  0
LTYPE
  2
DOT
 70
64
  3
. . . . . . . . . . . . . . . . . . . .
 72
65
 73
2
 40
0.2
 49
0.1
 49
-0.1
  0
LTYPE
  2
DASHED
 70
64
  3
- - - - - - - - - - - - - - - - - - - -
 72
65
 73
2
 40
0.2
 49
0.1
 49
-0.1
  0
ENDTAB
  0
TABLE
  2
LAYER
 70
36
  0
LAYER
  2
0
 70
0
 62
7
  6
CONTINUOUS
  0
LAYER
  2
DEFAULT_1
 70
0
 62
7
  6
CENTER
  0
LAYER
  2
DEFAULT_2
 70
0
 62
8
  6
HIDDEN
  0
LAYER
  2
DEFAULT_3
 70
0
 62
7
  6
PHANTOM
  0
LAYER
  2
01_STARTBEZUEGE
 70
0
 62
7
  6
CONTINUOUS
  0
LAYER
  2
AUSFORMSCHRAEGEN
 70
0
 62
7
  6
CONTINUOUS
  0
LAYER
  2
BEZUGSACHSEN
 70
0
 62
7
  6
CONTINUOUS
  0
LAYER
  2
BEZUGSEBENEN
 70
0
 62
7
  6
CONTINUOUS
  0
LAYER
  2
BEZUGSPUNKTE
 70
0
 62
7
  6
CONTINUOUS
  0
LAYER
  2
BOHRUNGEN
 70
0
 62
7
  6
CONTINUOUS
  0
LAYER
  2
EBENEN
 70
0
 62
7
  6
CONTINUOUS
  0
LAYER
  2
FASEN
 70
0
 62
7
  6
CONTINUOUS
  0
LAYER
  2
FLAECHEN
 70
0
 62
7
  6
CONTINUOUS
  0
LAYER
  2
GEWINDE
 70
0
 62
7
  6
CONTINUOUS
  0
LAYER
  2
GTOL
 70
0
 62
7
  6
CONTINUOUS
  0
LAYER
  2
KONSTRUKTIONSELEMENTE
 70
0
 62
7
  6
CONTINUOUS
  0
LAYER
  2
KOORDINATENSYSTEME
 70
0
 62
7
  6
CONTINUOUS
  0
LAYER
  2
KURVEN
 70
0
 62
7
  6
CONTINUOUS
  0
LAYER
  2
NOTIZ
 70
0
 62
7
  6
CONTINUOUS
  0
LAYER
  2
RUNDUNGEN
 70
0
 62
7
  6
CONTINUOUS
  0
LAYER
  2
SURFACES
 70
0
 62
7
  6
CONTINUOUS
  0
LAYER
  2
VOLUMEN
 70
0
 62
7
  6
CONTINUOUS
  0
LAYER
  2
XSEC_DATUMS
 70
0
 62
7
  6
CONTINUOUS
  0
ENDTAB
  0
TABLE
  2
STYLE
 70
1
  0
STYLE
  2
STANDARD
 70
0
 40
0.0
 41
0.7
 50
0.0
 71
0
 42
0.2
  3
txt
  4

  0
STYLE
  2
TEXTSTYLE_1
 70
0
 40
0.0
 41
0.8
 50
0.0
 71
0
 42
0.2
  3
gdt
  4

  0
ENDTAB
  0
ENDSEC
  0
SECTION
  2
BLOCKS
  0
BLOCK
  8
0
  2
_FILLED
 70
64
 10
0.0
 20
0.0
  0
SOLID
  8
0
  6
BYBLOCK
 62
0
 10
0.0
 20
0.0
 11
-1.0
 21
0.125
 12
-1.0
 22
-0.125
 13
-1.0
 23
-0.125
  0
ENDBLK
  8
0
  6
BYBLOCK
 62
0
  0
ENDSEC
  0
SECTION
  2
ENTITIES
  0
LINE
  8
KONSTRUKTIONSELEMENTE
 62
3
  6
CONTINUOUS
 10
79.8020894093
 20
534.4785527956
 11
79.8020894093
 21
537.4785527956
  0
LINE
  8
BEZUGSACHSEN
 62
3
  6
CONTINUOUS
 10
79.8020894093
 20
537.4785527956
 11
79.8020894093
 21
610.4785527956
  0
LINE
  8
BEZUGSACHSEN
 62
3
  6
CONTINUOUS
 10
79.8020894093
 20
610.4785527956
 11
81.8020894093
 21
612.4785527956
  0
LINE
  8
BEZUGSACHSEN
 62
3
  6
CONTINUOUS
 10
526.8020894093
 20
534.4785527956
 11
232.8020894093
 21
534.4785527956
  0
LINE
  8
KONSTRUKTIONSELEMENTE
 62
3
  6
CONTINUOUS
 10
79.8020894093
 20
534.4785527956
 11
232.8020894093
 21
534.4785527956
  0
LINE
  8
KONSTRUKTIONSELEMENTE
 62
7
  6
CONTINUOUS
 10
229.8020894093
 20
536.4785527956
 11
229.973909496
 21
536.4785527956
  0
LINE
  8
BEZUGSACHSEN
 62
7
  6
CONTINUOUS
 10
232.8020894093
 20
536.4785527956
 11
526.8020894093
 21
536.4785527956
  0
LINE
  8
BEZUGSACHSEN
 62
9
  6
CONTINUOUS
 10
232.3756825381
 20
536.5785527956
 11
242.3756825381
 21
536.5785527956
  0
LINE
  8
BEZUGSACHSEN
 62
9
  6
CONTINUOUS
 10
274.8020894093
 20
536.5785527956
 11
284.8020894093
 21
536.5785527956
  0
LINE
  8
BEZUGSACHSEN
 62
9
  6
CONTINUOUS
 10
364.8020894093
 20
536.5785527956
 11
374.8020894093
 21
536.5785527956
  0
LINE
  8
BEZUGSACHSEN
 62
9
  6
CONTINUOUS
 10
381.8020894093
 20
536.5785527956
 11
391.8020894093
 21
536.5785527956
  0
LINE
  8
BEZUGSACHSEN
 62
9
  6
CONTINUOUS
 10
446.5178181618
 20
536.5785527956
 11
447.4020894093
 21
536.5785527956
  0
LINE
  8
BEZUGSACHSEN
 62
9
  6
CONTINUOUS
 10
474.8020894093
 20
536.5785527956
 11
484.8020894093
 21
536.5785527956
  0
LINE
  8
KONSTRUKTIONSELEMENTE
 62
9
  6
CONTINUOUS
 10
529.8020894093
 20
537.4785527956
 11
527.8020894093
 21
537.4785527956
  0
LINE
  8
KONSTRUKTIONSELEMENTE
 62
9
  6
CONTINUOUS
 10
79.8020894093
 20
537.4785527956
 11
231.8020894093
 21
537.4785527956
  0
LINE
  8
KONSTRUKTIONSELEMENTE
 62
9
  6
CONTINUOUS
 10
444.7293168713
 20
537.4785527956
 11
446.5178181618
 21
537.4785527956
  0
LINE
  8
KONSTRUKTIONSELEMENTE
 62
9
  6
CONTINUOUS
 10
468.6380239707
 20
537.4785527956
 11
474.8020894093
 21
537.4785527956
  0
LINE
  8
KONSTRUKTIONSELEMENTE
 62
9
  6
CONTINUOUS
 10
484.8020894093
 20
537.4785527956
 11
526.8020894093
 21
537.4785527956
  0
LINE
  8
KONSTRUKTIONSELEMENTE
 62
7
  6
CONTINUOUS
 10
526.8020894093
 20
537.4785527956
 11
527.8020894093
 21
537.4785527956
  0
LINE
  8
BEZUGSACHSEN
 62
7
  6
CONTINUOUS
 10
484.8020894093
 20
538.4785527956
 11
474.8020894093
 21
538.4785527956
  0
LINE
  8
0
 62
3
  6
CONTINUOUS
 10
466.4020894093
 20
538.4785527956
 11
447.4020894093
 21
538.4785527956
  0
LINE
  8
BEZUGSACHSEN
 62
7
  6
CONTINUOUS
 10
447.4020894093
 20
538.4785527956
 11
446.5178181618
 21
538.4785527956
  0
LINE
  8
BEZUGSACHSEN
 62
7
  6
CONTINUOUS
 10
391.8020894093
 20
538.4785527956
 11
381.8020894093
 21
538.4785527956
  0
LINE
  8
BEZUGSACHSEN
 62
7
  6
CONTINUOUS
 10
374.8020894093
 20
538.4785527956
 11
364.8020894093
 21
538.4785527956
  0
LINE
  8
BEZUGSACHSEN
 62
7
  6
CONTINUOUS
 10
284.8020894093
 20
538.4785527956
 11
274.8020894093
 21
538.4785527956
  0
LINE
  8
BEZUGSACHSEN
 62
7
  6
CONTINUOUS
 10
242.3756825381
 20
538.4785527956
 11
232.3756825381
 21
538.4785527956
  0
LINE
  8
0
 62
3
  6
CONTINUOUS
 10
284.8020894093
 20
538.4785527956
 11
300.338112153
 21
538.4785527956
  0
LINE
  8
0
 62
9
  6
CONTINUOUS
 10
469.4020894093
 20
539.4785527956
 11
467.4020894093
 21
539.4785527956
  0
LINE
  8
0
 62
9
  6
CONTINUOUS
 10
300.338112153
 20
539.4785527956
 11
277.9020894093
 21
539.4785527956
  0
LINE
  8
KONSTRUKTIONSELEMENTE
 62
3
  6
CONTINUOUS
 10
229.8020894093
 20
534.4785527956
 11
229.8020894093
 21
537.4785527956
  0
LINE
  8
FASEN
 62
3
  6
CONTINUOUS
 10
229.8020894093
 20
537.4785527956
 11
229.8020894093
 21
612.4785527956
  0
LINE
  8
FASEN
 62
7
  6
CONTINUOUS
 10
231.8020894093
 20
537.4785527956
 11
231.8020894093
 21
612.4785527956
  0
LINE
  8
0
 62
7
  6
CONTINUOUS
 10
232.0020894093
 20
610.2785527956
 11
232.0020894093
 21
609.4785527956
  0
LINE
  8
BEZUGSACHSEN
 62
7
  6
CONTINUOUS
 10
232.3756825381
 20
538.4785527956
 11
232.3756825381
 21
536.5785527956
  0
LINE
  8
KONSTRUKTIONSELEMENTE
 62
9
  6
CONTINUOUS
 10
232.8020894093
 20
534.4785527956
 11
232.8020894093
 21
536.4785527956
  0
LINE
  8
0
 62
7
  6
CONTINUOUS
 10
233.5020894093
 20
610.2785527956
 11
233.5020894093
 21
609.2785527956
  0
LINE
  8
KONSTRUKTIONSELEMENTE
 62
7
  6
CONTINUOUS
 10
233.8020894093
 20
609.4785527956
 11
233.8020894093
 21
559.4785527956
  0
LINE
  8
KONSTRUKTIONSELEMENTE
 62
7
  6
CONTINUOUS
 10
233.8020894093
 20
559.4785527956
 11
231.8020894093
 21
559.4785527956
  0
LINE
  8
0
 62
7
  6
CONTINUOUS
 10
341.8020894093
 20
562.1785527956
 11
400.6412090643
 21
562.1785527956
  0
LINE
  8
BEZUGSACHSEN
 62
7
  6
CONTINUOUS
 10
242.3756825381
 20
538.4785527956
 11
242.3756825381
 21
536.5785527956
  0
LINE
  8
0
 62
7
  6
CONTINUOUS
 10
244.3020894093
 20
579.2785527956
 11
244.3020894093
 21
592.2785527956
  0
LINE
  8
0
 62
7
  6
CONTINUOUS
 10
258.0020894093
 20
592.2785527956
 11
258.0020894093
 21
609.2785527956
  0
LINE
  8
0
 62
7
  6
CONTINUOUS
 10
233.8020894093
 20
579.2785527956
 11
244.3020894093
 21
579.2785527956
  0
LINE
  8
0
 62
7
  6
CONTINUOUS
 10
525.2020894093
 20
579.7785527956
 11
515.2020894093
 21
579.7785527956
  0
LINE
  8
0
 62
7
  6
CONTINUOUS
 10
444.7293168713
 20
579.7785527956
 11
467.4020894093
 21
579.7785527956
  0
LINE
  8
0
 62
7
  6
CONTINUOUS
 10
469.4020894093
 20
579.7785527956
 11
500.3020894093
 21
579.7785527956
  0
LINE
  8
0
 62
7
  6
CONTINUOUS
 10
258.0020894093
 20
592.2785527956
 11
244.3020894093
 21
592.2785527956
  0
LINE
  8
0
 62
7
  6
CONTINUOUS
 10
444.7293168713
 20
593.7785527956
 11
467.4020894093
 21
593.7785527956
  0
LINE
  8
0
 62
7
  6
CONTINUOUS
 10
469.4020894093
 20
593.7785527956
 11
500.3020894093
 21
593.7785527956
  0
LINE
  8
0
 62
7
  6
CONTINUOUS
 10
515.2020894093
 20
593.7785527956
 11
523.5020894093
 21
593.7785527956
  0
LINE
  8
0
 62
9
  6
CONTINUOUS
 10
444.7293168713
 20
593.9785527956
 11
466.3542088147
 21
593.9785527956
  0
LINE
  8
0
 62
9
  6
CONTINUOUS
 10
472.2499700039
 20
593.9785527956
 11
500.3020894093
 21
593.9785527956
  0
LINE
  8
0
 62
7
  6
CONTINUOUS
 10
267.6354894093
 20
608.9785527956
 11
267.6354894093
 21
536.4785527956
  0
LINE
  8
BEZUGSACHSEN
 62
7
  6
CONTINUOUS
 10
274.8020894093
 20
538.4785527956
 11
274.8020894093
 21
536.5785527956
  0
LINE
  8
0
 62
7
  6
CONTINUOUS
 10
277.9020894093
 20
538.4785527956
 11
277.9020894093
 21
608.9785527956
  0
LINE
  8
0
 62
3
  6
CONTINUOUS
 10
500.3020894093
 20
600.6785527956
 11
523.7020894093
 21
600.6785527956
  0
LINE
  8
0
 62
3
  6
CONTINUOUS
 10
525.2020894093
 20
600.6785527956
 11
526.6020894093
 21
600.6785527956
  0
LINE
  8
0
 62
7
  6
CONTINUOUS
 10
526.6020894093
 20
600.6785527956
 11
527.6020894093
 21
600.6785527956
  0
LINE
  8
0
 62
7
  6
CONTINUOUS
 10
444.7293168713
 20
601.6624278261
 11
467.4020894093
 21
601.6624278261
  0
LINE
  8
0
 62
7
  6
CONTINUOUS
 10
469.4020894093
 20
601.6624278261
 11
500.3020894093
 21
601.6624278261
  0
LINE
  8
0
 62
7
  6
CONTINUOUS
 10
523.7020894093
 20
601.6624278261
 11
525.2020894093
 21
601.6624278261
  0
LINE
  8
0
 62
7
  6
CONTINUOUS
 10
526.6020894093
 20
602.1785527956
 11
527.6020894093
 21
602.1785527956
  0
LINE
  8
0
 62
7
  6
CONTINUOUS
 10
400.6412090643
 20
602.6785527956
 11
341.8020894093
 21
602.6785527956
  0
LINE
  8
0
 62
9
  6
CONTINUOUS
 10
277.9020894093
 20
603.9785527956
 11
300.338112153
 21
603.9785527956
  0
LINE
  8
0
 62
9
  6
CONTINUOUS
 10
467.4020894093
 20
603.9785527956
 11
469.4020894093
 21
603.9785527956
  0
LINE
  8
0
 62
7
  6
CONTINUOUS
 10
470.4020894093
 20
604.9785527956
 11
480.4020894093
 21
604.9785527956
  0
LINE
  8
0
 62
3
  6
CONTINUOUS
 10
277.9020894093
 20
606.9785527956
 11
300.338112153
 21
606.9785527956
  0
LINE
  8
0
 62
3
  6
CONTINUOUS
 10
470.4020894093
 20
606.9785527956
 11
480.4020894093
 21
606.9785527956
  0
LINE
  8
0
 62
9
  6
CONTINUOUS
 10
277.9020894093
 20
608.2785527956
 11
300.338112153
 21
608.2785527956
  0
LINE
  8
0
 62
9
  6
CONTINUOUS
 10
444.7293168713
 20
608.2785527956
 11
527.6020894093
 21
608.2785527956
  0
LINE
  8
0
 62
7
  6
CONTINUOUS
 10
258.0020894093
 20
608.9785527956
 11
277.9020894093
 21
608.9785527956
  0
LINE
  8
0
 62
7
  6
CONTINUOUS
 10
300.338112153
 20
608.9785527956
 11
444.7293168713
 21
608.9785527956
  0
LINE
  8
0
 62
3
  6
CONTINUOUS
 10
233.5020894093
 20
609.2785527956
 11
525.6020894093
 21
609.2785527956
  0
LINE
  8
KONSTRUKTIONSELEMENTE
 62
7
  6
CONTINUOUS
 10
231.8020894093
 20
609.4785527956
 11
233.8020894093
 21
609.4785527956
  0
LINE
  8
0
 62
7
  6
CONTINUOUS
 10
231.8020894093
 20
610.2785527956
 11
525.6020894093
 21
610.2785527956
  0
LINE
  8
FASEN
 62
7
  6
CONTINUOUS
 10
231.8020894093
 20
610.4785527956
 11
229.8020894093
 21
610.4785527956
  0
LINE
  8
BEZUGSACHSEN
 62
7
  6
CONTINUOUS
 10
527.8020894093
 20
610.4785527956
 11
529.8020894093
 21
610.4785527956
  0
LINE
  8
KONSTRUKTIONSELEMENTE
 62
7
  6
CONTINUOUS
 10
527.8020894093
 20
612.4785527956
 11
231.8020894093
 21
612.4785527956
  0
LINE
  8
FASEN
 62
7
  6
CONTINUOUS
 10
231.8020894093
 20
612.4785527956
 11
229.8020894093
 21
612.4785527956
  0
LINE
  8
KONSTRUKTIONSELEMENTE
 62
3
  6
CONTINUOUS
 10
229.8020894093
 20
612.4785527956
 11
81.8020894093
 21
612.4785527956
  0
LINE
  8
BEZUGSACHSEN
 62
7
  6
CONTINUOUS
 10
527.8020894093
 20
612.4785527956
 11
529.8020894093
 21
612.4785527956
  0
LINE
  8
BEZUGSACHSEN
 62
7
  6
CONTINUOUS
 10
284.8020894093
 20
538.4785527956
 11
284.8020894093
 21
536.5785527956
  0
LINE
  8
0
 62
7
  6
CONTINUOUS
 10
300.338112153
 20
608.9785527956
 11
300.338112153
 21
536.4785527956
  0
LINE
  8
0
 62
7
  6
CONTINUOUS
 10
317.2020894093
 20
608.9785527956
 11
317.2020894093
 21
536.4785527956
  0
LINE
  8
0
 62
7
  6
CONTINUOUS
 10
341.8020894093
 20
608.9785527956
 11
341.8020894093
 21
536.4785527956
  0
LINE
  8
0
 62
7
  6
CONTINUOUS
 10
356.5177459183
 20
602.6785527956
 11
356.5177459183
 21
562.1785527956
  0
LINE
  8
BEZUGSACHSEN
 62
7
  6
CONTINUOUS
 10
364.8020894093
 20
536.5785527956
 11
364.8020894093
 21
538.4785527956
  0
LINE
  8
BEZUGSACHSEN
 62
7
  6
CONTINUOUS
 10
374.8020894093
 20
536.5785527956
 11
374.8020894093
 21
538.4785527956
  0
LINE
  8
BEZUGSACHSEN
 62
7
  6
CONTINUOUS
 10
381.8020894093
 20
538.4785527956
 11
381.8020894093
 21
536.5785527956
  0
LINE
  8
BEZUGSACHSEN
 62
7
  6
CONTINUOUS
 10
391.8020894093
 20
538.4785527956
 11
391.8020894093
 21
536.5785527956
  0
LINE
  8
0
 62
7
  6
CONTINUOUS
 10
400.6412090643
 20
562.1785527956
 11
400.6412090643
 21
602.6785527956
  0
LINE
  8
0
 62
7
  6
CONTINUOUS
 10
417.8020894093
 20
536.4785527956
 11
417.8020894093
 21
608.9785527956
  0
LINE
  8
0
 62
7
  6
CONTINUOUS
 10
442.4020894093
 20
536.4785527956
 11
442.4020894093
 21
608.9785527956
  0
LINE
  8
0
 62
7
  6
CONTINUOUS
 10
444.7293168713
 20
536.4785527956
 11
444.7293168713
 21
608.9785527956
  0
LINE
  8
BEZUGSACHSEN
 62
7
  6
CONTINUOUS
 10
446.5178181618
 20
538.4785527956
 11
446.5178181618
 21
536.5785527956
  0
LINE
  8
0
 62
7
  6
CONTINUOUS
 10
447.4020894093
 20
538.4785527956
 11
447.4020894093
 21
536.4785527956
  0
LINE
  8
0
 62
9
  6
CONTINUOUS
 10
466.4020894093
 20
536.4785527956
 11
466.4020894093
 21
538.4785527956
  0
LINE
  8
0
 62
3
  6
CONTINUOUS
 10
467.4020894093
 20
603.9785527956
 11
467.4020894093
 21
539.4785527956
  0
LINE
  8
0
 62
7
  6
CONTINUOUS
 10
469.4020894093
 20
603.9785527956
 11
469.4020894093
 21
539.4785527956
  0
LINE
  8
0
 62
9
  6
CONTINUOUS
 10
470.4020894093
 20
606.9785527956
 11
470.4020894093
 21
604.9785527956
  0
LINE
  8
BEZUGSACHSEN
 62
7
  6
CONTINUOUS
 10
474.8020894093
 20
536.5785527956
 11
474.8020894093
 21
538.4785527956
  0
LINE
  8
0
 62
7
  6
CONTINUOUS
 10
480.4020894093
 20
606.9785527956
 11
480.4020894093
 21
604.9785527956
  0
LINE
  8
BEZUGSACHSEN
 62
7
  6
CONTINUOUS
 10
484.8020894093
 20
536.5785527956
 11
484.8020894093
 21
538.4785527956
  0
LINE
  8
0
 62
7
  6
CONTINUOUS
 10
500.3020894093
 20
579.7785527956
 11
500.3020894093
 21
601.6624278261
  0
LINE
  8
0
 62
7
  6
CONTINUOUS
 10
515.2020894093
 20
579.7785527956
 11
515.2020894093
 21
593.7785527956
  0
LINE
  8
0
 62
7
  6
CONTINUOUS
 10
523.7020894093
 20
593.9785527956
 11
523.7020894093
 21
601.6624278261
  0
LINE
  8
0
 62
7
  6
CONTINUOUS
 10
525.2020894093
 20
601.6624278261
 11
525.2020894093
 21
579.7785527956
  0
LINE
  8
0
 62
9
  6
CONTINUOUS
 10
525.6020894093
 20
610.2785527956
 11
525.6020894093
 21
609.2785527956
  0
LINE
  8
0
 62
3
  6
CONTINUOUS
 10
526.6020894093
 20
600.6785527956
 11
526.6020894093
 21
608.2785527956
  0
LINE
  8
KONSTRUKTIONSELEMENTE
 62
9
  6
CONTINUOUS
 10
526.8020894093
 20
534.4785527956
 11
526.8020894093
 21
536.4785527956
  0
LINE
  8
KONSTRUKTIONSELEMENTE
 62
7
  6
CONTINUOUS
 10
526.8020894093
 20
536.4785527956
 11
526.8020894093
 21
537.4785527956
  0
LINE
  8
0
 62
7
  6
CONTINUOUS
 10
527.6020894093
 20
608.2785527956
 11
527.6020894093
 21
600.6785527956
  0
LINE
  8
BEZUGSACHSEN
 62
7
  6
CONTINUOUS
 10
527.8020894093
 20
537.4785527956
 11
527.8020894093
 21
612.4785527956
  0
LINE
  8
BEZUGSACHSEN
 62
3
  6
CONTINUOUS
 10
529.8020894093
 20
537.4785527956
 11
529.8020894093
 21
612.4785527956
  0
POLYLINE
  8
0
 62
7
  6
CONTINUOUS
 66
1
 70
0
  0
VERTEX
  8
0
 62
7
  6
CONTINUOUS
 10
526.6181465464
 20
466.2059781607
  0
VERTEX
  8
0
 62
7
  6
CONTINUOUS
 10
526.519958599
 20
466.1774072942
  0
VERTEX
  8
0
 62
7
  6
CONTINUOUS
 10
526.4697727533
 20
466.1631248973
  0
SEQEND
  0
LINE
  8
BEZUGSACHSEN
 62
7
  6
CONTINUOUS
 10
79.8020894093
 20
467.134577248
 11
79.8020894093
 21
173.134577248
  0
LINE
  8
KONSTRUKTIONSELEMENTE
 62
7
  6
CONTINUOUS
 10
79.8020894093
 20
173.134577248
 11
79.8020894093
 21
172.134577248
  0
LINE
  8
BEZUGSACHSEN
 62
7
  6
CONTINUOUS
 10
79.8020894093
 20
172.134577248
 11
79.8020894093
 21
170.134577248
  0
LINE
  8
KONSTRUKTIONSELEMENTE
 62
7
  6
CONTINUOUS
 10
79.8020894093
 20
467.134577248
 11
79.8020894093
 21
468.134577248
  0
LINE
  8
FASEN
 62
7
  6
CONTINUOUS
 10
79.8020894093
 20
468.134577248
 11
79.8020894093
 21
470.134577248
  0
LINE
  8
KONSTRUKTIONSELEMENTE
 62
7
  6
CONTINUOUS
 10
80.3020894093
 20
173.834577248
 11
80.3020894093
 21
172.134577248
  0
LINE
  8
0
 62
7
  6
CONTINUOUS
 10
80.3020894093
 20
173.834577248
 11
80.3020894093
 21
467.934577248
  0
LINE
  8
BEZUGSACHSEN
 62
7
  6
CONTINUOUS
 10
81.8020894093
 20
172.134577248
 11
81.8020894093
 21
170.134577248
  0
LINE
  8
FASEN
 62
7
  6
CONTINUOUS
 10
81.8020894093
 20
468.134577248
 11
81.8020894093
 21
470.134577248
  0
LINE
  8
KONSTRUKTIONSELEMENTE
 62
7
  6
CONTINUOUS
 10
232.8020894093
 20
20.134577248
 11
231.8020894093
 21
20.134577248
  0
LINE
  8
FASEN
 62
7
  6
CONTINUOUS
 10
231.8020894093
 20
20.134577248
 11
229.8020894093
 21
20.134577248
  0
LINE
  8
BEZUGSACHSEN
 62
7
  6
CONTINUOUS
 10
232.8020894093
 20
20.134577248
 11
526.8020894093
 21
20.134577248
  0
LINE
  8
KONSTRUKTIONSELEMENTE
 62
7
  6
CONTINUOUS
 10
526.8020894093
 20
20.134577248
 11
527.8020894093
 21
20.134577248
  0
LINE
  8
BEZUGSACHSEN
 62
7
  6
CONTINUOUS
 10
527.8020894093
 20
20.134577248
 11
529.8020894093
 21
20.134577248
  0
LINE
  8
0
 62
3
  6
CONTINUOUS
 10
525.9587225251
 20
466.1202978481
 11
525.905792813
 21
466.0917343552
  0
LINE
  8
0
 62
3
  6
CONTINUOUS
 10
525.905792813
 20
466.0917343552
 11
525.8518934624
 21
466.0631631801
  0
LINE
  8
0
 62
3
  6
CONTINUOUS
 10
525.8518934624
 20
466.0631631801
 11
525.7972135416
 21
466.0345948048
  0
LINE
  8
0
 62
3
  6
CONTINUOUS
 10
525.7972135416
 20
466.0345948048
 11
525.7140798216
 21
465.9917333979
  0
LINE
  8
0
 62
3
  6
CONTINUOUS
 10
525.7140798216
 20
465.9917333979
 11
525.6020894093
 21
465.934577248
  0
LINE
  8
KONSTRUKTIONSELEMENTE
 62
7
  6
CONTINUOUS
 10
231.8020894093
 20
20.634577248
 11
233.5020894093
 21
20.634577248
  0
LINE
  8
0
 62
7
  6
CONTINUOUS
 10
233.5020894093
 20
20.634577248
 11
527.6020894093
 21
20.634577248
  0
LINE
  8
FASEN
 62
7
  6
CONTINUOUS
 10
231.8020894093
 20
22.134577248
 11
229.8020894093
 21
22.134577248
  0
LINE
  8
BEZUGSACHSEN
 62
7
  6
CONTINUOUS
 10
527.8020894093
 20
22.134577248
 11
529.8020894093
 21
22.134577248
  0
LINE
  8
0
 62
7
  6
CONTINUOUS
 10
80.3020894093
 20
173.834577248
 11
81.8020894093
 21
172.334577248
  0
LINE
  8
0
 62
7
  6
CONTINUOUS
 10
232.0020894093
 20
22.134577248
 11
233.5020894093
 21
20.634577248
  0
LINE
  8
0
 62
3
  6
CONTINUOUS
 10
525.6020894093
 20
465.934577248
 11
525.7599914002
 21
466.0582755328
  0
POLYLINE
  8
0
 62
3
  6
CONTINUOUS
 66
1
 70
0
  0
VERTEX
  8
0
 62
3
  6
CONTINUOUS
 10
525.7599914002
 20
466.0582755328
  0
VERTEX
  8
0
 62
3
  6
CONTINUOUS
 10
525.8652633647
 20
466.1398049357
  0
VERTEX
  8
0
 62
3
  6
CONTINUOUS
 10
525.9179009787
 20
466.180079558
  0
VERTEX
  8
0
 62
3
  6
CONTINUOUS
 10
525.9705424993
 20
466.2199375881
  0
VERTEX
  8
0
 62
3
  6
CONTINUOUS
 10
526.0231802046
 20
466.2593050667
  0
VERTEX
  8
0
 62
3
  6
CONTINUOUS
 10
526.0758041365
 20
466.2981075466
  0
VERTEX
  8
0
 62
3
  6
CONTINUOUS
 10
526.1284237733
 20
466.3362860323
  0
VERTEX
  8
0
 62
3
  6
CONTINUOUS
 10
526.1810455838
 20
466.3737800504
  0
VERTEX
  8
0
 62
3
  6
CONTINUOUS
 10
526.2336686384
 20
466.4105248356
  0
VERTEX
  8
0
 62
3
  6
CONTINUOUS
 10
526.286294245
 20
466.4464584576
  0
VERTEX
  8
0
 62
3
  6
CONTINUOUS
 10
526.338922159
 20
466.4815192547
  0
VERTEX
  8
0
 62
3
  6
CONTINUOUS
 10
526.3915526648
 20
466.5156473974
  0
VERTEX
  8
0
 62
3
  6
CONTINUOUS
 10
526.4441854829
 20
466.548784265
  0
VERTEX
  8
0
 62
3
  6
CONTINUOUS
 10
526.49682072
 20
466.5808731707
  0
VERTEX
  8
0
 62
3
  6
CONTINUOUS
 10
526.5494575016
 20
466.6118586296
  0
VERTEX
  8
0
 62
3
  6
CONTINUOUS
 10
526.6020952229
 20
466.6416872578
  0
VERTEX
  8
0
 62
3
  6
CONTINUOUS
 10
526.6547331811
 20
466.6703076444
  0
VERTEX
  8
0
 62
3
  6
CONTINUOUS
 10
526.707370643
 20
466.6976704914
  0
VERTEX
  8
0
 62
3
  6
CONTINUOUS
 10
526.7600070943
 20
466.7237288275
  0
VERTEX
  8
0
 62
3
  6
CONTINUOUS
 10
526.8126414201
 20
466.7484376917
  0
VERTEX
  8
0
 62
3
  6
CONTINUOUS
 10
526.8652746899
 20
466.7717554902
  0
VERTEX
  8
0
 62
3
  6
CONTINUOUS
 10
526.9179071132
 20
466.7936425516
  0
VERTEX
  8
0
 62
3
  6
CONTINUOUS
 10
526.9705401547
 20
466.8140620983
  0
VERTEX
  8
0
 62
3
  6
CONTINUOUS
 10
527.0231757518
 20
466.8329798579
  0
VERTEX
  8
0
 62
3
  6
CONTINUOUS
 10
527.0758126955
 20
466.8503629022
  0
VERTEX
  8
0
 62
3
  6
CONTINUOUS
 10
527.1284544429
 20
466.8661823944
  0
VERTEX
  8
0
 62
3
  6
CONTINUOUS
 10
527.1810889333
 20
466.8804077895
  0
VERTEX
  8
0
 62
3
  6
CONTINUOUS
 10
527.2336985356
 20
466.8930114933
  0
VERTEX
  8
0
 62
3
  6
CONTINUOUS
 10
527.2863034175
 20
466.9039781852
  0
VERTEX
  8
0
 62
3
  6
CONTINUOUS
 10
527.338919678
 20
466.9132921855
  0
VERTEX
  8
0
 62
3
  6
CONTINUOUS
 10
527.3915418922
 20
466.9209358105
  0
VERTEX
  8
0
 62
3
  6
CONTINUOUS
 10
527.4441700163
 20
466.9268954322
  0
VERTEX
  8
0
 62
3
  6
CONTINUOUS
 10
527.4968040065
 20
466.9311602981
  0
VERTEX
  8
0
 62
3
  6
CONTINUOUS
 10
527.5494437968
 20
466.9337225508
  0
VERTEX
  8
0
 62
3
  6
CONTINUOUS
 10
527.6020894093
 20
466.934577248
  0
SEQEND
  0
LINE
  8
FASEN
 62
3
  6
CONTINUOUS
 10
229.8020894093
 20
20.134577248
 11
229.8020894093
 21
22.134577248
  0
LINE
  8
KONSTRUKTIONSELEMENTE
 62
3
  6
CONTINUOUS
 10
229.8020894093
 20
22.134577248
 11
229.8020894093
 21
170.134577248
  0
LINE
  8
KONSTRUKTIONSELEMENTE
 62
7
  6
CONTINUOUS
 10
231.3020894093
 20
172.334577248
 11
231.3020894093
 21
172.134577248
  0
LINE
  8
KONSTRUKTIONSELEMENTE
 62
7
  6
CONTINUOUS
 10
231.6020894093
 20
170.134577248
 11
231.6020894093
 21
172.134577248
  0
LINE
  8
FASEN
 62
7
  6
CONTINUOUS
 10
231.8020894093
 20
22.134577248
 11
231.8020894093
 21
20.134577248
  0
LINE
  8
KONSTRUKTIONSELEMENTE
 62
7
  6
CONTINUOUS
 10
231.8020894093
 20
22.134577248
 11
231.8020894093
 21
172.334577248
  0
LINE
  8
0
 62
7
  6
CONTINUOUS
 10
232.0020894093
 20
172.334577248
 11
232.0020894093
 21
22.134577248
  0
LINE
  8
KONSTRUKTIONSELEMENTE
 62
9
  6
CONTINUOUS
 10
232.8020894093
 20
20.134577248
 11
232.8020894093
 21
20.634577248
  0
LINE
  8
KONSTRUKTIONSELEMENTE
 62
3
  6
CONTINUOUS
 10
231.6020894093
 20
170.134577248
 11
81.8020894093
 21
170.134577248
  0
LINE
  8
BEZUGSACHSEN
 62
3
  6
CONTINUOUS
 10
79.8020894093
 20
170.134577248
 11
81.8020894093
 21
170.134577248
  0
LINE
  8
KONSTRUKTIONSELEMENTE
 62
7
  6
CONTINUOUS
 10
231.6020894093
 20
170.134577248
 11
231.8020894093
 21
170.134577248
  0
LINE
  8
BEZUGSACHSEN
 62
7
  6
CONTINUOUS
 10
81.8020894093
 20
172.134577248
 11
79.8020894093
 21
172.134577248
  0
LINE
  8
KONSTRUKTIONSELEMENTE
 62
7
  6
CONTINUOUS
 10
81.8020894093
 20
172.134577248
 11
231.6020894093
 21
172.134577248
  0
LINE
  8
0
 62
7
  6
CONTINUOUS
 10
81.8020894093
 20
172.334577248
 11
232.0020894093
 21
172.334577248
  0
LINE
  8
KONSTRUKTIONSELEMENTE
 62
9
  6
CONTINUOUS
 10
79.8020894093
 20
173.134577248
 11
80.3020894093
 21
173.134577248
  0
LINE
  8
0
 62
7
  6
CONTINUOUS
 10
525.6020894093
 20
465.934577248
 11
525.7559279569
 21
466.1756387477
  0
LINE
  8
0
 62
7
  6
CONTINUOUS
 10
525.7559279569
 20
466.1756387477
 11
525.8328532562
 21
466.2950790052
  0
LINE
  8
0
 62
7
  6
CONTINUOUS
 10
525.8328532562
 20
466.2950790052
 11
525.9097922839
 21
466.4132246926
  0
POLYLINE
  8
0
 62
7
  6
CONTINUOUS
 66
1
 70
0
  0
VERTEX
  8
0
 62
7
  6
CONTINUOUS
 10
525.9097922839
 20
466.4132246926
  0
VERTEX
  8
0
 62
7
  6
CONTINUOUS
 10
525.9866569761
 20
466.5295116442
  0
VERTEX
  8
0
 62
7
  6
CONTINUOUS
 10
526.025096784
 20
466.5868795549
  0
VERTEX
  8
0
 62
7
  6
CONTINUOUS
 10
526.0635432668
 20
466.6436627609
  0
VERTEX
  8
0
 62
7
  6
CONTINUOUS
 10
526.1019995104
 20
466.6998136471
  0
VERTEX
  8
0
 62
7
  6
CONTINUOUS
 10
526.1404613587
 20
466.7552745287
  0
VERTEX
  8
0
 62
7
  6
CONTINUOUS
 10
526.1789243225
 20
466.809988144
  0
VERTEX
  8
0
 62
7
  6
CONTINUOUS
 10
526.2173924874
 20
466.8639101823
  0
VERTEX
  8
0
 62
7
  6
CONTINUOUS
 10
526.2558709401
 20
466.9169980523
  0
VERTEX
  8
0
 62
7
  6
CONTINUOUS
 10
526.2943521875
 20
466.9691924995
  0
VERTEX
  8
0
 62
7
  6
CONTINUOUS
 10
526.3328300775
 20
467.0204375352
  0
VERTEX
  8
0
 62
7
  6
CONTINUOUS
 10
526.3713056736
 20
467.0706879903
  0
VERTEX
  8
0
 62
7
  6
CONTINUOUS
 10
526.4097776194
 20
467.1198964465
  0
VERTEX
  8
0
 62
7
  6
CONTINUOUS
 10
526.4482470222
 20
467.1680196508
  0
VERTEX
  8
0
 62
7
  6
CONTINUOUS
 10
526.4867144526
 20
467.2150145839
  0
VERTEX
  8
0
 62
7
  6
CONTINUOUS
 10
526.5251801637
 20
467.2608388267
  0
VERTEX
  8
0
 62
7
  6
CONTINUOUS
 10
526.5636445487
 20
467.3054511681
  0
VERTEX
  8
0
 62
7
  6
CONTINUOUS
 10
526.6021077571
 20
467.3488111895
  0
VERTEX
  8
0
 62
7
  6
CONTINUOUS
 10
526.640569999
 20
467.3908796674
  0
VERTEX
  8
0
 62
7
  6
CONTINUOUS
 10
526.6790314847
 20
467.4316185336
  0
VERTEX
  8
0
 62
7
  6
CONTINUOUS
 10
526.7174923655
 20
467.4709908482
  0
VERTEX
  8
0
 62
7
  6
CONTINUOUS
 10
526.7559530281
 20
467.5089611281
  0
VERTEX
  8
0
 62
7
  6
CONTINUOUS
 10
526.794413724
 20
467.5454949876
  0
VERTEX
  8
0
 62
7
  6
CONTINUOUS
 10
526.8328750109
 20
467.5805595875
  0
VERTEX
  8
0
 62
7
  6
CONTINUOUS
 10
526.8713379809
 20
467.6141237973
  0
VERTEX
  8
0
 62
7
  6
CONTINUOUS
 10
526.9098012817
 20
467.6461556913
  0
VERTEX
  8
0
 62
7
  6
CONTINUOUS
 10
526.9482654627
 20
467.6766264241
  0
VERTEX
  8
0
 62
7
  6
CONTINUOUS
 10
526.9867259101
 20
467.7055047136
  0
VERTEX
  8
0
 62
7
  6
CONTINUOUS
 10
527.025174992
 20
467.7327594302
  0
VERTEX
  8
0
 62
7
  6
CONTINUOUS
 10
527.063622313
 20
467.7583733569
  0
VERTEX
  8
0
 62
7
  6
CONTINUOUS
 10
527.1020758506
 20
467.7823281625
  0
VERTEX
  8
0
 62
7
  6
CONTINUOUS
 10
527.1405328542
 20
467.8045996548
  0
VERTEX
  8
0
 62
7
  6
CONTINUOUS
 10
527.1789937451
 20
467.8251672749
  0
VERTEX
  8
0
 62
7
  6
CONTINUOUS
 10
527.2174569843
 20
467.8440110175
  0
VERTEX
  8
0
 62
7
  6
CONTINUOUS
 10
527.2559215154
 20
467.8611129245
  0
VERTEX
  8
0
 62
7
  6
CONTINUOUS
 10
527.2943863106
 20
467.8764568262
  0
VERTEX
  8
0
 62
7
  6
CONTINUOUS
 10
527.3328497263
 20
467.890028142
  0
VERTEX
  8
0
 62
7
  6
CONTINUOUS
 10
527.3713125533
 20
467.9018149028
  0
VERTEX
  8
0
 62
7
  6
CONTINUOUS
 10
527.4097749419
 20
467.9118064711
  0
VERTEX
  8
0
 62
7
  6
CONTINUOUS
 10
527.4482371704
 20
467.919993844
  0
VERTEX
  8
0
 62
7
  6
CONTINUOUS
 10
527.4866994851
 20
467.9263696085
  0
VERTEX
  8
0
 62
7
  6
CONTINUOUS
 10
527.5251621323
 20
467.930927958
  0
VERTEX
  8
0
 62
7
  6
CONTINUOUS
 10
527.5636254814
 20
467.9336647036
  0
VERTEX
  8
0
 62
7
  6
CONTINUOUS
 10
527.6020894093
 20
467.934577248
  0
SEQEND
  0
POLYLINE
  8
0
 62
3
  6
CONTINUOUS
 66
1
 70
0
  0
VERTEX
  8
0
 62
3
  6
CONTINUOUS
 10
526.5808546592
 20
466.6296507019
  0
VERTEX
  8
0
 62
3
  6
CONTINUOUS
 10
526.5770258644
 20
466.6203110881
  0
VERTEX
  8
0
 62
3
  6
CONTINUOUS
 10
526.5704026781
 20
466.6060256944
  0
VERTEX
  8
0
 62
3
  6
CONTINUOUS
 10
526.5630167317
 20
466.5917385041
  0
VERTEX
  8
0
 62
3
  6
CONTINUOUS
 10
526.5548745223
 20
466.5774511463
  0
VERTEX
  8
0
 62
3
  6
CONTINUOUS
 10
526.5459825121
 20
466.5631637465
  0
VERTEX
  8
0
 62
3
  6
CONTINUOUS
 10
526.5363481104
 20
466.5488769023
  0
VERTEX
  8
0
 62
3
  6
CONTINUOUS
 10
526.5259791443
 20
466.5345908265
  0
VERTEX
  8
0
 62
3
  6
CONTINUOUS
 10
526.5148854877
 20
466.5203075115
  0
VERTEX
  8
0
 62
3
  6
CONTINUOUS
 10
526.5030722454
 20
466.506022216
  0
VERTEX
  8
0
 62
3
  6
CONTINUOUS
 10
526.490543312
 20
466.4917292782
  0
VERTEX
  8
0
 62
3
  6
CONTINUOUS
 10
526.4773119398
 20
466.4774334523
  0
VERTEX
  8
0
 62
3
  6
CONTINUOUS
 10
526.4633907795
 20
466.4631373917
  0
VERTEX
  8
0
 62
3
  6
CONTINUOUS
 10
526.4487914339
 20
466.448841736
  0
VERTEX
  8
0
 62
3
  6
CONTINUOUS
 10
526.4335273657
 20
466.43454823
  0
VERTEX
  8
0
 62
3
  6
CONTINUOUS
 10
526.4176101422
 20
466.4202562111
  0
VERTEX
  8
0
 62
3
  6
CONTINUOUS
 10
526.4010524345
 20
466.4059656243
  0
VERTEX
  8
0
 62
3
  6
CONTINUOUS
 10
526.3838673739
 20
466.3916763915
  0
VERTEX
  8
0
 62
3
  6
CONTINUOUS
 10
526.3660686104
 20
466.3773884704
  0
VERTEX
  8
0
 62
3
  6
CONTINUOUS
 10
526.3476701075
 20
466.3631016994
  0
VERTEX
  8
0
 62
3
  6
CONTINUOUS
 10
526.3286863211
 20
466.3488159562
  0
VERTEX
  8
0
 62
3
  6
CONTINUOUS
 10
526.3091320883
 20
466.3345310803
  0
VERTEX
  8
0
 62
3
  6
CONTINUOUS
 10
526.2890226788
 20
466.3202469204
  0
VERTEX
  8
0
 62
3
  6
CONTINUOUS
 10
526.2683737711
 20
466.3059633255
  0
VERTEX
  8
0
 62
3
  6
CONTINUOUS
 10
526.2472014601
 20
466.2916801562
  0
VERTEX
  8
0
 62
3
  6
CONTINUOUS
 10
526.2255221571
 20
466.2773972261
  0
VERTEX
  8
0
 62
3
  6
CONTINUOUS
 10
526.203352719
 20
466.2631143966
  0
VERTEX
  8
0
 62
3
  6
CONTINUOUS
 10
526.1807101386
 20
466.2488313853
  0
VERTEX
  8
0
 62
3
  6
CONTINUOUS
 10
526.1576118143
 20
466.2345479527
  0
VERTEX
  8
0
 62
3
  6
CONTINUOUS
 10
526.1340754297
 20
466.2202638319
  0
VERTEX
  8
0
 62
3
  6
CONTINUOUS
 10
526.1101179778
 20
466.2059781607
  0
VERTEX
  8
0
 62
3
  6
CONTINUOUS
 10
526.085760831
 20
466.1916924852
  0
VERTEX
  8
0
 62
3
  6
CONTINUOUS
 10
526.0610240041
 20
466.1774072942
  0
VERTEX
  8
0
 62
3
  6
CONTINUOUS
 10
526.0359310813
 20
466.1631248973
  0
VERTEX
  8
0
 62
3
  6
CONTINUOUS
 10
526.0105101315
 20
466.1488498309
  0
VERTEX
  8
0
 62
3
  6
CONTINUOUS
 10
525.9847704033
 20
466.1345759038
  0
VERTEX
  8
0
 62
3
  6
CONTINUOUS
 10
525.9587225251
 20
466.1202978481
  0
SEQEND
  0
LINE
  8
0
 62
7
  6
CONTINUOUS
 10
526.4697727533
 20
466.1631248973
 11
526.3674513972
 21
466.1345759038
  0
LINE
  8
0
 62
7
  6
CONTINUOUS
 10
526.3674513972
 20
466.1345759038
 11
526.2626905698
 21
466.1060174302
  0
LINE
  8
0
 62
7
  6
CONTINUOUS
 10
526.2626905698
 20
466.1060174302
 11
526.1558175929
 21
466.0774495388
  0
LINE
  8
0
 62
7
  6
CONTINUOUS
 10
526.1558175929
 20
466.0774495388
 11
525.992337674
 21
466.0345948048
  0
LINE
  8
0
 62
7
  6
CONTINUOUS
 10
525.992337674
 20
466.0345948048
 11
525.770223801
 21
465.9774429114
  0
LINE
  8
0
 62
7
  6
CONTINUOUS
 10
525.770223801
 20
465.9774429114
 11
525.6020894093
 21
465.934577248
  0
LINE
  8
0
 62
9
  6
CONTINUOUS
 10
525.6020894093
 20
465.934577248
 11
525.6020894093
 21
20.634577248
  0
LINE
  8
KONSTRUKTIONSELEMENTE
 62
9
  6
CONTINUOUS
 10
526.8020894093
 20
20.134577248
 11
526.8020894093
 21
20.634577248
  0
LINE
  8
KONSTRUKTIONSELEMENTE
 62
9
  6
CONTINUOUS
 10
526.8020894093
 20
466.734577248
 11
526.8020894093
 21
466.7434841144
  0
LINE
  8
KONSTRUKTIONSELEMENTE
 62
7
  6
CONTINUOUS
 10
526.8020894093
 20
467.934577248
 11
526.8020894093
 21
468.134577248
  0
LINE
  8
0
 62
7
  6
CONTINUOUS
 10
527.6020894093
 20
467.934577248
 11
527.6020894093
 21
466.934577248
  0
LINE
  8
0
 62
7
  6
CONTINUOUS
 10
527.6020894093
 20
466.734577248
 11
527.6020894093
 21
20.634577248
  0
LINE
  8
BEZUGSACHSEN
 62
7
  6
CONTINUOUS
 10
527.8020894093
 20
22.134577248
 11
527.8020894093
 21
20.134577248
  0
LINE
  8
KONSTRUKTIONSELEMENTE
 62
7
  6
CONTINUOUS
 10
527.8020894093
 20
22.134577248
 11
527.8020894093
 21
468.134577248
  0
LINE
  8
KONSTRUKTIONSELEMENTE
 62
7
  6
CONTINUOUS
 10
529.6020894093
 20
470.134577248
 11
529.6020894093
 21
468.134577248
  0
LINE
  8
BEZUGSACHSEN
 62
3
  6
CONTINUOUS
 10
529.8020894093
 20
20.134577248
 11
529.8020894093
 21
22.134577248
  0
LINE
  8
KONSTRUKTIONSELEMENTE
 62
3
  6
CONTINUOUS
 10
529.8020894093
 20
22.134577248
 11
529.8020894093
 21
468.134577248
  0
POLYLINE
  8
0
 62
7
  6
CONTINUOUS
 66
1
 70
0
  0
VERTEX
  8
0
 62
7
  6
CONTINUOUS
 10
527.6020894093
 20
466.734577248
  0
VERTEX
  8
0
 62
7
  6
CONTINUOUS
 10
527.6013030597
 20
466.7202951447
  0
VERTEX
  8
0
 62
7
  6
CONTINUOUS
 10
527.5989443544
 20
466.7060117928
  0
VERTEX
  8
0
 62
7
  6
CONTINUOUS
 10
527.5950146216
 20
466.6917268438
  0
VERTEX
  8
0
 62
7
  6
CONTINUOUS
 10
527.5895168856
 20
466.6774413429
  0
VERTEX
  8
0
 62
7
  6
CONTINUOUS
 10
527.5824555586
 20
466.6631557788
  0
VERTEX
  8
0
 62
7
  6
CONTINUOUS
 10
527.5738370442
 20
466.6488714727
  0
VERTEX
  8
0
 62
7
  6
CONTINUOUS
 10
527.5636708498
 20
466.63459145
  0
VERTEX
  8
0
 62
7
  6
CONTINUOUS
 10
527.5519623196
 20
466.6203110881
  0
VERTEX
  8
0
 62
7
  6
CONTINUOUS
 10
527.5387159469
 20
466.6060256944
  0
VERTEX
  8
0
 62
7
  6
CONTINUOUS
 10
527.5239440541
 20
466.5917385041
  0
VERTEX
  8
0
 62
7
  6
CONTINUOUS
 10
527.5076596352
 20
466.5774511463
  0
VERTEX
  8
0
 62
7
  6
CONTINUOUS
 10
527.4898756148
 20
466.5631637465
  0
VERTEX
  8
0
 62
7
  6
CONTINUOUS
 10
527.4706068115
 20
466.5488769023
  0
VERTEX
  8
0
 62
7
  6
CONTINUOUS
 10
527.4498688794
 20
466.5345908265
  0
VERTEX
  8
0
 62
7
  6
CONTINUOUS
 10
527.4276815662
 20
466.5203075115
  0
VERTEX
  8
0
 62
7
  6
CONTINUOUS
 10
527.4040550816
 20
466.506022216
  0
VERTEX
  8
0
 62
7
  6
CONTINUOUS
 10
527.3789972147
 20
466.4917292782
  0
VERTEX
  8
0
 62
7
  6
CONTINUOUS
 10
527.3525344703
 20
466.4774334523
  0
VERTEX
  8
0
 62
7
  6
CONTINUOUS
 10
527.3246921497
 20
466.4631373917
  0
VERTEX
  8
0
 62
7
  6
CONTINUOUS
 10
527.2954934585
 20
466.448841736
  0
VERTEX
  8
0
 62
7
  6
CONTINUOUS
 10
527.2649653222
 20
466.43454823
  0
VERTEX
  8
0
 62
7
  6
CONTINUOUS
 10
527.233130875
 20
466.4202562111
  0
VERTEX
  8
0
 62
7
  6
CONTINUOUS
 10
527.2000154596
 20
466.4059656243
  0
VERTEX
  8
0
 62
7
  6
CONTINUOUS
 10
527.1656453385
 20
466.3916763915
  0
VERTEX
  8
0
 62
7
  6
CONTINUOUS
 10
527.1300478115
 20
466.3773884704
  0
VERTEX
  8
0
 62
7
  6
CONTINUOUS
 10
527.0932508058
 20
466.3631016994
  0
VERTEX
  8
0
 62
7
  6
CONTINUOUS
 10
527.0552832329
 20
466.3488159562
  0
VERTEX
  8
0
 62
7
  6
CONTINUOUS
 10
527.0161747674
 20
466.3345310803
  0
VERTEX
  8
0
 62
7
  6
CONTINUOUS
 10
526.9759559482
 20
466.3202469204
  0
VERTEX
  8
0
 62
7
  6
CONTINUOUS
 10
526.934658133
 20
466.3059633255
  0
VERTEX
  8
0
 62
7
  6
CONTINUOUS
 10
526.892313511
 20
466.2916801562
  0
VERTEX
  8
0
 62
7
  6
CONTINUOUS
 10
526.8489549049
 20
466.2773972261
  0
VERTEX
  8
0
 62
7
  6
CONTINUOUS
 10
526.8046160287
 20
466.2631143966
  0
VERTEX
  8
0
 62
7
  6
CONTINUOUS
 10
526.7593308678
 20
466.2488313853
  0
VERTEX
  8
0
 62
7
  6
CONTINUOUS
 10
526.7131342193
 20
466.2345479527
  0
VERTEX
  8
0
 62
7
  6
CONTINUOUS
 10
526.66606145
 20
466.2202638319
  0
VERTEX
  8
0
 62
7
  6
CONTINUOUS
 10
526.6181465464
 20
466.2059781607
  0
SEQEND
  0
LINE
  8
0
 62
9
  6
CONTINUOUS
 10
80.3020894093
 20
465.934577248
 11
525.6020894093
 21
465.934577248
  0
LINE
  8
0
 62
7
  6
CONTINUOUS
 10
527.6020894093
 20
466.734577248
 11
526.7831161815
 21
466.734577248
  0
LINE
  8
KONSTRUKTIONSELEMENTE
 62
9
  6
CONTINUOUS
 10
79.8020894093
 20
467.134577248
 11
80.3020894093
 21
467.134577248
  0
LINE
  8
KONSTRUKTIONSELEMENTE
 62
7
  6
CONTINUOUS
 10
527.6020894093
 20
467.134577248
 11
527.8020894093
 21
467.134577248
  0
LINE
  8
0
 62
7
  6
CONTINUOUS
 10
80.3020894093
 20
467.934577248
 11
527.6020894093
 21
467.934577248
  0
LINE
  8
KONSTRUKTIONSELEMENTE
 62
7
  6
CONTINUOUS
 10
529.8020894093
 20
468.134577248
 11
81.8020894093
 21
468.134577248
  0
LINE
  8
FASEN
 62
7
  6
CONTINUOUS
 10
81.8020894093
 20
468.134577248
 11
79.8020894093
 21
468.134577248
  0
LINE
  8
FASEN
 62
3
  6
CONTINUOUS
 10
79.8020894093
 20
470.134577248
 11
81.8020894093
 21
470.134577248
  0
LINE
  8
KONSTRUKTIONSELEMENTE
 62
3
  6
CONTINUOUS
 10
81.8020894093
 20
470.134577248
 11
529.6020894093
 21
470.134577248
  0
ARC
  8
0
 62
7
  6
CONTINUOUS
 10
469.3020894093
 20
597.3785527956
 40
4.5
 50
306.8698976458
 51
310.9260633096
  0
ARC
  8
0
 62
7
  6
CONTINUOUS
 10
469.3020894093
 20
597.3785527956
 40
4.5
 50
229.0739366904
 51
233.1301023542
  0
ARC
  8
0
 62
7
  6
CONTINUOUS
 10
466.4020894093
 20
539.4785527956
 40
3.0
 50
270.0
 51
360.0
  0
ARC
  8
0
 62
3
  6
CONTINUOUS
 10
470.4020894093
 20
603.9785527956
 40
3.0
 50
90.0
 51
180.0
  0
ARC
  8
KONSTRUKTIONSELEMENTE
 62
3
  6
CONTINUOUS
 10
232.8020894093
 20
537.4785527956
 40
3.0
 50
180.0
 51
270.0
  0
ARC
  8
KONSTRUKTIONSELEMENTE
 62
3
  6
CONTINUOUS
 10
526.8020894093
 20
537.4785527956
 40
3.0
 50
270.0
 51
360.0
  0
ARC
  8
0
 62
7
  6
CONTINUOUS
 10
525.6020894093
 20
608.2785527956
 40
2.0
 50
0.0
 51
90.0
  0
ARC
  8
0
 62
7
  6
CONTINUOUS
 10
470.4020894093
 20
603.9785527956
 40
1.0
 50
90.0
 51
180.0
  0
ARC
  8
KONSTRUKTIONSELEMENTE
 62
7
  6
CONTINUOUS
 10
232.8020894093
 20
537.4785527956
 40
1.0
 50
180.0
 51
270.0
  0
ARC
  8
KONSTRUKTIONSELEMENTE
 62
7
  6
CONTINUOUS
 10
526.8020894093
 20
537.4785527956
 40
1.0
 50
270.0
 51
360.0
  0
ARC
  8
0
 62
3
  6
CONTINUOUS
 10
466.4020894093
 20
539.4785527956
 40
1.0
 50
270.0
 51
360.0
  0
ARC
  8
0
 62
3
  6
CONTINUOUS
 10
525.6020894093
 20
608.2785527956
 40
1.0
 50
0.0
 51
90.0
  0
ARC
  8
0
 62
7
  6
CONTINUOUS
 10
523.5020894093
 20
593.9785527956
 40
0.2
 50
270.0
 51
360.0
  0
ARC
  8
BEZUGSACHSEN
 62
7
  6
CONTINUOUS
 10
284.9020894093
 20
536.5785527956
 40
0.1
 50
180.0
 51
270.0
  0
ARC
  8
BEZUGSACHSEN
 62
7
  6
CONTINUOUS
 10
274.7020894093
 20
536.5785527956
 40
0.1
 50
270.0
 51
360.0
  0
ARC
  8
BEZUGSACHSEN
 62
7
  6
CONTINUOUS
 10
381.7020894093
 20
536.5785527956
 40
0.1
 50
270.0
 51
360.0
  0
ARC
  8
BEZUGSACHSEN
 62
7
  6
CONTINUOUS
 10
391.9020894093
 20
536.5785527956
 40
0.1
 50
180.0
 51
270.0
  0
ARC
  8
BEZUGSACHSEN
 62
7
  6
CONTINUOUS
 10
484.9020894093
 20
536.5785527956
 40
0.1
 50
180.0
 51
270.0
  0
ARC
  8
BEZUGSACHSEN
 62
7
  6
CONTINUOUS
 10
474.7020894093
 20
536.5785527956
 40
0.1
 50
270.0
 51
360.0
  0
ARC
  8
BEZUGSACHSEN
 62
7
  6
CONTINUOUS
 10
374.9020894093
 20
536.5785527956
 40
0.1
 50
180.0
 51
270.0
  0
ARC
  8
BEZUGSACHSEN
 62
7
  6
CONTINUOUS
 10
364.7020894093
 20
536.5785527956
 40
0.1
 50
270.0
 51
360.0
  0
ARC
  8
BEZUGSACHSEN
 62
7
  6
CONTINUOUS
 10
232.2756825381
 20
536.5785527956
 40
0.1
 50
357.5224072568
 51
360.0
  0
ARC
  8
BEZUGSACHSEN
 62
7
  6
CONTINUOUS
 10
242.4756825381
 20
536.5785527956
 40
0.1
 50
180.0
 51
270.0
  0
ARC
  8
BEZUGSACHSEN
 62
7
  6
CONTINUOUS
 10
446.4178181618
 20
536.5785527956
 40
0.1
 50
270.0
 51
360.0
  0
ENDSEC
  0
EOF
