999
DXF file: H:\Wilhelm\OKT22_3D&2D_4_Customer\04_Work package 10\DXF\aku3500701kun.dxf
999
Pro/ENGINEER 2022024 by Parametric Technology Corporation
  0
SECTION
  2
HEADER
  9
$EXTMAX
 10
210.0
 20
297.0
 30
0.0
  9
$EXTMIN
 10
0.0
 20
0.0
 30
0.0
  9
$LIMMIN
 10
0.0
 20
0.0
  9
$LIMMAX
 10
210.0
 20
297.0
  9
$VIEWCTR
 10
105.0
 20
148.5
  9
$VIEWSIZE
 40
297.0
  9
$CLAYER
  8
0
  9
$LTSCALE
 40
19.36
  9
$CELTYPE
  6
BYLAYER
  9
$DIMSCALE
 40
1.0
  9
$DIMASZ
 40
3.5
  9
$DIMEXO
 40
0.0
  9
$DIMDLI
 40
13.376
  9
$DIMEXE
 40
1.5
  9
$DIMCEN
 40
3.168
  9
$DIMLFAC
 40
1.0
  9
$DIMBLK
  1
_FILLED
  9
$DIMALT
 70
0
  9
$DIMALTF
 40
0.0393700787
  9
$DIMTXT
 40
3.0
  9
$AUNITS
 70
0
  9
$PDMODE
 70
3
  9
$PDSIZE
 40
0.3125
  9
$TILEMODE
 70
1
  0
ENDSEC
  0
SECTION
  2
TABLES
  0
TABLE
  2
LTYPE
 70
6
  0
LTYPE
  2
BYBLOCK
 70
0
  3

 72
65
 73
0
 40
0.0
  0
LTYPE
  2
BYLAYER
 70
0
  3

 72
65
 73
0
 40
0.0
  0
LTYPE
  2
CONTINUOUS
 70
64
  3
Solid line
 72
65
 73
0
 40
0.0
  0
LTYPE
  2
CENTER
 70
64
  3
____ _ ____ _ ____ _ ____ _ ____ _ ____ _ ____
 72
65
 73
4
 40
0.6
 49
0.375
 49
-0.075
 49
0.075
 49
-0.075
  0
LTYPE
  2
HIDDEN
 70
64
  3
- - - - - - - - - - - - - - - - - - - -
 72
65
 73
2
 40
0.2
 49
0.1
 49
-0.1
  0
LTYPE
  2
PHANTOM
 70
64
  3
_____ _ _ _____ _ _ _____ _ _ _____
 72
65
 73
6
 40
0.8
 49
0.45
 49
-0.05
 49
0.1
 49
-0.05
 49
0.1
 49
-0.05
  0
LTYPE
  2
DOT
 70
64
  3
. . . . . . . . . . . . . . . . . . . .
 72
65
 73
2
 40
0.2
 49
0.1
 49
-0.1
  0
LTYPE
  2
DASHED
 70
64
  3
- - - - - - - - - - - - - - - - - - - -
 72
65
 73
2
 40
0.2
 49
0.1
 49
-0.1
  0
ENDTAB
  0
TABLE
  2
LAYER
 70
36
  0
LAYER
  2
0
 70
0
 62
7
  6
CONTINUOUS
  0
LAYER
  2
DEFAULT_1
 70
0
 62
7
  6
CENTER
  0
LAYER
  2
DEFAULT_2
 70
0
 62
8
  6
HIDDEN
  0
LAYER
  2
DEFAULT_3
 70
0
 62
7
  6
PHANTOM
  0
LAYER
  2
3D_ITEMS
 70
0
 62
7
  6
CONTINUOUS
  0
LAYER
  2
ASSEMBLY
 70
0
 62
7
  6
CONTINUOUS
  0
LAYER
  2
AXIS
 70
0
 62
7
  6
CONTINUOUS
  0
LAYER
  2
CSYS
 70
0
 62
7
  6
CONTINUOUS
  0
LAYER
  2
DIMENSIONS
 70
0
 62
7
  6
CONTINUOUS
  0
LAYER
  2
FEATURES
 70
0
 62
7
  6
CONTINUOUS
  0
LAYER
  2
GEOM_FEATURES
 70
0
 62
7
  6
CONTINUOUS
  0
LAYER
  2
NOGEOM_FEATURES
 70
0
 62
7
  6
CONTINUOUS
  0
LAYER
  2
PARAMETER_DIMENSIONS
 70
0
 62
7
  6
CONTINUOUS
  0
LAYER
  2
PLANES
 70
0
 62
7
  6
CONTINUOUS
  0
LAYER
  2
PROTUSIONS
 70
0
 62
7
  6
CONTINUOUS
  0
LAYER
  2
SKELETON_MODELS
 70
0
 62
7
  6
CONTINUOUS
  0
ENDTAB
  0
TABLE
  2
STYLE
 70
1
  0
STYLE
  2
STANDARD
 70
0
 40
0.0
 41
0.8
 50
0.0
 71
0
 42
0.2
  3
txt
  4

  0
STYLE
  2
TEXTSTYLE_1
 70
0
 40
0.0
 41
0.8
 50
0.0
 71
0
 42
0.2
  3
gdt
  4

  0
STYLE
  2
TEXTSTYLE_2
 70
0
 40
0.0
 41
0.8
 50
0.0
 71
0
 42
0.2
  3
txt
  4

  0
STYLE
  2
TEXTSTYLE_3
 70
0
 40
0.0
 41
1.0
 50
0.0
 71
0
 42
0.2
  3
txt
  4

  0
ENDTAB
  0
ENDSEC
  0
SECTION
  2
BLOCKS
  0
BLOCK
  8
0
 62
2
  6
CONTINUOUS
  2
04_HELTERSBERG_BL1
 70
64
 10
47.7341541192
 20
20.5458114505
  0
TEXT
  8
0
 62
5
  6
CONTINUOUS
 10
41.0394398335
 20
23.2128114505
  7
TEXTSTYLE_3
 40
1.524
  1
Tehalit GmbH
 41
0.7321428571
 72
0
  0
TEXT
  8
0
 62
5
  6
CONTINUOUS
 10
38.7171541192
 20
20.9268114505
  7
TEXTSTYLE_3
 40
1.524
  1
Seebergstraße 37
 41
0.7395833333
 72
0
  0
TEXT
  8
0
 62
5
  6
CONTINUOUS
 10
37.9007255478
 20
18.6408114505
  7
TEXTSTYLE_3
 40
1.524
  1
67716 Heltersberg 
 41
0.7169312169
 72
0
  0
TEXT
  8
0
 62
5
  6
CONTINUOUS
 10
41.7832969764
 20
16.3548114505
  7
TEXTSTYLE_3
 40
1.524
  1
Deutschland
 41
0.70995671
 72
0
  0
ENDBLK
  8
0
  6
BYBLOCK
 62
0
  0
BLOCK
  8
0
 62
2
  6
CONTINUOUS
  2
HAGER_LOGO_BL0
 70
64
 10
48.3125138508
 20
31.5931952082
  0
POLYLINE
  8
0
 62
7
  6
CONTINUOUS
 66
1
 70
0
 40
0.1
 41
0.1
  0
VERTEX
  8
0
 62
7
  6
CONTINUOUS
 10
33.1760698302
 20
32.7351434052
  0
VERTEX
  8
0
 62
7
  6
CONTINUOUS
 10
33.1620381765
 20
32.7611985862
  0
VERTEX
  8
0
 62
7
  6
CONTINUOUS
 10
33.1605430405
 20
32.7641399537
  0
VERTEX
  8
0
 62
7
  6
CONTINUOUS
 10
33.1359874831
 20
32.8100535568
  0
VERTEX
  8
0
 62
7
  6
CONTINUOUS
 10
33.1105844031
 20
32.8499969519
  0
VERTEX
  8
0
 62
7
  6
CONTINUOUS
 10
33.0861095267
 20
32.8865605229
  0
VERTEX
  8
0
 62
7
  6
CONTINUOUS
 10
33.0344478029
 20
32.9568545049
  0
VERTEX
  8
0
 62
7
  6
CONTINUOUS
 10
32.9801907361
 20
33.0224784611
  0
VERTEX
  8
0
 62
7
  6
CONTINUOUS
 10
32.9257565374
 20
33.0808299808
  0
VERTEX
  8
0
 62
7
  6
CONTINUOUS
 10
32.8725298675
 20
33.1309345313
  0
VERTEX
  8
0
 62
7
  6
CONTINUOUS
 10
32.8212647857
 20
33.1726805579
  0
VERTEX
  8
0
 62
7
  6
CONTINUOUS
 10
32.7723247042
 20
33.206398616
  0
VERTEX
  8
0
 62
7
  6
CONTINUOUS
 10
32.7353068695
 20
33.2296844575
  0
VERTEX
  8
0
 62
7
  6
CONTINUOUS
 10
32.6309011373
 20
33.2918582189
  0
VERTEX
  8
0
 62
7
  6
CONTINUOUS
 10
32.5364702397
 20
33.342762523
  0
VERTEX
  8
0
 62
7
  6
CONTINUOUS
 10
32.4495773954
 20
33.3842369686
  0
VERTEX
  8
0
 62
7
  6
CONTINUOUS
 10
32.368722274
 20
33.4174868388
  0
VERTEX
  8
0
 62
7
  6
CONTINUOUS
 10
32.2928691334
 20
33.4433850344
  0
VERTEX
  8
0
 62
7
  6
CONTINUOUS
 10
32.221239275
 20
33.4625990694
  0
VERTEX
  8
0
 62
7
  6
CONTINUOUS
 10
32.1532075775
 20
33.4756497254
  0
VERTEX
  8
0
 62
7
  6
CONTINUOUS
 10
32.0999936207
 20
33.4842236126
  0
VERTEX
  8
0
 62
7
  6
CONTINUOUS
 10
32.002680293
 20
33.4976596278
  0
VERTEX
  8
0
 62
7
  6
CONTINUOUS
 10
31.9096451192
 20
33.5060015374
  0
VERTEX
  8
0
 62
7
  6
CONTINUOUS
 10
31.8972059745
 20
33.5067382486
  0
VERTEX
  8
0
 62
7
  6
CONTINUOUS
 10
31.7958778578
 20
33.5098852891
  0
VERTEX
  8
0
 62
7
  6
CONTINUOUS
 10
31.6974489982
 20
33.5079549728
  0
VERTEX
  8
0
 62
7
  6
CONTINUOUS
 10
31.6041691266
 20
33.5011917567
  0
VERTEX
  8
0
 62
7
  6
CONTINUOUS
 10
31.517254584
 20
33.4899658383
  0
VERTEX
  8
0
 62
7
  6
CONTINUOUS
 10
31.4372637838
 20
33.4746863386
  0
VERTEX
  8
0
 62
7
  6
CONTINUOUS
 10
31.3643415977
 20
33.4557539167
  0
VERTEX
  8
0
 62
7
  6
CONTINUOUS
 10
31.2798550484
 20
33.429389571
  0
VERTEX
  8
0
 62
7
  6
CONTINUOUS
 10
31.1879871779
 20
33.3967879801
  0
VERTEX
  8
0
 62
7
  6
CONTINUOUS
 10
31.1109670148
 20
33.3644563489
  0
VERTEX
  8
0
 62
7
  6
CONTINUOUS
 10
31.0414092937
 20
33.3296967872
  0
VERTEX
  8
0
 62
7
  6
CONTINUOUS
 10
30.9746104646
 20
33.2902129637
  0
VERTEX
  8
0
 62
7
  6
CONTINUOUS
 10
30.907424359
 20
33.2440792008
  0
VERTEX
  8
0
 62
7
  6
CONTINUOUS
 10
30.8346785572
 20
33.1874909663
  0
VERTEX
  8
0
 62
7
  6
CONTINUOUS
 10
30.7497689894
 20
33.1147164389
  0
VERTEX
  8
0
 62
7
  6
CONTINUOUS
 10
30.6832751023
 20
33.0494811925
  0
VERTEX
  8
0
 62
7
  6
CONTINUOUS
 10
30.6832751023
 20
35.0659784092
  0
VERTEX
  8
0
 62
7
  6
CONTINUOUS
 10
29.6692336515
 20
35.0659784092
  0
VERTEX
  8
0
 62
7
  6
CONTINUOUS
 10
29.6692336515
 20
29.2839685499
  0
VERTEX
  8
0
 62
7
  6
CONTINUOUS
 10
30.6832751023
 20
29.2839685499
  0
VERTEX
  8
0
 62
7
  6
CONTINUOUS
 10
30.6832751023
 20
31.6760049599
  0
VERTEX
  8
0
 62
7
  6
CONTINUOUS
 10
30.6887440558
 20
31.7510478328
  0
VERTEX
  8
0
 62
7
  6
CONTINUOUS
 10
30.6918881112
 20
31.7777262647
  0
VERTEX
  8
0
 62
7
  6
CONTINUOUS
 10
30.705339532
 20
31.8610347239
  0
VERTEX
  8
0
 62
7
  6
CONTINUOUS
 10
30.7238928299
 20
31.9431750217
  0
VERTEX
  8
0
 62
7
  6
CONTINUOUS
 10
30.7465320435
 20
32.0205493188
  0
VERTEX
  8
0
 62
7
  6
CONTINUOUS
 10
30.77226451
 20
32.0909757658
  0
VERTEX
  8
0
 62
7
  6
CONTINUOUS
 10
30.8002348265
 20
32.1533876183
  0
VERTEX
  8
0
 62
7
  6
CONTINUOUS
 10
30.8297592306
 20
32.2074851009
  0
VERTEX
  8
0
 62
7
  6
CONTINUOUS
 10
30.8603243797
 20
32.2534492542
  0
VERTEX
  8
0
 62
7
  6
CONTINUOUS
 10
30.8915749864
 20
32.2917330417
  0
VERTEX
  8
0
 62
7
  6
CONTINUOUS
 10
30.9487355755
 20
32.3513579918
  0
VERTEX
  8
0
 62
7
  6
CONTINUOUS
 10
31.0050500728
 20
32.4028943285
  0
VERTEX
  8
0
 62
7
  6
CONTINUOUS
 10
31.0598187661
 20
32.4463717556
  0
VERTEX
  8
0
 62
7
  6
CONTINUOUS
 10
31.1120184127
 20
32.4817146663
  0
VERTEX
  8
0
 62
7
  6
CONTINUOUS
 10
31.159991304
 20
32.5086827303
  0
VERTEX
  8
0
 62
7
  6
CONTINUOUS
 10
31.1925629285
 20
32.5235705393
  0
VERTEX
  8
0
 62
7
  6
CONTINUOUS
 10
31.1952913792
 20
32.5246813793
  0
VERTEX
  8
0
 62
7
  6
CONTINUOUS
 10
31.2640536271
 20
32.550297619
  0
VERTEX
  8
0
 62
7
  6
CONTINUOUS
 10
31.3375915403
 20
32.573315508
  0
VERTEX
  8
0
 62
7
  6
CONTINUOUS
 10
31.4054249036
 20
32.5901515386
  0
VERTEX
  8
0
 62
7
  6
CONTINUOUS
 10
31.4646089064
 20
32.6004511549
  0
VERTEX
  8
0
 62
7
  6
CONTINUOUS
 10
31.5147078992
 20
32.6047992923
  0
VERTEX
  8
0
 62
7
  6
CONTINUOUS
 10
31.6156211934
 20
32.6062905353
  0
VERTEX
  8
0
 62
7
  6
CONTINUOUS
 10
31.7090414063
 20
32.6030800803
  0
VERTEX
  8
0
 62
7
  6
CONTINUOUS
 10
31.7840143843
 20
32.596173055
  0
VERTEX
  8
0
 62
7
  6
CONTINUOUS
 10
31.8398782503
 20
32.5869152454
  0
VERTEX
  8
0
 62
7
  6
CONTINUOUS
 10
31.8679594285
 20
32.580799053
  0
VERTEX
  8
0
 62
7
  6
CONTINUOUS
 10
31.9165651905
 20
32.5674802118
  0
VERTEX
  8
0
 62
7
  6
CONTINUOUS
 10
31.9611705532
 20
32.5504481774
  0
VERTEX
  8
0
 62
7
  6
CONTINUOUS
 10
32.0067962435
 20
32.527274202
  0
VERTEX
  8
0
 62
7
  6
CONTINUOUS
 10
32.0311151253
 20
32.5125431109
  0
VERTEX
  8
0
 62
7
  6
CONTINUOUS
 10
32.0567391455
 20
32.4953491579
  0
VERTEX
  8
0
 62
7
  6
CONTINUOUS
 10
32.1126551014
 20
32.4525450297
  0
VERTEX
  8
0
 62
7
  6
CONTINUOUS
 10
32.1240840363
 20
32.4431054318
  0
VERTEX
  8
0
 62
7
  6
CONTINUOUS
 10
32.1471334065
 20
32.4191137794
  0
VERTEX
  8
0
 62
7
  6
CONTINUOUS
 10
32.1726173997
 20
32.3855909069
  0
VERTEX
  8
0
 62
7
  6
CONTINUOUS
 10
32.1977414206
 20
32.3441108608
  0
VERTEX
  8
0
 62
7
  6
CONTINUOUS
 10
32.221159091
 20
32.2953202546
  0
VERTEX
  8
0
 62
7
  6
CONTINUOUS
 10
32.242032559
 20
32.239474764
  0
VERTEX
  8
0
 62
7
  6
CONTINUOUS
 10
32.2597381044
 20
32.1766241559
  0
VERTEX
  8
0
 62
7
  6
CONTINUOUS
 10
32.2777598828
 20
32.0937527284
  0
VERTEX
  8
0
 62
7
  6
CONTINUOUS
 10
32.2899964637
 20
32.0145175019
  0
VERTEX
  8
0
 62
7
  6
CONTINUOUS
 10
32.2968107021
 20
31.939579581
  0
VERTEX
  8
0
 62
7
  6
CONTINUOUS
 10
32.2987773238
 20
31.8699955887
  0
VERTEX
  8
0
 62
7
  6
CONTINUOUS
 10
32.298128901
 20
31.8316403812
  0
VERTEX
  8
0
 62
7
  6
CONTINUOUS
 10
32.2972909921
 20
31.7942604475
  0
VERTEX
  8
0
 62
7
  6
CONTINUOUS
 10
32.2972909921
 20
29.2839685499
  0
VERTEX
  8
0
 62
7
  6
CONTINUOUS
 10
33.310058327
 20
29.282962669
  0
VERTEX
  8
0
 62
7
  6
CONTINUOUS
 10
33.310058327
 20
32.0729668376
  0
VERTEX
  8
0
 62
7
  6
CONTINUOUS
 10
33.3060924713
 20
32.176304021
  0
VERTEX
  8
0
 62
7
  6
CONTINUOUS
 10
33.2971937453
 20
32.2867037134
  0
VERTEX
  8
0
 62
7
  6
CONTINUOUS
 10
33.2841901697
 20
32.3852503993
  0
VERTEX
  8
0
 62
7
  6
CONTINUOUS
 10
33.2675006744
 20
32.473091748
  0
VERTEX
  8
0
 62
7
  6
CONTINUOUS
 10
33.247482874
 20
32.5512834699
  0
VERTEX
  8
0
 62
7
  6
CONTINUOUS
 10
33.2244294898
 20
32.620792799
  0
VERTEX
  8
0
 62
7
  6
CONTINUOUS
 10
33.2178960293
 20
32.639067312
  0
VERTEX
  8
0
 62
7
  6
CONTINUOUS
 10
33.1965405336
 20
32.6935238516
  0
VERTEX
  8
0
 62
7
  6
CONTINUOUS
 10
33.1760698302
 20
32.7351434052
  0
SEQEND
  0
POLYLINE
  8
0
 62
7
  6
CONTINUOUS
 66
1
 70
0
 40
0.1
 41
0.1
  0
VERTEX
  8
0
 62
7
  6
CONTINUOUS
 10
47.3771740258
 20
33.399081554
  0
VERTEX
  8
0
 62
7
  6
CONTINUOUS
 10
47.3131238716
 20
33.3751697905
  0
VERTEX
  8
0
 62
7
  6
CONTINUOUS
 10
47.2446664231
 20
33.3469706058
  0
VERTEX
  8
0
 62
7
  6
CONTINUOUS
 10
47.1781347924
 20
33.3161192805
  0
VERTEX
  8
0
 62
7
  6
CONTINUOUS
 10
47.1143933147
 20
33.2828324082
  0
VERTEX
  8
0
 62
7
  6
CONTINUOUS
 10
47.0539260238
 20
33.2473293392
  0
VERTEX
  8
0
 62
7
  6
CONTINUOUS
 10
46.9969927801
 20
33.2097957452
  0
VERTEX
  8
0
 62
7
  6
CONTINUOUS
 10
46.943716725
 20
33.1703803415
  0
VERTEX
  8
0
 62
7
  6
CONTINUOUS
 10
46.8948709177
 20
33.130422584
  0
VERTEX
  8
0
 62
7
  6
CONTINUOUS
 10
46.8473150418
 20
33.0867240724
  0
VERTEX
  8
0
 62
7
  6
CONTINUOUS
 10
46.8013332856
 20
33.0394774318
  0
VERTEX
  8
0
 62
7
  6
CONTINUOUS
 10
46.7573373311
 20
32.989066294
  0
VERTEX
  8
0
 62
7
  6
CONTINUOUS
 10
46.7159336931
 20
32.9362081901
  0
VERTEX
  8
0
 62
7
  6
CONTINUOUS
 10
46.6780526123
 20
32.8822376406
  0
VERTEX
  8
0
 62
7
  6
CONTINUOUS
 10
46.6452222336
 20
32.8297350965
  0
VERTEX
  8
0
 62
7
  6
CONTINUOUS
 10
46.6266063172
 20
32.7964737703
  0
VERTEX
  8
0
 62
7
  6
CONTINUOUS
 10
46.6266063172
 20
33.430312867
  0
VERTEX
  8
0
 62
7
  6
CONTINUOUS
 10
45.6327185934
 20
33.4298099265
  0
VERTEX
  8
0
 62
7
  6
CONTINUOUS
 10
45.6327185934
 20
29.2819567881
  0
VERTEX
  8
0
 62
7
  6
CONTINUOUS
 10
46.6245945554
 20
29.2819567881
  0
VERTEX
  8
0
 62
7
  6
CONTINUOUS
 10
46.6245945554
 20
31.5903761227
  0
VERTEX
  8
0
 62
7
  6
CONTINUOUS
 10
46.6305970778
 20
31.6721603814
  0
VERTEX
  8
0
 62
7
  6
CONTINUOUS
 10
46.6391778297
 20
31.7420828152
  0
VERTEX
  8
0
 62
7
  6
CONTINUOUS
 10
46.650165804
 20
31.8027676631
  0
VERTEX
  8
0
 62
7
  6
CONTINUOUS
 10
46.6635143433
 20
31.8562975661
  0
VERTEX
  8
0
 62
7
  6
CONTINUOUS
 10
46.6793128633
 20
31.9043876435
  0
VERTEX
  8
0
 62
7
  6
CONTINUOUS
 10
46.6882008337
 20
31.9268563593
  0
VERTEX
  8
0
 62
7
  6
CONTINUOUS
 10
46.6977570132
 20
31.9483908079
  0
VERTEX
  8
0
 62
7
  6
CONTINUOUS
 10
46.7189716075
 20
31.9891306233
  0
VERTEX
  8
0
 62
7
  6
CONTINUOUS
 10
46.7434928853
 20
32.0279504257
  0
VERTEX
  8
0
 62
7
  6
CONTINUOUS
 10
46.7722029035
 20
32.0662532427
  0
VERTEX
  8
0
 62
7
  6
CONTINUOUS
 10
46.8065719953
 20
32.1057633033
  0
VERTEX
  8
0
 62
7
  6
CONTINUOUS
 10
46.8492636907
 20
32.1491020506
  0
VERTEX
  8
0
 62
7
  6
CONTINUOUS
 10
46.9060816337
 20
32.2015628479
  0
VERTEX
  8
0
 62
7
  6
CONTINUOUS
 10
46.9331162876
 20
32.2254738601
  0
VERTEX
  8
0
 62
7
  6
CONTINUOUS
 10
46.9726608728
 20
32.257799989
  0
VERTEX
  8
0
 62
7
  6
CONTINUOUS
 10
47.0165622849
 20
32.2888134853
  0
VERTEX
  8
0
 62
7
  6
CONTINUOUS
 10
47.0649082093
 20
32.3183724522
  0
VERTEX
  8
0
 62
7
  6
CONTINUOUS
 10
47.1176908797
 20
32.3462799058
  0
VERTEX
  8
0
 62
7
  6
CONTINUOUS
 10
47.1747337374
 20
32.3722731735
  0
VERTEX
  8
0
 62
7
  6
CONTINUOUS
 10
47.2355640315
 20
32.3960061278
  0
VERTEX
  8
0
 62
7
  6
CONTINUOUS
 10
47.2991720554
 20
32.4170176234
  0
VERTEX
  8
0
 62
7
  6
CONTINUOUS
 10
47.3635066295
 20
32.4346713339
  0
VERTEX
  8
0
 62
7
  6
CONTINUOUS
 10
47.424274476
 20
32.4480322954
  0
VERTEX
  8
0
 62
7
  6
CONTINUOUS
 10
47.471722646
 20
32.455625336
  0
VERTEX
  8
0
 62
7
  6
CONTINUOUS
 10
47.4759051068
 20
32.4560785088
  0
VERTEX
  8
0
 62
7
  6
CONTINUOUS
 10
47.5207254558
 20
32.4612223488
  0
VERTEX
  8
0
 62
7
  6
CONTINUOUS
 10
47.5905086731
 20
32.4665158475
  0
VERTEX
  8
0
 62
7
  6
CONTINUOUS
 10
47.6665055354
 20
32.4689756433
  0
VERTEX
  8
0
 62
7
  6
CONTINUOUS
 10
47.744380195
 20
32.4680717162
  0
VERTEX
  8
0
 62
7
  6
CONTINUOUS
 10
47.8219935127
 20
32.4636794505
  0
VERTEX
  8
0
 62
7
  6
CONTINUOUS
 10
47.898156659
 20
32.4558268992
  0
VERTEX
  8
0
 62
7
  6
CONTINUOUS
 10
47.9721740197
 20
32.4446056852
  0
VERTEX
  8
0
 62
7
  6
CONTINUOUS
 10
48.0436346145
 20
32.4301319395
  0
VERTEX
  8
0
 62
7
  6
CONTINUOUS
 10
48.0436346145
 20
33.4641904205
  0
VERTEX
  8
0
 62
7
  6
CONTINUOUS
 10
48.0038812605
 20
33.470963142
  0
VERTEX
  8
0
 62
7
  6
CONTINUOUS
 10
47.9555539843
 20
33.4752790751
  0
VERTEX
  8
0
 62
7
  6
CONTINUOUS
 10
47.8977195962
 20
33.4766016073
  0
VERTEX
  8
0
 62
7
  6
CONTINUOUS
 10
47.8296963075
 20
33.474373777
  0
VERTEX
  8
0
 62
7
  6
CONTINUOUS
 10
47.7513349599
 20
33.4680816475
  0
VERTEX
  8
0
 62
7
  6
CONTINUOUS
 10
47.6635593496
 20
33.4573770308
  0
VERTEX
  8
0
 62
7
  6
CONTINUOUS
 10
47.5694609788
 20
33.4423401643
  0
VERTEX
  8
0
 62
7
  6
CONTINUOUS
 10
47.4765518024
 20
33.4240715247
  0
VERTEX
  8
0
 62
7
  6
CONTINUOUS
 10
47.4223320258
 20
33.4115325247
  0
VERTEX
  8
0
 62
7
  6
CONTINUOUS
 10
47.3771740258
 20
33.399081554
  0
SEQEND
  0
POLYLINE
  8
0
 62
7
  6
CONTINUOUS
 66
1
 70
0
 40
0.1
 41
0.1
  0
VERTEX
  8
0
 62
7
  6
CONTINUOUS
 10
42.415782454
 20
31.1342478134
  0
VERTEX
  8
0
 62
7
  6
CONTINUOUS
 10
45.4468369578
 20
31.1332419325
  0
VERTEX
  8
0
 62
7
  6
CONTINUOUS
 10
45.4483826171
 20
31.1525150593
  0
VERTEX
  8
0
 62
7
  6
CONTINUOUS
 10
45.4549954641
 20
31.268832242
  0
VERTEX
  8
0
 62
7
  6
CONTINUOUS
 10
45.4573701087
 20
31.3905126432
  0
VERTEX
  8
0
 62
7
  6
CONTINUOUS
 10
45.4553086611
 20
31.5135885781
  0
VERTEX
  8
0
 62
7
  6
CONTINUOUS
 10
45.4488368734
 20
31.6354541147
  0
VERTEX
  8
0
 62
7
  6
CONTINUOUS
 10
45.4380959336
 20
31.7544135919
  0
VERTEX
  8
0
 62
7
  6
CONTINUOUS
 10
45.4232832673
 20
31.8693760159
  0
VERTEX
  8
0
 62
7
  6
CONTINUOUS
 10
45.4046197156
 20
31.9796564065
  0
VERTEX
  8
0
 62
7
  6
CONTINUOUS
 10
45.3823308071
 20
32.0848464843
  0
VERTEX
  8
0
 62
7
  6
CONTINUOUS
 10
45.3566356902
 20
32.1847290809
  0
VERTEX
  8
0
 62
7
  6
CONTINUOUS
 10
45.3277403306
 20
32.2792202061
  0
VERTEX
  8
0
 62
7
  6
CONTINUOUS
 10
45.2958331438
 20
32.3683288652
  0
VERTEX
  8
0
 62
7
  6
CONTINUOUS
 10
45.2610820593
 20
32.4521284771
  0
VERTEX
  8
0
 62
7
  6
CONTINUOUS
 10
45.2236324561
 20
32.5307360115
  0
VERTEX
  8
0
 62
7
  6
CONTINUOUS
 10
45.1836056588
 20
32.6042963519
  0
VERTEX
  8
0
 62
7
  6
CONTINUOUS
 10
45.1519723807
 20
32.6572306539
  0
VERTEX
  8
0
 62
7
  6
CONTINUOUS
 10
45.0970011432
 20
32.7420354674
  0
VERTEX
  8
0
 62
7
  6
CONTINUOUS
 10
45.0397892552
 20
32.8217903535
  0
VERTEX
  8
0
 62
7
  6
CONTINUOUS
 10
44.9802735787
 20
32.8967876396
  0
VERTEX
  8
0
 62
7
  6
CONTINUOUS
 10
44.9183724895
 20
32.9672879336
  0
VERTEX
  8
0
 62
7
  6
CONTINUOUS
 10
44.85398531
 20
33.0335211646
  0
VERTEX
  8
0
 62
7
  6
CONTINUOUS
 10
44.7869918454
 20
33.0956873228
  0
VERTEX
  8
0
 62
7
  6
CONTINUOUS
 10
44.7172520276
 20
33.1539569827
  0
VERTEX
  8
0
 62
7
  6
CONTINUOUS
 10
44.6446056584
 20
33.2084716839
  0
VERTEX
  8
0
 62
7
  6
CONTINUOUS
 10
44.6071317603
 20
33.2343607485
  0
VERTEX
  8
0
 62
7
  6
CONTINUOUS
 10
44.5688722365
 20
33.2593442305
  0
VERTEX
  8
0
 62
7
  6
CONTINUOUS
 10
44.4899677367
 20
33.3065929964
  0
VERTEX
  8
0
 62
7
  6
CONTINUOUS
 10
44.407714121
 20
33.3502754326
  0
VERTEX
  8
0
 62
7
  6
CONTINUOUS
 10
44.3218854808
 20
33.3904405859
  0
VERTEX
  8
0
 62
7
  6
CONTINUOUS
 10
44.2322359997
 20
33.4271097502
  0
VERTEX
  8
0
 62
7
  6
CONTINUOUS
 10
44.1384998604
 20
33.4602770105
  0
VERTEX
  8
0
 62
7
  6
CONTINUOUS
 10
44.0403910337
 20
33.4899097979
  0
VERTEX
  8
0
 62
7
  6
CONTINUOUS
 10
43.9376029096
 20
33.5159494418
  0
VERTEX
  8
0
 62
7
  6
CONTINUOUS
 10
43.8359953353
 20
33.5367627554
  0
VERTEX
  8
0
 62
7
  6
CONTINUOUS
 10
43.734659945
 20
33.5527864054
  0
VERTEX
  8
0
 62
7
  6
CONTINUOUS
 10
43.633623778
 20
33.5640725971
  0
VERTEX
  8
0
 62
7
  6
CONTINUOUS
 10
43.5329300203
 20
33.5706651613
  0
VERTEX
  8
0
 62
7
  6
CONTINUOUS
 10
43.4326429577
 20
33.5726017465
  0
VERTEX
  8
0
 62
7
  6
CONTINUOUS
 10
43.3328542664
 20
33.5699169384
  0
VERTEX
  8
0
 62
7
  6
CONTINUOUS
 10
43.2336911328
 20
33.5626466658
  0
VERTEX
  8
0
 62
7
  6
CONTINUOUS
 10
43.1353269294
 20
33.5508344364
  0
VERTEX
  8
0
 62
7
  6
CONTINUOUS
 10
43.0379955433
 20
33.5345402369
  0
VERTEX
  8
0
 62
7
  6
CONTINUOUS
 10
42.94201104
 20
33.5138534264
  0
VERTEX
  8
0
 62
7
  6
CONTINUOUS
 10
42.8477952933
 20
33.4889117832
  0
VERTEX
  8
0
 62
7
  6
CONTINUOUS
 10
42.7559177608
 20
33.459930318
  0
VERTEX
  8
0
 62
7
  6
CONTINUOUS
 10
42.6671540829
 20
33.4272460278
  0
VERTEX
  8
0
 62
7
  6
CONTINUOUS
 10
42.6009161268
 20
33.3995844945
  0
VERTEX
  8
0
 62
7
  6
CONTINUOUS
 10
42.5338390022
 20
33.3689635133
  0
VERTEX
  8
0
 62
7
  6
CONTINUOUS
 10
42.4469197685
 20
33.3257251273
  0
VERTEX
  8
0
 62
7
  6
CONTINUOUS
 10
42.3669881178
 20
33.2813638622
  0
VERTEX
  8
0
 62
7
  6
CONTINUOUS
 10
42.2918405797
 20
33.2347227061
  0
VERTEX
  8
0
 62
7
  6
CONTINUOUS
 10
42.2202702716
 20
33.1850747347
  0
VERTEX
  8
0
 62
7
  6
CONTINUOUS
 10
42.1515312408
 20
33.1318761559
  0
VERTEX
  8
0
 62
7
  6
CONTINUOUS
 10
42.08512693
 20
33.0746677175
  0
VERTEX
  8
0
 62
7
  6
CONTINUOUS
 10
42.0207119802
 20
33.0130285086
  0
VERTEX
  8
0
 62
7
  6
CONTINUOUS
 10
41.9580412593
 20
32.9465519613
  0
VERTEX
  8
0
 62
7
  6
CONTINUOUS
 10
41.8969410782
 20
32.8748325201
  0
VERTEX
  8
0
 62
7
  6
CONTINUOUS
 10
41.8372917865
 20
32.7974579228
  0
VERTEX
  8
0
 62
7
  6
CONTINUOUS
 10
41.779016609
 20
32.714004633
  0
VERTEX
  8
0
 62
7
  6
CONTINUOUS
 10
41.7220740941
 20
32.6240351234
  0
VERTEX
  8
0
 62
7
  6
CONTINUOUS
 10
41.6664527527
 20
32.5270962809
  0
VERTEX
  8
0
 62
7
  6
CONTINUOUS
 10
41.6614392021
 20
32.5175323092
  0
VERTEX
  8
0
 62
7
  6
CONTINUOUS
 10
41.6367038371
 20
32.4650536009
  0
VERTEX
  8
0
 62
7
  6
CONTINUOUS
 10
41.6060939596
 20
32.3907367629
  0
VERTEX
  8
0
 62
7
  6
CONTINUOUS
 10
41.5748986351
 20
32.303786773
  0
VERTEX
  8
0
 62
7
  6
CONTINUOUS
 10
41.5452569874
 20
32.2081883198
  0
VERTEX
  8
0
 62
7
  6
CONTINUOUS
 10
41.518279303
 20
32.1061547841
  0
VERTEX
  8
0
 62
7
  6
CONTINUOUS
 10
41.4946204538
 20
31.9990817039
  0
VERTEX
  8
0
 62
7
  6
CONTINUOUS
 10
41.474698958
 20
31.8879181168
  0
VERTEX
  8
0
 62
7
  6
CONTINUOUS
 10
41.4587985008
 20
31.7733420053
  0
VERTEX
  8
0
 62
7
  6
CONTINUOUS
 10
41.4471212425
 20
31.6558543316
  0
VERTEX
  8
0
 62
7
  6
CONTINUOUS
 10
41.4398183651
 20
31.5358341594
  0
VERTEX
  8
0
 62
7
  6
CONTINUOUS
 10
41.4370087358
 20
31.4135732072
  0
VERTEX
  8
0
 62
7
  6
CONTINUOUS
 10
41.4386753424
 20
31.2726897942
  0
VERTEX
  8
0
 62
7
  6
CONTINUOUS
 10
41.4447242014
 20
31.1400937837
  0
VERTEX
  8
0
 62
7
  6
CONTINUOUS
 10
41.4548502931
 20
31.0157800992
  0
VERTEX
  8
0
 62
7
  6
CONTINUOUS
 10
41.4687263265
 20
30.8997774784
  0
VERTEX
  8
0
 62
7
  6
CONTINUOUS
 10
41.4859916101
 20
30.7921594555
  0
VERTEX
  8
0
 62
7
  6
CONTINUOUS
 10
41.5062335705
 20
30.6930597374
  0
VERTEX
  8
0
 62
7
  6
CONTINUOUS
 10
41.5289546427
 20
30.602692611
  0
VERTEX
  8
0
 62
7
  6
CONTINUOUS
 10
41.5535049988
 20
30.5213712019
  0
VERTEX
  8
0
 62
7
  6
CONTINUOUS
 10
41.5788997657
 20
30.4494513986
  0
VERTEX
  8
0
 62
7
  6
CONTINUOUS
 10
41.5977751204
 20
30.3996330782
  0
VERTEX
  8
0
 62
7
  6
CONTINUOUS
 10
41.6019732066
 20
30.3849181121
  0
VERTEX
  8
0
 62
7
  6
CONTINUOUS
 10
41.607574572
 20
30.3663600399
  0
VERTEX
  8
0
 62
7
  6
CONTINUOUS
 10
41.6284791152
 20
30.3164201259
  0
VERTEX
  8
0
 62
7
  6
CONTINUOUS
 10
41.6565357208
 20
30.2585677353
  0
VERTEX
  8
0
 62
7
  6
CONTINUOUS
 10
41.7006519611
 20
30.1770266191
  0
VERTEX
  8
0
 62
7
  6
CONTINUOUS
 10
41.7515214183
 20
30.0922425699
  0
VERTEX
  8
0
 62
7
  6
CONTINUOUS
 10
41.8069213148
 20
30.0083536687
  0
VERTEX
  8
0
 62
7
  6
CONTINUOUS
 10
41.8654216155
 20
29.9276453641
  0
VERTEX
  8
0
 62
7
  6
CONTINUOUS
 10
41.9260642649
 20
29.8513924059
  0
VERTEX
  8
0
 62
7
  6
CONTINUOUS
 10
41.9881860342
 20
29.7802910103
  0
VERTEX
  8
0
 62
7
  6
CONTINUOUS
 10
42.0513182676
 20
29.714691918
  0
VERTEX
  8
0
 62
7
  6
CONTINUOUS
 10
42.107266657
 20
29.6627951105
  0
VERTEX
  8
0
 62
7
  6
CONTINUOUS
 10
42.1696942728
 20
29.6111743527
  0
VERTEX
  8
0
 62
7
  6
CONTINUOUS
 10
42.2387024244
 20
29.5600573167
  0
VERTEX
  8
0
 62
7
  6
CONTINUOUS
 10
42.3142288946
 20
29.50976973
  0
VERTEX
  8
0
 62
7
  6
CONTINUOUS
 10
42.3959378097
 20
29.4607716602
  0
VERTEX
  8
0
 62
7
  6
CONTINUOUS
 10
42.483030784
 20
29.4137181834
  0
VERTEX
  8
0
 62
7
  6
CONTINUOUS
 10
42.5739016949
 20
29.3695660001
  0
VERTEX
  8
0
 62
7
  6
CONTINUOUS
 10
42.6654607852
 20
29.3297705561
  0
VERTEX
  8
0
 62
7
  6
CONTINUOUS
 10
42.75173475
 20
29.2966582807
  0
VERTEX
  8
0
 62
7
  6
CONTINUOUS
 10
42.8074400321
 20
29.2780700245
  0
VERTEX
  8
0
 62
7
  6
CONTINUOUS
 10
42.8462221121
 20
29.267616537
  0
VERTEX
  8
0
 62
7
  6
CONTINUOUS
 10
42.9027082937
 20
29.2542481911
  0
VERTEX
  8
0
 62
7
  6
CONTINUOUS
 10
42.9452590265
 20
29.2445705714
  0
VERTEX
  8
0
 62
7
  6
CONTINUOUS
 10
43.0374129279
 20
29.226310089
  0
VERTEX
  8
0
 62
7
  6
CONTINUOUS
 10
43.1356951247
 20
29.2109420404
  0
VERTEX
  8
0
 62
7
  6
CONTINUOUS
 10
43.2380324526
 20
29.1992570331
  0
VERTEX
  8
0
 62
7
  6
CONTINUOUS
 10
43.3431641089
 20
29.1916589388
  0
VERTEX
  8
0
 62
7
  6
CONTINUOUS
 10
43.4502496047
 20
29.1883763969
  0
VERTEX
  8
0
 62
7
  6
CONTINUOUS
 10
43.558699591
 20
29.1895461337
  0
VERTEX
  8
0
 62
7
  6
CONTINUOUS
 10
43.6680875047
 20
29.1952537242
  0
VERTEX
  8
0
 62
7
  6
CONTINUOUS
 10
43.7780981208
 20
29.205556085
  0
VERTEX
  8
0
 62
7
  6
CONTINUOUS
 10
43.8884952873
 20
29.2204948847
  0
VERTEX
  8
0
 62
7
  6
CONTINUOUS
 10
43.9811730298
 20
29.2371524269
  0
VERTEX
  8
0
 62
7
  6
CONTINUOUS
 10
44.0730734021
 20
29.2583808506
  0
VERTEX
  8
0
 62
7
  6
CONTINUOUS
 10
44.1641122338
 20
29.2841616875
  0
VERTEX
  8
0
 62
7
  6
CONTINUOUS
 10
44.2541679721
 20
29.314467185
  0
VERTEX
  8
0
 62
7
  6
CONTINUOUS
 10
44.34307231
 20
29.3492508121
  0
VERTEX
  8
0
 62
7
  6
CONTINUOUS
 10
44.4305981198
 20
29.3884342735
  0
VERTEX
  8
0
 62
7
  6
CONTINUOUS
 10
44.516443699
 20
29.4318895456
  0
VERTEX
  8
0
 62
7
  6
CONTINUOUS
 10
44.600211974
 20
29.4794137185
  0
VERTEX
  8
0
 62
7
  6
CONTINUOUS
 10
44.6813828984
 20
29.5306933519
  0
VERTEX
  8
0
 62
7
  6
CONTINUOUS
 10
44.759277009
 20
29.585253583
  0
VERTEX
  8
0
 62
7
  6
CONTINUOUS
 10
44.8330085667
 20
29.6423855429
  0
VERTEX
  8
0
 62
7
  6
CONTINUOUS
 10
44.9014297058
 20
29.7010449666
  0
VERTEX
  8
0
 62
7
  6
CONTINUOUS
 10
44.9630772637
 20
29.759719595
  0
VERTEX
  8
0
 62
7
  6
CONTINUOUS
 10
45.0161622263
 20
29.8162859863
  0
VERTEX
  8
0
 62
7
  6
CONTINUOUS
 10
45.0241864289
 20
29.82549357
  0
VERTEX
  8
0
 62
7
  6
CONTINUOUS
 10
45.0722716035
 20
29.884015794
  0
VERTEX
  8
0
 62
7
  6
CONTINUOUS
 10
45.1336659779
 20
29.9648385286
  0
VERTEX
  8
0
 62
7
  6
CONTINUOUS
 10
45.1911029129
 20
30.0476384206
  0
VERTEX
  8
0
 62
7
  6
CONTINUOUS
 10
45.2433732551
 20
30.1305891837
  0
VERTEX
  8
0
 62
7
  6
CONTINUOUS
 10
45.2898933542
 20
30.2125390587
  0
VERTEX
  8
0
 62
7
  6
CONTINUOUS
 10
45.3304447012
 20
30.292763926
  0
VERTEX
  8
0
 62
7
  6
CONTINUOUS
 10
45.3650240497
 20
30.3708193122
  0
VERTEX
  8
0
 62
7
  6
CONTINUOUS
 10
45.3937537438
 20
30.4464492432
  0
VERTEX
  8
0
 62
7
  6
CONTINUOUS
 10
45.4168257159
 20
30.519528183
  0
VERTEX
  8
0
 62
7
  6
CONTINUOUS
 10
45.4344649478
 20
30.5900227197
  0
VERTEX
  8
0
 62
7
  6
CONTINUOUS
 10
45.4469045707
 20
30.6579653367
  0
VERTEX
  8
0
 62
7
  6
CONTINUOUS
 10
45.4543681688
 20
30.7234357292
  0
VERTEX
  8
0
 62
7
  6
CONTINUOUS
 10
45.4543681688
 20
30.7602148623
  0
VERTEX
  8
0
 62
7
  6
CONTINUOUS
 10
44.4083551799
 20
30.7602148623
  0
VERTEX
  8
0
 62
7
  6
CONTINUOUS
 10
44.4044372486
 20
30.7343919076
  0
VERTEX
  8
0
 62
7
  6
CONTINUOUS
 10
44.3915496627
 20
30.671607714
  0
VERTEX
  8
0
 62
7
  6
CONTINUOUS
 10
44.3740816496
 20
30.6099384084
  0
VERTEX
  8
0
 62
7
  6
CONTINUOUS
 10
44.3521479218
 20
30.5497594066
  0
VERTEX
  8
0
 62
7
  6
CONTINUOUS
 10
44.3258758701
 20
30.4913967432
  0
VERTEX
  8
0
 62
7
  6
CONTINUOUS
 10
44.2953961481
 20
30.4351285696
  0
VERTEX
  8
0
 62
7
  6
CONTINUOUS
 10
44.2608345622
 20
30.3811893721
  0
VERTEX
  8
0
 62
7
  6
CONTINUOUS
 10
44.2223055846
 20
30.3297760112
  0
VERTEX
  8
0
 62
7
  6
CONTINUOUS
 10
44.1799075762
 20
30.2810547584
  0
VERTEX
  8
0
 62
7
  6
CONTINUOUS
 10
44.1337196428
 20
30.2351686485
  0
VERTEX
  8
0
 62
7
  6
CONTINUOUS
 10
44.0837999443
 20
30.1922446274
  0
VERTEX
  8
0
 62
7
  6
CONTINUOUS
 10
44.0301852211
 20
30.1524001365
  0
VERTEX
  8
0
 62
7
  6
CONTINUOUS
 10
43.9728912893
 20
30.1157489105
  0
VERTEX
  8
0
 62
7
  6
CONTINUOUS
 10
43.9119142584
 20
30.0824058736
  0
VERTEX
  8
0
 62
7
  6
CONTINUOUS
 10
43.8573171069
 20
30.0583948108
  0
VERTEX
  8
0
 62
7
  6
CONTINUOUS
 10
43.7972899931
 20
30.0372607622
  0
VERTEX
  8
0
 62
7
  6
CONTINUOUS
 10
43.7325839056
 20
30.019595301
  0
VERTEX
  8
0
 62
7
  6
CONTINUOUS
 10
43.6673785236
 20
30.0064541608
  0
VERTEX
  8
0
 62
7
  6
CONTINUOUS
 10
43.5968673454
 20
29.9969998436
  0
VERTEX
  8
0
 62
7
  6
CONTINUOUS
 10
43.5249713522
 20
29.9921236772
  0
VERTEX
  8
0
 62
7
  6
CONTINUOUS
 10
43.4525625835
 20
29.9919070298
  0
VERTEX
  8
0
 62
7
  6
CONTINUOUS
 10
43.3803956904
 20
29.9963458641
  0
VERTEX
  8
0
 62
7
  6
CONTINUOUS
 10
43.3090988516
 20
30.0053743989
  0
VERTEX
  8
0
 62
7
  6
CONTINUOUS
 10
43.2391775218
 20
30.0188874413
  0
VERTEX
  8
0
 62
7
  6
CONTINUOUS
 10
43.1710260904
 20
30.0367595943
  0
VERTEX
  8
0
 62
7
  6
CONTINUOUS
 10
43.1049435176
 20
30.0588607254
  0
VERTEX
  8
0
 62
7
  6
CONTINUOUS
 10
43.0411502252
 20
30.0850677882
  0
VERTEX
  8
0
 62
7
  6
CONTINUOUS
 10
42.9798045685
 20
30.1152734324
  0
VERTEX
  8
0
 62
7
  6
CONTINUOUS
 10
42.9210179848
 20
30.1493919386
  0
VERTEX
  8
0
 62
7
  6
CONTINUOUS
 10
42.8648684132
 20
30.1873629985
  0
VERTEX
  8
0
 62
7
  6
CONTINUOUS
 10
42.8114118751
 20
30.2291537906
  0
VERTEX
  8
0
 62
7
  6
CONTINUOUS
 10
42.7606922621
 20
30.2747597263
  0
VERTEX
  8
0
 62
7
  6
CONTINUOUS
 10
42.7127494516
 20
30.3242041715
  0
VERTEX
  8
0
 62
7
  6
CONTINUOUS
 10
42.6695864937
 20
30.3754287612
  0
VERTEX
  8
0
 62
7
  6
CONTINUOUS
 10
42.629225651
 20
30.4304749044
  0
VERTEX
  8
0
 62
7
  6
CONTINUOUS
 10
42.5917289704
 20
30.4893786821
  0
VERTEX
  8
0
 62
7
  6
CONTINUOUS
 10
42.5571972907
 20
30.5521376648
  0
VERTEX
  8
0
 62
7
  6
CONTINUOUS
 10
42.5257717112
 20
30.6186808476
  0
VERTEX
  8
0
 62
7
  6
CONTINUOUS
 10
42.4976350463
 20
30.6888229061
  0
VERTEX
  8
0
 62
7
  6
CONTINUOUS
 10
42.4730132649
 20
30.7621905641
  0
VERTEX
  8
0
 62
7
  6
CONTINUOUS
 10
42.4521766266
 20
30.8380957445
  0
VERTEX
  8
0
 62
7
  6
CONTINUOUS
 10
42.4354392467
 20
30.9152978391
  0
VERTEX
  8
0
 62
7
  6
CONTINUOUS
 10
42.4231521843
 20
30.9915068883
  0
VERTEX
  8
0
 62
7
  6
CONTINUOUS
 10
42.4156689922
 20
31.0621825361
  0
VERTEX
  8
0
 62
7
  6
CONTINUOUS
 10
42.4135093647
 20
31.1001972347
  0
VERTEX
  8
0
 62
7
  6
CONTINUOUS
 10
42.4135397068
 20
31.1309613212
  0
VERTEX
  8
0
 62
7
  6
CONTINUOUS
 10
42.4140286104
 20
31.1332419325
  0
VERTEX
  8
0
 62
7
  6
CONTINUOUS
 10
42.415782454
 20
31.1342478134
  0
SEQEND
  0
POLYLINE
  8
0
 62
7
  6
CONTINUOUS
 66
1
 70
0
 40
0.1
 41
0.1
  0
VERTEX
  8
0
 62
7
  6
CONTINUOUS
 10
42.9789726016
 20
32.6984958104
  0
VERTEX
  8
0
 62
7
  6
CONTINUOUS
 10
43.0071916743
 20
32.7132666137
  0
VERTEX
  8
0
 62
7
  6
CONTINUOUS
 10
43.0155584873
 20
32.7172937065
  0
VERTEX
  8
0
 62
7
  6
CONTINUOUS
 10
43.0493946394
 20
32.7322693071
  0
VERTEX
  8
0
 62
7
  6
CONTINUOUS
 10
43.0864334229
 20
32.7466452248
  0
VERTEX
  8
0
 62
7
  6
CONTINUOUS
 10
43.1259217817
 20
32.7600311983
  0
VERTEX
  8
0
 62
7
  6
CONTINUOUS
 10
43.1671959324
 20
32.7721378193
  0
VERTEX
  8
0
 62
7
  6
CONTINUOUS
 10
43.2096978234
 20
32.782761432
  0
VERTEX
  8
0
 62
7
  6
CONTINUOUS
 10
43.252971759
 20
32.791766042
  0
VERTEX
  8
0
 62
7
  6
CONTINUOUS
 10
43.2966524304
 20
32.7990666499
  0
VERTEX
  8
0
 62
7
  6
CONTINUOUS
 10
43.3404506117
 20
32.8046155005
  0
VERTEX
  8
0
 62
7
  6
CONTINUOUS
 10
43.3841394758
 20
32.8083913407
  0
VERTEX
  8
0
 62
7
  6
CONTINUOUS
 10
43.4275426585
 20
32.8103912582
  0
VERTEX
  8
0
 62
7
  6
CONTINUOUS
 10
43.4705243063
 20
32.8106245602
  0
VERTEX
  8
0
 62
7
  6
CONTINUOUS
 10
43.5129809644
 20
32.8091082026
  0
VERTEX
  8
0
 62
7
  6
CONTINUOUS
 10
43.5548350312
 20
32.8058633772
  0
VERTEX
  8
0
 62
7
  6
CONTINUOUS
 10
43.5960294936
 20
32.8009129556
  0
VERTEX
  8
0
 62
7
  6
CONTINUOUS
 10
43.6365236836
 20
32.7942795688
  0
VERTEX
  8
0
 62
7
  6
CONTINUOUS
 10
43.6762898446
 20
32.7859841606
  0
VERTEX
  8
0
 62
7
  6
CONTINUOUS
 10
43.7153103325
 20
32.7760448983
  0
VERTEX
  8
0
 62
7
  6
CONTINUOUS
 10
43.7535753193
 20
32.764476356
  0
VERTEX
  8
0
 62
7
  6
CONTINUOUS
 10
43.7910808932
 20
32.7512889093
  0
VERTEX
  8
0
 62
7
  6
CONTINUOUS
 10
43.8278274751
 20
32.7364882966
  0
VERTEX
  8
0
 62
7
  6
CONTINUOUS
 10
43.8638184901
 20
32.7200753147
  0
VERTEX
  8
0
 62
7
  6
CONTINUOUS
 10
43.8990592466
 20
32.7020456237
  0
VERTEX
  8
0
 62
7
  6
CONTINUOUS
 10
43.9335559872
 20
32.6823896417
  0
VERTEX
  8
0
 62
7
  6
CONTINUOUS
 10
43.9673150845
 20
32.6610925153
  0
VERTEX
  8
0
 62
7
  6
CONTINUOUS
 10
44.0125272571
 20
32.6300061279
  0
VERTEX
  8
0
 62
7
  6
CONTINUOUS
 10
44.054531853
 20
32.5989908637
  0
VERTEX
  8
0
 62
7
  6
CONTINUOUS
 10
44.0935111665
 20
32.5680187656
  0
VERTEX
  8
0
 62
7
  6
CONTINUOUS
 10
44.1296378756
 20
32.5370571135
  0
VERTEX
  8
0
 62
7
  6
CONTINUOUS
 10
44.1630750156
 20
32.5060678425
  0
VERTEX
  8
0
 62
7
  6
CONTINUOUS
 10
44.1939401658
 20
32.4750443435
  0
VERTEX
  8
0
 62
7
  6
CONTINUOUS
 10
44.2223695531
 20
32.4439542017
  0
VERTEX
  8
0
 62
7
  6
CONTINUOUS
 10
44.2485028406
 20
32.4127466075
  0
VERTEX
  8
0
 62
7
  6
CONTINUOUS
 10
44.2724698311
 20
32.3813632906
  0
VERTEX
  8
0
 62
7
  6
CONTINUOUS
 10
44.2943904335
 20
32.3497374373
  0
VERTEX
  8
0
 62
7
  6
CONTINUOUS
 10
44.3143746526
 20
32.3177923185
  0
VERTEX
  8
0
 62
7
  6
CONTINUOUS
 10
44.3325226159
 20
32.2854394976
  0
VERTEX
  8
0
 62
7
  6
CONTINUOUS
 10
44.3489246569
 20
32.2525764181
  0
VERTEX
  8
0
 62
7
  6
CONTINUOUS
 10
44.3636614784
 20
32.2190830549
  0
VERTEX
  8
0
 62
7
  6
CONTINUOUS
 10
44.376804419
 20
32.1848171185
  0
VERTEX
  8
0
 62
7
  6
CONTINUOUS
 10
44.3884158568
 20
32.1496069579
  0
VERTEX
  8
0
 62
7
  6
CONTINUOUS
 10
44.3985497908
 20
32.1132406707
  0
VERTEX
  8
0
 62
7
  6
CONTINUOUS
 10
44.4072526656
 20
32.0754486702
  0
VERTEX
  8
0
 62
7
  6
CONTINUOUS
 10
44.4145645563
 20
32.035874281
  0
VERTEX
  8
0
 62
7
  6
CONTINUOUS
 10
44.420520952
 20
31.994020693
  0
VERTEX
  8
0
 62
7
  6
CONTINUOUS
 10
44.425155714
 20
31.9491462473
  0
VERTEX
  8
0
 62
7
  6
CONTINUOUS
 10
44.4282406719
 20
31.9049589323
  0
VERTEX
  8
0
 62
7
  6
CONTINUOUS
 10
44.2239475984
 20
31.9053264141
  0
VERTEX
  8
0
 62
7
  6
CONTINUOUS
 10
43.1553376751
 20
31.9072486267
  0
VERTEX
  8
0
 62
7
  6
CONTINUOUS
 10
42.4638841954
 20
31.9084924114
  0
VERTEX
  8
0
 62
7
  6
CONTINUOUS
 10
42.4697721381
 20
31.9566041192
  0
VERTEX
  8
0
 62
7
  6
CONTINUOUS
 10
42.4772539912
 20
32.0031435847
  0
VERTEX
  8
0
 62
7
  6
CONTINUOUS
 10
42.4862869687
 20
32.0481638108
  0
VERTEX
  8
0
 62
7
  6
CONTINUOUS
 10
42.4968327893
 20
32.0917161406
  0
VERTEX
  8
0
 62
7
  6
CONTINUOUS
 10
42.5088577618
 20
32.1338500682
  0
VERTEX
  8
0
 62
7
  6
CONTINUOUS
 10
42.5223328461
 20
32.1746130399
  0
VERTEX
  8
0
 62
7
  6
CONTINUOUS
 10
42.5372336838
 20
32.2140502503
  0
VERTEX
  8
0
 62
7
  6
CONTINUOUS
 10
42.5535405947
 20
32.2522044357
  0
VERTEX
  8
0
 62
7
  6
CONTINUOUS
 10
42.5712385366
 20
32.2891156764
  0
VERTEX
  8
0
 62
7
  6
CONTINUOUS
 10
42.5903170273
 20
32.3248212129
  0
VERTEX
  8
0
 62
7
  6
CONTINUOUS
 10
42.61077003
 20
32.3593552949
  0
VERTEX
  8
0
 62
7
  6
CONTINUOUS
 10
42.6325958114
 20
32.3927490786
  0
VERTEX
  8
0
 62
7
  6
CONTINUOUS
 10
42.6557967871
 20
32.4250306037
  0
VERTEX
  8
0
 62
7
  6
CONTINUOUS
 10
42.6803793925
 20
32.4562248938
  0
VERTEX
  8
0
 62
7
  6
CONTINUOUS
 10
42.7063540432
 20
32.4863542516
  0
VERTEX
  8
0
 62
7
  6
CONTINUOUS
 10
42.7337353184
 20
32.5154388704
  0
VERTEX
  8
0
 62
7
  6
CONTINUOUS
 10
42.7625426263
 20
32.5434979809
  0
VERTEX
  8
0
 62
7
  6
CONTINUOUS
 10
42.7928018905
 20
32.5705519489
  0
VERTEX
  8
0
 62
7
  6
CONTINUOUS
 10
42.8245494356
 20
32.5966261829
  0
VERTEX
  8
0
 62
7
  6
CONTINUOUS
 10
42.8578408522
 20
32.6217587718
  0
VERTEX
  8
0
 62
7
  6
CONTINUOUS
 10
42.8927721266
 20
32.6460166836
  0
VERTEX
  8
0
 62
7
  6
CONTINUOUS
 10
42.9295351047
 20
32.6695347014
  0
VERTEX
  8
0
 62
7
  6
CONTINUOUS
 10
42.9685905948
 20
32.6926294712
  0
VERTEX
  8
0
 62
7
  6
CONTINUOUS
 10
42.9789726016
 20
32.6984958104
  0
SEQEND
  0
POLYLINE
  8
0
 62
7
  6
CONTINUOUS
 66
1
 70
0
 40
0.1
 41
0.1
  0
VERTEX
  8
0
 62
7
  6
CONTINUOUS
 10
37.2138563834
 20
32.4001618464
  0
VERTEX
  8
0
 62
7
  6
CONTINUOUS
 10
37.212183817
 20
32.4413363551
  0
VERTEX
  8
0
 62
7
  6
CONTINUOUS
 10
37.2117494898
 20
32.4662904103
  0
VERTEX
  8
0
 62
7
  6
CONTINUOUS
 10
37.2093411268
 20
32.5346526263
  0
VERTEX
  8
0
 62
7
  6
CONTINUOUS
 10
37.2037920012
 20
32.5977795315
  0
VERTEX
  8
0
 62
7
  6
CONTINUOUS
 10
37.194541063
 20
32.6581621358
  0
VERTEX
  8
0
 62
7
  6
CONTINUOUS
 10
37.1813800449
 20
32.7165328361
  0
VERTEX
  8
0
 62
7
  6
CONTINUOUS
 10
37.1641836041
 20
32.7732145832
  0
VERTEX
  8
0
 62
7
  6
CONTINUOUS
 10
37.1428406262
 20
32.8283941001
  0
VERTEX
  8
0
 62
7
  6
CONTINUOUS
 10
37.1172271213
 20
32.8821995578
  0
VERTEX
  8
0
 62
7
  6
CONTINUOUS
 10
37.087193691
 20
32.9347258928
  0
VERTEX
  8
0
 62
7
  6
CONTINUOUS
 10
37.052559706
 20
32.9860430819
  0
VERTEX
  8
0
 62
7
  6
CONTINUOUS
 10
37.0131111077
 20
33.0361983781
  0
VERTEX
  8
0
 62
7
  6
CONTINUOUS
 10
36.9686003346
 20
33.0852164833
  0
VERTEX
  8
0
 62
7
  6
CONTINUOUS
 10
36.9187475178
 20
33.1330992181
  0
VERTEX
  8
0
 62
7
  6
CONTINUOUS
 10
36.8632424034
 20
33.1798253054
  0
VERTEX
  8
0
 62
7
  6
CONTINUOUS
 10
36.8244515085
 20
33.2096715977
  0
VERTEX
  8
0
 62
7
  6
CONTINUOUS
 10
36.7696643409
 20
33.2471035654
  0
VERTEX
  8
0
 62
7
  6
CONTINUOUS
 10
36.7096862833
 20
33.2825677752
  0
VERTEX
  8
0
 62
7
  6
CONTINUOUS
 10
36.6438553733
 20
33.3162320105
  0
VERTEX
  8
0
 62
7
  6
CONTINUOUS
 10
36.5712289999
 20
33.3483278246
  0
VERTEX
  8
0
 62
7
  6
CONTINUOUS
 10
36.4903268991
 20
33.3792385088
  0
VERTEX
  8
0
 62
7
  6
CONTINUOUS
 10
36.3984339692
 20
33.4097250132
  0
VERTEX
  8
0
 62
7
  6
CONTINUOUS
 10
36.2890541007
 20
33.4417282164
  0
VERTEX
  8
0
 62
7
  6
CONTINUOUS
 10
36.1985356584
 20
33.4664575214
  0
VERTEX
  8
0
 62
7
  6
CONTINUOUS
 10
36.1112266454
 20
33.4873157694
  0
VERTEX
  8
0
 62
7
  6
CONTINUOUS
 10
36.0160492615
 20
33.5051689484
  0
VERTEX
  8
0
 62
7
  6
CONTINUOUS
 10
35.9104025367
 20
33.5201530209
  0
VERTEX
  8
0
 62
7
  6
CONTINUOUS
 10
35.79087955
 20
33.5323120479
  0
VERTEX
  8
0
 62
7
  6
CONTINUOUS
 10
35.6527641978
 20
33.541601869
  0
VERTEX
  8
0
 62
7
  6
CONTINUOUS
 10
35.4890889018
 20
33.5478817318
  0
VERTEX
  8
0
 62
7
  6
CONTINUOUS
 10
35.4434285898
 20
33.5489449151
  0
VERTEX
  8
0
 62
7
  6
CONTINUOUS
 10
35.3554055745
 20
33.548518409
  0
VERTEX
  8
0
 62
7
  6
CONTINUOUS
 10
35.2518285892
 20
33.5435252872
  0
VERTEX
  8
0
 62
7
  6
CONTINUOUS
 10
35.1325312244
 20
33.5333860179
  0
VERTEX
  8
0
 62
7
  6
CONTINUOUS
 10
34.999205227
 20
33.5178239169
  0
VERTEX
  8
0
 62
7
  6
CONTINUOUS
 10
34.8580182826
 20
33.4974040689
  0
VERTEX
  8
0
 62
7
  6
CONTINUOUS
 10
34.7287889217
 20
33.4754722636
  0
VERTEX
  8
0
 62
7
  6
CONTINUOUS
 10
34.6850459602
 20
33.4672132216
  0
VERTEX
  8
0
 62
7
  6
CONTINUOUS
 10
34.59256082
 20
33.4405089622
  0
VERTEX
  8
0
 62
7
  6
CONTINUOUS
 10
34.5050552093
 20
33.4104458105
  0
VERTEX
  8
0
 62
7
  6
CONTINUOUS
 10
34.4224506146
 20
33.3771893932
  0
VERTEX
  8
0
 62
7
  6
CONTINUOUS
 10
34.3446734545
 20
33.3409020727
  0
VERTEX
  8
0
 62
7
  6
CONTINUOUS
 10
34.2716329654
 20
33.3017307562
  0
VERTEX
  8
0
 62
7
  6
CONTINUOUS
 10
34.2032452896
 20
33.2598143073
  0
VERTEX
  8
0
 62
7
  6
CONTINUOUS
 10
34.1394347413
 20
33.2152839975
  0
VERTEX
  8
0
 62
7
  6
CONTINUOUS
 10
34.0801350892
 20
33.168264273
  0
VERTEX
  8
0
 62
7
  6
CONTINUOUS
 10
34.0252907991
 20
33.118873882
  0
VERTEX
  8
0
 62
7
  6
CONTINUOUS
 10
33.9748581672
 20
33.0672274035
  0
VERTEX
  8
0
 62
7
  6
CONTINUOUS
 10
33.9288062576
 20
33.0134372027
  0
VERTEX
  8
0
 62
7
  6
CONTINUOUS
 10
33.8871175484
 20
32.9576158183
  0
VERTEX
  8
0
 62
7
  6
CONTINUOUS
 10
33.8639376281
 20
32.9227892011
  0
VERTEX
  8
0
 62
7
  6
CONTINUOUS
 10
33.831342321
 20
32.8679325769
  0
VERTEX
  8
0
 62
7
  6
CONTINUOUS
 10
33.8011935246
 20
32.80816899
  0
VERTEX
  8
0
 62
7
  6
CONTINUOUS
 10
33.7735515591
 20
32.7431601795
  0
VERTEX
  8
0
 62
7
  6
CONTINUOUS
 10
33.7485053769
 20
32.6725323306
  0
VERTEX
  8
0
 62
7
  6
CONTINUOUS
 10
33.7261675719
 20
32.5958702805
  0
VERTEX
  8
0
 62
7
  6
CONTINUOUS
 10
33.7066677929
 20
32.5127029156
  0
VERTEX
  8
0
 62
7
  6
CONTINUOUS
 10
33.6901436434
 20
32.42247011
  0
VERTEX
  8
0
 62
7
  6
CONTINUOUS
 10
33.6767269656
 20
32.3244469489
  0
VERTEX
  8
0
 62
7
  6
CONTINUOUS
 10
33.6665201718
 20
32.2175552892
  0
VERTEX
  8
0
 62
7
  6
CONTINUOUS
 10
33.659666426
 20
32.1025758452
  0
VERTEX
  8
0
 62
7
  6
CONTINUOUS
 10
34.6364283824
 20
32.1025758452
  0
VERTEX
  8
0
 62
7
  6
CONTINUOUS
 10
34.6361221649
 20
32.1334932255
  0
VERTEX
  8
0
 62
7
  6
CONTINUOUS
 10
34.6383558424
 20
32.194768988
  0
VERTEX
  8
0
 62
7
  6
CONTINUOUS
 10
34.6443161939
 20
32.2592167633
  0
VERTEX
  8
0
 62
7
  6
CONTINUOUS
 10
34.653729603
 20
32.3199702803
  0
VERTEX
  8
0
 62
7
  6
CONTINUOUS
 10
34.6661331057
 20
32.3747645701
  0
VERTEX
  8
0
 62
7
  6
CONTINUOUS
 10
34.6810705292
 20
32.4229582839
  0
VERTEX
  8
0
 62
7
  6
CONTINUOUS
 10
34.6981466776
 20
32.4646037946
  0
VERTEX
  8
0
 62
7
  6
CONTINUOUS
 10
34.7170497212
 20
32.5000662698
  0
VERTEX
  8
0
 62
7
  6
CONTINUOUS
 10
34.7375647924
 20
32.5298368028
  0
VERTEX
  8
0
 62
7
  6
CONTINUOUS
 10
34.7595843155
 20
32.5544252917
  0
VERTEX
  8
0
 62
7
  6
CONTINUOUS
 10
34.7974467563
 20
32.5874552301
  0
VERTEX
  8
0
 62
7
  6
CONTINUOUS
 10
34.8388873208
 20
32.6173871976
  0
VERTEX
  8
0
 62
7
  6
CONTINUOUS
 10
34.8612283718
 20
32.6313248446
  0
VERTEX
  8
0
 62
7
  6
CONTINUOUS
 10
34.884725051
 20
32.6445780061
  0
VERTEX
  8
0
 62
7
  6
CONTINUOUS
 10
34.9354335261
 20
32.6690447231
  0
VERTEX
  8
0
 62
7
  6
CONTINUOUS
 10
34.9920285396
 20
32.6909856546
  0
VERTEX
  8
0
 62
7
  6
CONTINUOUS
 10
35.0556806553
 20
32.7104749409
  0
VERTEX
  8
0
 62
7
  6
CONTINUOUS
 10
35.1277540118
 20
32.7274815635
  0
VERTEX
  8
0
 62
7
  6
CONTINUOUS
 10
35.2098542334
 20
32.7418807584
  0
VERTEX
  8
0
 62
7
  6
CONTINUOUS
 10
35.3038902787
 20
32.7534592724
  0
VERTEX
  8
0
 62
7
  6
CONTINUOUS
 10
35.412156446
 20
32.761914814
  0
VERTEX
  8
0
 62
7
  6
CONTINUOUS
 10
35.5094298532
 20
32.7661245375
  0
VERTEX
  8
0
 62
7
  6
CONTINUOUS
 10
35.5115076435
 20
32.7661722308
  0
VERTEX
  8
0
 62
7
  6
CONTINUOUS
 10
35.5653465634
 20
32.7658018158
  0
VERTEX
  8
0
 62
7
  6
CONTINUOUS
 10
35.6410077994
 20
32.7619889512
  0
VERTEX
  8
0
 62
7
  6
CONTINUOUS
 10
35.7178265855
 20
32.7544149267
  0
VERTEX
  8
0
 62
7
  6
CONTINUOUS
 10
35.7897998994
 20
32.7434697718
  0
VERTEX
  8
0
 62
7
  6
CONTINUOUS
 10
35.8548172702
 20
32.7296347971
  0
VERTEX
  8
0
 62
7
  6
CONTINUOUS
 10
35.9122693707
 20
32.7133691192
  0
VERTEX
  8
0
 62
7
  6
CONTINUOUS
 10
35.9622266384
 20
32.6950761209
  0
VERTEX
  8
0
 62
7
  6
CONTINUOUS
 10
36.0050847351
 20
32.6750890958
  0
VERTEX
  8
0
 62
7
  6
CONTINUOUS
 10
36.0413861087
 20
32.6536618924
  0
VERTEX
  8
0
 62
7
  6
CONTINUOUS
 10
36.0892628716
 20
32.6191807905
  0
VERTEX
  8
0
 62
7
  6
CONTINUOUS
 10
36.1277042083
 20
32.5861968677
  0
VERTEX
  8
0
 62
7
  6
CONTINUOUS
 10
36.1439095469
 20
32.5700814634
  0
VERTEX
  8
0
 62
7
  6
CONTINUOUS
 10
36.1582716818
 20
32.5541899146
  0
VERTEX
  8
0
 62
7
  6
CONTINUOUS
 10
36.181941179
 20
32.5230174788
  0
VERTEX
  8
0
 62
7
  6
CONTINUOUS
 10
36.1999084588
 20
32.4920643049
  0
VERTEX
  8
0
 62
7
  6
CONTINUOUS
 10
36.2131617188
 20
32.4604781297
  0
VERTEX
  8
0
 62
7
  6
CONTINUOUS
 10
36.2224979703
 20
32.42697374
  0
VERTEX
  8
0
 62
7
  6
CONTINUOUS
 10
36.2286354838
 20
32.3891606161
  0
VERTEX
  8
0
 62
7
  6
CONTINUOUS
 10
36.2327281652
 20
32.3402271437
  0
VERTEX
  8
0
 62
7
  6
CONTINUOUS
 10
36.2335609479
 20
32.3278673793
  0
VERTEX
  8
0
 62
7
  6
CONTINUOUS
 10
36.2348325557
 20
32.2761355882
  0
VERTEX
  8
0
 62
7
  6
CONTINUOUS
 10
36.2317339371
 20
32.2207862645
  0
VERTEX
  8
0
 62
7
  6
CONTINUOUS
 10
36.2302500571
 20
32.206938839
  0
VERTEX
  8
0
 62
7
  6
CONTINUOUS
 10
36.222396731
 20
32.1581487721
  0
VERTEX
  8
0
 62
7
  6
CONTINUOUS
 10
36.2129617107
 20
32.1222860349
  0
VERTEX
  8
0
 62
7
  6
CONTINUOUS
 10
36.2036237812
 20
32.0994663422
  0
VERTEX
  8
0
 62
7
  6
CONTINUOUS
 10
36.1952600975
 20
32.0869460032
  0
VERTEX
  8
0
 62
7
  6
CONTINUOUS
 10
36.174712487
 20
32.065623804
  0
VERTEX
  8
0
 62
7
  6
CONTINUOUS
 10
36.1508661638
 20
32.0453507042
  0
VERTEX
  8
0
 62
7
  6
CONTINUOUS
 10
36.1240854834
 20
32.0278755369
  0
VERTEX
  8
0
 62
7
  6
CONTINUOUS
 10
36.093655255
 20
32.0132505165
  0
VERTEX
  8
0
 62
7
  6
CONTINUOUS
 10
36.0589800499
 20
32.001683594
  0
VERTEX
  8
0
 62
7
  6
CONTINUOUS
 10
36.019463063
 20
31.993502245
  0
VERTEX
  8
0
 62
7
  6
CONTINUOUS
 10
35.1265761002
 20
31.8122889286
  0
VERTEX
  8
0
 62
7
  6
CONTINUOUS
 10
34.9210112916
 20
31.7743074165
  0
VERTEX
  8
0
 62
7
  6
CONTINUOUS
 10
34.7536743565
 20
31.7391999567
  0
VERTEX
  8
0
 62
7
  6
CONTINUOUS
 10
34.6089348965
 20
31.7043526201
  0
VERTEX
  8
0
 62
7
  6
CONTINUOUS
 10
34.4738747536
 20
31.667268724
  0
VERTEX
  8
0
 62
7
  6
CONTINUOUS
 10
34.326262869
 20
31.6221995925
  0
VERTEX
  8
0
 62
7
  6
CONTINUOUS
 10
34.2072267317
 20
31.5838250008
  0
VERTEX
  8
0
 62
7
  6
CONTINUOUS
 10
34.1563142022
 20
31.5648583891
  0
VERTEX
  8
0
 62
7
  6
CONTINUOUS
 10
34.1036328321
 20
31.5403226493
  0
VERTEX
  8
0
 62
7
  6
CONTINUOUS
 10
34.0492129687
 20
31.509916817
  0
VERTEX
  8
0
 62
7
  6
CONTINUOUS
 10
33.9931928444
 20
31.4733837401
  0
VERTEX
  8
0
 62
7
  6
CONTINUOUS
 10
33.9358614541
 20
31.4305707309
  0
VERTEX
  8
0
 62
7
  6
CONTINUOUS
 10
33.8777221858
 20
31.3815220843
  0
VERTEX
  8
0
 62
7
  6
CONTINUOUS
 10
33.8195881439
 20
31.3266243195
  0
VERTEX
  8
0
 62
7
  6
CONTINUOUS
 10
33.7627223969
 20
31.2668363761
  0
VERTEX
  8
0
 62
7
  6
CONTINUOUS
 10
33.7090282641
 20
31.2040438862
  0
VERTEX
  8
0
 62
7
  6
CONTINUOUS
 10
33.6612418551
 20
31.1415383991
  0
VERTEX
  8
0
 62
7
  6
CONTINUOUS
 10
33.6251848818
 20
31.088085164
  0
VERTEX
  8
0
 62
7
  6
CONTINUOUS
 10
33.6004742027
 20
31.0450854971
  0
VERTEX
  8
0
 62
7
  6
CONTINUOUS
 10
33.5754474745
 20
30.9911969424
  0
VERTEX
  8
0
 62
7
  6
CONTINUOUS
 10
33.5488850956
 20
30.9235575419
  0
VERTEX
  8
0
 62
7
  6
CONTINUOUS
 10
33.5251232266
 20
30.8510912511
  0
VERTEX
  8
0
 62
7
  6
CONTINUOUS
 10
33.5053381428
 20
30.7769266401
  0
VERTEX
  8
0
 62
7
  6
CONTINUOUS
 10
33.4900443904
 20
30.7029351349
  0
VERTEX
  8
0
 62
7
  6
CONTINUOUS
 10
33.4794115204
 20
30.6302405805
  0
VERTEX
  8
0
 62
7
  6
CONTINUOUS
 10
33.4734301215
 20
30.5595120213
  0
VERTEX
  8
0
 62
7
  6
CONTINUOUS
 10
33.47200199
 20
30.4911330882
  0
VERTEX
  8
0
 62
7
  6
CONTINUOUS
 10
33.474991639
 20
30.4253035972
  0
VERTEX
  8
0
 62
7
  6
CONTINUOUS
 10
33.4822572724
 20
30.3621032069
  0
VERTEX
  8
0
 62
7
  6
CONTINUOUS
 10
33.4936702825
 20
30.3015331631
  0
VERTEX
  8
0
 62
7
  6
CONTINUOUS
 10
33.494650394
 20
30.2971558044
  0
VERTEX
  8
0
 62
7
  6
CONTINUOUS
 10
33.5168487758
 20
30.2083507938
  0
VERTEX
  8
0
 62
7
  6
CONTINUOUS
 10
33.5417284049
 20
30.1265802298
  0
VERTEX
  8
0
 62
7
  6
CONTINUOUS
 10
33.5693221931
 20
30.050867593
  0
VERTEX
  8
0
 62
7
  6
CONTINUOUS
 10
33.5996756664
 20
29.9804543995
  0
VERTEX
  8
0
 62
7
  6
CONTINUOUS
 10
33.6328538403
 20
29.9147346287
  0
VERTEX
  8
0
 62
7
  6
CONTINUOUS
 10
33.6689463316
 20
29.8532152321
  0
VERTEX
  8
0
 62
7
  6
CONTINUOUS
 10
33.7080712246
 20
29.7954915177
  0
VERTEX
  8
0
 62
7
  6
CONTINUOUS
 10
33.7503779438
 20
29.7412314299
  0
VERTEX
  8
0
 62
7
  6
CONTINUOUS
 10
33.7960492737
 20
29.6901653126
  0
VERTEX
  8
0
 62
7
  6
CONTINUOUS
 10
33.8453026374
 20
29.6420790916
  0
VERTEX
  8
0
 62
7
  6
CONTINUOUS
 10
33.898390746
 20
29.5968095727
  0
VERTEX
  8
0
 62
7
  6
CONTINUOUS
 10
33.9556017509
 20
29.5542410154
  0
VERTEX
  8
0
 62
7
  6
CONTINUOUS
 10
33.9882045672
 20
29.5316901823
  0
VERTEX
  8
0
 62
7
  6
CONTINUOUS
 10
34.0713236173
 20
29.4777462522
  0
VERTEX
  8
0
 62
7
  6
CONTINUOUS
 10
34.1509259784
 20
29.4312268586
  0
VERTEX
  8
0
 62
7
  6
CONTINUOUS
 10
34.2289070865
 20
29.390780006
  0
VERTEX
  8
0
 62
7
  6
CONTINUOUS
 10
34.30678879
 20
29.3554806285
  0
VERTEX
  8
0
 62
7
  6
CONTINUOUS
 10
34.3859018394
 20
29.3246891058
  0
VERTEX
  8
0
 62
7
  6
CONTINUOUS
 10
34.4675002693
 20
29.2979723377
  0
VERTEX
  8
0
 62
7
  6
CONTINUOUS
 10
34.5096039021
 20
29.2860564856
  0
VERTEX
  8
0
 62
7
  6
CONTINUOUS
 10
34.5526796687
 20
29.2750971375
  0
VERTEX
  8
0
 62
7
  6
CONTINUOUS
 10
34.6422222347
 20
29.2560010679
  0
VERTEX
  8
0
 62
7
  6
CONTINUOUS
 10
34.7374816797
 20
29.2405753465
  0
VERTEX
  8
0
 62
7
  6
CONTINUOUS
 10
34.8399516218
 20
29.2288256421
  0
VERTEX
  8
0
 62
7
  6
CONTINUOUS
 10
34.9378043574
 20
29.2220423519
  0
VERTEX
  8
0
 62
7
  6
CONTINUOUS
 10
35.0359251745
 20
29.2196986035
  0
VERTEX
  8
0
 62
7
  6
CONTINUOUS
 10
35.1336726835
 20
29.2217705884
  0
VERTEX
  8
0
 62
7
  6
CONTINUOUS
 10
35.2301060563
 20
29.2281645903
  0
VERTEX
  8
0
 62
7
  6
CONTINUOUS
 10
35.3238032028
 20
29.2386557938
  0
VERTEX
  8
0
 62
7
  6
CONTINUOUS
 10
35.4125147976
 20
29.2527661409
  0
VERTEX
  8
0
 62
7
  6
CONTINUOUS
 10
35.4924434779
 20
29.2694942632
  0
VERTEX
  8
0
 62
7
  6
CONTINUOUS
 10
35.5566261661
 20
29.2866508267
  0
VERTEX
  8
0
 62
7
  6
CONTINUOUS
 10
35.5741415257
 20
29.2922993073
  0
VERTEX
  8
0
 62
7
  6
CONTINUOUS
 10
35.5923985047
 20
29.2977456679
  0
VERTEX
  8
0
 62
7
  6
CONTINUOUS
 10
35.6602088659
 20
29.3190831261
  0
VERTEX
  8
0
 62
7
  6
CONTINUOUS
 10
35.7323221296
 20
29.3453847108
  0
VERTEX
  8
0
 62
7
  6
CONTINUOUS
 10
35.8059600716
 20
29.3765367594
  0
VERTEX
  8
0
 62
7
  6
CONTINUOUS
 10
35.8797375434
 20
29.4123441538
  0
VERTEX
  8
0
 62
7
  6
CONTINUOUS
 10
35.9528244083
 20
29.4526370206
  0
VERTEX
  8
0
 62
7
  6
CONTINUOUS
 10
36.0246841023
 20
29.4972820365
  0
VERTEX
  8
0
 62
7
  6
CONTINUOUS
 10
36.09495328
 20
29.5461810839
  0
VERTEX
  8
0
 62
7
  6
CONTINUOUS
 10
36.1633768719
 20
29.599268035
  0
VERTEX
  8
0
 62
7
  6
CONTINUOUS
 10
36.2297695506
 20
29.6565055756
  0
VERTEX
  8
0
 62
7
  6
CONTINUOUS
 10
36.2297695506
 20
29.2816988699
  0
VERTEX
  8
0
 62
7
  6
CONTINUOUS
 10
37.4407728021
 20
29.2816988699
  0
VERTEX
  8
0
 62
7
  6
CONTINUOUS
 10
37.4278723673
 20
29.3010890984
  0
VERTEX
  8
0
 62
7
  6
CONTINUOUS
 10
37.3810172609
 20
29.3752207173
  0
VERTEX
  8
0
 62
7
  6
CONTINUOUS
 10
37.3403215869
 20
29.4465034051
  0
VERTEX
  8
0
 62
7
  6
CONTINUOUS
 10
37.3057084682
 20
29.5150858341
  0
VERTEX
  8
0
 62
7
  6
CONTINUOUS
 10
37.277023145
 20
29.5809537549
  0
SEQEND
  0
POLYLINE
  8
0
 62
7
  6
CONTINUOUS
 66
1
 70
0
 40
0.1
 41
0.1
  0
VERTEX
  8
0
 62
7
  6
CONTINUOUS
 10
37.277023145
 20
29.5809537549
  0
VERTEX
  8
0
 62
7
  6
CONTINUOUS
 10
37.2540386461
 20
29.6441187471
  0
VERTEX
  8
0
 62
7
  6
CONTINUOUS
 10
37.236491101
 20
29.7046427853
  0
VERTEX
  8
0
 62
7
  6
CONTINUOUS
 10
37.2241096258
 20
29.7626332226
  0
VERTEX
  8
0
 62
7
  6
CONTINUOUS
 10
37.2166389214
 20
29.8182327485
  0
VERTEX
  8
0
 62
7
  6
CONTINUOUS
 10
37.2138563834
 20
29.8716093414
  0
VERTEX
  8
0
 62
7
  6
CONTINUOUS
 10
37.2138563834
 20
32.4001618464
  0
SEQEND
  0
POLYLINE
  8
0
 62
7
  6
CONTINUOUS
 66
1
 70
0
 40
0.1
 41
0.1
  0
VERTEX
  8
0
 62
7
  6
CONTINUOUS
 10
35.8572583168
 20
30.1657908226
  0
VERTEX
  8
0
 62
7
  6
CONTINUOUS
 10
35.8194992683
 20
30.1435669399
  0
VERTEX
  8
0
 62
7
  6
CONTINUOUS
 10
35.7806444952
 20
30.1227049166
  0
VERTEX
  8
0
 62
7
  6
CONTINUOUS
 10
35.74069423
 20
30.1032164331
  0
VERTEX
  8
0
 62
7
  6
CONTINUOUS
 10
35.6996529997
 20
30.0851173671
  0
VERTEX
  8
0
 62
7
  6
CONTINUOUS
 10
35.657531175
 20
30.0684276722
  0
VERTEX
  8
0
 62
7
  6
CONTINUOUS
 10
35.6143468594
 20
30.0531711862
  0
VERTEX
  8
0
 62
7
  6
CONTINUOUS
 10
35.5701282149
 20
30.0393753453
  0
VERTEX
  8
0
 62
7
  6
CONTINUOUS
 10
35.5249163528
 20
30.027070775
  0
VERTEX
  8
0
 62
7
  6
CONTINUOUS
 10
35.4787689661
 20
30.0162907104
  0
VERTEX
  8
0
 62
7
  6
CONTINUOUS
 10
35.4317649386
 20
30.0070701794
  0
VERTEX
  8
0
 62
7
  6
CONTINUOUS
 10
35.3840102507
 20
29.9994448487
  0
VERTEX
  8
0
 62
7
  6
CONTINUOUS
 10
35.3356456125
 20
29.9934493829
  0
VERTEX
  8
0
 62
7
  6
CONTINUOUS
 10
35.2868563969
 20
29.9891150895
  0
VERTEX
  8
0
 62
7
  6
CONTINUOUS
 10
35.2378856074
 20
29.9864665097
  0
VERTEX
  8
0
 62
7
  6
CONTINUOUS
 10
35.1890507679
 20
29.9855164404
  0
VERTEX
  8
0
 62
7
  6
CONTINUOUS
 10
35.1407656236
 20
29.9862586289
  0
VERTEX
  8
0
 62
7
  6
CONTINUOUS
 10
35.0935670817
 20
29.9886570667
  0
VERTEX
  8
0
 62
7
  6
CONTINUOUS
 10
35.0481460772
 20
29.9926305228
  0
VERTEX
  8
0
 62
7
  6
CONTINUOUS
 10
35.0053763017
 20
29.998031066
  0
VERTEX
  8
0
 62
7
  6
CONTINUOUS
 10
34.9663239057
 20
30.0046168836
  0
VERTEX
  8
0
 62
7
  6
CONTINUOUS
 10
34.9359183705
 20
30.0111259776
  0
VERTEX
  8
0
 62
7
  6
CONTINUOUS
 10
34.9080693628
 20
30.0185736406
  0
VERTEX
  8
0
 62
7
  6
CONTINUOUS
 10
34.8873062697
 20
30.0256044443
  0
VERTEX
  8
0
 62
7
  6
CONTINUOUS
 10
34.8731972758
 20
30.031776534
  0
VERTEX
  8
0
 62
7
  6
CONTINUOUS
 10
34.8519950171
 20
30.0420216738
  0
VERTEX
  8
0
 62
7
  6
CONTINUOUS
 10
34.8119206269
 20
30.0600907632
  0
VERTEX
  8
0
 62
7
  6
CONTINUOUS
 10
34.7796045555
 20
30.0755171232
  0
VERTEX
  8
0
 62
7
  6
CONTINUOUS
 10
34.7510116971
 20
30.0906498847
  0
VERTEX
  8
0
 62
7
  6
CONTINUOUS
 10
34.7248150528
 20
30.106202686
  0
VERTEX
  8
0
 62
7
  6
CONTINUOUS
 10
34.7004949984
 20
30.1224613422
  0
VERTEX
  8
0
 62
7
  6
CONTINUOUS
 10
34.6777860585
 20
30.1395783809
  0
VERTEX
  8
0
 62
7
  6
CONTINUOUS
 10
34.6565298472
 20
30.1576539589
  0
VERTEX
  8
0
 62
7
  6
CONTINUOUS
 10
34.6366227558
 20
30.1767661938
  0
VERTEX
  8
0
 62
7
  6
CONTINUOUS
 10
34.6179939903
 20
30.1969847275
  0
VERTEX
  8
0
 62
7
  6
CONTINUOUS
 10
34.6005953283
 20
30.2183774614
  0
VERTEX
  8
0
 62
7
  6
CONTINUOUS
 10
34.5843959773
 20
30.2410140807
  0
VERTEX
  8
0
 62
7
  6
CONTINUOUS
 10
34.5693798313
 20
30.2649679048
  0
VERTEX
  8
0
 62
7
  6
CONTINUOUS
 10
34.5555439025
 20
30.290316798
  0
VERTEX
  8
0
 62
7
  6
CONTINUOUS
 10
34.5428973349
 20
30.3171435269
  0
VERTEX
  8
0
 62
7
  6
CONTINUOUS
 10
34.5314607007
 20
30.3455357896
  0
VERTEX
  8
0
 62
7
  6
CONTINUOUS
 10
34.521265423
 20
30.3755860522
  0
VERTEX
  8
0
 62
7
  6
CONTINUOUS
 10
34.5123532504
 20
30.4073912808
  0
VERTEX
  8
0
 62
7
  6
CONTINUOUS
 10
34.5047757452
 20
30.4410526262
  0
VERTEX
  8
0
 62
7
  6
CONTINUOUS
 10
34.4985937745
 20
30.4766750977
  0
VERTEX
  8
0
 62
7
  6
CONTINUOUS
 10
34.4938770019
 20
30.5143672489
  0
VERTEX
  8
0
 62
7
  6
CONTINUOUS
 10
34.4936170024
 20
30.5197401709
  0
VERTEX
  8
0
 62
7
  6
CONTINUOUS
 10
34.4935322108
 20
30.5407717038
  0
VERTEX
  8
0
 62
7
  6
CONTINUOUS
 10
34.4948479792
 20
30.5671778954
  0
VERTEX
  8
0
 62
7
  6
CONTINUOUS
 10
34.4977697627
 20
30.5954070615
  0
VERTEX
  8
0
 62
7
  6
CONTINUOUS
 10
34.502294303
 20
30.6240140758
  0
VERTEX
  8
0
 62
7
  6
CONTINUOUS
 10
34.508365648
 20
30.6522738367
  0
VERTEX
  8
0
 62
7
  6
CONTINUOUS
 10
34.5159150164
 20
30.6797872918
  0
VERTEX
  8
0
 62
7
  6
CONTINUOUS
 10
34.524874858
 20
30.7063269007
  0
VERTEX
  8
0
 62
7
  6
CONTINUOUS
 10
34.5351847693
 20
30.7317636737
  0
VERTEX
  8
0
 62
7
  6
CONTINUOUS
 10
34.5467942558
 20
30.7560282015
  0
VERTEX
  8
0
 62
7
  6
CONTINUOUS
 10
34.5596640829
 20
30.7790878848
  0
VERTEX
  8
0
 62
7
  6
CONTINUOUS
 10
34.5737669095
 20
30.8009326671
  0
VERTEX
  8
0
 62
7
  6
CONTINUOUS
 10
34.5890875036
 20
30.8215655816
  0
VERTEX
  8
0
 62
7
  6
CONTINUOUS
 10
34.6056226792
 20
30.8409961989
  0
VERTEX
  8
0
 62
7
  6
CONTINUOUS
 10
34.6233810221
 20
30.8592359231
  0
VERTEX
  8
0
 62
7
  6
CONTINUOUS
 10
34.6423824449
 20
30.8762945369
  0
VERTEX
  8
0
 62
7
  6
CONTINUOUS
 10
34.6626576
 20
30.8921776343
  0
VERTEX
  8
0
 62
7
  6
CONTINUOUS
 10
34.6842471795
 20
30.9068847224
  0
VERTEX
  8
0
 62
7
  6
CONTINUOUS
 10
34.7072011322
 20
30.9204078467
  0
VERTEX
  8
0
 62
7
  6
CONTINUOUS
 10
34.7072068226
 20
30.9204114041
  0
VERTEX
  8
0
 62
7
  6
CONTINUOUS
 10
34.7263136206
 20
30.9317179296
  0
VERTEX
  8
0
 62
7
  6
CONTINUOUS
 10
34.761755856
 20
30.9512345121
  0
VERTEX
  8
0
 62
7
  6
CONTINUOUS
 10
34.8033198164
 20
30.9724297817
  0
VERTEX
  8
0
 62
7
  6
CONTINUOUS
 10
34.8476402935
 20
30.9933017272
  0
VERTEX
  8
0
 62
7
  6
CONTINUOUS
 10
34.8931022648
 20
31.0129753083
  0
VERTEX
  8
0
 62
7
  6
CONTINUOUS
 10
34.9387959587
 20
31.0310168463
  0
VERTEX
  8
0
 62
7
  6
CONTINUOUS
 10
34.9841643421
 20
31.047205811
  0
VERTEX
  8
0
 62
7
  6
CONTINUOUS
 10
35.0288509001
 20
31.06143751
  0
VERTEX
  8
0
 62
7
  6
CONTINUOUS
 10
35.0987582549
 20
31.0816569478
  0
VERTEX
  8
0
 62
7
  6
CONTINUOUS
 10
35.1917250053
 20
31.1066848129
  0
VERTEX
  8
0
 62
7
  6
CONTINUOUS
 10
35.3034621181
 20
31.1349227088
  0
VERTEX
  8
0
 62
7
  6
CONTINUOUS
 10
35.3524351228
 20
31.1467741873
  0
VERTEX
  8
0
 62
7
  6
CONTINUOUS
 10
35.4668206786
 20
31.1732583657
  0
VERTEX
  8
0
 62
7
  6
CONTINUOUS
 10
35.5699202343
 20
31.1955557185
  0
VERTEX
  8
0
 62
7
  6
CONTINUOUS
 10
35.6572825431
 20
31.2129616127
  0
VERTEX
  8
0
 62
7
  6
CONTINUOUS
 10
35.7278120157
 20
31.2255862621
  0
VERTEX
  8
0
 62
7
  6
CONTINUOUS
 10
35.7824362514
 20
31.2339847754
  0
VERTEX
  8
0
 62
7
  6
CONTINUOUS
 10
35.8314831758
 20
31.2411296719
  0
VERTEX
  8
0
 62
7
  6
CONTINUOUS
 10
35.8880212081
 20
31.25106999
  0
VERTEX
  8
0
 62
7
  6
CONTINUOUS
 10
35.9521050054
 20
31.2640157145
  0
VERTEX
  8
0
 62
7
  6
CONTINUOUS
 10
36.0231092132
 20
31.2799965151
  0
VERTEX
  8
0
 62
7
  6
CONTINUOUS
 10
36.0989324511
 20
31.2986240454
  0
VERTEX
  8
0
 62
7
  6
CONTINUOUS
 10
36.1736867358
 20
31.3183925087
  0
VERTEX
  8
0
 62
7
  6
CONTINUOUS
 10
36.2273953389
 20
31.3335152295
  0
VERTEX
  8
0
 62
7
  6
CONTINUOUS
 10
36.2297695506
 20
31.3342117819
  0
VERTEX
  8
0
 62
7
  6
CONTINUOUS
 10
36.2297695506
 20
31.2837085127
  0
VERTEX
  8
0
 62
7
  6
CONTINUOUS
 10
36.2297695506
 20
30.8486034241
  0
VERTEX
  8
0
 62
7
  6
CONTINUOUS
 10
36.2299224683
 20
30.8463490709
  0
VERTEX
  8
0
 62
7
  6
CONTINUOUS
 10
36.2305253531
 20
30.8259427533
  0
VERTEX
  8
0
 62
7
  6
CONTINUOUS
 10
36.2299771399
 20
30.7967849445
  0
VERTEX
  8
0
 62
7
  6
CONTINUOUS
 10
36.2278259823
 20
30.7639004752
  0
VERTEX
  8
0
 62
7
  6
CONTINUOUS
 10
36.2239761839
 20
30.7292496571
  0
VERTEX
  8
0
 62
7
  6
CONTINUOUS
 10
36.2184248438
 20
30.6938399542
  0
VERTEX
  8
0
 62
7
  6
CONTINUOUS
 10
36.2112007084
 20
30.6582615159
  0
VERTEX
  8
0
 62
7
  6
CONTINUOUS
 10
36.2023432344
 20
30.6228861818
  0
VERTEX
  8
0
 62
7
  6
CONTINUOUS
 10
36.1918938077
 20
30.5879585212
  0
VERTEX
  8
0
 62
7
  6
CONTINUOUS
 10
36.1798915811
 20
30.5536434296
  0
VERTEX
  8
0
 62
7
  6
CONTINUOUS
 10
36.1663713469
 20
30.5200534629
  0
VERTEX
  8
0
 62
7
  6
CONTINUOUS
 10
36.1513624071
 20
30.4872656781
  0
VERTEX
  8
0
 62
7
  6
CONTINUOUS
 10
36.1348879749
 20
30.4553325936
  0
VERTEX
  8
0
 62
7
  6
CONTINUOUS
 10
36.1169648814
 20
30.4242896433
  0
VERTEX
  8
0
 62
7
  6
CONTINUOUS
 10
36.0976034698
 20
30.3941604342
  0
VERTEX
  8
0
 62
7
  6
CONTINUOUS
 10
36.0768076114
 20
30.3649605663
  0
VERTEX
  8
0
 62
7
  6
CONTINUOUS
 10
36.0545748089
 20
30.3367004775
  0
VERTEX
  8
0
 62
7
  6
CONTINUOUS
 10
36.0308963604
 20
30.3093876031
  0
VERTEX
  8
0
 62
7
  6
CONTINUOUS
 10
36.0057575727
 20
30.2830280392
  0
VERTEX
  8
0
 62
7
  6
CONTINUOUS
 10
35.9791380103
 20
30.257627837
  0
VERTEX
  8
0
 62
7
  6
CONTINUOUS
 10
35.9510117715
 20
30.2331940132
  0
VERTEX
  8
0
 62
7
  6
CONTINUOUS
 10
35.921347786
 20
30.2097353394
  0
VERTEX
  8
0
 62
7
  6
CONTINUOUS
 10
35.8901101248
 20
30.1872629526
  0
VERTEX
  8
0
 62
7
  6
CONTINUOUS
 10
35.8572583168
 20
30.1657908226
  0
SEQEND
  0
POLYLINE
  8
0
 62
7
  6
CONTINUOUS
 66
1
 70
0
 40
0.1
 41
0.1
  0
VERTEX
  8
0
 62
7
  6
CONTINUOUS
 10
40.323214848
 20
33.0396570889
  0
VERTEX
  8
0
 62
7
  6
CONTINUOUS
 10
40.2684086776
 20
33.0912353075
  0
VERTEX
  8
0
 62
7
  6
CONTINUOUS
 10
40.2063848111
 20
33.1422704876
  0
VERTEX
  8
0
 62
7
  6
CONTINUOUS
 10
40.1373869111
 20
33.1921238561
  0
VERTEX
  8
0
 62
7
  6
CONTINUOUS
 10
40.0618966176
 20
33.2400726321
  0
VERTEX
  8
0
 62
7
  6
CONTINUOUS
 10
39.9806461018
 20
33.2853432714
  0
VERTEX
  8
0
 62
7
  6
CONTINUOUS
 10
39.8946046294
 20
33.3271559809
  0
VERTEX
  8
0
 62
7
  6
CONTINUOUS
 10
39.8600414516
 20
33.3423450128
  0
VERTEX
  8
0
 62
7
  6
CONTINUOUS
 10
39.7696523427
 20
33.3780256906
  0
VERTEX
  8
0
 62
7
  6
CONTINUOUS
 10
39.6780375738
 20
33.4085227695
  0
VERTEX
  8
0
 62
7
  6
CONTINUOUS
 10
39.5864470718
 20
33.4335163748
  0
VERTEX
  8
0
 62
7
  6
CONTINUOUS
 10
39.4960032056
 20
33.4528438875
  0
VERTEX
  8
0
 62
7
  6
CONTINUOUS
 10
39.4076602528
 20
33.4664836486
  0
VERTEX
  8
0
 62
7
  6
CONTINUOUS
 10
39.3221864697
 20
33.4745294727
  0
VERTEX
  8
0
 62
7
  6
CONTINUOUS
 10
39.2401648078
 20
33.477161126
  0
VERTEX
  8
0
 62
7
  6
CONTINUOUS
 10
39.2027433535
 20
33.4769098725
  0
VERTEX
  8
0
 62
7
  6
CONTINUOUS
 10
39.0861750658
 20
33.4728084718
  0
VERTEX
  8
0
 62
7
  6
CONTINUOUS
 10
38.9739301073
 20
33.4638257346
  0
VERTEX
  8
0
 62
7
  6
CONTINUOUS
 10
38.8662710904
 20
33.4501599217
  0
VERTEX
  8
0
 62
7
  6
CONTINUOUS
 10
38.7633369703
 20
33.4320124123
  0
VERTEX
  8
0
 62
7
  6
CONTINUOUS
 10
38.6651752766
 20
33.4095775166
  0
VERTEX
  8
0
 62
7
  6
CONTINUOUS
 10
38.57176682
 20
33.3830351378
  0
VERTEX
  8
0
 62
7
  6
CONTINUOUS
 10
38.4830448458
 20
33.35254541
  0
VERTEX
  8
0
 62
7
  6
CONTINUOUS
 10
38.3989101002
 20
33.3182447429
  0
VERTEX
  8
0
 62
7
  6
CONTINUOUS
 10
38.3192428847
 20
33.2802429082
  0
VERTEX
  8
0
 62
7
  6
CONTINUOUS
 10
38.2439128718
 20
33.2386209401
  0
VERTEX
  8
0
 62
7
  6
CONTINUOUS
 10
38.1727872338
 20
33.1934297124
  0
VERTEX
  8
0
 62
7
  6
CONTINUOUS
 10
38.1057374653
 20
33.1446891111
  0
VERTEX
  8
0
 62
7
  6
CONTINUOUS
 10
38.0498630794
 20
33.0999514903
  0
VERTEX
  8
0
 62
7
  6
CONTINUOUS
 10
37.9661601322
 20
33.0282758499
  0
VERTEX
  8
0
 62
7
  6
CONTINUOUS
 10
37.8911234366
 20
32.9578199778
  0
VERTEX
  8
0
 62
7
  6
CONTINUOUS
 10
37.8230537963
 20
32.8872391185
  0
VERTEX
  8
0
 62
7
  6
CONTINUOUS
 10
37.7609154859
 20
32.815653686
  0
VERTEX
  8
0
 62
7
  6
CONTINUOUS
 10
37.7040286104
 20
32.742415267
  0
VERTEX
  8
0
 62
7
  6
CONTINUOUS
 10
37.6519295259
 20
32.6669987434
  0
VERTEX
  8
0
 62
7
  6
CONTINUOUS
 10
37.6042998231
 20
32.5889464314
  0
VERTEX
  8
0
 62
7
  6
CONTINUOUS
 10
37.5609270464
 20
32.507836755
  0
VERTEX
  8
0
 62
7
  6
CONTINUOUS
 10
37.5216814735
 20
32.4232656834
  0
VERTEX
  8
0
 62
7
  6
CONTINUOUS
 10
37.4865015607
 20
32.3348353137
  0
VERTEX
  8
0
 62
7
  6
CONTINUOUS
 10
37.4553842951
 20
32.242146671
  0
VERTEX
  8
0
 62
7
  6
CONTINUOUS
 10
37.4283784314
 20
32.1447950894
  0
VERTEX
  8
0
 62
7
  6
CONTINUOUS
 10
37.4055794829
 20
32.0423672073
  0
VERTEX
  8
0
 62
7
  6
CONTINUOUS
 10
37.3871258197
 20
31.9344389807
  0
VERTEX
  8
0
 62
7
  6
CONTINUOUS
 10
37.376844737
 20
31.8590915561
  0
VERTEX
  8
0
 62
7
  6
CONTINUOUS
 10
37.3620492196
 20
31.7220428026
  0
VERTEX
  8
0
 62
7
  6
CONTINUOUS
 10
37.3530168556
 20
31.5912950289
  0
VERTEX
  8
0
 62
7
  6
CONTINUOUS
 10
37.3494687507
 20
31.4663380691
  0
VERTEX
  8
0
 62
7
  6
CONTINUOUS
 10
37.3511649137
 20
31.346714862
  0
VERTEX
  8
0
 62
7
  6
CONTINUOUS
 10
37.3579015539
 20
31.2320121717
  0
VERTEX
  8
0
 62
7
  6
CONTINUOUS
 10
37.3695093703
 20
31.121853696
  0
VERTEX
  8
0
 62
7
  6
CONTINUOUS
 10
37.3858525324
 20
31.0158949609
  0
VERTEX
  8
0
 62
7
  6
CONTINUOUS
 10
37.4068281304
 20
30.9138195737
  0
VERTEX
  8
0
 62
7
  6
CONTINUOUS
 10
37.432365926
 20
30.8153365254
  0
VERTEX
  8
0
 62
7
  6
CONTINUOUS
 10
37.4624282692
 20
30.7201783065
  0
VERTEX
  8
0
 62
7
  6
CONTINUOUS
 10
37.4970100767
 20
30.6280996516
  0
VERTEX
  8
0
 62
7
  6
CONTINUOUS
 10
37.5361387904
 20
30.5388767607
  0
VERTEX
  8
0
 62
7
  6
CONTINUOUS
 10
37.5798742546
 20
30.452306868
  0
VERTEX
  8
0
 62
7
  6
CONTINUOUS
 10
37.6283084721
 20
30.368208047
  0
VERTEX
  8
0
 62
7
  6
CONTINUOUS
 10
37.6815652191
 20
30.2864191575
  0
VERTEX
  8
0
 62
7
  6
CONTINUOUS
 10
37.7055274519
 20
30.252311877
  0
VERTEX
  8
0
 62
7
  6
CONTINUOUS
 10
37.7695850939
 20
30.1672477428
  0
VERTEX
  8
0
 62
7
  6
CONTINUOUS
 10
37.8351737156
 20
30.0886238147
  0
VERTEX
  8
0
 62
7
  6
CONTINUOUS
 10
37.9024565125
 20
30.0159735271
  0
VERTEX
  8
0
 62
7
  6
CONTINUOUS
 10
37.9716028633
 20
29.9489019662
  0
VERTEX
  8
0
 62
7
  6
CONTINUOUS
 10
38.0427922016
 20
29.887077066
  0
VERTEX
  8
0
 62
7
  6
CONTINUOUS
 10
38.1162169113
 20
29.8302234423
  0
VERTEX
  8
0
 62
7
  6
CONTINUOUS
 10
38.1920844414
 20
29.778118043
  0
VERTEX
  8
0
 62
7
  6
CONTINUOUS
 10
38.2706187862
 20
29.7305870308
  0
VERTEX
  8
0
 62
7
  6
CONTINUOUS
 10
38.3520614529
 20
29.6875034849
  0
VERTEX
  8
0
 62
7
  6
CONTINUOUS
 10
38.4366720273
 20
29.6487856215
  0
VERTEX
  8
0
 62
7
  6
CONTINUOUS
 10
38.5247284401
 20
29.6143953205
  0
VERTEX
  8
0
 62
7
  6
CONTINUOUS
 10
38.616527034
 20
29.5843368186
  0
VERTEX
  8
0
 62
7
  6
CONTINUOUS
 10
38.7122446361
 20
29.5586885034
  0
VERTEX
  8
0
 62
7
  6
CONTINUOUS
 10
38.8121453411
 20
29.5375258077
  0
VERTEX
  8
0
 62
7
  6
CONTINUOUS
 10
38.916568556
 20
29.5209434624
  0
VERTEX
  8
0
 62
7
  6
CONTINUOUS
 10
39.02587121
 20
29.5090747202
  0
VERTEX
  8
0
 62
7
  6
CONTINUOUS
 10
39.1404278459
 20
29.5020899585
  0
VERTEX
  8
0
 62
7
  6
CONTINUOUS
 10
39.2305607812
 20
29.5014686655
  0
VERTEX
  8
0
 62
7
  6
CONTINUOUS
 10
39.320974679
 20
29.50602829
  0
VERTEX
  8
0
 62
7
  6
CONTINUOUS
 10
39.4116574323
 20
29.515779259
  0
VERTEX
  8
0
 62
7
  6
CONTINUOUS
 10
39.5025618564
 20
29.5307402611
  0
VERTEX
  8
0
 62
7
  6
CONTINUOUS
 10
39.593593311
 20
29.5509288387
  0
VERTEX
  8
0
 62
7
  6
CONTINUOUS
 10
39.6845926221
 20
29.5763476344
  0
VERTEX
  8
0
 62
7
  6
CONTINUOUS
 10
39.7753114817
 20
29.6069637493
  0
VERTEX
  8
0
 62
7
  6
CONTINUOUS
 10
39.8653752101
 20
29.6426765338
  0
VERTEX
  8
0
 62
7
  6
CONTINUOUS
 10
39.9542229917
 20
29.6832646413
  0
VERTEX
  8
0
 62
7
  6
CONTINUOUS
 10
40.0410047701
 20
29.7282927836
  0
VERTEX
  8
0
 62
7
  6
CONTINUOUS
 10
40.1243857778
 20
29.7769315422
  0
VERTEX
  8
0
 62
7
  6
CONTINUOUS
 10
40.2021235544
 20
29.8275601061
  0
VERTEX
  8
0
 62
7
  6
CONTINUOUS
 10
40.2699453934
 20
29.8766915978
  0
VERTEX
  8
0
 62
7
  6
CONTINUOUS
 10
40.317230608
 20
29.9147477293
  0
VERTEX
  8
0
 62
7
  6
CONTINUOUS
 10
40.323214848
 20
29.919969001
  0
VERTEX
  8
0
 62
7
  6
CONTINUOUS
 10
40.323214848
 20
29.3769222636
  0
VERTEX
  8
0
 62
7
  6
CONTINUOUS
 10
40.3238964003
 20
29.3690469239
  0
VERTEX
  8
0
 62
7
  6
CONTINUOUS
 10
40.3243196643
 20
29.3336490338
  0
VERTEX
  8
0
 62
7
  6
CONTINUOUS
 10
40.320640336
 20
29.289561857
  0
VERTEX
  8
0
 62
7
  6
CONTINUOUS
 10
40.3122330596
 20
29.2433416219
  0
VERTEX
  8
0
 62
7
  6
CONTINUOUS
 10
40.2990958997
 20
29.1974004013
  0
VERTEX
  8
0
 62
7
  6
CONTINUOUS
 10
40.2813269437
 20
29.1528187985
  0
VERTEX
  8
0
 62
7
  6
CONTINUOUS
 10
40.2589990978
 20
29.1101187355
  0
VERTEX
  8
0
 62
7
  6
CONTINUOUS
 10
40.2321203736
 20
29.0695621734
  0
VERTEX
  8
0
 62
7
  6
CONTINUOUS
 10
40.200621495
 20
29.0312915537
  0
VERTEX
  8
0
 62
7
  6
CONTINUOUS
 10
40.1643548228
 20
28.9954045095
  0
VERTEX
  8
0
 62
7
  6
CONTINUOUS
 10
40.1230988227
 20
28.9619965386
  0
VERTEX
  8
0
 62
7
  6
CONTINUOUS
 10
40.0765653604
 20
28.9311859203
  0
VERTEX
  8
0
 62
7
  6
CONTINUOUS
 10
40.0244081992
 20
28.9031277924
  0
VERTEX
  8
0
 62
7
  6
CONTINUOUS
 10
39.9662316188
 20
28.8780212355
  0
VERTEX
  8
0
 62
7
  6
CONTINUOUS
 10
39.9015984467
 20
28.8561117843
  0
VERTEX
  8
0
 62
7
  6
CONTINUOUS
 10
39.8300371105
 20
28.8376910279
  0
VERTEX
  8
0
 62
7
  6
CONTINUOUS
 10
39.7510475608
 20
28.8230944725
  0
VERTEX
  8
0
 62
7
  6
CONTINUOUS
 10
39.708598472
 20
28.8173456758
  0
VERTEX
  8
0
 62
7
  6
CONTINUOUS
 10
39.6641168877
 20
28.8126994505
  0
VERTEX
  8
0
 62
7
  6
CONTINUOUS
 10
39.5688557421
 20
28.8069230759
  0
VERTEX
  8
0
 62
7
  6
CONTINUOUS
 10
39.4351652266
 20
28.8045559831
  0
VERTEX
  8
0
 62
7
  6
CONTINUOUS
 10
39.3153128745
 20
28.807417142
  0
VERTEX
  8
0
 62
7
  6
CONTINUOUS
 10
39.2081694799
 20
28.8149585157
  0
VERTEX
  8
0
 62
7
  6
CONTINUOUS
 10
39.1126568614
 20
28.8266791177
  0
VERTEX
  8
0
 62
7
  6
CONTINUOUS
 10
39.0277496223
 20
28.8421294565
  0
VERTEX
  8
0
 62
7
  6
CONTINUOUS
 10
38.9524774588
 20
28.8609169032
  0
VERTEX
  8
0
 62
7
  6
CONTINUOUS
 10
38.8859282702
 20
28.8827121164
  0
VERTEX
  8
0
 62
7
  6
CONTINUOUS
 10
38.8272523805
 20
28.9072566213
  0
VERTEX
  8
0
 62
7
  6
CONTINUOUS
 10
38.800603858
 20
28.9205089942
  0
VERTEX
  8
0
 62
7
  6
CONTINUOUS
 10
38.7756681866
 20
28.9343715744
  0
VERTEX
  8
0
 62
7
  6
CONTINUOUS
 10
38.730709913
 20
28.9637922281
  0
VERTEX
  8
0
 62
7
  6
CONTINUOUS
 10
38.6917202864
 20
28.9954347941
  0
VERTEX
  8
0
 62
7
  6
CONTINUOUS
 10
38.6581147995
 20
29.0293150946
  0
VERTEX
  8
0
 62
7
  6
CONTINUOUS
 10
38.6294033891
 20
29.0655484083
  0
VERTEX
  8
0
 62
7
  6
CONTINUOUS
 10
38.6051964097
 20
29.1043563278
  0
VERTEX
  8
0
 62
7
  6
CONTINUOUS
 10
38.5852066
 20
29.1460778399
  0
VERTEX
  8
0
 62
7
  6
CONTINUOUS
 10
38.5692446392
 20
29.1911940166
  0
VERTEX
  8
0
 62
7
  6
CONTINUOUS
 10
38.5572054897
 20
29.2403895614
  0
VERTEX
  8
0
 62
7
  6
CONTINUOUS
 10
38.5505431662
 20
29.2819567881
  0
VERTEX
  8
0
 62
7
  6
CONTINUOUS
 10
37.4901383426
 20
29.2819567881
  0
VERTEX
  8
0
 62
7
  6
CONTINUOUS
 10
37.4901383426
 20
29.235376764
  0
VERTEX
  8
0
 62
7
  6
CONTINUOUS
 10
37.5022046526
 20
29.1533733811
  0
VERTEX
  8
0
 62
7
  6
CONTINUOUS
 10
37.5190219072
 20
29.074440305
  0
VERTEX
  8
0
 62
7
  6
CONTINUOUS
 10
37.5404537276
 20
28.998501395
  0
VERTEX
  8
0
 62
7
  6
CONTINUOUS
 10
37.5663785634
 20
28.9255083358
  0
VERTEX
  8
0
 62
7
  6
CONTINUOUS
 10
37.5966816814
 20
28.8554483395
  0
VERTEX
  8
0
 62
7
  6
CONTINUOUS
 10
37.63124267
 20
28.7883541366
  0
VERTEX
  8
0
 62
7
  6
CONTINUOUS
 10
37.6699159204
 20
28.7243174876
  0
VERTEX
  8
0
 62
7
  6
CONTINUOUS
 10
37.7124994574
 20
28.6635084865
  0
VERTEX
  8
0
 62
7
  6
CONTINUOUS
 10
37.7586830652
 20
28.6062050879
  0
VERTEX
  8
0
 62
7
  6
CONTINUOUS
 10
37.8079563189
 20
28.5528422189
  0
VERTEX
  8
0
 62
7
  6
CONTINUOUS
 10
37.8594299892
 20
28.5041025269
  0
VERTEX
  8
0
 62
7
  6
CONTINUOUS
 10
37.9114398023
 20
28.4611095337
  0
VERTEX
  8
0
 62
7
  6
CONTINUOUS
 10
37.9604624399
 20
28.4259361222
  0
VERTEX
  8
0
 62
7
  6
CONTINUOUS
 10
37.9967466098
 20
28.4035686506
  0
VERTEX
  8
0
 62
7
  6
CONTINUOUS
 10
38.0006873887
 20
28.4014241063
  0
VERTEX
  8
0
 62
7
  6
CONTINUOUS
 10
38.0682278322
 20
28.3613821328
  0
VERTEX
  8
0
 62
7
  6
CONTINUOUS
 10
38.1420791132
 20
28.3237333276
  0
VERTEX
  8
0
 62
7
  6
CONTINUOUS
 10
38.2225988874
 20
28.288601638
  0
VERTEX
  8
0
 62
7
  6
CONTINUOUS
 10
38.3101478617
 20
28.2561454303
  0
VERTEX
  8
0
 62
7
  6
CONTINUOUS
 10
38.4050784643
 20
28.2265547819
  0
VERTEX
  8
0
 62
7
  6
CONTINUOUS
 10
38.5077207697
 20
28.2000483434
  0
VERTEX
  8
0
 62
7
  6
CONTINUOUS
 10
38.6183642208
 20
28.1768696312
  0
VERTEX
  8
0
 62
7
  6
CONTINUOUS
 10
38.737232873
 20
28.1572824463
  0
VERTEX
  8
0
 62
7
  6
CONTINUOUS
 10
38.8644504842
 20
28.1415648543
  0
VERTEX
  8
0
 62
7
  6
CONTINUOUS
 10
38.9999892447
 20
28.1300007049
  0
VERTEX
  8
0
 62
7
  6
CONTINUOUS
 10
39.1435910877
 20
28.1228667975
  0
VERTEX
  8
0
 62
7
  6
CONTINUOUS
 10
39.2946405558
 20
28.1204120073
  0
VERTEX
  8
0
 62
7
  6
CONTINUOUS
 10
39.4519458677
 20
28.1228206175
  0
VERTEX
  8
0
 62
7
  6
CONTINUOUS
 10
39.6133288993
 20
28.1301417832
  0
VERTEX
  8
0
 62
7
  6
CONTINUOUS
 10
39.7747617669
 20
28.1421365274
  0
VERTEX
  8
0
 62
7
  6
CONTINUOUS
 10
39.9281953499
 20
28.1578810118
  0
VERTEX
  8
0
 62
7
  6
CONTINUOUS
 10
40.0541346167
 20
28.1743656283
  0
VERTEX
  8
0
 62
7
  6
CONTINUOUS
 10
40.0922491138
 20
28.1802592631
  0
VERTEX
  8
0
 62
7
  6
CONTINUOUS
 10
40.1960936158
 20
28.2031093032
  0
VERTEX
  8
0
 62
7
  6
CONTINUOUS
 10
40.2955309445
 20
28.2302403557
  0
VERTEX
  8
0
 62
7
  6
CONTINUOUS
 10
40.3905721641
 20
28.2614720095
  0
VERTEX
  8
0
 62
7
  6
CONTINUOUS
 10
40.4811970692
 20
28.2966151921
  0
VERTEX
  8
0
 62
7
  6
CONTINUOUS
 10
40.567345522
 20
28.3354621397
  0
VERTEX
  8
0
 62
7
  6
CONTINUOUS
 10
40.6489054269
 20
28.3777710977
  0
VERTEX
  8
0
 62
7
  6
CONTINUOUS
 10
40.7256952961
 20
28.4232423324
  0
VERTEX
  8
0
 62
7
  6
CONTINUOUS
 10
40.7974375617
 20
28.4714789557
  0
VERTEX
  8
0
 62
7
  6
CONTINUOUS
 10
40.863714819
 20
28.5219191851
  0
VERTEX
  8
0
 62
7
  6
CONTINUOUS
 10
40.9238913908
 20
28.5737094403
  0
VERTEX
  8
0
 62
7
  6
CONTINUOUS
 10
40.9769545223
 20
28.6254375667
  0
VERTEX
  8
0
 62
7
  6
CONTINUOUS
 10
41.0211294809
 20
28.6744638774
  0
VERTEX
  8
0
 62
7
  6
CONTINUOUS
 10
41.0526148306
 20
28.714644738
  0
VERTEX
  8
0
 62
7
  6
CONTINUOUS
 10
41.0611961492
 20
28.7270973978
  0
VERTEX
  8
0
 62
7
  6
CONTINUOUS
 10
41.1124680845
 20
28.8044540015
  0
VERTEX
  8
0
 62
7
  6
CONTINUOUS
 10
41.152449554
 20
28.8733522815
  0
VERTEX
  8
0
 62
7
  6
CONTINUOUS
 10
41.1838108155
 20
28.9372656982
  0
VERTEX
  8
0
 62
7
  6
CONTINUOUS
 10
41.2083049343
 20
28.9988810902
  0
VERTEX
  8
0
 62
7
  6
CONTINUOUS
 10
41.2270560086
 20
29.0601415515
  0
VERTEX
  8
0
 62
7
  6
CONTINUOUS
 10
41.2413414077
 20
29.1245919763
  0
VERTEX
  8
0
 62
7
  6
CONTINUOUS
 10
41.252143179
 20
29.1972507657
  0
VERTEX
  8
0
 62
7
  6
CONTINUOUS
 10
41.2604387128
 20
29.2875996732
  0
VERTEX
  8
0
 62
7
  6
CONTINUOUS
 10
41.2667311504
 20
29.394048031
  0
VERTEX
  8
0
 62
7
  6
CONTINUOUS
 10
41.2667311504
 20
33.4262841849
  0
VERTEX
  8
0
 62
7
  6
CONTINUOUS
 10
40.323214848
 20
33.4262841849
  0
VERTEX
  8
0
 62
7
  6
CONTINUOUS
 10
40.323214848
 20
33.0396570889
  0
SEQEND
  0
POLYLINE
  8
0
 62
7
  6
CONTINUOUS
 66
1
 70
0
 40
0.1
 41
0.1
  0
VERTEX
  8
0
 62
7
  6
CONTINUOUS
 10
40.3300238881
 20
31.5082807645
  0
VERTEX
  8
0
 62
7
  6
CONTINUOUS
 10
40.3300231679
 20
31.5048624021
  0
VERTEX
  8
0
 62
7
  6
CONTINUOUS
 10
40.3291903451
 20
31.407427283
  0
VERTEX
  8
0
 62
7
  6
CONTINUOUS
 10
40.3267528051
 20
31.327293044
  0
VERTEX
  8
0
 62
7
  6
CONTINUOUS
 10
40.3226993178
 20
31.2574850318
  0
VERTEX
  8
0
 62
7
  6
CONTINUOUS
 10
40.3170321866
 20
31.1948081673
  0
VERTEX
  8
0
 62
7
  6
CONTINUOUS
 10
40.309753394
 20
31.1374633643
  0
VERTEX
  8
0
 62
7
  6
CONTINUOUS
 10
40.300860098
 20
31.0843058218
  0
VERTEX
  8
0
 62
7
  6
CONTINUOUS
 10
40.2903422221
 20
31.0345448896
  0
VERTEX
  8
0
 62
7
  6
CONTINUOUS
 10
40.2781807391
 20
30.9876013729
  0
VERTEX
  8
0
 62
7
  6
CONTINUOUS
 10
40.2643462691
 20
30.9430318155
  0
VERTEX
  8
0
 62
7
  6
CONTINUOUS
 10
40.2487978701
 20
30.9004850101
  0
VERTEX
  8
0
 62
7
  6
CONTINUOUS
 10
40.2314819798
 20
30.859675487
  0
VERTEX
  8
0
 62
7
  6
CONTINUOUS
 10
40.2123314977
 20
30.820366593
  0
VERTEX
  8
0
 62
7
  6
CONTINUOUS
 10
40.1912650025
 20
30.7823592879
  0
VERTEX
  8
0
 62
7
  6
CONTINUOUS
 10
40.168186097
 20
30.7454844929
  0
VERTEX
  8
0
 62
7
  6
CONTINUOUS
 10
40.1429828728
 20
30.7095977172
  0
VERTEX
  8
0
 62
7
  6
CONTINUOUS
 10
40.1155274757
 20
30.6745751773
  0
VERTEX
  8
0
 62
7
  6
CONTINUOUS
 10
40.0856757488
 20
30.6403109124
  0
VERTEX
  8
0
 62
7
  6
CONTINUOUS
 10
40.0532669282
 20
30.606714571
  0
VERTEX
  8
0
 62
7
  6
CONTINUOUS
 10
40.036048
 20
30.590141753
  0
VERTEX
  8
0
 62
7
  6
CONTINUOUS
 10
40.0181345811
 20
30.5737196959
  0
VERTEX
  8
0
 62
7
  6
CONTINUOUS
 10
39.9801578709
 20
30.5413196992
  0
VERTEX
  8
0
 62
7
  6
CONTINUOUS
 10
39.9418632225
 20
30.5118858294
  0
VERTEX
  8
0
 62
7
  6
CONTINUOUS
 10
39.9018656257
 20
30.4840981223
  0
VERTEX
  8
0
 62
7
  6
CONTINUOUS
 10
39.8645767833
 20
30.4606275872
  0
VERTEX
  8
0
 62
7
  6
CONTINUOUS
 10
39.8217690153
 20
30.4363110149
  0
VERTEX
  8
0
 62
7
  6
CONTINUOUS
 10
39.7777405513
 20
30.4139902611
  0
VERTEX
  8
0
 62
7
  6
CONTINUOUS
 10
39.7326507063
 20
30.3937480077
  0
VERTEX
  8
0
 62
7
  6
CONTINUOUS
 10
39.6866584419
 20
30.3756542471
  0
VERTEX
  8
0
 62
7
  6
CONTINUOUS
 10
39.6399198454
 20
30.3597662381
  0
VERTEX
  8
0
 62
7
  6
CONTINUOUS
 10
39.5925858938
 20
30.3461289006
  0
VERTEX
  8
0
 62
7
  6
CONTINUOUS
 10
39.5448005751
 20
30.3347755916
  0
VERTEX
  8
0
 62
7
  6
CONTINUOUS
 10
39.4966994094
 20
30.3257291846
  0
VERTEX
  8
0
 62
7
  6
CONTINUOUS
 10
39.4484083803
 20
30.3190033752
  0
VERTEX
  8
0
 62
7
  6
CONTINUOUS
 10
39.4000432652
 20
30.3146041295
  0
VERTEX
  8
0
 62
7
  6
CONTINUOUS
 10
39.3517093345
 20
30.3125312042
  0
VERTEX
  8
0
 62
7
  6
CONTINUOUS
 10
39.3035013754
 20
30.3127796717
  0
VERTEX
  8
0
 62
7
  6
CONTINUOUS
 10
39.2555039901
 20
30.3153413994
  0
VERTEX
  8
0
 62
7
  6
CONTINUOUS
 10
39.2077921173
 20
30.3202064407
  0
VERTEX
  8
0
 62
7
  6
CONTINUOUS
 10
39.1604317237
 20
30.3273643093
  0
VERTEX
  8
0
 62
7
  6
CONTINUOUS
 10
39.1134806197
 20
30.3368051172
  0
VERTEX
  8
0
 62
7
  6
CONTINUOUS
 10
39.0669893559
 20
30.3485205655
  0
VERTEX
  8
0
 62
7
  6
CONTINUOUS
 10
39.0210021636
 20
30.3625047849
  0
VERTEX
  8
0
 62
7
  6
CONTINUOUS
 10
38.9755579089
 20
30.3787550272
  0
VERTEX
  8
0
 62
7
  6
CONTINUOUS
 10
38.9306910345
 20
30.3972722142
  0
VERTEX
  8
0
 62
7
  6
CONTINUOUS
 10
38.8864324694
 20
30.4180613529
  0
VERTEX
  8
0
 62
7
  6
CONTINUOUS
 10
38.8428104911
 20
30.4411318276
  0
VERTEX
  8
0
 62
7
  6
CONTINUOUS
 10
38.7998515291
 20
30.4664975823
  0
VERTEX
  8
0
 62
7
  6
CONTINUOUS
 10
38.7575809001
 20
30.4941772058
  0
VERTEX
  8
0
 62
7
  6
CONTINUOUS
 10
38.7160234733
 20
30.5241939317
  0
VERTEX
  8
0
 62
7
  6
CONTINUOUS
 10
38.711098355
 20
30.5281701058
  0
VERTEX
  8
0
 62
7
  6
CONTINUOUS
 10
38.6896139625
 20
30.5471256219
  0
VERTEX
  8
0
 62
7
  6
CONTINUOUS
 10
38.6621117156
 20
30.5740071185
  0
VERTEX
  8
0
 62
7
  6
CONTINUOUS
 10
38.6324842416
 20
30.6058854915
  0
VERTEX
  8
0
 62
7
  6
CONTINUOUS
 10
38.6023602887
 20
30.6414453944
  0
VERTEX
  8
0
 62
7
  6
CONTINUOUS
 10
38.5726026709
 20
30.6799391907
  0
VERTEX
  8
0
 62
7
  6
CONTINUOUS
 10
38.5437271274
 20
30.7208879963
  0
VERTEX
  8
0
 62
7
  6
CONTINUOUS
 10
38.5160654852
 20
30.7639629683
  0
VERTEX
  8
0
 62
7
  6
CONTINUOUS
 10
38.4898423667
 20
30.8089284139
  0
VERTEX
  8
0
 62
7
  6
CONTINUOUS
 10
38.4652159645
 20
30.855610928
  0
VERTEX
  8
0
 62
7
  6
CONTINUOUS
 10
38.4423016811
 20
30.9038810935
  0
VERTEX
  8
0
 62
7
  6
CONTINUOUS
 10
38.421186746
 20
30.9536418745
  0
VERTEX
  8
0
 62
7
  6
CONTINUOUS
 10
38.4019397115
 20
31.0048208508
  0
VERTEX
  8
0
 62
7
  6
CONTINUOUS
 10
38.384616862
 20
31.0573647901
  0
VERTEX
  8
0
 62
7
  6
CONTINUOUS
 10
38.3692666728
 20
31.1112357137
  0
VERTEX
  8
0
 62
7
  6
CONTINUOUS
 10
38.3559329836
 20
31.166407954
  0
VERTEX
  8
0
 62
7
  6
CONTINUOUS
 10
38.3446572972
 20
31.2228658944
  0
VERTEX
  8
0
 62
7
  6
CONTINUOUS
 10
38.3354804636
 20
31.2806021945
  0
VERTEX
  8
0
 62
7
  6
CONTINUOUS
 10
38.3284439219
 20
31.3396163664
  0
VERTEX
  8
0
 62
7
  6
CONTINUOUS
 10
38.3235906178
 20
31.3999136163
  0
VERTEX
  8
0
 62
7
  6
CONTINUOUS
 10
38.3209656769
 20
31.4615038871
  0
VERTEX
  8
0
 62
7
  6
CONTINUOUS
 10
38.320616893
 20
31.5244010596
  0
VERTEX
  8
0
 62
7
  6
CONTINUOUS
 10
38.3225950748
 20
31.588622279
  0
VERTEX
  8
0
 62
7
  6
CONTINUOUS
 10
38.3267865562
 20
31.6524097717
  0
VERTEX
  8
0
 62
7
  6
CONTINUOUS
 10
38.3331099533
 20
31.7138161166
  0
VERTEX
  8
0
 62
7
  6
CONTINUOUS
 10
38.341489372
 20
31.7729080714
  0
VERTEX
  8
0
 62
7
  6
CONTINUOUS
 10
38.3518535269
 20
31.8297499596
  0
VERTEX
  8
0
 62
7
  6
CONTINUOUS
 10
38.3641357572
 20
31.884403289
  0
VERTEX
  8
0
 62
7
  6
CONTINUOUS
 10
38.378273971
 20
31.9369263154
  0
VERTEX
  8
0
 62
7
  6
CONTINUOUS
 10
38.3942104992
 20
31.9873735476
  0
VERTEX
  8
0
 62
7
  6
CONTINUOUS
 10
38.411891827
 20
32.0357951848
  0
VERTEX
  8
0
 62
7
  6
CONTINUOUS
 10
38.4312681695
 20
32.0822364795
  0
VERTEX
  8
0
 62
7
  6
CONTINUOUS
 10
38.4522928418
 20
32.1267370142
  0
VERTEX
  8
0
 62
7
  6
CONTINUOUS
 10
38.4749213586
 20
32.1693298779
  0
VERTEX
  8
0
 62
7
  6
CONTINUOUS
 10
38.4991101773
 20
32.2100407212
  0
VERTEX
  8
0
 62
7
  6
CONTINUOUS
 10
38.5248149558
 20
32.2488866621
  0
VERTEX
  8
0
 62
7
  6
CONTINUOUS
 10
38.5519881442
 20
32.2858749946
  0
VERTEX
  8
0
 62
7
  6
CONTINUOUS
 10
38.5805756303
 20
32.321001634
  0
VERTEX
  8
0
 62
7
  6
CONTINUOUS
 10
38.6105120022
 20
32.3542491887
  0
VERTEX
  8
0
 62
7
  6
CONTINUOUS
 10
38.6417137068
 20
32.3855844803
  0
VERTEX
  8
0
 62
7
  6
CONTINUOUS
 10
38.6740688573
 20
32.4149552124
  0
VERTEX
  8
0
 62
7
  6
CONTINUOUS
 10
38.7074213931
 20
32.4422852544
  0
VERTEX
  8
0
 62
7
  6
CONTINUOUS
 10
38.7415450114
 20
32.4674675245
  0
VERTEX
  8
0
 62
7
  6
CONTINUOUS
 10
38.7760966926
 20
32.4903523591
  0
VERTEX
  8
0
 62
7
  6
CONTINUOUS
 10
38.8105232744
 20
32.5107263192
  0
VERTEX
  8
0
 62
7
  6
CONTINUOUS
 10
38.8438299003
 20
32.528266088
  0
VERTEX
  8
0
 62
7
  6
CONTINUOUS
 10
38.8736134569
 20
32.542378136
  0
VERTEX
  8
0
 62
7
  6
CONTINUOUS
 10
38.8759585395
 20
32.5434689273
  0
VERTEX
  8
0
 62
7
  6
CONTINUOUS
 10
38.9052973772
 20
32.5563305007
  0
VERTEX
  8
0
 62
7
  6
CONTINUOUS
 10
38.9467245087
 20
32.5728407118
  0
VERTEX
  8
0
 62
7
  6
CONTINUOUS
 10
38.9924747543
 20
32.5889592861
  0
VERTEX
  8
0
 62
7
  6
CONTINUOUS
 10
39.0405223823
 20
32.6036943819
  0
VERTEX
  8
0
 62
7
  6
CONTINUOUS
 10
39.0898000385
 20
32.6165915036
  0
VERTEX
  8
0
 62
7
  6
CONTINUOUS
 10
39.1396627982
 20
32.6274209457
  0
VERTEX
  8
0
 62
7
  6
CONTINUOUS
 10
39.189692789
 20
32.6360658832
  0
VERTEX
  8
0
 62
7
  6
CONTINUOUS
 10
39.2396087078
 20
32.6424714846
  0
VERTEX
  8
0
 62
7
  6
CONTINUOUS
 10
39.2892176004
 20
32.6466182998
  0
VERTEX
  8
0
 62
7
  6
CONTINUOUS
 10
39.3383866078
 20
32.6485069747
  0
VERTEX
  8
0
 62
7
  6
CONTINUOUS
 10
39.3870252168
 20
32.648148856
  0
VERTEX
  8
0
 62
7
  6
CONTINUOUS
 10
39.4350734875
 20
32.6455599154
  0
VERTEX
  8
0
 62
7
  6
CONTINUOUS
 10
39.4824938903
 20
32.6407566663
  0
VERTEX
  8
0
 62
7
  6
CONTINUOUS
 10
39.5292654319
 20
32.6337533417
  0
VERTEX
  8
0
 62
7
  6
CONTINUOUS
 10
39.5753792878
 20
32.6245599103
  0
VERTEX
  8
0
 62
7
  6
CONTINUOUS
 10
39.6208354662
 20
32.6131806717
  0
VERTEX
  8
0
 62
7
  6
CONTINUOUS
 10
39.6656401961
 20
32.5996132685
  0
VERTEX
  8
0
 62
7
  6
CONTINUOUS
 10
39.7098038428
 20
32.5838480117
  0
VERTEX
  8
0
 62
7
  6
CONTINUOUS
 10
39.7533392186
 20
32.5658674445
  0
VERTEX
  8
0
 62
7
  6
CONTINUOUS
 10
39.7962601976
 20
32.5456460965
  0
VERTEX
  8
0
 62
7
  6
CONTINUOUS
 10
39.8385805749
 20
32.5231503884
  0
VERTEX
  8
0
 62
7
  6
CONTINUOUS
 10
39.8803131235
 20
32.4983386599
  0
VERTEX
  8
0
 62
7
  6
CONTINUOUS
 10
39.92146882
 20
32.4711612949
  0
VERTEX
  8
0
 62
7
  6
CONTINUOUS
 10
39.962056213
 20
32.441560925
  0
VERTEX
  8
0
 62
7
  6
CONTINUOUS
 10
40.0020809165
 20
32.4094726929
  0
VERTEX
  8
0
 62
7
  6
CONTINUOUS
 10
40.0068162315
 20
32.4054663267
  0
VERTEX
  8
0
 62
7
  6
CONTINUOUS
 10
40.0303395971
 20
32.3840683657
  0
VERTEX
  8
0
 62
7
  6
CONTINUOUS
 10
40.0594634231
 20
32.3550596307
  0
VERTEX
  8
0
 62
7
  6
CONTINUOUS
 10
40.0893282028
 20
32.3224968331
  0
VERTEX
  8
0
 62
7
  6
CONTINUOUS
 10
40.1181201997
 20
32.2880673716
  0
VERTEX
  8
0
 62
7
  6
CONTINUOUS
 10
40.1450064209
 20
32.2526634849
  0
VERTEX
  8
0
 62
7
  6
CONTINUOUS
 10
40.1695795045
 20
32.2168138607
  0
VERTEX
  8
0
 62
7
  6
CONTINUOUS
 10
40.1916468981
 20
32.1808504046
  0
VERTEX
  8
0
 62
7
  6
CONTINUOUS
 10
40.2111336402
 20
32.1449863709
  0
VERTEX
  8
0
 62
7
  6
CONTINUOUS
 10
40.2280314313
 20
32.1093578804
  0
VERTEX
  8
0
 62
7
  6
CONTINUOUS
 10
40.2423693773
 20
32.0740480719
  0
VERTEX
  8
0
 62
7
  6
CONTINUOUS
 10
40.2541959419
 20
32.03910218
  0
VERTEX
  8
0
 62
7
  6
CONTINUOUS
 10
40.2683290125
 20
31.9909329858
  0
VERTEX
  8
0
 62
7
  6
CONTINUOUS
 10
40.2813336434
 20
31.9386537664
  0
VERTEX
  8
0
 62
7
  6
CONTINUOUS
 10
40.2930467106
 20
31.882393603
  0
VERTEX
  8
0
 62
7
  6
CONTINUOUS
 10
40.3032858338
 20
31.8225233689
  0
VERTEX
  8
0
 62
7
  6
CONTINUOUS
 10
40.3118485456
 20
31.7598410214
  0
VERTEX
  8
0
 62
7
  6
CONTINUOUS
 10
40.3185125513
 20
31.6959689998
  0
VERTEX
  8
0
 62
7
  6
CONTINUOUS
 10
40.3230422905
 20
31.6343796116
  0
VERTEX
  8
0
 62
7
  6
CONTINUOUS
 10
40.3252356182
 20
31.584058323
  0
VERTEX
  8
0
 62
7
  6
CONTINUOUS
 10
40.325484528
 20
31.5714965116
  0
VERTEX
  8
0
 62
7
  6
CONTINUOUS
 10
40.3259566215
 20
31.5649220739
  0
VERTEX
  8
0
 62
7
  6
CONTINUOUS
 10
40.3300238881
 20
31.5082807645
  0
SEQEND
  0
POLYLINE
  8
DEFAULT_2
 62
8
  6
HIDDEN
 66
1
 70
0
 40
0.1
 41
0.1
  0
VERTEX
  8
DEFAULT_2
 62
8
  6
HIDDEN
 10
53.0466025976
 20
32.4568264715
  0
VERTEX
  8
DEFAULT_2
 62
8
  6
HIDDEN
 10
53.0461512408
 20
32.4568264715
  0
VERTEX
  8
DEFAULT_2
 62
8
  6
HIDDEN
 10
53.030482711
 20
32.4568264715
  0
VERTEX
  8
DEFAULT_2
 62
8
  6
HIDDEN
 10
53.030482711
 20
32.484062931
  0
VERTEX
  8
DEFAULT_2
 62
8
  6
HIDDEN
 10
53.030482711
 20
33.4295571667
  0
VERTEX
  8
DEFAULT_2
 62
8
  6
HIDDEN
 10
53.0174215278
 20
33.4295571667
  0
VERTEX
  8
DEFAULT_2
 62
8
  6
HIDDEN
 10
52.5640118826
 20
33.4295571667
  0
VERTEX
  8
DEFAULT_2
 62
8
  6
HIDDEN
 10
52.5640118826
 20
33.3134243561
  0
VERTEX
  8
DEFAULT_2
 62
8
  6
HIDDEN
 10
52.5640118826
 20
29.2819567881
  0
VERTEX
  8
DEFAULT_2
 62
8
  6
HIDDEN
 10
52.5781938751
 20
29.2819567881
  0
VERTEX
  8
DEFAULT_2
 62
8
  6
HIDDEN
 10
53.0705116133
 20
29.2819567881
  0
VERTEX
  8
DEFAULT_2
 62
8
  6
HIDDEN
 10
53.0705116133
 20
29.3438425026
  0
VERTEX
  8
DEFAULT_2
 62
8
  6
HIDDEN
 10
53.0705116133
 20
31.492160878
  0
VERTEX
  8
DEFAULT_2
 62
8
  6
HIDDEN
 10
53.0724335236
 20
31.5750216201
  0
VERTEX
  8
DEFAULT_2
 62
8
  6
HIDDEN
 10
53.0781607252
 20
31.6565546376
  0
VERTEX
  8
DEFAULT_2
 62
8
  6
HIDDEN
 10
53.0876328502
 20
31.7366432625
  0
VERTEX
  8
DEFAULT_2
 62
8
  6
HIDDEN
 10
53.1007859597
 20
31.815170454
  0
VERTEX
  8
DEFAULT_2
 62
8
  6
HIDDEN
 10
53.1133546495
 20
31.8743902429
  0
VERTEX
  8
DEFAULT_2
 62
8
  6
HIDDEN
 10
53.1328427979
 20
31.9498449987
  0
VERTEX
  8
DEFAULT_2
 62
8
  6
HIDDEN
 10
53.1558069722
 20
32.0233995322
  0
VERTEX
  8
DEFAULT_2
 62
8
  6
HIDDEN
 10
53.1821669886
 20
32.0949422032
  0
VERTEX
  8
DEFAULT_2
 62
8
  6
HIDDEN
 10
53.2118396556
 20
32.1643642214
  0
VERTEX
  8
DEFAULT_2
 62
8
  6
HIDDEN
 10
53.2447391965
 20
32.23156014
  0
VERTEX
  8
DEFAULT_2
 62
8
  6
HIDDEN
 10
53.2807777544
 20
32.2964282732
  0
VERTEX
  8
DEFAULT_2
 62
8
  6
HIDDEN
 10
53.3198659617
 20
32.358871016
  0
VERTEX
  8
DEFAULT_2
 62
8
  6
HIDDEN
 10
53.3619135587
 20
32.4187950554
  0
VERTEX
  8
DEFAULT_2
 62
8
  6
HIDDEN
 10
53.4068300369
 20
32.4761114633
  0
VERTEX
  8
DEFAULT_2
 62
8
  6
HIDDEN
 10
53.4545252867
 20
32.5307356661
  0
VERTEX
  8
DEFAULT_2
 62
8
  6
HIDDEN
 10
53.5049102258
 20
32.5825872939
  0
VERTEX
  8
DEFAULT_2
 62
8
  6
HIDDEN
 10
53.5578973871
 20
32.631589916
  0
VERTEX
  8
DEFAULT_2
 62
8
  6
HIDDEN
 10
53.613401447
 20
32.6776706744
  0
VERTEX
  8
DEFAULT_2
 62
8
  6
HIDDEN
 10
53.6713396791
 20
32.7207598308
  0
VERTEX
  8
DEFAULT_2
 62
8
  6
HIDDEN
 10
53.7316323194
 20
32.7607902467
  0
VERTEX
  8
DEFAULT_2
 62
8
  6
HIDDEN
 10
53.7942028387
 20
32.7976968164
  0
VERTEX
  8
DEFAULT_2
 62
8
  6
HIDDEN
 10
53.8589781156
 20
32.8314158737
  0
VERTEX
  8
DEFAULT_2
 62
8
  6
HIDDEN
 10
53.925888514
 20
32.8618845943
  0
VERTEX
  8
DEFAULT_2
 62
8
  6
HIDDEN
 10
53.9948678687
 20
32.8890404108
  0
VERTEX
  8
DEFAULT_2
 62
8
  6
HIDDEN
 10
54.0658533869
 20
32.9128204596
  0
VERTEX
  8
DEFAULT_2
 62
8
  6
HIDDEN
 10
54.138785477
 20
32.9331610713
  0
VERTEX
  8
DEFAULT_2
 62
8
  6
HIDDEN
 10
54.2136075161
 20
32.9499973172
  0
VERTEX
  8
DEFAULT_2
 62
8
  6
HIDDEN
 10
54.2902655694
 20
32.9632626179
  0
VERTEX
  8
DEFAULT_2
 62
8
  6
HIDDEN
 10
54.3687080745
 20
32.9728884202
  0
VERTEX
  8
DEFAULT_2
 62
8
  6
HIDDEN
 10
54.4488855042
 20
32.9788039414
  0
VERTEX
  8
DEFAULT_2
 62
8
  6
HIDDEN
 10
54.5307500179
 20
32.9809359824
  0
VERTEX
  8
DEFAULT_2
 62
8
  6
HIDDEN
 10
54.6142551146
 20
32.979208804
  0
VERTEX
  8
DEFAULT_2
 62
8
  6
HIDDEN
 10
54.6142551146
 20
32.9933877633
  0
VERTEX
  8
DEFAULT_2
 62
8
  6
HIDDEN
 10
54.6142551146
 20
33.485600209
  0
VERTEX
  8
DEFAULT_2
 62
8
  6
HIDDEN
 10
54.526514514
 20
33.4874576731
  0
VERTEX
  8
DEFAULT_2
 62
8
  6
HIDDEN
 10
54.4408855998
 20
33.4854663147
  0
VERTEX
  8
DEFAULT_2
 62
8
  6
HIDDEN
 10
54.3573669513
 20
33.4797159391
  0
VERTEX
  8
DEFAULT_2
 62
8
  6
HIDDEN
 10
54.2759550539
 20
33.4702902783
  0
VERTEX
  8
DEFAULT_2
 62
8
  6
HIDDEN
 10
54.196644907
 20
33.4572664494
  0
VERTEX
  8
DEFAULT_2
 62
8
  6
HIDDEN
 10
54.1194306985
 20
33.4407144834
  0
VERTEX
  8
DEFAULT_2
 62
8
  6
HIDDEN
 10
54.0443065361
 20
33.4206969402
  0
VERTEX
  8
DEFAULT_2
 62
8
  6
HIDDEN
 10
53.9712672248
 20
33.3972686232
  0
VERTEX
  8
DEFAULT_2
 62
8
  6
HIDDEN
 10
53.9003090753
 20
33.3704764088
  0
VERTEX
  8
DEFAULT_2
 62
8
  6
HIDDEN
 10
53.8314307284
 20
33.3403592001
  0
VERTEX
  8
DEFAULT_2
 62
8
  6
HIDDEN
 10
53.7977698812
 20
33.324062711
  0
VERTEX
  8
DEFAULT_2
 62
8
  6
HIDDEN
 10
53.7646339745
 20
33.3069480137
  0
VERTEX
  8
DEFAULT_2
 62
8
  6
HIDDEN
 10
53.6999578324
 20
33.2702862311
  0
VERTEX
  8
DEFAULT_2
 62
8
  6
HIDDEN
 10
53.6374118612
 20
33.2303966307
  0
VERTEX
  8
DEFAULT_2
 62
8
  6
HIDDEN
 10
53.577007867
 20
33.1872935965
  0
VERTEX
  8
DEFAULT_2
 62
8
  6
HIDDEN
 10
53.5187631842
 20
33.1409848752
  0
VERTEX
  8
DEFAULT_2
 62
8
  6
HIDDEN
 10
53.4627012549
 20
33.0914722319
  0
VERTEX
  8
DEFAULT_2
 62
8
  6
HIDDEN
 10
53.4088521081
 20
33.0387522125
  0
VERTEX
  8
DEFAULT_2
 62
8
  6
HIDDEN
 10
53.3572527235
 20
32.9828169971
  0
VERTEX
  8
DEFAULT_2
 62
8
  6
HIDDEN
 10
53.3079472743
 20
32.9236553256
  0
VERTEX
  8
DEFAULT_2
 62
8
  6
HIDDEN
 10
53.2609872419
 20
32.8612534727
  0
VERTEX
  8
DEFAULT_2
 62
8
  6
HIDDEN
 10
53.2164314031
 20
32.7955962525
  0
VERTEX
  8
DEFAULT_2
 62
8
  6
HIDDEN
 10
53.1743456908
 20
32.7266680284
  0
VERTEX
  8
DEFAULT_2
 62
8
  6
HIDDEN
 10
53.1348029359
 20
32.6544537084
  0
VERTEX
  8
DEFAULT_2
 62
8
  6
HIDDEN
 10
53.0978824983
 20
32.5789397048
  0
VERTEX
  8
DEFAULT_2
 62
8
  6
HIDDEN
 10
53.0636697986
 20
32.5001148399
  0
VERTEX
  8
DEFAULT_2
 62
8
  6
HIDDEN
 10
53.0466025976
 20
32.4568264715
  0
SEQEND
  0
POLYLINE
  8
DEFAULT_2
 62
8
  6
HIDDEN
 66
1
 70
0
 40
0.1
 41
0.1
  0
VERTEX
  8
DEFAULT_2
 62
8
  6
HIDDEN
 10
56.5911973184
 20
33.5792967271
  0
VERTEX
  8
DEFAULT_2
 62
8
  6
HIDDEN
 10
56.4868250753
 20
33.5769639454
  0
VERTEX
  8
DEFAULT_2
 62
8
  6
HIDDEN
 10
56.3851281894
 20
33.5700394973
  0
VERTEX
  8
DEFAULT_2
 62
8
  6
HIDDEN
 10
56.2860959409
 20
33.558630407
  0
VERTEX
  8
DEFAULT_2
 62
8
  6
HIDDEN
 10
56.189717949
 20
33.5428383546
  0
VERTEX
  8
DEFAULT_2
 62
8
  6
HIDDEN
 10
56.0959586777
 20
33.5227531766
  0
VERTEX
  8
DEFAULT_2
 62
8
  6
HIDDEN
 10
56.0047863544
 20
33.4984540821
  0
VERTEX
  8
DEFAULT_2
 62
8
  6
HIDDEN
 10
55.9161739512
 20
33.4700097677
  0
VERTEX
  8
DEFAULT_2
 62
8
  6
HIDDEN
 10
55.8301001933
 20
33.4374787156
  0
VERTEX
  8
DEFAULT_2
 62
8
  6
HIDDEN
 10
55.7465505749
 20
33.4009096905
  0
VERTEX
  8
DEFAULT_2
 62
8
  6
HIDDEN
 10
55.6655183572
 20
33.3603424491
  0
VERTEX
  8
DEFAULT_2
 62
8
  6
HIDDEN
 10
55.5870055222
 20
33.3158086724
  0
VERTEX
  8
DEFAULT_2
 62
8
  6
HIDDEN
 10
55.5110236527
 20
33.2673331236
  0
VERTEX
  8
DEFAULT_2
 62
8
  6
HIDDEN
 10
55.43759471
 20
33.2149350296
  0
VERTEX
  8
DEFAULT_2
 62
8
  6
HIDDEN
 10
55.3667516785
 20
33.1586296789
  0
VERTEX
  8
DEFAULT_2
 62
8
  6
HIDDEN
 10
55.2985390488
 20
33.0984302178
  0
VERTEX
  8
DEFAULT_2
 62
8
  6
HIDDEN
 10
55.233013112
 20
33.0343496258
  0
VERTEX
  8
DEFAULT_2
 62
8
  6
HIDDEN
 10
55.1702420405
 20
32.9664028362
  0
VERTEX
  8
DEFAULT_2
 62
8
  6
HIDDEN
 10
55.1103057341
 20
32.8946089685
  0
VERTEX
  8
DEFAULT_2
 62
8
  6
HIDDEN
 10
55.0532954157
 20
32.8189936261
  0
VERTEX
  8
DEFAULT_2
 62
8
  6
HIDDEN
 10
54.9993129643
 20
32.7395912095
  0
VERTEX
  8
DEFAULT_2
 62
8
  6
HIDDEN
 10
54.9484699804
 20
32.6564471871
  0
VERTEX
  8
DEFAULT_2
 62
8
  6
HIDDEN
 10
54.9008865867
 20
32.5696202623
  0
VERTEX
  8
DEFAULT_2
 62
8
  6
HIDDEN
 10
54.856689974
 20
32.4791843693
  0
VERTEX
  8
DEFAULT_2
 62
8
  6
HIDDEN
 10
54.8160127112
 20
32.3852304309
  0
VERTEX
  8
DEFAULT_2
 62
8
  6
HIDDEN
 10
54.7789908499
 20
32.2878678094
  0
VERTEX
  8
DEFAULT_2
 62
8
  6
HIDDEN
 10
54.7457618615
 20
32.1872253881
  0
VERTEX
  8
DEFAULT_2
 62
8
  6
HIDDEN
 10
54.716462457
 20
32.0834522257
  0
VERTEX
  8
DEFAULT_2
 62
8
  6
HIDDEN
 10
54.6912263459
 20
31.97671774
  0
VERTEX
  8
DEFAULT_2
 62
8
  6
HIDDEN
 10
54.6701819998
 20
31.8672113897
  0
VERTEX
  8
DEFAULT_2
 62
8
  6
HIDDEN
 10
54.6534504898
 20
31.7551418437
  0
VERTEX
  8
DEFAULT_2
 62
8
  6
HIDDEN
 10
54.6411434682
 20
31.6407356474
  0
VERTEX
  8
DEFAULT_2
 62
8
  6
HIDDEN
 10
54.6333613604
 20
31.5242354188
  0
VERTEX
  8
DEFAULT_2
 62
8
  6
HIDDEN
 10
54.6301918306
 20
31.4058976265
  0
VERTEX
  8
DEFAULT_2
 62
8
  6
HIDDEN
 10
54.6301170829
 20
31.3846089951
  0
VERTEX
  8
DEFAULT_2
 62
8
  6
HIDDEN
 10
54.630190512
 20
31.3635307685
  0
VERTEX
  8
DEFAULT_2
 62
8
  6
HIDDEN
 10
54.6333530225
 20
31.2452985697
  0
VERTEX
  8
DEFAULT_2
 62
8
  6
HIDDEN
 10
54.6411292769
 20
31.1288844027
  0
VERTEX
  8
DEFAULT_2
 62
8
  6
HIDDEN
 10
54.6534321761
 20
31.0145464241
  0
VERTEX
  8
DEFAULT_2
 62
8
  6
HIDDEN
 10
54.6701617327
 20
30.9025290051
  0
VERTEX
  8
DEFAULT_2
 62
8
  6
HIDDEN
 10
54.6912066046
 20
30.7930604736
  0
VERTEX
  8
DEFAULT_2
 62
8
  6
HIDDEN
 10
54.7164459043
 20
30.6863512766
  0
VERTEX
  8
DEFAULT_2
 62
8
  6
HIDDEN
 10
54.7457512234
 20
30.5825926138
  0
VERTEX
  8
DEFAULT_2
 62
8
  6
HIDDEN
 10
54.7789888037
 20
30.4819555795
  0
VERTEX
  8
DEFAULT_2
 62
8
  6
HIDDEN
 10
54.8160217851
 20
30.3845908205
  0
VERTEX
  8
DEFAULT_2
 62
8
  6
HIDDEN
 10
54.8567124581
 20
30.2906287002
  0
VERTEX
  8
DEFAULT_2
 62
8
  6
HIDDEN
 10
54.9009244586
 20
30.2001799395
  0
VERTEX
  8
DEFAULT_2
 62
8
  6
HIDDEN
 10
54.9485248434
 20
30.113336688
  0
VERTEX
  8
DEFAULT_2
 62
8
  6
HIDDEN
 10
54.9993859995
 20
30.0301739701
  0
VERTEX
  8
DEFAULT_2
 62
8
  6
HIDDEN
 10
55.0533873462
 20
29.9507514413
  0
VERTEX
  8
DEFAULT_2
 62
8
  6
HIDDEN
 10
55.1104168007
 20
29.8751153861
  0
VERTEX
  8
DEFAULT_2
 62
8
  6
HIDDEN
 10
55.1703719882
 20
29.8033008887
  0
VERTEX
  8
DEFAULT_2
 62
8
  6
HIDDEN
 10
55.2331611852
 20
29.7353341113
  0
VERTEX
  8
DEFAULT_2
 62
8
  6
HIDDEN
 10
55.2987039944
 20
29.6712346144
  0
VERTEX
  8
DEFAULT_2
 62
8
  6
HIDDEN
 10
55.3669317562
 20
29.6110176644
  0
VERTEX
  8
DEFAULT_2
 62
8
  6
HIDDEN
 10
55.4377877076
 20
29.5546964745
  0
VERTEX
  8
DEFAULT_2
 62
8
  6
HIDDEN
 10
55.5112269066
 20
29.5022843369
  0
VERTEX
  8
DEFAULT_2
 62
8
  6
HIDDEN
 10
55.5872159412
 20
29.453796607
  0
VERTEX
  8
DEFAULT_2
 62
8
  6
HIDDEN
 10
55.6657324497
 20
29.4092525108
  0
VERTEX
  8
DEFAULT_2
 62
8
  6
HIDDEN
 10
55.7467644777
 20
29.3686767517
  0
VERTEX
  8
DEFAULT_2
 62
8
  6
HIDDEN
 10
55.8303097027
 20
29.3321009024
  0
VERTEX
  8
DEFAULT_2
 62
8
  6
HIDDEN
 10
55.9163745547
 20
29.2995645716
  0
VERTEX
  8
DEFAULT_2
 62
8
  6
HIDDEN
 10
56.0049732627
 20
29.2711163448
  0
VERTEX
  8
DEFAULT_2
 62
8
  6
HIDDEN
 10
56.096126857
 20
29.2468145021
  0
VERTEX
  8
DEFAULT_2
 62
8
  6
HIDDEN
 10
56.1898621527
 20
29.2267275225
  0
VERTEX
  8
DEFAULT_2
 62
8
  6
HIDDEN
 10
56.2862107405
 20
29.2109343884
  0
VERTEX
  8
DEFAULT_2
 62
8
  6
HIDDEN
 10
56.3852080044
 20
29.1995247076
  0
VERTEX
  8
DEFAULT_2
 62
8
  6
HIDDEN
 10
56.4868678683
 20
29.1925997691
  0
VERTEX
  8
DEFAULT_2
 62
8
  6
HIDDEN
 10
56.5911973184
 20
29.1902668735
  0
VERTEX
  8
DEFAULT_2
 62
8
  6
HIDDEN
 10
56.6955647559
 20
29.1925996631
  0
VERTEX
  8
DEFAULT_2
 62
8
  6
HIDDEN
 10
56.797254824
 20
29.1995240828
  0
VERTEX
  8
DEFAULT_2
 62
8
  6
HIDDEN
 10
56.8962771515
 20
29.2109328465
  0
VERTEX
  8
DEFAULT_2
 62
8
  6
HIDDEN
 10
56.9926438591
 20
29.2267242876
  0
VERTEX
  8
DEFAULT_2
 62
8
  6
HIDDEN
 10
57.0863908571
 20
29.2468085543
  0
VERTEX
  8
DEFAULT_2
 62
8
  6
HIDDEN
 10
57.1775502697
 20
29.2711064534
  0
VERTEX
  8
DEFAULT_2
 62
8
  6
HIDDEN
 10
57.266149453
 20
29.2995493335
  0
VERTEX
  8
DEFAULT_2
 62
8
  6
HIDDEN
 10
57.3522099829
 20
29.3320787851
  0
VERTEX
  8
DEFAULT_2
 62
8
  6
HIDDEN
 10
57.4357466385
 20
29.3686461408
  0
VERTEX
  8
DEFAULT_2
 62
8
  6
HIDDEN
 10
57.5167664009
 20
29.4092117618
  0
VERTEX
  8
DEFAULT_2
 62
8
  6
HIDDEN
 10
57.5952674979
 20
29.4537441024
  0
VERTEX
  8
DEFAULT_2
 62
8
  6
HIDDEN
 10
57.6712385211
 20
29.5022185458
  0
VERTEX
  8
DEFAULT_2
 62
8
  6
HIDDEN
 10
57.7446576464
 20
29.5546160165
  0
VERTEX
  8
DEFAULT_2
 62
8
  6
HIDDEN
 10
57.8154919875
 20
29.6109213753
  0
VERTEX
  8
DEFAULT_2
 62
8
  6
HIDDEN
 10
57.8836971105
 20
29.6711216133
  0
VERTEX
  8
DEFAULT_2
 62
8
  6
HIDDEN
 10
57.9492167388
 20
29.7352038681
  0
VERTEX
  8
DEFAULT_2
 62
8
  6
HIDDEN
 10
58.0119826716
 20
29.8031532904
  0
VERTEX
  8
DEFAULT_2
 62
8
  6
HIDDEN
 10
58.0719149371
 20
29.8749507997
  0
VERTEX
  8
DEFAULT_2
 62
8
  6
HIDDEN
 10
58.1289221983
 20
29.9505707726
  0
VERTEX
  8
DEFAULT_2
 62
8
  6
HIDDEN
 10
58.1829024224
 20
30.0299787148
  0
VERTEX
  8
DEFAULT_2
 62
8
  6
HIDDEN
 10
58.2337438183
 20
30.1131289746
  0
VERTEX
  8
DEFAULT_2
 62
8
  6
HIDDEN
 10
58.2813260418
 20
30.1999625604
  0
VERTEX
  8
DEFAULT_2
 62
8
  6
HIDDEN
 10
58.3255216569
 20
30.2904051288
  0
VERTEX
  8
DEFAULT_2
 62
8
  6
HIDDEN
 10
58.3661978351
 20
30.3843652126
  0
VERTEX
  8
DEFAULT_2
 62
8
  6
HIDDEN
 10
58.4032182626
 20
30.4817327572
  0
VERTEX
  8
DEFAULT_2
 62
8
  6
HIDDEN
 10
58.4364452163
 20
30.5823780291
  0
VERTEX
  8
DEFAULT_2
 62
8
  6
HIDDEN
 10
58.46574176
 20
30.686150955
  0
VERTEX
  8
DEFAULT_2
 62
8
  6
HIDDEN
 10
58.4909740025
 20
30.7928809374
  0
VERTEX
  8
DEFAULT_2
 62
8
  6
HIDDEN
 10
58.5120133511
 20
30.9023771761
  0
VERTEX
  8
DEFAULT_2
 62
8
  6
HIDDEN
 10
58.5287386925
 20
31.0144295089
  0
VERTEX
  8
DEFAULT_2
 62
8
  6
HIDDEN
 10
58.5410384285
 20
31.1288097618
  0
VERTEX
  8
DEFAULT_2
 62
8
  6
HIDDEN
 10
58.548812299
 20
31.2452735759
  0
VERTEX
  8
DEFAULT_2
 62
8
  6
HIDDEN
 10
58.551972929
 20
31.3635626567
  0
VERTEX
  8
DEFAULT_2
 62
8
  6
HIDDEN
 10
58.552046058
 20
31.3846089951
  0
VERTEX
  8
DEFAULT_2
 62
8
  6
HIDDEN
 10
58.5519716152
 20
31.4058654966
  0
VERTEX
  8
DEFAULT_2
 62
8
  6
HIDDEN
 10
58.5488039783
 20
31.5242602163
  0
VERTEX
  8
DEFAULT_2
 62
8
  6
HIDDEN
 10
58.5410242669
 20
31.6408101179
  0
VERTEX
  8
DEFAULT_2
 62
8
  6
HIDDEN
 10
58.5287204207
 20
31.7552586008
  0
VERTEX
  8
DEFAULT_2
 62
8
  6
HIDDEN
 10
58.5119931378
 20
31.8673630636
  0
VERTEX
  8
DEFAULT_2
 62
8
  6
HIDDEN
 10
58.4909543255
 20
31.9768971191
  0
VERTEX
  8
DEFAULT_2
 62
8
  6
HIDDEN
 10
58.4657252804
 20
32.0836523863
  0
VERTEX
  8
DEFAULT_2
 62
8
  6
HIDDEN
 10
58.4364346578
 20
32.1874398084
  0
VERTEX
  8
DEFAULT_2
 62
8
  6
HIDDEN
 10
58.4032162999
 20
32.2880904661
  0
VERTEX
  8
DEFAULT_2
 62
8
  6
HIDDEN
 10
58.3662069934
 20
32.3854558749
  0
VERTEX
  8
DEFAULT_2
 62
8
  6
HIDDEN
 10
58.3255442234
 20
32.479407782
  0
VERTEX
  8
DEFAULT_2
 62
8
  6
HIDDEN
 10
58.2813639912
 20
32.569837491
  0
VERTEX
  8
DEFAULT_2
 62
8
  6
HIDDEN
 10
58.2337987515
 20
32.6566547612
  0
VERTEX
  8
DEFAULT_2
 62
8
  6
HIDDEN
 10
58.1829755184
 20
32.7397863389
  0
VERTEX
  8
DEFAULT_2
 62
8
  6
HIDDEN
 10
58.1290141788
 20
32.8191741839
  0
VERTEX
  8
DEFAULT_2
 62
8
  6
HIDDEN
 10
58.0720260421
 20
32.8947734595
  0
VERTEX
  8
DEFAULT_2
 62
8
  6
HIDDEN
 10
58.012112646
 20
32.9665503548
  0
VERTEX
  8
DEFAULT_2
 62
8
  6
HIDDEN
 10
57.9493648277
 20
33.0344798043
  0
VERTEX
  8
DEFAULT_2
 62
8
  6
HIDDEN
 10
57.8838620621
 20
33.0985431681
  0
VERTEX
  8
DEFAULT_2
 62
8
  6
HIDDEN
 10
57.8156720632
 20
33.1587259295
  0
VERTEX
  8
DEFAULT_2
 62
8
  6
HIDDEN
 10
57.7448506364
 20
33.2150154598
  0
VERTEX
  8
DEFAULT_2
 62
8
  6
HIDDEN
 10
57.671441764
 20
33.2673988956
  0
VERTEX
  8
DEFAULT_2
 62
8
  6
HIDDEN
 10
57.5954779052
 20
33.3158611649
  0
VERTEX
  8
DEFAULT_2
 62
8
  6
HIDDEN
 10
57.5169804834
 20
33.360383191
  0
VERTEX
  8
DEFAULT_2
 62
8
  6
HIDDEN
 10
57.4359605352
 20
33.400940298
  0
VERTEX
  8
DEFAULT_2
 62
8
  6
HIDDEN
 10
57.3524194919
 20
33.4375008318
  0
VERTEX
  8
DEFAULT_2
 62
8
  6
HIDDEN
 10
57.2663500627
 20
33.470025006
  0
VERTEX
  8
DEFAULT_2
 62
8
  6
HIDDEN
 10
57.1777371911
 20
33.4984639743
  0
VERTEX
  8
DEFAULT_2
 62
8
  6
HIDDEN
 10
57.0865590556
 20
33.5227591253
  0
VERTEX
  8
DEFAULT_2
 62
8
  6
HIDDEN
 10
56.9927880863
 20
33.54284159
  0
VERTEX
  8
DEFAULT_2
 62
8
  6
HIDDEN
 10
56.8963919756
 20
33.5586319493
  0
VERTEX
  8
DEFAULT_2
 62
8
  6
HIDDEN
 10
56.7973346598
 20
33.5700401223
  0
VERTEX
  8
DEFAULT_2
 62
8
  6
HIDDEN
 10
56.6956075627
 20
33.5769640514
  0
VERTEX
  8
DEFAULT_2
 62
8
  6
HIDDEN
 10
56.5911973184
 20
33.5792967271
  0
SEQEND
  0
POLYLINE
  8
DEFAULT_2
 62
8
  6
HIDDEN
 66
1
 70
0
 40
0.1
 41
0.1
  0
VERTEX
  8
DEFAULT_2
 62
8
  6
HIDDEN
 10
56.5911973184
 20
29.6169409261
  0
VERTEX
  8
DEFAULT_2
 62
8
  6
HIDDEN
 10
56.516453938
 20
29.6187563473
  0
VERTEX
  8
DEFAULT_2
 62
8
  6
HIDDEN
 10
56.4436000361
 20
29.6241437352
  0
VERTEX
  8
DEFAULT_2
 62
8
  6
HIDDEN
 10
56.3725802241
 20
29.6330237887
  0
VERTEX
  8
DEFAULT_2
 62
8
  6
HIDDEN
 10
56.3033422712
 20
29.6453293482
  0
VERTEX
  8
DEFAULT_2
 62
8
  6
HIDDEN
 10
56.2358380404
 20
29.6610054154
  0
VERTEX
  8
DEFAULT_2
 62
8
  6
HIDDEN
 10
56.1700244826
 20
29.6800089927
  0
VERTEX
  8
DEFAULT_2
 62
8
  6
HIDDEN
 10
56.1058646688
 20
29.7023087144
  0
VERTEX
  8
DEFAULT_2
 62
8
  6
HIDDEN
 10
56.0433288421
 20
29.7278842501
  0
VERTEX
  8
DEFAULT_2
 62
8
  6
HIDDEN
 10
55.9823954677
 20
29.7567254597
  0
VERTEX
  8
DEFAULT_2
 62
8
  6
HIDDEN
 10
55.9230522536
 20
29.7888312844
  0
VERTEX
  8
DEFAULT_2
 62
8
  6
HIDDEN
 10
55.8652971199
 20
29.8242083618
  0
VERTEX
  8
DEFAULT_2
 62
8
  6
HIDDEN
 10
55.8091390856
 20
29.8628693585
  0
VERTEX
  8
DEFAULT_2
 62
8
  6
HIDDEN
 10
55.7545990502
 20
29.9048310146
  0
VERTEX
  8
DEFAULT_2
 62
8
  6
HIDDEN
 10
55.7017104392
 20
29.9501119035
  0
VERTEX
  8
DEFAULT_2
 62
8
  6
HIDDEN
 10
55.6505196883
 20
29.9987299111
  0
VERTEX
  8
DEFAULT_2
 62
8
  6
HIDDEN
 10
55.6010865364
 20
30.0506994476
  0
VERTEX
  8
DEFAULT_2
 62
8
  6
HIDDEN
 10
55.5534840985
 20
30.1060284111
  0
VERTEX
  8
DEFAULT_2
 62
8
  6
HIDDEN
 10
55.5077986884
 20
30.1647149307
  0
VERTEX
  8
DEFAULT_2
 62
8
  6
HIDDEN
 10
55.4641293566
 20
30.226743933
  0
VERTEX
  8
DEFAULT_2
 62
8
  6
HIDDEN
 10
55.4225871119
 20
30.2920835869
  0
VERTEX
  8
DEFAULT_2
 62
8
  6
HIDDEN
 10
55.383293793
 20
30.3606817064
  0
VERTEX
  8
DEFAULT_2
 62
8
  6
HIDDEN
 10
55.3463805596
 20
30.4324622097
  0
VERTEX
  8
DEFAULT_2
 62
8
  6
HIDDEN
 10
55.3119859799
 20
30.5073217647
  0
VERTEX
  8
DEFAULT_2
 62
8
  6
HIDDEN
 10
55.280253702
 20
30.5851267695
  0
VERTEX
  8
DEFAULT_2
 62
8
  6
HIDDEN
 10
55.2513297145
 20
30.6657108499
  0
VERTEX
  8
DEFAULT_2
 62
8
  6
HIDDEN
 10
55.2253592257
 20
30.7488730646
  0
VERTEX
  8
DEFAULT_2
 62
8
  6
HIDDEN
 10
55.2024832207
 20
30.8343770214
  0
VERTEX
  8
DEFAULT_2
 62
8
  6
HIDDEN
 10
55.1828347889
 20
30.9219510918
  0
VERTEX
  8
DEFAULT_2
 62
8
  6
HIDDEN
 10
55.1665353537
 20
31.0112898818
  0
VERTEX
  8
DEFAULT_2
 62
8
  6
HIDDEN
 10
55.153690966
 20
31.1020570574
  0
VERTEX
  8
DEFAULT_2
 62
8
  6
HIDDEN
 10
55.1443888508
 20
31.1938895447
  0
VERTEX
  8
DEFAULT_2
 62
8
  6
HIDDEN
 10
55.1386944046
 20
31.2864030255
  0
VERTEX
  8
DEFAULT_2
 62
8
  6
HIDDEN
 10
55.1384736257
 20
31.2918366752
  0
VERTEX
  8
DEFAULT_2
 62
8
  6
HIDDEN
 10
55.1366426054
 20
31.3846089951
  0
VERTEX
  8
DEFAULT_2
 62
8
  6
HIDDEN
 10
55.1384736257
 20
31.4774581447
  0
VERTEX
  8
DEFAULT_2
 62
8
  6
HIDDEN
 10
55.1387097141
 20
31.4832621116
  0
VERTEX
  8
DEFAULT_2
 62
8
  6
HIDDEN
 10
55.1444181143
 20
31.5758408949
  0
VERTEX
  8
DEFAULT_2
 62
8
  6
HIDDEN
 10
55.1537333962
 20
31.6677306576
  0
VERTEX
  8
DEFAULT_2
 62
8
  6
HIDDEN
 10
55.1665899095
 20
31.7585475923
  0
VERTEX
  8
DEFAULT_2
 62
8
  6
HIDDEN
 10
55.1829002336
 20
31.8479292019
  0
VERTEX
  8
DEFAULT_2
 62
8
  6
HIDDEN
 10
55.2025581797
 20
31.9355397703
  0
VERTEX
  8
DEFAULT_2
 62
8
  6
HIDDEN
 10
55.2254422405
 20
32.0210745386
  0
VERTEX
  8
DEFAULT_2
 62
8
  6
HIDDEN
 10
55.2514192912
 20
32.1042625106
  0
VERTEX
  8
DEFAULT_2
 62
8
  6
HIDDEN
 10
55.2803483531
 20
32.1848679062
  0
VERTEX
  8
DEFAULT_2
 62
8
  6
HIDDEN
 10
55.3120842581
 20
32.2626903636
  0
VERTEX
  8
DEFAULT_2
 62
8
  6
HIDDEN
 10
55.3464810844
 20
32.3375640468
  0
VERTEX
  8
DEFAULT_2
 62
8
  6
HIDDEN
 10
55.3833952704
 20
32.4093558456
  0
VERTEX
  8
DEFAULT_2
 62
8
  6
HIDDEN
 10
55.4226883476
 20
32.4779628705
  0
VERTEX
  8
DEFAULT_2
 62
8
  6
HIDDEN
 10
55.4642292642
 20
32.5433094339
  0
VERTEX
  8
DEFAULT_2
 62
8
  6
HIDDEN
 10
55.5078962934
 20
32.6053436962
  0
VERTEX
  8
DEFAULT_2
 62
8
  6
HIDDEN
 10
55.5535785389
 20
32.6640341288
  0
VERTEX
  8
DEFAULT_2
 62
8
  6
HIDDEN
 10
55.6011770612
 20
32.7193659196
  0
VERTEX
  8
DEFAULT_2
 62
8
  6
HIDDEN
 10
55.6506056543
 20
32.7713374222
  0
VERTEX
  8
DEFAULT_2
 62
8
  6
HIDDEN
 10
55.7017913066
 20
32.8199567253
  0
VERTEX
  8
DEFAULT_2
 62
8
  6
HIDDEN
 10
55.7546743782
 20
32.8652384002
  0
VERTEX
  8
DEFAULT_2
 62
8
  6
HIDDEN
 10
55.8092085275
 20
32.9072004673
  0
VERTEX
  8
DEFAULT_2
 62
8
  6
HIDDEN
 10
55.8653604179
 20
32.945861611
  0
VERTEX
  8
DEFAULT_2
 62
8
  6
HIDDEN
 10
55.9231092346
 20
32.9812386617
  0
VERTEX
  8
DEFAULT_2
 62
8
  6
HIDDEN
 10
55.9824460383
 20
33.0133443577
  0
VERTEX
  8
DEFAULT_2
 62
8
  6
HIDDEN
 10
56.0433729851
 20
33.0421853923
  0
VERTEX
  8
DEFAULT_2
 62
8
  6
HIDDEN
 10
56.1059024388
 20
33.0677607477
  0
VERTEX
  8
DEFAULT_2
 62
8
  6
HIDDEN
 10
56.1700560026
 20
33.0900603117
  0
VERTEX
  8
DEFAULT_2
 62
8
  6
HIDDEN
 10
56.235863498
 20
33.1090637706
  0
VERTEX
  8
DEFAULT_2
 62
8
  6
HIDDEN
 10
56.3033619156
 20
33.1247397653
  0
VERTEX
  8
DEFAULT_2
 62
8
  6
HIDDEN
 10
56.3725943628
 20
33.1370452955
  0
VERTEX
  8
DEFAULT_2
 62
8
  6
HIDDEN
 10
56.4436090312
 20
33.1459253528
  0
VERTEX
  8
DEFAULT_2
 62
8
  6
HIDDEN
 10
56.516458204
 20
33.1513127603
  0
VERTEX
  8
DEFAULT_2
 62
8
  6
HIDDEN
 10
56.5911973184
 20
33.1531281941
  0
VERTEX
  8
DEFAULT_2
 62
8
  6
HIDDEN
 10
56.6659197282
 20
33.1513127603
  0
VERTEX
  8
DEFAULT_2
 62
8
  6
HIDDEN
 10
56.7387563619
 20
33.1459252299
  0
VERTEX
  8
DEFAULT_2
 62
8
  6
HIDDEN
 10
56.8097624157
 20
33.1370447497
  0
VERTEX
  8
DEFAULT_2
 62
8
  6
HIDDEN
 10
56.8789899276
 20
33.1247383319
  0
VERTEX
  8
DEFAULT_2
 62
8
  6
HIDDEN
 10
56.9464868397
 20
33.1090608351
  0
VERTEX
  8
DEFAULT_2
 62
8
  6
HIDDEN
 10
57.0122960048
 20
33.0900551272
  0
VERTEX
  8
DEFAULT_2
 62
8
  6
HIDDEN
 10
57.0764541535
 20
33.0677524567
  0
VERTEX
  8
DEFAULT_2
 62
8
  6
HIDDEN
 10
57.1389908419
 20
33.0421730509
  0
VERTEX
  8
DEFAULT_2
 62
8
  6
HIDDEN
 10
57.1999274028
 20
33.0133269638
  0
VERTEX
  8
DEFAULT_2
 62
8
  6
HIDDEN
 10
57.2592759242
 20
32.9812151874
  0
VERTEX
  8
DEFAULT_2
 62
8
  6
HIDDEN
 10
57.3170382822
 20
32.9458310378
  0
VERTEX
  8
DEFAULT_2
 62
8
  6
HIDDEN
 10
57.3732052543
 20
32.9071618257
  0
VERTEX
  8
DEFAULT_2
 62
8
  6
HIDDEN
 10
57.4277557397
 20
32.8651908125
  0
VERTEX
  8
DEFAULT_2
 62
8
  6
HIDDEN
 10
57.4806561153
 20
32.8198994518
  0
VERTEX
  8
DEFAULT_2
 62
8
  6
HIDDEN
 10
57.5318597536
 20
32.7712699101
  0
VERTEX
  8
DEFAULT_2
 62
8
  6
HIDDEN
 10
57.5813067321
 20
32.7192878544
  0
VERTEX
  8
DEFAULT_2
 62
8
  6
HIDDEN
 10
57.6289237624
 20
32.6639454873
  0
VERTEX
  8
DEFAULT_2
 62
8
  6
HIDDEN
 10
57.6746243711
 20
32.6052447993
  0
VERTEX
  8
DEFAULT_2
 62
8
  6
HIDDEN
 10
57.7183093646
 20
32.5432009987
  0
VERTEX
  8
DEFAULT_2
 62
8
  6
HIDDEN
 10
57.7598676101
 20
32.4778460591
  0
VERTEX
  8
DEFAULT_2
 62
8
  6
HIDDEN
 10
57.7991771677
 20
32.4092323075
  0
VERTEX
  8
DEFAULT_2
 62
8
  6
HIDDEN
 10
57.8361068008
 20
32.3374359532
  0
VERTEX
  8
DEFAULT_2
 62
8
  6
HIDDEN
 10
57.8705178913
 20
32.2625604292
  0
VERTEX
  8
DEFAULT_2
 62
8
  6
HIDDEN
 10
57.9022667679
 20
32.1847393943
  0
VERTEX
  8
DEFAULT_2
 62
8
  6
HIDDEN
 10
57.9312074447
 20
32.1041392184
  0
VERTEX
  8
DEFAULT_2
 62
8
  6
HIDDEN
 10
57.9571947388
 20
32.0209607578
  0
VERTEX
  8
DEFAULT_2
 62
8
  6
HIDDEN
 10
57.9800877078
 20
31.9354402215
  0
VERTEX
  8
DEFAULT_2
 62
8
  6
HIDDEN
 10
57.9997533127
 20
31.8478489396
  0
VERTEX
  8
DEFAULT_2
 62
8
  6
HIDDEN
 10
58.016070178
 20
31.7584918811
  0
VERTEX
  8
DEFAULT_2
 62
8
  6
HIDDEN
 10
58.0289322839
 20
31.6677048222
  0
VERTEX
  8
DEFAULT_2
 62
8
  6
HIDDEN
 10
58.0382524047
 20
31.5758501486
  0
VERTEX
  8
DEFAULT_2
 62
8
  6
HIDDEN
 10
58.0439650954
 20
31.4833113715
  0
VERTEX
  8
DEFAULT_2
 62
8
  6
HIDDEN
 10
58.0442054189
 20
31.4774092505
  0
VERTEX
  8
DEFAULT_2
 62
8
  6
HIDDEN
 10
58.0460363847
 20
31.3846089951
  0
VERTEX
  8
DEFAULT_2
 62
8
  6
HIDDEN
 10
58.0442054189
 20
31.2918855302
  0
VERTEX
  8
DEFAULT_2
 62
8
  6
HIDDEN
 10
58.0439804256
 20
31.2863537454
  0
VERTEX
  8
DEFAULT_2
 62
8
  6
HIDDEN
 10
58.0382816944
 20
31.1938802569
  0
VERTEX
  8
DEFAULT_2
 62
8
  6
HIDDEN
 10
58.0289747464
 20
31.1020828533
  0
VERTEX
  8
DEFAULT_2
 62
8
  6
HIDDEN
 10
58.0161247726
 20
31.011345554
  0
VERTEX
  8
DEFAULT_2
 62
8
  6
HIDDEN
 10
57.9998188026
 20
30.9220313195
  0
VERTEX
  8
DEFAULT_2
 62
8
  6
HIDDEN
 10
57.9801627181
 20
30.8344765424
  0
VERTEX
  8
DEFAULT_2
 62
8
  6
HIDDEN
 10
57.9572778104
 20
30.7489868255
  0
VERTEX
  8
DEFAULT_2
 62
8
  6
HIDDEN
 10
57.9312970828
 20
30.66583413
  0
VERTEX
  8
DEFAULT_2
 62
8
  6
HIDDEN
 10
57.9023614837
 20
30.5852552762
  0
VERTEX
  8
DEFAULT_2
 62
8
  6
HIDDEN
 10
57.8706162364
 20
30.5074516998
  0
VERTEX
  8
DEFAULT_2
 62
8
  6
HIDDEN
 10
57.8362073934
 20
30.4325903086
  0
VERTEX
  8
DEFAULT_2
 62
8
  6
HIDDEN
 10
57.7992787123
 20
30.3608052531
  0
VERTEX
  8
DEFAULT_2
 62
8
  6
HIDDEN
 10
57.7599689112
 20
30.2922004091
  0
VERTEX
  8
DEFAULT_2
 62
8
  6
HIDDEN
 10
57.7184093346
 20
30.2268523798
  0
VERTEX
  8
DEFAULT_2
 62
8
  6
HIDDEN
 10
57.6747220346
 20
30.1648138394
  0
VERTEX
  8
DEFAULT_2
 62
8
  6
HIDDEN
 10
57.6290182566
 20
30.106117064
  0
VERTEX
  8
DEFAULT_2
 62
8
  6
HIDDEN
 10
57.5813973055
 20
30.0507775233
  0
VERTEX
  8
DEFAULT_2
 62
8
  6
HIDDEN
 10
57.5319457625
 20
29.9987974325
  0
VERTEX
  8
DEFAULT_2
 62
8
  6
HIDDEN
 10
57.4807370198
 20
29.9501691849
  0
VERTEX
  8
DEFAULT_2
 62
8
  6
HIDDEN
 10
57.4278310991
 20
29.9048786088
  0
VERTEX
  8
DEFAULT_2
 62
8
  6
HIDDEN
 10
57.3732747219
 20
29.8629080052
  0
VERTEX
  8
DEFAULT_2
 62
8
  6
HIDDEN
 10
57.3171016006
 20
29.8242389389
  0
VERTEX
  8
DEFAULT_2
 62
8
  6
HIDDEN
 10
57.2593329206
 20
29.7888547616
  0
VERTEX
  8
DEFAULT_2
 62
8
  6
HIDDEN
 10
57.1999779846
 20
29.7567428557
  0
VERTEX
  8
DEFAULT_2
 62
8
  6
HIDDEN
 10
57.1390349923
 20
29.7278965929
  0
VERTEX
  8
DEFAULT_2
 62
8
  6
HIDDEN
 10
57.0764919278
 20
29.7023170062
  0
VERTEX
  8
DEFAULT_2
 62
8
  6
HIDDEN
 10
57.0123275266
 20
29.6800141776
  0
VERTEX
  8
DEFAULT_2
 62
8
  6
HIDDEN
 10
56.9465122974
 20
29.6610083512
  0
VERTEX
  8
DEFAULT_2
 62
8
  6
HIDDEN
 10
56.8790095711
 20
29.6453307816
  0
VERTEX
  8
DEFAULT_2
 62
8
  6
HIDDEN
 10
56.8097765529
 20
29.6330243346
  0
VERTEX
  8
DEFAULT_2
 62
8
  6
HIDDEN
 10
56.7387653557
 20
29.6241438582
  0
VERTEX
  8
DEFAULT_2
 62
8
  6
HIDDEN
 10
56.6659239933
 20
29.6187563473
  0
VERTEX
  8
DEFAULT_2
 62
8
  6
HIDDEN
 10
56.5911973184
 20
29.6169409261
  0
SEQEND
  0
POLYLINE
  8
DEFAULT_2
 62
8
  6
HIDDEN
 66
1
 70
0
 40
0.1
 41
0.1
  0
VERTEX
  8
DEFAULT_2
 62
8
  6
HIDDEN
 10
61.9880836083
 20
31.2803326731
  0
VERTEX
  8
DEFAULT_2
 62
8
  6
HIDDEN
 10
61.98649896
 20
31.186026052
  0
VERTEX
  8
DEFAULT_2
 62
8
  6
HIDDEN
 10
61.9807312206
 20
31.0781924565
  0
VERTEX
  8
DEFAULT_2
 62
8
  6
HIDDEN
 10
61.9708532172
 20
30.972736471
  0
VERTEX
  8
DEFAULT_2
 62
8
  6
HIDDEN
 10
61.9570111542
 20
30.870158566
  0
VERTEX
  8
DEFAULT_2
 62
8
  6
HIDDEN
 10
61.9393754208
 20
30.7708827869
  0
VERTEX
  8
DEFAULT_2
 62
8
  6
HIDDEN
 10
61.9181329555
 20
30.6752564178
  0
VERTEX
  8
DEFAULT_2
 62
8
  6
HIDDEN
 10
61.8934799946
 20
30.5835526813
  0
VERTEX
  8
DEFAULT_2
 62
8
  6
HIDDEN
 10
61.8656154743
 20
30.4959757402
  0
VERTEX
  8
DEFAULT_2
 62
8
  6
HIDDEN
 10
61.8347352364
 20
30.4126672907
  0
VERTEX
  8
DEFAULT_2
 62
8
  6
HIDDEN
 10
61.8010270957
 20
30.3337141269
  0
VERTEX
  8
DEFAULT_2
 62
8
  6
HIDDEN
 10
61.7646667591
 20
30.259156169
  0
VERTEX
  8
DEFAULT_2
 62
8
  6
HIDDEN
 10
61.7258145452
 20
30.1889945745
  0
VERTEX
  8
DEFAULT_2
 62
8
  6
HIDDEN
 10
61.6846128326
 20
30.1231996599
  0
VERTEX
  8
DEFAULT_2
 62
8
  6
HIDDEN
 10
61.6411841597
 20
30.061718454
  0
VERTEX
  8
DEFAULT_2
 62
8
  6
HIDDEN
 10
61.5956299031
 20
30.0044817769
  0
VERTEX
  8
DEFAULT_2
 62
8
  6
HIDDEN
 10
61.5480294753
 20
29.9514107832
  0
VERTEX
  8
DEFAULT_2
 62
8
  6
HIDDEN
 10
61.4984399883
 20
29.9024229435
  0
VERTEX
  8
DEFAULT_2
 62
8
  6
HIDDEN
 10
61.4468963441
 20
29.8574374516
  0
VERTEX
  8
DEFAULT_2
 62
8
  6
HIDDEN
 10
61.3934117172
 20
29.8163800535
  0
VERTEX
  8
DEFAULT_2
 62
8
  6
HIDDEN
 10
61.3379783948
 20
29.7791872939
  0
VERTEX
  8
DEFAULT_2
 62
8
  6
HIDDEN
 10
61.2805689386
 20
29.7458101755
  0
VERTEX
  8
DEFAULT_2
 62
8
  6
HIDDEN
 10
61.2211376262
 20
29.7162172271
  0
VERTEX
  8
DEFAULT_2
 62
8
  6
HIDDEN
 10
61.1596221197
 20
29.6903969792
  0
VERTEX
  8
DEFAULT_2
 62
8
  6
HIDDEN
 10
61.0959453031
 20
29.6683598526
  0
VERTEX
  8
DEFAULT_2
 62
8
  6
HIDDEN
 10
61.0300172229
 20
29.6501394789
  0
VERTEX
  8
DEFAULT_2
 62
8
  6
HIDDEN
 10
60.9617370663
 20
29.6357934822
  0
VERTEX
  8
DEFAULT_2
 62
8
  6
HIDDEN
 10
60.8909951105
 20
29.6254037671
  0
VERTEX
  8
DEFAULT_2
 62
8
  6
HIDDEN
 10
60.8177075837
 20
29.6190782508
  0
VERTEX
  8
DEFAULT_2
 62
8
  6
HIDDEN
 10
60.7418229724
 20
29.6169409261
  0
VERTEX
  8
DEFAULT_2
 62
8
  6
HIDDEN
 10
60.6438556193
 20
29.6189960824
  0
VERTEX
  8
DEFAULT_2
 62
8
  6
HIDDEN
 10
60.5533347387
 20
29.624960371
  0
VERTEX
  8
DEFAULT_2
 62
8
  6
HIDDEN
 10
60.4696319314
 20
29.6345611584
  0
VERTEX
  8
DEFAULT_2
 62
8
  6
HIDDEN
 10
60.3921695665
 20
29.6475645889
  0
VERTEX
  8
DEFAULT_2
 62
8
  6
HIDDEN
 10
60.3204167451
 20
29.6637759644
  0
VERTEX
  8
DEFAULT_2
 62
8
  6
HIDDEN
 10
60.2538862262
 20
29.6830406091
  0
VERTEX
  8
DEFAULT_2
 62
8
  6
HIDDEN
 10
60.1921322494
 20
29.7052451155
  0
VERTEX
  8
DEFAULT_2
 62
8
  6
HIDDEN
 10
60.1347491856
 20
29.7303188537
  0
VERTEX
  8
DEFAULT_2
 62
8
  6
HIDDEN
 10
60.0813709286
 20
29.7582356129
  0
VERTEX
  8
DEFAULT_2
 62
8
  6
HIDDEN
 10
60.0316709117
 20
29.789015248
  0
VERTEX
  8
DEFAULT_2
 62
8
  6
HIDDEN
 10
59.9853625977
 20
29.822725221
  0
VERTEX
  8
DEFAULT_2
 62
8
  6
HIDDEN
 10
59.9422866386
 20
29.8594025084
  0
VERTEX
  8
DEFAULT_2
 62
8
  6
HIDDEN
 10
59.9022878364
 20
29.8991218083
  0
VERTEX
  8
DEFAULT_2
 62
8
  6
HIDDEN
 10
59.8651740252
 20
29.942060321
  0
VERTEX
  8
DEFAULT_2
 62
8
  6
HIDDEN
 10
59.830795897
 20
29.9884444505
  0
VERTEX
  8
DEFAULT_2
 62
8
  6
HIDDEN
 10
59.7990467203
 20
30.0385502652
  0
VERTEX
  8
DEFAULT_2
 62
8
  6
HIDDEN
 10
59.7698616397
 20
30.0927044879
  0
VERTEX
  8
DEFAULT_2
 62
8
  6
HIDDEN
 10
59.7432166046
 20
30.1512864258
  0
VERTEX
  8
DEFAULT_2
 62
8
  6
HIDDEN
 10
59.7191270504
 20
30.214731314
  0
VERTEX
  8
DEFAULT_2
 62
8
  6
HIDDEN
 10
59.6976465188
 20
30.2835356266
  0
VERTEX
  8
DEFAULT_2
 62
8
  6
HIDDEN
 10
59.6788654524
 20
30.3582650311
  0
VERTEX
  8
DEFAULT_2
 62
8
  6
HIDDEN
 10
59.6629104362
 20
30.4395658806
  0
VERTEX
  8
DEFAULT_2
 62
8
  6
HIDDEN
 10
59.6499442112
 20
30.5281815015
  0
VERTEX
  8
DEFAULT_2
 62
8
  6
HIDDEN
 10
59.6401668633
 20
30.6249751571
  0
VERTEX
  8
DEFAULT_2
 62
8
  6
HIDDEN
 10
59.6338187454
 20
30.7309626154
  0
VERTEX
  8
DEFAULT_2
 62
8
  6
HIDDEN
 10
59.6328263909
 20
30.7582031005
  0
VERTEX
  8
DEFAULT_2
 62
8
  6
HIDDEN
 10
59.6328263909
 20
33.4298099265
  0
VERTEX
  8
DEFAULT_2
 62
8
  6
HIDDEN
 10
59.1268167176
 20
33.4298099265
  0
VERTEX
  8
DEFAULT_2
 62
8
  6
HIDDEN
 10
59.1268167176
 20
30.7659922297
  0
VERTEX
  8
DEFAULT_2
 62
8
  6
HIDDEN
 10
59.1277247774
 20
30.6869055935
  0
VERTEX
  8
DEFAULT_2
 62
8
  6
HIDDEN
 10
59.1324379728
 20
30.5731477244
  0
VERTEX
  8
DEFAULT_2
 62
8
  6
HIDDEN
 10
59.140971591
 20
30.4660660072
  0
VERTEX
  8
DEFAULT_2
 62
8
  6
HIDDEN
 10
59.1531174101
 20
30.3652778612
  0
VERTEX
  8
DEFAULT_2
 62
8
  6
HIDDEN
 10
59.1686871103
 20
30.2704211647
  0
VERTEX
  8
DEFAULT_2
 62
8
  6
HIDDEN
 10
59.1875128307
 20
30.1811531746
  0
VERTEX
  8
DEFAULT_2
 62
8
  6
HIDDEN
 10
59.2094478752
 20
30.0971498536
  0
VERTEX
  8
DEFAULT_2
 62
8
  6
HIDDEN
 10
59.2343675222
 20
30.0181055691
  0
VERTEX
  8
DEFAULT_2
 62
8
  6
HIDDEN
 10
59.262169893
 20
29.9437331313
  0
VERTEX
  8
DEFAULT_2
 62
8
  6
HIDDEN
 10
59.2927768272
 20
29.8737641412
  0
VERTEX
  8
DEFAULT_2
 62
8
  6
HIDDEN
 10
59.3261347084
 20
29.8079496174
  0
VERTEX
  8
DEFAULT_2
 62
8
  6
HIDDEN
 10
59.3622151848
 20
29.7460608611
  0
VERTEX
  8
DEFAULT_2
 62
8
  6
HIDDEN
 10
59.4010157248
 20
29.6878905123
  0
VERTEX
  8
DEFAULT_2
 62
8
  6
HIDDEN
 10
59.4425599566
 20
29.633253738
  0
VERTEX
  8
DEFAULT_2
 62
8
  6
HIDDEN
 10
59.4868977501
 20
29.5819894817
  0
VERTEX
  8
DEFAULT_2
 62
8
  6
HIDDEN
 10
59.5341050125
 20
29.5339616979
  0
VERTEX
  8
DEFAULT_2
 62
8
  6
HIDDEN
 10
59.5842831926
 20
29.4890604941
  0
VERTEX
  8
DEFAULT_2
 62
8
  6
HIDDEN
 10
59.6375585062
 20
29.4472031049
  0
VERTEX
  8
DEFAULT_2
 62
8
  6
HIDDEN
 10
59.6654083767
 20
29.4273942681
  0
VERTEX
  8
DEFAULT_2
 62
8
  6
HIDDEN
 10
59.6940739988
 20
29.4083390822
  0
VERTEX
  8
DEFAULT_2
 62
8
  6
HIDDEN
 10
59.7538824859
 20
29.3725069031
  0
VERTEX
  8
DEFAULT_2
 62
8
  6
HIDDEN
 10
59.8171623766
 20
29.3396867992
  0
VERTEX
  8
DEFAULT_2
 62
8
  6
HIDDEN
 10
59.8841124841
 20
29.3098876406
  0
VERTEX
  8
DEFAULT_2
 62
8
  6
HIDDEN
 10
59.9549505779
 20
29.2831465297
  0
VERTEX
  8
DEFAULT_2
 62
8
  6
HIDDEN
 10
60.0299119968
 20
29.2595281666
  0
VERTEX
  8
DEFAULT_2
 62
8
  6
HIDDEN
 10
60.1092483706
 20
29.2391240287
  0
VERTEX
  8
DEFAULT_2
 62
8
  6
HIDDEN
 10
60.1932264806
 20
29.2220514149
  0
VERTEX
  8
DEFAULT_2
 62
8
  6
HIDDEN
 10
60.2821272817
 20
29.2084524052
  0
VERTEX
  8
DEFAULT_2
 62
8
  6
HIDDEN
 10
60.3762450903
 20
29.1984927805
  0
VERTEX
  8
DEFAULT_2
 62
8
  6
HIDDEN
 10
60.4758869371
 20
29.1923609437
  0
VERTEX
  8
DEFAULT_2
 62
8
  6
HIDDEN
 10
60.5813720739
 20
29.1902668735
  0
VERTEX
  8
DEFAULT_2
 62
8
  6
HIDDEN
 10
60.6209110088
 20
29.1906953715
  0
VERTEX
  8
DEFAULT_2
 62
8
  6
HIDDEN
 10
60.7089022464
 20
29.1947626276
  0
VERTEX
  8
DEFAULT_2
 62
8
  6
HIDDEN
 10
60.7956264366
 20
29.2030781858
  0
VERTEX
  8
DEFAULT_2
 62
8
  6
HIDDEN
 10
60.8809108916
 20
29.2155763968
  0
VERTEX
  8
DEFAULT_2
 62
8
  6
HIDDEN
 10
60.9645871763
 20
29.23218467
  0
VERTEX
  8
DEFAULT_2
 62
8
  6
HIDDEN
 10
61.0464923177
 20
29.2528240973
  0
VERTEX
  8
DEFAULT_2
 62
8
  6
HIDDEN
 10
61.1264698782
 20
29.2774102716
  0
VERTEX
  8
DEFAULT_2
 62
8
  6
HIDDEN
 10
61.2043708489
 20
29.3058542721
  0
VERTEX
  8
DEFAULT_2
 62
8
  6
HIDDEN
 10
61.2800543256
 20
29.3380637826
  0
VERTEX
  8
DEFAULT_2
 62
8
  6
HIDDEN
 10
61.3533879439
 20
29.3739442999
  0
VERTEX
  8
DEFAULT_2
 62
8
  6
HIDDEN
 10
61.4242480575
 20
29.4134003888
  0
VERTEX
  8
DEFAULT_2
 62
8
  6
HIDDEN
 10
61.4925196611
 20
29.4563369355
  0
VERTEX
  8
DEFAULT_2
 62
8
  6
HIDDEN
 10
61.5580960647
 20
29.5026603553
  0
VERTEX
  8
DEFAULT_2
 62
8
  6
HIDDEN
 10
61.620878344
 20
29.5522797151
  0
VERTEX
  8
DEFAULT_2
 62
8
  6
HIDDEN
 10
61.6807745945
 20
29.6051077343
  0
VERTEX
  8
DEFAULT_2
 62
8
  6
HIDDEN
 10
61.7376990258
 20
29.6610616382
  0
VERTEX
  8
DEFAULT_2
 62
8
  6
HIDDEN
 10
61.791570938
 20
29.7200638445
  0
VERTEX
  8
DEFAULT_2
 62
8
  6
HIDDEN
 10
61.8423136209
 20
29.7820424731
  0
VERTEX
  8
DEFAULT_2
 62
8
  6
HIDDEN
 10
61.8898532183
 20
29.8469316753
  0
VERTEX
  8
DEFAULT_2
 62
8
  6
HIDDEN
 10
61.9341175948
 20
29.9146717902
  0
VERTEX
  8
DEFAULT_2
 62
8
  6
HIDDEN
 10
61.9750352421
 20
29.9852093364
  0
VERTEX
  8
DEFAULT_2
 62
8
  6
HIDDEN
 10
62.0125342515
 20
30.0584968579
  0
VERTEX
  8
DEFAULT_2
 62
8
  6
HIDDEN
 10
62.0283962195
 20
30.0584968579
  0
VERTEX
  8
DEFAULT_2
 62
8
  6
HIDDEN
 10
62.0283962195
 20
29.2819567881
  0
VERTEX
  8
DEFAULT_2
 62
8
  6
HIDDEN
 10
62.4938611552
 20
29.2819567881
  0
VERTEX
  8
DEFAULT_2
 62
8
  6
HIDDEN
 10
62.4938611552
 20
33.4298099265
  0
VERTEX
  8
DEFAULT_2
 62
8
  6
HIDDEN
 10
61.9880836083
 20
33.4298099265
  0
VERTEX
  8
DEFAULT_2
 62
8
  6
HIDDEN
 10
61.9880836083
 20
31.2803326731
  0
SEQEND
  0
POLYLINE
  8
DEFAULT_2
 62
8
  6
HIDDEN
 66
1
 70
0
 40
0.1
 41
0.1
  0
VERTEX
  8
DEFAULT_2
 62
8
  6
HIDDEN
 10
65.0914325008
 20
33.5792967271
  0
VERTEX
  8
DEFAULT_2
 62
8
  6
HIDDEN
 10
65.0659803233
 20
33.5791363008
  0
VERTEX
  8
DEFAULT_2
 62
8
  6
HIDDEN
 10
64.9634913705
 20
33.5751960544
  0
VERTEX
  8
DEFAULT_2
 62
8
  6
HIDDEN
 10
64.8629903273
 20
33.5660541132
  0
VERTEX
  8
DEFAULT_2
 62
8
  6
HIDDEN
 10
64.7647216481
 20
33.5518227529
  0
VERTEX
  8
DEFAULT_2
 62
8
  6
HIDDEN
 10
64.6689217803
 20
33.5326265708
  0
VERTEX
  8
DEFAULT_2
 62
8
  6
HIDDEN
 10
64.5758166739
 20
33.5086012956
  0
VERTEX
  8
DEFAULT_2
 62
8
  6
HIDDEN
 10
64.4856195746
 20
33.4798921592
  0
VERTEX
  8
DEFAULT_2
 62
8
  6
HIDDEN
 10
64.3985292154
 20
33.4466518858
  0
VERTEX
  8
DEFAULT_2
 62
8
  6
HIDDEN
 10
64.3147285054
 20
33.4090383807
  0
VERTEX
  8
DEFAULT_2
 62
8
  6
HIDDEN
 10
64.2343837863
 20
33.3672122197
  0
VERTEX
  8
DEFAULT_2
 62
8
  6
HIDDEN
 10
64.1576446916
 20
33.3213340525
  0
VERTEX
  8
DEFAULT_2
 62
8
  6
HIDDEN
 10
64.0846446108
 20
33.2715620359
  0
VERTEX
  8
DEFAULT_2
 62
8
  6
HIDDEN
 10
64.0155017272
 20
33.2180494115
  0
VERTEX
  8
DEFAULT_2
 62
8
  6
HIDDEN
 10
63.9503205639
 20
33.1609423247
  0
VERTEX
  8
DEFAULT_2
 62
8
  6
HIDDEN
 10
63.8891939517
 20
33.1003779716
  0
VERTEX
  8
DEFAULT_2
 62
8
  6
HIDDEN
 10
63.8322053155
 20
33.0364831301
  0
VERTEX
  8
DEFAULT_2
 62
8
  6
HIDDEN
 10
63.7794311633
 20
32.9693731148
  0
VERTEX
  8
DEFAULT_2
 62
8
  6
HIDDEN
 10
63.730943667
 20
32.8991511665
  0
VERTEX
  8
DEFAULT_2
 62
8
  6
HIDDEN
 10
63.6868132225
 20
32.825908267
  0
VERTEX
  8
DEFAULT_2
 62
8
  6
HIDDEN
 10
63.6471108949
 20
32.7497233494
  0
VERTEX
  8
DEFAULT_2
 62
8
  6
HIDDEN
 10
63.6119106648
 20
32.6706638591
  0
VERTEX
  8
DEFAULT_2
 62
8
  6
HIDDEN
 10
63.5960495539
 20
32.6706638591
  0
VERTEX
  8
DEFAULT_2
 62
8
  6
HIDDEN
 10
63.5960495539
 20
33.4298099265
  0
VERTEX
  8
DEFAULT_2
 62
8
  6
HIDDEN
 10
63.1300937166
 20
33.4298099265
  0
VERTEX
  8
DEFAULT_2
 62
8
  6
HIDDEN
 10
63.1300937166
 20
28.1326733581
  0
VERTEX
  8
DEFAULT_2
 62
8
  6
HIDDEN
 10
63.6363613081
 20
28.1326733581
  0
VERTEX
  8
DEFAULT_2
 62
8
  6
HIDDEN
 10
63.6363613081
 20
30.0985257601
  0
VERTEX
  8
DEFAULT_2
 62
8
  6
HIDDEN
 10
63.6524811942
 20
30.0985257601
  0
VERTEX
  8
DEFAULT_2
 62
8
  6
HIDDEN
 10
63.6828480593
 20
30.0217745627
  0
VERTEX
  8
DEFAULT_2
 62
8
  6
HIDDEN
 10
63.717754987
 20
29.9478351137
  0
VERTEX
  8
DEFAULT_2
 62
8
  6
HIDDEN
 10
63.7571560497
 20
29.876696679
  0
VERTEX
  8
DEFAULT_2
 62
8
  6
HIDDEN
 10
63.801017443
 20
29.8083686596
  0
VERTEX
  8
DEFAULT_2
 62
8
  6
HIDDEN
 10
63.8493134637
 20
29.7428826582
  0
VERTEX
  8
DEFAULT_2
 62
8
  6
HIDDEN
 10
63.9020216551
 20
29.680294173
  0
VERTEX
  8
DEFAULT_2
 62
8
  6
HIDDEN
 10
63.9591171416
 20
29.6206837893
  0
VERTEX
  8
DEFAULT_2
 62
8
  6
HIDDEN
 10
64.0205662142
 20
29.5641577365
  0
VERTEX
  8
DEFAULT_2
 62
8
  6
HIDDEN
 10
64.0863192756
 20
29.510847674
  0
VERTEX
  8
DEFAULT_2
 62
8
  6
HIDDEN
 10
64.1563033116
 20
29.4609095714
  0
VERTEX
  8
DEFAULT_2
 62
8
  6
HIDDEN
 10
64.2304141241
 20
29.4145215561
  0
VERTEX
  8
DEFAULT_2
 62
8
  6
HIDDEN
 10
64.3085086463
 20
29.3718806197
  0
VERTEX
  8
DEFAULT_2
 62
8
  6
HIDDEN
 10
64.3903977479
 20
29.3331981109
  0
VERTEX
  8
DEFAULT_2
 62
8
  6
HIDDEN
 10
64.4758400279
 20
29.2986939996
  0
VERTEX
  8
DEFAULT_2
 62
8
  6
HIDDEN
 10
64.5645371639
 20
29.2685899843
  0
VERTEX
  8
DEFAULT_2
 62
8
  6
HIDDEN
 10
64.6561314168
 20
29.2431016276
  0
VERTEX
  8
DEFAULT_2
 62
8
  6
HIDDEN
 10
64.7502058551
 20
29.2224298372
  0
VERTEX
  8
DEFAULT_2
 62
8
  6
HIDDEN
 10
64.8462877447
 20
29.2067521535
  0
VERTEX
  8
DEFAULT_2
 62
8
  6
HIDDEN
 10
64.9438553273
 20
29.1962144213
  0
VERTEX
  8
DEFAULT_2
 62
8
  6
HIDDEN
 10
65.0423479035
 20
29.1909234996
  0
VERTEX
  8
DEFAULT_2
 62
8
  6
HIDDEN
 10
65.0914325008
 20
29.1902668735
  0
VERTEX
  8
DEFAULT_2
 62
8
  6
HIDDEN
 10
65.2014515524
 20
29.1928927253
  0
VERTEX
  8
DEFAULT_2
 62
8
  6
HIDDEN
 10
65.3078195424
 20
29.2006624206
  0
VERTEX
  8
DEFAULT_2
 62
8
  6
HIDDEN
 10
65.4106493988
 20
29.213427953
  0
VERTEX
  8
DEFAULT_2
 62
8
  6
HIDDEN
 10
65.5100500272
 20
29.2310602834
  0
VERTEX
  8
DEFAULT_2
 62
8
  6
HIDDEN
 10
65.6060638942
 20
29.2534339484
  0
VERTEX
  8
DEFAULT_2
 62
8
  6
HIDDEN
 10
65.6987583664
 20
29.2804390563
  0
VERTEX
  8
DEFAULT_2
 62
8
  6
HIDDEN
 10
65.7882262161
 20
29.3119902733
  0
VERTEX
  8
DEFAULT_2
 62
8
  6
HIDDEN
 10
65.8745510585
 20
29.348021762
  0
VERTEX
  8
DEFAULT_2
 62
8
  6
HIDDEN
 10
65.9578056648
 20
29.3884867322
  0
VERTEX
  8
DEFAULT_2
 62
8
  6
HIDDEN
 10
66.0380502827
 20
29.4333566127
  0
VERTEX
  8
DEFAULT_2
 62
8
  6
HIDDEN
 10
66.1153310128
 20
29.4826198193
  0
VERTEX
  8
DEFAULT_2
 62
8
  6
HIDDEN
 10
66.1896782926
 20
29.5362800999
  0
VERTEX
  8
DEFAULT_2
 62
8
  6
HIDDEN
 10
66.2611055396
 20
29.5943544514
  0
VERTEX
  8
DEFAULT_2
 62
8
  6
HIDDEN
 10
66.3296080062
 20
29.6568706105
  0
VERTEX
  8
DEFAULT_2
 62
8
  6
HIDDEN
 10
66.3951618917
 20
29.7238641327
  0
VERTEX
  8
DEFAULT_2
 62
8
  6
HIDDEN
 10
66.4577237568
 20
29.7953750827
  0
VERTEX
  8
DEFAULT_2
 62
8
  6
HIDDEN
 10
66.5172302784
 20
29.8714443677
  0
VERTEX
  8
DEFAULT_2
 62
8
  6
HIDDEN
 10
66.5735983772
 20
29.9521097545
  0
VERTEX
  8
DEFAULT_2
 62
8
  6
HIDDEN
 10
66.6267257475
 20
30.0374016207
  0
VERTEX
  8
DEFAULT_2
 62
8
  6
HIDDEN
 10
66.6764918126
 20
30.1273385006
  0
VERTEX
  8
DEFAULT_2
 62
8
  6
HIDDEN
 10
66.7227591239
 20
30.2219224986
  0
VERTEX
  8
DEFAULT_2
 62
8
  6
HIDDEN
 10
66.7653752179
 20
30.3211346592
  0
VERTEX
  8
DEFAULT_2
 62
8
  6
HIDDEN
 10
66.8041749356
 20
30.4249303985
  0
VERTEX
  8
DEFAULT_2
 62
8
  6
HIDDEN
 10
66.8389832013
 20
30.5332351243
  0
VERTEX
  8
DEFAULT_2
 62
8
  6
HIDDEN
 10
66.8696182416
 20
30.645940189
  0
VERTEX
  8
DEFAULT_2
 62
8
  6
HIDDEN
 10
66.8958952104
 20
30.7628993398
  0
VERTEX
  8
DEFAULT_2
 62
8
  6
HIDDEN
 10
66.9176301618
 20
30.8839258449
  0
VERTEX
  8
DEFAULT_2
 62
8
  6
HIDDEN
 10
66.9346442883
 20
31.008790477
  0
VERTEX
  8
DEFAULT_2
 62
8
  6
HIDDEN
 10
66.9467683145
 20
31.1372205324
  0
VERTEX
  8
DEFAULT_2
 62
8
  6
HIDDEN
 10
66.9538469091
 20
31.2689000388
  0
VERTEX
  8
DEFAULT_2
 62
8
  6
HIDDEN
 10
66.9557940501
 20
31.3846089951
  0
VERTEX
  8
DEFAULT_2
 62
8
  6
HIDDEN
 10
66.9538416937
 20
31.5004703993
  0
VERTEX
  8
DEFAULT_2
 62
8
  6
HIDDEN
 10
66.9467569833
 20
31.6321503056
  0
VERTEX
  8
DEFAULT_2
 62
8
  6
HIDDEN
 10
66.93462668
 20
31.7605842324
  0
VERTEX
  8
DEFAULT_2
 62
8
  6
HIDDEN
 10
66.9176060549
 20
31.8854555871
  0
VERTEX
  8
DEFAULT_2
 62
8
  6
HIDDEN
 10
66.8958643613
 20
32.0064910778
  0
VERTEX
  8
DEFAULT_2
 62
8
  6
HIDDEN
 10
66.8695804177
 20
32.1234609308
  0
VERTEX
  8
DEFAULT_2
 62
8
  6
HIDDEN
 10
66.83893821
 20
32.2361779168
  0
VERTEX
  8
DEFAULT_2
 62
8
  6
HIDDEN
 10
66.8041226488
 20
32.3444953383
  0
VERTEX
  8
DEFAULT_2
 62
8
  6
HIDDEN
 10
66.7653155918
 20
32.4483041575
  0
VERTEX
  8
DEFAULT_2
 62
8
  6
HIDDEN
 10
66.722692215
 20
32.5475294469
  0
VERTEX
  8
DEFAULT_2
 62
8
  6
HIDDEN
 10
66.6764177892
 20
32.6421263408
  0
VERTEX
  8
DEFAULT_2
 62
8
  6
HIDDEN
 10
66.6266448985
 20
32.7320756519
  0
VERTEX
  8
DEFAULT_2
 62
8
  6
HIDDEN
 10
66.5735111179
 20
32.8173793007
  0
VERTEX
  8
DEFAULT_2
 62
8
  6
HIDDEN
 10
66.5171371538
 20
32.8980556807
  0
VERTEX
  8
DEFAULT_2
 62
8
  6
HIDDEN
 10
66.457625443
 20
32.9741350688
  0
VERTEX
  8
DEFAULT_2
 62
8
  6
HIDDEN
 10
66.3950591954
 20
33.0456551662
  0
VERTEX
  8
DEFAULT_2
 62
8
  6
HIDDEN
 10
66.3295018632
 20
33.1126568464
  0
VERTEX
  8
DEFAULT_2
 62
8
  6
HIDDEN
 10
66.2609970115
 20
33.1751801678
  0
VERTEX
  8
DEFAULT_2
 62
8
  6
HIDDEN
 10
66.1895685628
 20
33.233260704
  0
VERTEX
  8
DEFAULT_2
 62
8
  6
HIDDEN
 10
66.1152213814
 20
33.2869262297
  0
VERTEX
  8
DEFAULT_2
 62
8
  6
HIDDEN
 10
66.0379421607
 20
33.3361937969
  0
VERTEX
  8
DEFAULT_2
 62
8
  6
HIDDEN
 10
65.9577005678
 20
33.3810672224
  0
VERTEX
  8
DEFAULT_2
 62
8
  6
HIDDEN
 10
65.8744505996
 20
33.4215350011
  0
VERTEX
  8
DEFAULT_2
 62
8
  6
HIDDEN
 10
65.7881320989
 20
33.4575686489
  0
VERTEX
  8
DEFAULT_2
 62
8
  6
HIDDEN
 10
65.6986723773
 20
33.4891214672
  0
VERTEX
  8
DEFAULT_2
 62
8
  6
HIDDEN
 10
65.6059878952
 20
33.5161277129
  0
VERTEX
  8
DEFAULT_2
 62
8
  6
HIDDEN
 10
65.5099859488
 20
33.5385021464
  0
VERTEX
  8
DEFAULT_2
 62
8
  6
HIDDEN
 10
65.4105982505
 20
33.556135116
  0
VERTEX
  8
DEFAULT_2
 62
8
  6
HIDDEN
 10
65.3077833504
 20
33.568900998
  0
VERTEX
  8
DEFAULT_2
 62
8
  6
HIDDEN
 10
65.2014323944
 20
33.5766708428
  0
VERTEX
  8
DEFAULT_2
 62
8
  6
HIDDEN
 10
65.0914325008
 20
33.5792967271
  0
SEQEND
  0
POLYLINE
  8
DEFAULT_2
 62
8
  6
HIDDEN
 66
1
 70
0
 40
0.1
 41
0.1
  0
VERTEX
  8
DEFAULT_2
 62
8
  6
HIDDEN
 10
65.0914325008
 20
29.6169409261
  0
VERTEX
  8
DEFAULT_2
 62
8
  6
HIDDEN
 10
65.0103640318
 20
29.6187231228
  0
VERTEX
  8
DEFAULT_2
 62
8
  6
HIDDEN
 10
64.9321047544
 20
29.6239927722
  0
VERTEX
  8
DEFAULT_2
 62
8
  6
HIDDEN
 10
64.8565451313
 20
29.6326443603
  0
VERTEX
  8
DEFAULT_2
 62
8
  6
HIDDEN
 10
64.8197431972
 20
29.6382093141
  0
VERTEX
  8
DEFAULT_2
 62
8
  6
HIDDEN
 10
64.7835881823
 20
29.6445842741
  0
VERTEX
  8
DEFAULT_2
 62
8
  6
HIDDEN
 10
64.713195141
 20
29.6597180277
  0
VERTEX
  8
DEFAULT_2
 62
8
  6
HIDDEN
 10
64.645266846
 20
29.6779709646
  0
VERTEX
  8
DEFAULT_2
 62
8
  6
HIDDEN
 10
64.5797095291
 20
29.6992826142
  0
VERTEX
  8
DEFAULT_2
 62
8
  6
HIDDEN
 10
64.5164357143
 20
29.7236067949
  0
VERTEX
  8
DEFAULT_2
 62
8
  6
HIDDEN
 10
64.4553651558
 20
29.7509115455
  0
VERTEX
  8
DEFAULT_2
 62
8
  6
HIDDEN
 10
64.3964257964
 20
29.7811788626
  0
VERTEX
  8
DEFAULT_2
 62
8
  6
HIDDEN
 10
64.3395547251
 20
29.8144042214
  0
VERTEX
  8
DEFAULT_2
 62
8
  6
HIDDEN
 10
64.2846991101
 20
29.850595864
  0
VERTEX
  8
DEFAULT_2
 62
8
  6
HIDDEN
 10
64.2318170829
 20
29.8897738391
  0
VERTEX
  8
DEFAULT_2
 62
8
  6
HIDDEN
 10
64.1808785505
 20
29.9319687822
  0
VERTEX
  8
DEFAULT_2
 62
8
  6
HIDDEN
 10
64.1318659135
 20
29.9772204257
  0
VERTEX
  8
DEFAULT_2
 62
8
  6
HIDDEN
 10
64.0847746694
 20
30.0255758308
  0
VERTEX
  8
DEFAULT_2
 62
8
  6
HIDDEN
 10
64.0396138856
 20
30.0770873321
  0
VERTEX
  8
DEFAULT_2
 62
8
  6
HIDDEN
 10
63.9964065237
 20
30.1318101814
  0
VERTEX
  8
DEFAULT_2
 62
8
  6
HIDDEN
 10
63.9551896035
 20
30.1897998763
  0
VERTEX
  8
DEFAULT_2
 62
8
  6
HIDDEN
 10
63.9160141909
 20
30.2511091539
  0
VERTEX
  8
DEFAULT_2
 62
8
  6
HIDDEN
 10
63.878945192
 20
30.3157846243
  0
VERTEX
  8
DEFAULT_2
 62
8
  6
HIDDEN
 10
63.8440609352
 20
30.3838630157
  0
VERTEX
  8
DEFAULT_2
 62
8
  6
HIDDEN
 10
63.8114525107
 20
30.4553670014
  0
VERTEX
  8
DEFAULT_2
 62
8
  6
HIDDEN
 10
63.7812228364
 20
30.5303005842
  0
VERTEX
  8
DEFAULT_2
 62
8
  6
HIDDEN
 10
63.7534854014
 20
30.608644018
  0
VERTEX
  8
DEFAULT_2
 62
8
  6
HIDDEN
 10
63.7283626352
 20
30.6903482738
  0
VERTEX
  8
DEFAULT_2
 62
8
  6
HIDDEN
 10
63.7059838359
 20
30.7753290795
  0
VERTEX
  8
DEFAULT_2
 62
8
  6
HIDDEN
 10
63.6864825867
 20
30.8634606221
  0
VERTEX
  8
DEFAULT_2
 62
8
  6
HIDDEN
 10
63.6699935854
 20
30.9545690606
  0
VERTEX
  8
DEFAULT_2
 62
8
  6
HIDDEN
 10
63.6566488224
 20
31.0484260965
  0
VERTEX
  8
DEFAULT_2
 62
8
  6
HIDDEN
 10
63.646573061
 20
31.1447429625
  0
VERTEX
  8
DEFAULT_2
 62
8
  6
HIDDEN
 10
63.6398786169
 20
31.2431653235
  0
VERTEX
  8
DEFAULT_2
 62
8
  6
HIDDEN
 10
63.6366595001
 20
31.3432697251
  0
VERTEX
  8
DEFAULT_2
 62
8
  6
HIDDEN
 10
63.6363613081
 20
31.3846089951
  0
VERTEX
  8
DEFAULT_2
 62
8
  6
HIDDEN
 10
63.6366966408
 20
31.4362448996
  0
VERTEX
  8
DEFAULT_2
 62
8
  6
HIDDEN
 10
63.6399043771
 20
31.5499288247
  0
VERTEX
  8
DEFAULT_2
 62
8
  6
HIDDEN
 10
63.6463863655
 20
31.6584633986
  0
VERTEX
  8
DEFAULT_2
 62
8
  6
HIDDEN
 10
63.6559948052
 20
31.7619569326
  0
VERTEX
  8
DEFAULT_2
 62
8
  6
HIDDEN
 10
63.6685868145
 20
31.8605356225
  0
VERTEX
  8
DEFAULT_2
 62
8
  6
HIDDEN
 10
63.6840260964
 20
31.9543390167
  0
VERTEX
  8
DEFAULT_2
 62
8
  6
HIDDEN
 10
63.7021843579
 20
32.0435162621
  0
VERTEX
  8
DEFAULT_2
 62
8
  6
HIDDEN
 10
63.7229425441
 20
32.1282229448
  0
VERTEX
  8
DEFAULT_2
 62
8
  6
HIDDEN
 10
63.7461919274
 20
32.2086183859
  0
VERTEX
  8
DEFAULT_2
 62
8
  6
HIDDEN
 10
63.7718350807
 20
32.2848632841
  0
VERTEX
  8
DEFAULT_2
 62
8
  6
HIDDEN
 10
63.7997867492
 20
32.3571176186
  0
VERTEX
  8
DEFAULT_2
 62
8
  6
HIDDEN
 10
63.8299746298
 20
32.4255387478
  0
VERTEX
  8
DEFAULT_2
 62
8
  6
HIDDEN
 10
63.8623400577
 20
32.4902796545
  0
VERTEX
  8
DEFAULT_2
 62
8
  6
HIDDEN
 10
63.8968385933
 20
32.5514872993
  0
VERTEX
  8
DEFAULT_2
 62
8
  6
HIDDEN
 10
63.9334405009
 20
32.6093010623
  0
VERTEX
  8
DEFAULT_2
 62
8
  6
HIDDEN
 10
63.9721311059
 20
32.6638512572
  0
VERTEX
  8
DEFAULT_2
 62
8
  6
HIDDEN
 10
64.0129110174
 20
32.7152577168
  0
VERTEX
  8
DEFAULT_2
 62
8
  6
HIDDEN
 10
64.0557962044
 20
32.7636284555
  0
VERTEX
  8
DEFAULT_2
 62
8
  6
HIDDEN
 10
64.1008179179
 20
32.8090584216
  0
VERTEX
  8
DEFAULT_2
 62
8
  6
HIDDEN
 10
64.1480224542
 20
32.8516283573
  0
VERTEX
  8
DEFAULT_2
 62
8
  6
HIDDEN
 10
64.197470764
 20
32.8914037879
  0
VERTEX
  8
DEFAULT_2
 62
8
  6
HIDDEN
 10
64.2492379164
 20
32.9284341594
  0
VERTEX
  8
DEFAULT_2
 62
8
  6
HIDDEN
 10
64.3034124353
 20
32.9627521434
  0
VERTEX
  8
DEFAULT_2
 62
8
  6
HIDDEN
 10
64.3600955313
 20
32.9943731227
  0
VERTEX
  8
DEFAULT_2
 62
8
  6
HIDDEN
 10
64.4194002561
 20
33.0232948626
  0
VERTEX
  8
DEFAULT_2
 62
8
  6
HIDDEN
 10
64.4814506094
 20
33.0494973696
  0
VERTEX
  8
DEFAULT_2
 62
8
  6
HIDDEN
 10
64.5463518275
 20
33.0729333642
  0
VERTEX
  8
DEFAULT_2
 62
8
  6
HIDDEN
 10
64.6141835682
 20
33.0935348629
  0
VERTEX
  8
DEFAULT_2
 62
8
  6
HIDDEN
 10
64.6850923895
 20
33.1112426066
  0
VERTEX
  8
DEFAULT_2
 62
8
  6
HIDDEN
 10
64.7592327483
 20
33.1259801069
  0
VERTEX
  8
DEFAULT_2
 62
8
  6
HIDDEN
 10
64.8367661995
 20
33.1376542096
  0
VERTEX
  8
DEFAULT_2
 62
8
  6
HIDDEN
 10
64.9178606726
 20
33.1461557274
  0
VERTEX
  8
DEFAULT_2
 62
8
  6
HIDDEN
 10
65.0026898289
 20
33.1513601191
  0
VERTEX
  8
DEFAULT_2
 62
8
  6
HIDDEN
 10
65.0914325008
 20
33.1531281941
  0
VERTEX
  8
DEFAULT_2
 62
8
  6
HIDDEN
 10
65.16470315
 20
33.1513412311
  0
VERTEX
  8
DEFAULT_2
 62
8
  6
HIDDEN
 10
65.2004891789
 20
33.1491263322
  0
VERTEX
  8
DEFAULT_2
 62
8
  6
HIDDEN
 10
65.2357165162
 20
33.146046766
  0
VERTEX
  8
DEFAULT_2
 62
8
  6
HIDDEN
 10
65.3045040794
 20
33.1373424652
  0
VERTEX
  8
DEFAULT_2
 62
8
  6
HIDDEN
 10
65.3711433324
 20
33.1253135878
  0
VERTEX
  8
DEFAULT_2
 62
8
  6
HIDDEN
 10
65.4357206833
 20
33.11002938
  0
VERTEX
  8
DEFAULT_2
 62
8
  6
HIDDEN
 10
65.4983172479
 20
33.0915435467
  0
VERTEX
  8
DEFAULT_2
 62
8
  6
HIDDEN
 10
65.5590077914
 20
33.0698942673
  0
VERTEX
  8
DEFAULT_2
 62
8
  6
HIDDEN
 10
65.6178596333
 20
33.0451044358
  0
VERTEX
  8
DEFAULT_2
 62
8
  6
HIDDEN
 10
65.674931538
 20
33.0171821517
  0
VERTEX
  8
DEFAULT_2
 62
8
  6
HIDDEN
 10
65.7302726203
 20
32.9861214811
  0
VERTEX
  8
DEFAULT_2
 62
8
  6
HIDDEN
 10
65.7839212911
 20
32.9519035073
  0
VERTEX
  8
DEFAULT_2
 62
8
  6
HIDDEN
 10
65.8359042736
 20
32.9144976817
  0
VERTEX
  8
DEFAULT_2
 62
8
  6
HIDDEN
 10
65.8862357131
 20
32.8738634859
  0
VERTEX
  8
DEFAULT_2
 62
8
  6
HIDDEN
 10
65.9349164058
 20
32.8299524121
  0
VERTEX
  8
DEFAULT_2
 62
8
  6
HIDDEN
 10
65.9819331651
 20
32.7827102687
  0
VERTEX
  8
DEFAULT_2
 62
8
  6
HIDDEN
 10
66.027258345
 20
32.7320798191
  0
VERTEX
  8
DEFAULT_2
 62
8
  6
HIDDEN
 10
66.0708495364
 20
32.6780037642
  0
VERTEX
  8
DEFAULT_2
 62
8
  6
HIDDEN
 10
66.1126494533
 20
32.6204280809
  0
VERTEX
  8
DEFAULT_2
 62
8
  6
HIDDEN
 10
66.1525860293
 20
32.5593057299
  0
VERTEX
  8
DEFAULT_2
 62
8
  6
HIDDEN
 10
66.1905727462
 20
32.4946007461
  0
VERTEX
  8
DEFAULT_2
 62
8
  6
HIDDEN
 10
66.2265092281
 20
32.4262927191
  0
VERTEX
  8
DEFAULT_2
 62
8
  6
HIDDEN
 10
66.2602821346
 20
32.3543816614
  0
VERTEX
  8
DEFAULT_2
 62
8
  6
HIDDEN
 10
66.291766405
 20
32.2788932393
  0
VERTEX
  8
DEFAULT_2
 62
8
  6
HIDDEN
 10
66.3208269037
 20
32.1998843144
  0
VERTEX
  8
DEFAULT_2
 62
8
  6
HIDDEN
 10
66.347320531
 20
32.1174486971
  0
VERTEX
  8
DEFAULT_2
 62
8
  6
HIDDEN
 10
66.3710988588
 20
32.0317229549
  0
VERTEX
  8
DEFAULT_2
 62
8
  6
HIDDEN
 10
66.392011348
 20
31.9428920466
  0
VERTEX
  8
DEFAULT_2
 62
8
  6
HIDDEN
 10
66.409909183
 20
31.8511944648
  0
VERTEX
  8
DEFAULT_2
 62
8
  6
HIDDEN
 10
66.424649727
 20
31.7569264777
  0
VERTEX
  8
DEFAULT_2
 62
8
  6
HIDDEN
 10
66.4361015516
 20
31.6604449772
  0
VERTEX
  8
DEFAULT_2
 62
8
  6
HIDDEN
 10
66.4441499206
 20
31.5621683756
  0
VERTEX
  8
DEFAULT_2
 62
8
  6
HIDDEN
 10
66.4487025253
 20
31.4625749821
  0
VERTEX
  8
DEFAULT_2
 62
8
  6
HIDDEN
 10
66.4497843768
 20
31.3846089951
  0
VERTEX
  8
DEFAULT_2
 62
8
  6
HIDDEN
 10
66.4487126905
 20
31.3070425914
  0
VERTEX
  8
DEFAULT_2
 62
8
  6
HIDDEN
 10
66.4441730725
 20
31.2074889486
  0
VERTEX
  8
DEFAULT_2
 62
8
  6
HIDDEN
 10
66.4361374612
 20
31.1092506378
  0
VERTEX
  8
DEFAULT_2
 62
8
  6
HIDDEN
 10
66.4246980703
 20
31.0128057305
  0
VERTEX
  8
DEFAULT_2
 62
8
  6
HIDDEN
 10
66.4099695439
 20
30.9185724541
  0
VERTEX
  8
DEFAULT_2
 62
8
  6
HIDDEN
 10
66.3920832236
 20
30.8269075656
  0
VERTEX
  8
DEFAULT_2
 62
8
  6
HIDDEN
 10
66.371181665
 20
30.7381072432
  0
VERTEX
  8
DEFAULT_2
 62
8
  6
HIDDEN
 10
66.3474136096
 20
30.6524099289
  0
VERTEX
  8
DEFAULT_2
 62
8
  6
HIDDEN
 10
66.3209295283
 20
30.5700005648
  0
VERTEX
  8
DEFAULT_2
 62
8
  6
HIDDEN
 10
66.2918777869
 20
30.4910157305
  0
VERTEX
  8
DEFAULT_2
 62
8
  6
HIDDEN
 10
66.2604014281
 20
30.4155492719
  0
VERTEX
  8
DEFAULT_2
 62
8
  6
HIDDEN
 10
66.2266355347
 20
30.3436581057
  0
VERTEX
  8
DEFAULT_2
 62
8
  6
HIDDEN
 10
66.1907051184
 20
30.2753679693
  0
VERTEX
  8
DEFAULT_2
 62
8
  6
HIDDEN
 10
66.152723473
 20
30.210678959
  0
VERTEX
  8
DEFAULT_2
 62
8
  6
HIDDEN
 10
66.1127909309
 20
30.1495707588
  0
VERTEX
  8
DEFAULT_2
 62
8
  6
HIDDEN
 10
66.0709939677
 20
30.0920075059
  0
VERTEX
  8
DEFAULT_2
 62
8
  6
HIDDEN
 10
66.0274046099
 20
30.0379422697
  0
VERTEX
  8
DEFAULT_2
 62
8
  6
HIDDEN
 10
65.9820801046
 20
29.9873211408
  0
VERTEX
  8
DEFAULT_2
 62
8
  6
HIDDEN
 10
65.9350628241
 20
29.9400869372
  0
VERTEX
  8
DEFAULT_2
 62
8
  6
HIDDEN
 10
65.8863803797
 20
29.8961825419
  0
VERTEX
  8
DEFAULT_2
 62
8
  6
HIDDEN
 10
65.8360459253
 20
29.8555538836
  0
VERTEX
  8
DEFAULT_2
 62
8
  6
HIDDEN
 10
65.7840586349
 20
29.8181525748
  0
VERTEX
  8
DEFAULT_2
 62
8
  6
HIDDEN
 10
65.7304043365
 20
29.7839382162
  0
VERTEX
  8
DEFAULT_2
 62
8
  6
HIDDEN
 10
65.6750562836
 20
29.7528803755
  0
VERTEX
  8
DEFAULT_2
 62
8
  6
HIDDEN
 10
65.6179760456
 20
29.7249602485
  0
VERTEX
  8
DEFAULT_2
 62
8
  6
HIDDEN
 10
65.559114492
 20
29.7001720091
  0
VERTEX
  8
DEFAULT_2
 62
8
  6
HIDDEN
 10
65.4984128463
 20
29.6785238582
  0
VERTEX
  8
DEFAULT_2
 62
8
  6
HIDDEN
 10
65.4358037812
 20
29.6600387842
  0
VERTEX
  8
DEFAULT_2
 62
8
  6
HIDDEN
 10
65.3712125266
 20
29.6447550527
  0
VERTEX
  8
DEFAULT_2
 62
8
  6
HIDDEN
 10
65.3045579657
 20
29.632726446
  0
VERTEX
  8
DEFAULT_2
 62
8
  6
HIDDEN
 10
65.2357536919
 20
29.6240222784
  0
VERTEX
  8
DEFAULT_2
 62
8
  6
HIDDEN
 10
65.2005175624
 20
29.6209427523
  0
VERTEX
  8
DEFAULT_2
 62
8
  6
HIDDEN
 10
65.1647224478
 20
29.6187278782
  0
VERTEX
  8
DEFAULT_2
 62
8
  6
HIDDEN
 10
65.0914325008
 20
29.6169409261
  0
SEQEND
  0
POLYLINE
  8
DEFAULT_2
 62
8
  6
HIDDEN
 66
1
 70
0
 40
0.1
 41
0.1
  0
VERTEX
  8
DEFAULT_2
 62
8
  6
HIDDEN
 10
51.4139546981
 20
32.6590781743
  0
VERTEX
  8
DEFAULT_2
 62
8
  6
HIDDEN
 10
51.3980927298
 20
32.6590781743
  0
VERTEX
  8
DEFAULT_2
 62
8
  6
HIDDEN
 10
51.363517981
 20
32.7256213538
  0
VERTEX
  8
DEFAULT_2
 62
8
  6
HIDDEN
 10
51.3234745092
 20
32.791438218
  0
VERTEX
  8
DEFAULT_2
 62
8
  6
HIDDEN
 10
51.2780449423
 20
32.8561169441
  0
VERTEX
  8
DEFAULT_2
 62
8
  6
HIDDEN
 10
51.22736837
 20
32.9192220428
  0
VERTEX
  8
DEFAULT_2
 62
8
  6
HIDDEN
 10
51.1716413831
 20
32.9803061288
  0
VERTEX
  8
DEFAULT_2
 62
8
  6
HIDDEN
 10
51.1111154327
 20
33.038922741
  0
VERTEX
  8
DEFAULT_2
 62
8
  6
HIDDEN
 10
51.0637750188
 20
33.0801526078
  0
VERTEX
  8
DEFAULT_2
 62
8
  6
HIDDEN
 10
50.9958096763
 20
33.1333677947
  0
VERTEX
  8
DEFAULT_2
 62
8
  6
HIDDEN
 10
50.924116184
 20
33.1829190844
  0
VERTEX
  8
DEFAULT_2
 62
8
  6
HIDDEN
 10
50.8490778504
 20
33.2284996649
  0
VERTEX
  8
DEFAULT_2
 62
8
  6
HIDDEN
 10
50.7710761309
 20
33.2698483882
  0
VERTEX
  8
DEFAULT_2
 62
8
  6
HIDDEN
 10
50.6904810725
 20
33.3067489238
  0
VERTEX
  8
DEFAULT_2
 62
8
  6
HIDDEN
 10
50.6076436732
 20
33.3390267579
  0
VERTEX
  8
DEFAULT_2
 62
8
  6
HIDDEN
 10
50.5228902995
 20
33.366544621
  0
VERTEX
  8
DEFAULT_2
 62
8
  6
HIDDEN
 10
50.4365190972
 20
33.3891969209
  0
VERTEX
  8
DEFAULT_2
 62
8
  6
HIDDEN
 10
50.3487981877
 20
33.4069037019
  0
VERTEX
  8
DEFAULT_2
 62
8
  6
HIDDEN
 10
50.2599653651
 20
33.4196045472
  0
VERTEX
  8
DEFAULT_2
 62
8
  6
HIDDEN
 10
50.1702289821
 20
33.4272527443
  0
VERTEX
  8
DEFAULT_2
 62
8
  6
HIDDEN
 10
50.0797697217
 20
33.4298099265
  0
VERTEX
  8
DEFAULT_2
 62
8
  6
HIDDEN
 10
49.9685085706
 20
33.4272455101
  0
VERTEX
  8
DEFAULT_2
 62
8
  6
HIDDEN
 10
49.8604237817
 20
33.4196440088
  0
VERTEX
  8
DEFAULT_2
 62
8
  6
HIDDEN
 10
49.8075619454
 20
33.4139951472
  0
VERTEX
  8
DEFAULT_2
 62
8
  6
HIDDEN
 10
49.7554893233
 20
33.4071356138
  0
VERTEX
  8
DEFAULT_2
 62
8
  6
HIDDEN
 10
49.6537258966
 20
33.3898490935
  0
VERTEX
  8
DEFAULT_2
 62
8
  6
HIDDEN
 10
49.5551188477
 20
33.3679028313
  0
VERTEX
  8
DEFAULT_2
 62
8
  6
HIDDEN
 10
49.4596496647
 20
33.3414043588
  0
VERTEX
  8
DEFAULT_2
 62
8
  6
HIDDEN
 10
49.3673045321
 20
33.3104511515
  0
VERTEX
  8
DEFAULT_2
 62
8
  6
HIDDEN
 10
49.2780754729
 20
33.2751309295
  0
VERTEX
  8
DEFAULT_2
 62
8
  6
HIDDEN
 10
49.1919615009
 20
33.2355221908
  0
VERTEX
  8
DEFAULT_2
 62
8
  6
HIDDEN
 10
49.1089697498
 20
33.1916949957
  0
VERTEX
  8
DEFAULT_2
 62
8
  6
HIDDEN
 10
49.0291165408
 20
33.1437120128
  0
VERTEX
  8
DEFAULT_2
 62
8
  6
HIDDEN
 10
48.9524283488
 20
33.0916298312
  0
VERTEX
  8
DEFAULT_2
 62
8
  6
HIDDEN
 10
48.8789426232
 20
33.0355005309
  0
VERTEX
  8
DEFAULT_2
 62
8
  6
HIDDEN
 10
48.8087084216
 20
32.9753734963
  0
VERTEX
  8
DEFAULT_2
 62
8
  6
HIDDEN
 10
48.7417868148
 20
32.9112974428
  0
VERTEX
  8
DEFAULT_2
 62
8
  6
HIDDEN
 10
48.6782510251
 20
32.8433226184
  0
VERTEX
  8
DEFAULT_2
 62
8
  6
HIDDEN
 10
48.6181862692
 20
32.7715031285
  0
VERTEX
  8
DEFAULT_2
 62
8
  6
HIDDEN
 10
48.5616892788
 20
32.6958993218
  0
VERTEX
  8
DEFAULT_2
 62
8
  6
HIDDEN
 10
48.5088674895
 20
32.616580168
  0
VERTEX
  8
DEFAULT_2
 62
8
  6
HIDDEN
 10
48.4598378931
 20
32.5336255472
  0
VERTEX
  8
DEFAULT_2
 62
8
  6
HIDDEN
 10
48.4147255674
 20
32.4471283707
  0
VERTEX
  8
DEFAULT_2
 62
8
  6
HIDDEN
 10
48.3736619077
 20
32.3571964476
  0
VERTEX
  8
DEFAULT_2
 62
8
  6
HIDDEN
 10
48.3367826012
 20
32.2639540179
  0
VERTEX
  8
DEFAULT_2
 62
8
  6
HIDDEN
 10
48.3042253984
 20
32.167542878
  0
VERTEX
  8
DEFAULT_2
 62
8
  6
HIDDEN
 10
48.2761277494
 20
32.0681230376
  0
VERTEX
  8
DEFAULT_2
 62
8
  6
HIDDEN
 10
48.2526243823
 20
31.9658728645
  0
VERTEX
  8
DEFAULT_2
 62
8
  6
HIDDEN
 10
48.2338449085
 20
31.8609886938
  0
VERTEX
  8
DEFAULT_2
 62
8
  6
HIDDEN
 10
48.2199115436
 20
31.7536839021
  0
VERTEX
  8
DEFAULT_2
 62
8
  6
HIDDEN
 10
48.2109370265
 20
31.6441874754
  0
VERTEX
  8
DEFAULT_2
 62
8
  6
HIDDEN
 10
48.2070228155
 20
31.5327421199
  0
VERTEX
  8
DEFAULT_2
 62
8
  6
HIDDEN
 10
48.2068452416
 20
31.5032255681
  0
VERTEX
  8
DEFAULT_2
 62
8
  6
HIDDEN
 10
48.2075093154
 20
31.4374402962
  0
VERTEX
  8
DEFAULT_2
 62
8
  6
HIDDEN
 10
48.2125687328
 20
31.3123045283
  0
VERTEX
  8
DEFAULT_2
 62
8
  6
HIDDEN
 10
48.222453733
 20
31.1916846305
  0
VERTEX
  8
DEFAULT_2
 62
8
  6
HIDDEN
 10
48.2369820262
 20
31.0756530037
  0
VERTEX
  8
DEFAULT_2
 62
8
  6
HIDDEN
 10
48.2559730413
 20
30.9642455409
  0
VERTEX
  8
DEFAULT_2
 62
8
  6
HIDDEN
 10
48.2792517605
 20
30.8574661828
  0
VERTEX
  8
DEFAULT_2
 62
8
  6
HIDDEN
 10
48.3066521674
 20
30.7552915873
  0
VERTEX
  8
DEFAULT_2
 62
8
  6
HIDDEN
 10
48.3380203
 20
30.6576758157
  0
VERTEX
  8
DEFAULT_2
 62
8
  6
HIDDEN
 10
48.373216904
 20
30.5645549625
  0
VERTEX
  8
DEFAULT_2
 62
8
  6
HIDDEN
 10
48.4121196895
 20
30.4758516715
  0
VERTEX
  8
DEFAULT_2
 62
8
  6
HIDDEN
 10
48.4546251937
 20
30.3914795001
  0
VERTEX
  8
DEFAULT_2
 62
8
  6
HIDDEN
 10
48.5006502533
 20
30.3113470965
  0
VERTEX
  8
DEFAULT_2
 62
8
  6
HIDDEN
 10
48.5501330885
 20
30.2353621664
  0
VERTEX
  8
DEFAULT_2
 62
8
  6
HIDDEN
 10
48.6030340053
 20
30.1634352004
  0
VERTEX
  8
DEFAULT_2
 62
8
  6
HIDDEN
 10
48.6593357201
 20
30.0954829381
  0
VERTEX
  8
DEFAULT_2
 62
8
  6
HIDDEN
 10
48.719043319
 20
30.0314315405
  0
VERTEX
  8
DEFAULT_2
 62
8
  6
HIDDEN
 10
48.7821838699
 20
29.9712194439
  0
VERTEX
  8
DEFAULT_2
 62
8
  6
HIDDEN
 10
48.8488057125
 20
29.9147998665
  0
VERTEX
  8
DEFAULT_2
 62
8
  6
HIDDEN
 10
48.9189774611
 20
29.8621429465
  0
VERTEX
  8
DEFAULT_2
 62
8
  6
HIDDEN
 10
48.9927867633
 20
29.8132374936
  0
VERTEX
  8
DEFAULT_2
 62
8
  6
HIDDEN
 10
49.0703388644
 20
29.7680923461
  0
VERTEX
  8
DEFAULT_2
 62
8
  6
HIDDEN
 10
49.1517550307
 20
29.7267373361
  0
VERTEX
  8
DEFAULT_2
 62
8
  6
HIDDEN
 10
49.1939560281
 20
29.7074954596
  0
VERTEX
  8
DEFAULT_2
 62
8
  6
HIDDEN
 10
49.237158924
 20
29.6892287419
  0
VERTEX
  8
DEFAULT_2
 62
8
  6
HIDDEN
 10
49.3266027045
 20
29.6556707162
  0
VERTEX
  8
DEFAULT_2
 62
8
  6
HIDDEN
 10
49.4202389714
 20
29.6261414635
  0
VERTEX
  8
DEFAULT_2
 62
8
  6
HIDDEN
 10
49.5182307897
 20
29.6007410406
  0
VERTEX
  8
DEFAULT_2
 62
8
  6
HIDDEN
 10
49.6207500789
 20
29.579590845
  0
VERTEX
  8
DEFAULT_2
 62
8
  6
HIDDEN
 10
49.7279761103
 20
29.5628328978
  0
VERTEX
  8
DEFAULT_2
 62
8
  6
HIDDEN
 10
49.8400941319
 20
29.5506289676
  0
VERTEX
  8
DEFAULT_2
 62
8
  6
HIDDEN
 10
49.9572941286
 20
29.5431595775
  0
VERTEX
  8
DEFAULT_2
 62
8
  6
HIDDEN
 10
50.0797697217
 20
29.5406229353
  0
VERTEX
  8
DEFAULT_2
 62
8
  6
HIDDEN
 10
50.1750693842
 20
29.543194552
  0
VERTEX
  8
DEFAULT_2
 62
8
  6
HIDDEN
 10
50.2685933882
 20
29.5508500124
  0
VERTEX
  8
DEFAULT_2
 62
8
  6
HIDDEN
 10
50.3601403183
 20
29.5634939714
  0
VERTEX
  8
DEFAULT_2
 62
8
  6
HIDDEN
 10
50.4495062981
 20
29.5810221295
  0
VERTEX
  8
DEFAULT_2
 62
8
  6
HIDDEN
 10
50.5304189691
 20
29.6015897858
  0
VERTEX
  8
DEFAULT_2
 62
8
  6
HIDDEN
 10
50.6149733891
 20
29.6282017553
  0
VERTEX
  8
DEFAULT_2
 62
8
  6
HIDDEN
 10
50.696712451
 20
29.6593172549
  0
VERTEX
  8
DEFAULT_2
 62
8
  6
HIDDEN
 10
50.7754443654
 20
29.6947879338
  0
VERTEX
  8
DEFAULT_2
 62
8
  6
HIDDEN
 10
50.8509854263
 20
29.7344579619
  0
VERTEX
  8
DEFAULT_2
 62
8
  6
HIDDEN
 10
50.9231615244
 20
29.7781655213
  0
VERTEX
  8
DEFAULT_2
 62
8
  6
HIDDEN
 10
50.9918093143
 20
29.8257445707
  0
VERTEX
  8
DEFAULT_2
 62
8
  6
HIDDEN
 10
51.0567769644
 20
29.8770267991
  0
VERTEX
  8
DEFAULT_2
 62
8
  6
HIDDEN
 10
51.1179244441
 20
29.9318436702
  0
VERTEX
  8
DEFAULT_2
 62
8
  6
HIDDEN
 10
51.1751233338
 20
29.9900284547
  0
VERTEX
  8
DEFAULT_2
 62
8
  6
HIDDEN
 10
51.2282561747
 20
30.0514181471
  0
VERTEX
  8
DEFAULT_2
 62
8
  6
HIDDEN
 10
51.2772154018
 20
30.1158551771
  0
VERTEX
  8
DEFAULT_2
 62
8
  6
HIDDEN
 10
51.3219019298
 20
30.1831888407
  0
VERTEX
  8
DEFAULT_2
 62
8
  6
HIDDEN
 10
51.3622234783
 20
30.2532763977
  0
VERTEX
  8
DEFAULT_2
 62
8
  6
HIDDEN
 10
51.3980927298
 20
30.325983807
  0
VERTEX
  8
DEFAULT_2
 62
8
  6
HIDDEN
 10
51.4139546981
 20
30.325983807
  0
VERTEX
  8
DEFAULT_2
 62
8
  6
HIDDEN
 10
51.4139546981
 20
29.8330505728
  0
VERTEX
  8
DEFAULT_2
 62
8
  6
HIDDEN
 10
51.4122865668
 20
29.7064473522
  0
VERTEX
  8
DEFAULT_2
 62
8
  6
HIDDEN
 10
51.4058274834
 20
29.5478653207
  0
VERTEX
  8
DEFAULT_2
 62
8
  6
HIDDEN
 10
51.3961930231
 20
29.4151962944
  0
VERTEX
  8
DEFAULT_2
 62
8
  6
HIDDEN
 10
51.3852484042
 20
29.3169820775
  0
VERTEX
  8
DEFAULT_2
 62
8
  6
HIDDEN
 10
51.3797762494
 20
29.2817365482
  0
VERTEX
  8
DEFAULT_2
 62
8
  6
HIDDEN
 10
51.3669538045
 20
29.2203634089
  0
VERTEX
  8
DEFAULT_2
 62
8
  6
HIDDEN
 10
51.3498220921
 20
29.159875731
  0
VERTEX
  8
DEFAULT_2
 62
8
  6
HIDDEN
 10
51.3285270298
 20
29.1014677816
  0
VERTEX
  8
DEFAULT_2
 62
8
  6
HIDDEN
 10
51.303222206
 20
29.0457267643
  0
VERTEX
  8
DEFAULT_2
 62
8
  6
HIDDEN
 10
51.2740288776
 20
28.9929422291
  0
VERTEX
  8
DEFAULT_2
 62
8
  6
HIDDEN
 10
51.241021675
 20
28.9432471431
  0
VERTEX
  8
DEFAULT_2
 62
8
  6
HIDDEN
 10
51.2042234168
 20
28.8966933541
  0
VERTEX
  8
DEFAULT_2
 62
8
  6
HIDDEN
 10
51.1636041111
 20
28.8532963142
  0
VERTEX
  8
DEFAULT_2
 62
8
  6
HIDDEN
 10
51.1190823193
 20
28.8130634417
  0
VERTEX
  8
DEFAULT_2
 62
8
  6
HIDDEN
 10
51.0705280362
 20
28.7760128159
  0
VERTEX
  8
DEFAULT_2
 62
8
  6
HIDDEN
 10
51.017766575
 20
28.7421856116
  0
VERTEX
  8
DEFAULT_2
 62
8
  6
HIDDEN
 10
50.9521367194
 20
28.7066847528
  0
VERTEX
  8
DEFAULT_2
 62
8
  6
HIDDEN
 10
50.8812832693
 20
28.6740412397
  0
VERTEX
  8
DEFAULT_2
 62
8
  6
HIDDEN
 10
50.8051622925
 20
28.6444422902
  0
VERTEX
  8
DEFAULT_2
 62
8
  6
HIDDEN
 10
50.7238544125
 20
28.6181159851
  0
VERTEX
  8
DEFAULT_2
 62
8
  6
HIDDEN
 10
50.6376477294
 20
28.5953283453
  0
VERTEX
  8
DEFAULT_2
 62
8
  6
HIDDEN
 10
50.5471811708
 20
28.5763777277
  0
VERTEX
  8
DEFAULT_2
 62
8
  6
HIDDEN
 10
50.4537165197
 20
28.561582666
  0
VERTEX
  8
DEFAULT_2
 62
8
  6
HIDDEN
 10
50.3597249178
 20
28.5512514888
  0
VERTEX
  8
DEFAULT_2
 62
8
  6
HIDDEN
 10
50.2704230432
 20
28.5455902105
  0
VERTEX
  8
DEFAULT_2
 62
8
  6
HIDDEN
 10
50.2306518596
 20
28.5444655314
  0
VERTEX
  8
DEFAULT_2
 62
8
  6
HIDDEN
 10
50.0797697217
 20
28.545239286
  0
VERTEX
  8
DEFAULT_2
 62
8
  6
HIDDEN
 10
50.0527992205
 20
28.545374161
  0
VERTEX
  8
DEFAULT_2
 62
8
  6
HIDDEN
 10
49.9409709092
 20
28.5489296932
  0
VERTEX
  8
DEFAULT_2
 62
8
  6
HIDDEN
 10
49.8351047367
 20
28.5571142273
  0
VERTEX
  8
DEFAULT_2
 62
8
  6
HIDDEN
 10
49.7354533187
 20
28.5696444032
  0
VERTEX
  8
DEFAULT_2
 62
8
  6
HIDDEN
 10
49.6420978232
 20
28.5862332998
  0
VERTEX
  8
DEFAULT_2
 62
8
  6
HIDDEN
 10
49.5549949677
 20
28.6066042541
  0
VERTEX
  8
DEFAULT_2
 62
8
  6
HIDDEN
 10
49.4740133038
 20
28.6305008391
  0
VERTEX
  8
DEFAULT_2
 62
8
  6
HIDDEN
 10
49.398961374
 20
28.6576942351
  0
VERTEX
  8
DEFAULT_2
 62
8
  6
HIDDEN
 10
49.3296098497
 20
28.687988804
  0
VERTEX
  8
DEFAULT_2
 62
8
  6
HIDDEN
 10
49.2657092772
 20
28.7212263682
  0
VERTEX
  8
DEFAULT_2
 62
8
  6
HIDDEN
 10
49.2070046459
 20
28.7572894684
  0
VERTEX
  8
DEFAULT_2
 62
8
  6
HIDDEN
 10
49.1532476485
 20
28.7961037165
  0
VERTEX
  8
DEFAULT_2
 62
8
  6
HIDDEN
 10
49.104207214
 20
28.8376392523
  0
VERTEX
  8
DEFAULT_2
 62
8
  6
HIDDEN
 10
49.0596786582
 20
28.881911257
  0
VERTEX
  8
DEFAULT_2
 62
8
  6
HIDDEN
 10
49.0194916058
 20
28.9289794707
  0
VERTEX
  8
DEFAULT_2
 62
8
  6
HIDDEN
 10
48.9835166951
 20
28.9789466946
  0
VERTEX
  8
DEFAULT_2
 62
8
  6
HIDDEN
 10
48.9516709957
 20
29.031956332
  0
VERTEX
  8
DEFAULT_2
 62
8
  6
HIDDEN
 10
48.9239220456
 20
29.0881891071
  0
VERTEX
  8
DEFAULT_2
 62
8
  6
HIDDEN
 10
48.9002904472
 20
29.1478591804
  0
VERTEX
  8
DEFAULT_2
 62
8
  6
HIDDEN
 10
48.8808510408
 20
29.21120993
  0
VERTEX
  8
DEFAULT_2
 62
8
  6
HIDDEN
 10
48.8657488274
 20
29.278423309
  0
VERTEX
  8
DEFAULT_2
 62
8
  6
HIDDEN
 10
48.3594812231
 20
29.278423309
  0
VERTEX
  8
DEFAULT_2
 62
8
  6
HIDDEN
 10
48.3683267626
 20
29.2001950038
  0
VERTEX
  8
DEFAULT_2
 62
8
  6
HIDDEN
 10
48.3819795127
 20
29.1248741776
  0
VERTEX
  8
DEFAULT_2
 62
8
  6
HIDDEN
 10
48.4003235575
 20
29.052311399
  0
VERTEX
  8
DEFAULT_2
 62
8
  6
HIDDEN
 10
48.4232786938
 20
28.9823691294
  0
VERTEX
  8
DEFAULT_2
 62
8
  6
HIDDEN
 10
48.4508001409
 20
28.9149247433
  0
VERTEX
  8
DEFAULT_2
 62
8
  6
HIDDEN
 10
48.4828774176
 20
28.849873613
  0
VERTEX
  8
DEFAULT_2
 62
8
  6
HIDDEN
 10
48.5195323034
 20
28.7871321417
  0
VERTEX
  8
DEFAULT_2
 62
8
  6
HIDDEN
 10
48.5608158291
 20
28.7266406198
  0
VERTEX
  8
DEFAULT_2
 62
8
  6
HIDDEN
 10
48.6068042672
 20
28.6683657915
  0
VERTEX
  8
DEFAULT_2
 62
8
  6
HIDDEN
 10
48.6575941134
 20
28.6123030276
  0
VERTEX
  8
DEFAULT_2
 62
8
  6
HIDDEN
 10
48.7132960602
 20
28.558478023
  0
VERTEX
  8
DEFAULT_2
 62
8
  6
HIDDEN
 10
48.7740279624
 20
28.5069479532
  0
VERTEX
  8
DEFAULT_2
 62
8
  6
HIDDEN
 10
48.8399067889
 20
28.4578020339
  0
VERTEX
  8
DEFAULT_2
 62
8
  6
HIDDEN
 10
48.9110395449
 20
28.4111614302
  0
VERTEX
  8
DEFAULT_2
 62
8
  6
HIDDEN
 10
48.9875131492
 20
28.367178452
  0
VERTEX
  8
DEFAULT_2
 62
8
  6
HIDDEN
 10
49.0693832692
 20
28.3260349484
  0
VERTEX
  8
DEFAULT_2
 62
8
  6
HIDDEN
 10
49.1566621611
 20
28.2879397882
  0
VERTEX
  8
DEFAULT_2
 62
8
  6
HIDDEN
 10
49.2493056522
 20
28.2531252786
  0
VERTEX
  8
DEFAULT_2
 62
8
  6
HIDDEN
 10
49.3471995428
 20
28.221842356
  0
VERTEX
  8
DEFAULT_2
 62
8
  6
HIDDEN
 10
49.4501459058
 20
28.1943543705
  0
VERTEX
  8
DEFAULT_2
 62
8
  6
HIDDEN
 10
49.5578500182
 20
28.1709293211
  0
VERTEX
  8
DEFAULT_2
 62
8
  6
HIDDEN
 10
49.669908961
 20
28.1518304707
  0
VERTEX
  8
DEFAULT_2
 62
8
  6
HIDDEN
 10
49.7858032217
 20
28.1373054169
  0
VERTEX
  8
DEFAULT_2
 62
8
  6
HIDDEN
 10
49.9048928668
 20
28.1275739057
  0
VERTEX
  8
DEFAULT_2
 62
8
  6
HIDDEN
 10
50.0264199187
 20
28.1228149581
  0
VERTEX
  8
DEFAULT_2
 62
8
  6
HIDDEN
 10
50.0797697217
 20
28.1223308389
  0
VERTEX
  8
DEFAULT_2
 62
8
  6
HIDDEN
 10
50.0863874508
 20
28.1223462891
  0
VERTEX
  8
DEFAULT_2
 62
8
  6
HIDDEN
 10
50.1848197982
 20
28.1233367198
  0
VERTEX
  8
DEFAULT_2
 62
8
  6
HIDDEN
 10
50.3130626013
 20
28.1258382262
  0
VERTEX
  8
DEFAULT_2
 62
8
  6
HIDDEN
 10
50.436250949
 20
28.1332317023
  0
VERTEX
  8
DEFAULT_2
 62
8
  6
HIDDEN
 10
50.5539122016
 20
28.1452970299
  0
VERTEX
  8
DEFAULT_2
 62
8
  6
HIDDEN
 10
50.6660538674
 20
28.1618151039
  0
VERTEX
  8
DEFAULT_2
 62
8
  6
HIDDEN
 10
50.7727123782
 20
28.182571466
  0
VERTEX
  8
DEFAULT_2
 62
8
  6
HIDDEN
 10
50.8739497946
 20
28.207359778
  0
VERTEX
  8
DEFAULT_2
 62
8
  6
HIDDEN
 10
50.9698501545
 20
28.2359851077
  0
VERTEX
  8
DEFAULT_2
 62
8
  6
HIDDEN
 10
51.0605155404
 20
28.268266976
  0
VERTEX
  8
DEFAULT_2
 62
8
  6
HIDDEN
 10
51.1460619389
 20
28.3040421199
  0
VERTEX
  8
DEFAULT_2
 62
8
  6
HIDDEN
 10
51.2266149577
 20
28.343166928
  0
VERTEX
  8
DEFAULT_2
 62
8
  6
HIDDEN
 10
51.3023054634
 20
28.3855195092
  0
VERTEX
  8
DEFAULT_2
 62
8
  6
HIDDEN
 10
51.3732652039
 20
28.4310013542
  0
VERTEX
  8
DEFAULT_2
 62
8
  6
HIDDEN
 10
51.4396224777
 20
28.4795385562
  0
VERTEX
  8
DEFAULT_2
 62
8
  6
HIDDEN
 10
51.5014979197
 20
28.5310825579
  0
VERTEX
  8
DEFAULT_2
 62
8
  6
HIDDEN
 10
51.559000478
 20
28.5856104032
  0
VERTEX
  8
DEFAULT_2
 62
8
  6
HIDDEN
 10
51.6122236588
 20
28.6431244846
  0
VERTEX
  8
DEFAULT_2
 62
8
  6
HIDDEN
 10
51.6612421213
 20
28.7036517926
  0
SEQEND
  0
POLYLINE
  8
DEFAULT_2
 62
8
  6
HIDDEN
 66
1
 70
0
 40
0.1
 41
0.1
  0
VERTEX
  8
DEFAULT_2
 62
8
  6
HIDDEN
 10
51.6612421213
 20
28.7036517926
  0
VERTEX
  8
DEFAULT_2
 62
8
  6
HIDDEN
 10
51.7061086992
 20
28.7672426949
  0
VERTEX
  8
DEFAULT_2
 62
8
  6
HIDDEN
 10
51.7468519185
 20
28.8339692936
  0
VERTEX
  8
DEFAULT_2
 62
8
  6
HIDDEN
 10
51.7834740635
 20
28.9039234283
  0
VERTEX
  8
DEFAULT_2
 62
8
  6
HIDDEN
 10
51.8159357592
 20
28.9771797012
  0
VERTEX
  8
DEFAULT_2
 62
8
  6
HIDDEN
 10
51.8441622298
 20
29.0537765703
  0
VERTEX
  8
DEFAULT_2
 62
8
  6
HIDDEN
 10
51.8666375156
 20
29.1289883968
  0
VERTEX
  8
DEFAULT_2
 62
8
  6
HIDDEN
 10
51.8854119743
 20
29.2093405969
  0
VERTEX
  8
DEFAULT_2
 62
8
  6
HIDDEN
 10
51.9003449547
 20
29.2951876662
  0
VERTEX
  8
DEFAULT_2
 62
8
  6
HIDDEN
 10
51.9112775386
 20
29.3869414329
  0
VERTEX
  8
DEFAULT_2
 62
8
  6
HIDDEN
 10
51.9180421134
 20
29.4851231381
  0
VERTEX
  8
DEFAULT_2
 62
8
  6
HIDDEN
 10
51.9204749868
 20
29.590497744
  0
VERTEX
  8
DEFAULT_2
 62
8
  6
HIDDEN
 10
51.9204802206
 20
29.5957916349
  0
VERTEX
  8
DEFAULT_2
 62
8
  6
HIDDEN
 10
51.9204802206
 20
33.4298099265
  0
VERTEX
  8
DEFAULT_2
 62
8
  6
HIDDEN
 10
51.4139546981
 20
33.4298099265
  0
VERTEX
  8
DEFAULT_2
 62
8
  6
HIDDEN
 10
51.4139546981
 20
32.6590781743
  0
SEQEND
  0
POLYLINE
  8
DEFAULT_2
 62
8
  6
HIDDEN
 66
1
 70
0
 40
0.1
 41
0.1
  0
VERTEX
  8
DEFAULT_2
 62
8
  6
HIDDEN
 10
50.0797697217
 20
29.9328133266
  0
VERTEX
  8
DEFAULT_2
 62
8
  6
HIDDEN
 10
50.0045736175
 20
29.9344402983
  0
VERTEX
  8
DEFAULT_2
 62
8
  6
HIDDEN
 10
49.9316789422
 20
29.9392591038
  0
VERTEX
  8
DEFAULT_2
 62
8
  6
HIDDEN
 10
49.896071382
 20
29.9428384724
  0
VERTEX
  8
DEFAULT_2
 62
8
  6
HIDDEN
 10
49.8610211601
 20
29.9471835326
  0
VERTEX
  8
DEFAULT_2
 62
8
  6
HIDDEN
 10
49.79258747
 20
29.9581277718
  0
VERTEX
  8
DEFAULT_2
 62
8
  6
HIDDEN
 10
49.7263195863
 20
29.9720171438
  0
VERTEX
  8
DEFAULT_2
 62
8
  6
HIDDEN
 10
49.6621602271
 20
29.9887867806
  0
VERTEX
  8
DEFAULT_2
 62
8
  6
HIDDEN
 10
49.6000560727
 20
30.0083814876
  0
VERTEX
  8
DEFAULT_2
 62
8
  6
HIDDEN
 10
49.5399585334
 20
30.0307556748
  0
VERTEX
  8
DEFAULT_2
 62
8
  6
HIDDEN
 10
49.4818245454
 20
30.0558731409
  0
VERTEX
  8
DEFAULT_2
 62
8
  6
HIDDEN
 10
49.4256173801
 20
30.083706689
  0
VERTEX
  8
DEFAULT_2
 62
8
  6
HIDDEN
 10
49.3713074483
 20
30.1142375594
  0
VERTEX
  8
DEFAULT_2
 62
8
  6
HIDDEN
 10
49.3188730809
 20
30.1474546658
  0
VERTEX
  8
DEFAULT_2
 62
8
  6
HIDDEN
 10
49.2683012631
 20
30.1833536223
  0
VERTEX
  8
DEFAULT_2
 62
8
  6
HIDDEN
 10
49.2195883018
 20
30.2219355555
  0
VERTEX
  8
DEFAULT_2
 62
8
  6
HIDDEN
 10
49.1727404024
 20
30.2632056955
  0
VERTEX
  8
DEFAULT_2
 62
8
  6
HIDDEN
 10
49.1277741323
 20
30.3071717455
  0
VERTEX
  8
DEFAULT_2
 62
8
  6
HIDDEN
 10
49.0847167489
 20
30.3538420334
  0
VERTEX
  8
DEFAULT_2
 62
8
  6
HIDDEN
 10
49.0436063695
 20
30.4032234507
  0
VERTEX
  8
DEFAULT_2
 62
8
  6
HIDDEN
 10
49.0044919607
 20
30.4553191926
  0
VERTEX
  8
DEFAULT_2
 62
8
  6
HIDDEN
 10
48.9674331244
 20
30.5101263152
  0
VERTEX
  8
DEFAULT_2
 62
8
  6
HIDDEN
 10
48.9324996599
 20
30.5676331351
  0
VERTEX
  8
DEFAULT_2
 62
8
  6
HIDDEN
 10
48.8997708781
 20
30.6278165062
  0
VERTEX
  8
DEFAULT_2
 62
8
  6
HIDDEN
 10
48.8693346478
 20
30.6906390199
  0
VERTEX
  8
DEFAULT_2
 62
8
  6
HIDDEN
 10
48.8412861563
 20
30.756046188
  0
VERTEX
  8
DEFAULT_2
 62
8
  6
HIDDEN
 10
48.8157263679
 20
30.823963687
  0
VERTEX
  8
DEFAULT_2
 62
8
  6
HIDDEN
 10
48.7927601748
 20
30.8942947586
  0
VERTEX
  8
DEFAULT_2
 62
8
  6
HIDDEN
 10
48.7724942422
 20
30.9669178813
  0
VERTEX
  8
DEFAULT_2
 62
8
  6
HIDDEN
 10
48.7550345664
 20
31.0416848452
  0
VERTEX
  8
DEFAULT_2
 62
8
  6
HIDDEN
 10
48.7404837823
 20
31.1184193748
  0
VERTEX
  8
DEFAULT_2
 62
8
  6
HIDDEN
 10
48.7289382787
 20
31.1969164492
  0
VERTEX
  8
DEFAULT_2
 62
8
  6
HIDDEN
 10
48.7204852083
 20
31.2769424638
  0
VERTEX
  8
DEFAULT_2
 62
8
  6
HIDDEN
 10
48.7151994985
 20
31.3582363537
  0
VERTEX
  8
DEFAULT_2
 62
8
  6
HIDDEN
 10
48.7131409976
 20
31.4405117626
  0
VERTEX
  8
DEFAULT_2
 62
8
  6
HIDDEN
 10
48.7131128459
 20
31.4513582212
  0
VERTEX
  8
DEFAULT_2
 62
8
  6
HIDDEN
 10
48.7135390875
 20
31.4960092417
  0
VERTEX
  8
DEFAULT_2
 62
8
  6
HIDDEN
 10
48.7168195906
 20
31.5825968282
  0
VERTEX
  8
DEFAULT_2
 62
8
  6
HIDDEN
 10
48.7232899061
 20
31.6679183358
  0
VERTEX
  8
DEFAULT_2
 62
8
  6
HIDDEN
 10
48.7328761208
 20
31.7516559891
  0
VERTEX
  8
DEFAULT_2
 62
8
  6
HIDDEN
 10
48.7454891583
 20
31.8335298551
  0
VERTEX
  8
DEFAULT_2
 62
8
  6
HIDDEN
 10
48.7610285312
 20
31.9132985879
  0
VERTEX
  8
DEFAULT_2
 62
8
  6
HIDDEN
 10
48.7793859948
 20
31.9907588729
  0
VERTEX
  8
DEFAULT_2
 62
8
  6
HIDDEN
 10
48.8004489779
 20
32.0657438213
  0
VERTEX
  8
DEFAULT_2
 62
8
  6
HIDDEN
 10
48.8241037065
 20
32.1381205642
  0
VERTEX
  8
DEFAULT_2
 62
8
  6
HIDDEN
 10
48.8502379748
 20
32.2077872837
  0
VERTEX
  8
DEFAULT_2
 62
8
  6
HIDDEN
 10
48.8787435415
 20
32.2746698848
  0
VERTEX
  8
DEFAULT_2
 62
8
  6
HIDDEN
 10
48.9095181573
 20
32.3387184781
  0
VERTEX
  8
DEFAULT_2
 62
8
  6
HIDDEN
 10
48.9424672354
 20
32.3999038094
  0
VERTEX
  8
DEFAULT_2
 62
8
  6
HIDDEN
 10
48.9775051928
 20
32.4582137349
  0
VERTEX
  8
DEFAULT_2
 62
8
  6
HIDDEN
 10
49.0145564874
 20
32.5136498164
  0
VERTEX
  8
DEFAULT_2
 62
8
  6
HIDDEN
 10
49.0535563806
 20
32.5662240859
  0
VERTEX
  8
DEFAULT_2
 62
8
  6
HIDDEN
 10
49.0944514519
 20
32.6159560121
  0
VERTEX
  8
DEFAULT_2
 62
8
  6
HIDDEN
 10
49.1371998905
 20
32.6628696893
  0
VERTEX
  8
DEFAULT_2
 62
8
  6
HIDDEN
 10
49.1817715857
 20
32.7069912594
  0
VERTEX
  8
DEFAULT_2
 62
8
  6
HIDDEN
 10
49.2281480373
 20
32.7483465722
  0
VERTEX
  8
DEFAULT_2
 62
8
  6
HIDDEN
 10
49.2763221056
 20
32.7869590885
  0
VERTEX
  8
DEFAULT_2
 62
8
  6
HIDDEN
 10
49.3262976177
 20
32.8228480226
  0
VERTEX
  8
DEFAULT_2
 62
8
  6
HIDDEN
 10
49.3780888524
 20
32.8560267252
  0
VERTEX
  8
DEFAULT_2
 62
8
  6
HIDDEN
 10
49.4317199193
 20
32.8865013029
  0
VERTEX
  8
DEFAULT_2
 62
8
  6
HIDDEN
 10
49.4872240558
 20
32.9142694675
  0
VERTEX
  8
DEFAULT_2
 62
8
  6
HIDDEN
 10
49.5446428597
 20
32.9393196106
  0
VERTEX
  8
DEFAULT_2
 62
8
  6
HIDDEN
 10
49.6040254811
 20
32.961630092
  0
VERTEX
  8
DEFAULT_2
 62
8
  6
HIDDEN
 10
49.6654277917
 20
32.9811687298
  0
VERTEX
  8
DEFAULT_2
 62
8
  6
HIDDEN
 10
49.7289115533
 20
32.997892478
  0
VERTEX
  8
DEFAULT_2
 62
8
  6
HIDDEN
 10
49.7945436012
 20
33.0117472734
  0
VERTEX
  8
DEFAULT_2
 62
8
  6
HIDDEN
 10
49.8623950593
 20
33.0226680332
  0
VERTEX
  8
DEFAULT_2
 62
8
  6
HIDDEN
 10
49.932514698
 20
33.0305764665
  0
VERTEX
  8
DEFAULT_2
 62
8
  6
HIDDEN
 10
50.0049465376
 20
33.0353880114
  0
VERTEX
  8
DEFAULT_2
 62
8
  6
HIDDEN
 10
50.0797697217
 20
33.0370134275
  0
VERTEX
  8
DEFAULT_2
 62
8
  6
HIDDEN
 10
50.1525694612
 20
33.0353870845
  0
VERTEX
  8
DEFAULT_2
 62
8
  6
HIDDEN
 10
50.2230324512
 20
33.0305725275
  0
VERTEX
  8
DEFAULT_2
 62
8
  6
HIDDEN
 10
50.2912106892
 20
33.0226625377
  0
VERTEX
  8
DEFAULT_2
 62
8
  6
HIDDEN
 10
50.357159738
 20
33.0117435808
  0
VERTEX
  8
DEFAULT_2
 62
8
  6
HIDDEN
 10
50.4209604263
 20
32.9978890069
  0
VERTEX
  8
DEFAULT_2
 62
8
  6
HIDDEN
 10
50.4826894585
 20
32.981160125
  0
VERTEX
  8
DEFAULT_2
 62
8
  6
HIDDEN
 10
50.5424186225
 20
32.9616061091
  0
VERTEX
  8
DEFAULT_2
 62
8
  6
HIDDEN
 10
50.6002139523
 20
32.9392640547
  0
VERTEX
  8
DEFAULT_2
 62
8
  6
HIDDEN
 10
50.6561348589
 20
32.9141592057
  0
VERTEX
  8
DEFAULT_2
 62
8
  6
HIDDEN
 10
50.7102332489
 20
32.8863053772
  0
VERTEX
  8
DEFAULT_2
 62
8
  6
HIDDEN
 10
50.7625526465
 20
32.8557055891
  0
VERTEX
  8
DEFAULT_2
 62
8
  6
HIDDEN
 10
50.8131273417
 20
32.8223529315
  0
VERTEX
  8
DEFAULT_2
 62
8
  6
HIDDEN
 10
50.8619815842
 20
32.7862316748
  0
VERTEX
  8
DEFAULT_2
 62
8
  6
HIDDEN
 10
50.9091288443
 20
32.7473186402
  0
VERTEX
  8
DEFAULT_2
 62
8
  6
HIDDEN
 10
50.9545711584
 20
32.7055848418
  0
VERTEX
  8
DEFAULT_2
 62
8
  6
HIDDEN
 10
50.9982985814
 20
32.6609974146
  0
VERTEX
  8
DEFAULT_2
 62
8
  6
HIDDEN
 10
51.0402887594
 20
32.613521843
  0
VERTEX
  8
DEFAULT_2
 62
8
  6
HIDDEN
 10
51.0805066447
 20
32.5631245036
  0
VERTEX
  8
DEFAULT_2
 62
8
  6
HIDDEN
 10
51.11890437
 20
32.5097755434
  0
VERTEX
  8
DEFAULT_2
 62
8
  6
HIDDEN
 10
51.1554213049
 20
32.4534521105
  0
VERTEX
  8
DEFAULT_2
 62
8
  6
HIDDEN
 10
51.189984321
 20
32.3941419553
  0
VERTEX
  8
DEFAULT_2
 62
8
  6
HIDDEN
 10
51.2225082988
 20
32.3318474192
  0
VERTEX
  8
DEFAULT_2
 62
8
  6
HIDDEN
 10
51.2528969172
 20
32.2665898124
  0
VERTEX
  8
DEFAULT_2
 62
8
  6
HIDDEN
 10
51.2810437765
 20
32.1984141699
  0
VERTEX
  8
DEFAULT_2
 62
8
  6
HIDDEN
 10
51.306833913
 20
32.1273943425
  0
VERTEX
  8
DEFAULT_2
 62
8
  6
HIDDEN
 10
51.3301457728
 20
32.0536383403
  0
VERTEX
  8
DEFAULT_2
 62
8
  6
HIDDEN
 10
51.3508537136
 20
31.9772937843
  0
VERTEX
  8
DEFAULT_2
 62
8
  6
HIDDEN
 10
51.3688311005
 20
31.8985532472
  0
VERTEX
  8
DEFAULT_2
 62
8
  6
HIDDEN
 10
51.3839540454
 20
31.8176591688
  0
VERTEX
  8
DEFAULT_2
 62
8
  6
HIDDEN
 10
51.396105806
 20
31.7349079263
  0
VERTEX
  8
DEFAULT_2
 62
8
  6
HIDDEN
 10
51.4051818071
 20
31.6506525333
  0
VERTEX
  8
DEFAULT_2
 62
8
  6
HIDDEN
 10
51.4110951684
 20
31.5653033565
  0
VERTEX
  8
DEFAULT_2
 62
8
  6
HIDDEN
 10
51.4137825224
 20
31.4793262021
  0
VERTEX
  8
DEFAULT_2
 62
8
  6
HIDDEN
 10
51.4139546981
 20
31.4513582212
  0
VERTEX
  8
DEFAULT_2
 62
8
  6
HIDDEN
 10
51.4127085369
 20
31.3817890549
  0
VERTEX
  8
DEFAULT_2
 62
8
  6
HIDDEN
 10
51.4082163924
 20
31.3023015078
  0
VERTEX
  8
DEFAULT_2
 62
8
  6
HIDDEN
 10
51.4004877999
 20
31.2235351277
  0
VERTEX
  8
DEFAULT_2
 62
8
  6
HIDDEN
 10
51.3895770987
 20
31.1457676205
  0
VERTEX
  8
DEFAULT_2
 62
8
  6
HIDDEN
 10
51.375554389
 20
31.0692628563
  0
VERTEX
  8
DEFAULT_2
 62
8
  6
HIDDEN
 10
51.3585035782
 20
30.9942673287
  0
VERTEX
  8
DEFAULT_2
 62
8
  6
HIDDEN
 10
51.3385200741
 20
30.921007336
  0
VERTEX
  8
DEFAULT_2
 62
8
  6
HIDDEN
 10
51.3157082457
 20
30.8496869589
  0
VERTEX
  8
DEFAULT_2
 62
8
  6
HIDDEN
 10
51.2901787702
 20
30.7804868562
  0
VERTEX
  8
DEFAULT_2
 62
8
  6
HIDDEN
 10
51.2620459802
 20
30.7135638507
  0
VERTEX
  8
DEFAULT_2
 62
8
  6
HIDDEN
 10
51.2314253075
 20
30.6490512425
  0
VERTEX
  8
DEFAULT_2
 62
8
  6
HIDDEN
 10
51.1984309024
 20
30.5870597553
  0
VERTEX
  8
DEFAULT_2
 62
8
  6
HIDDEN
 10
51.1631734864
 20
30.5276790093
  0
VERTEX
  8
DEFAULT_2
 62
8
  6
HIDDEN
 10
51.1257584782
 20
30.4709794049
  0
VERTEX
  8
DEFAULT_2
 62
8
  6
HIDDEN
 10
51.0862844118
 20
30.4170143069
  0
VERTEX
  8
DEFAULT_2
 62
8
  6
HIDDEN
 10
51.0448416558
 20
30.365822424
  0
VERTEX
  8
DEFAULT_2
 62
8
  6
HIDDEN
 10
51.0015114274
 20
30.3174302927
  0
VERTEX
  8
DEFAULT_2
 62
8
  6
HIDDEN
 10
50.9563650882
 20
30.271854785
  0
VERTEX
  8
DEFAULT_2
 62
8
  6
HIDDEN
 10
50.9094637046
 20
30.2291055754
  0
VERTEX
  8
DEFAULT_2
 62
8
  6
HIDDEN
 10
50.8608578483
 20
30.1891875142
  0
VERTEX
  8
DEFAULT_2
 62
8
  6
HIDDEN
 10
50.8105876151
 20
30.1521028658
  0
VERTEX
  8
DEFAULT_2
 62
8
  6
HIDDEN
 10
50.7586828345
 20
30.1178533794
  0
VERTEX
  8
DEFAULT_2
 62
8
  6
HIDDEN
 10
50.7051634447
 20
30.0864421712
  0
VERTEX
  8
DEFAULT_2
 62
8
  6
HIDDEN
 10
50.6500400088
 20
30.057875401
  0
VERTEX
  8
DEFAULT_2
 62
8
  6
HIDDEN
 10
50.5933143429
 20
30.0321637346
  0
VERTEX
  8
DEFAULT_2
 62
8
  6
HIDDEN
 10
50.5349802342
 20
30.0093235883
  0
VERTEX
  8
DEFAULT_2
 62
8
  6
HIDDEN
 10
50.4750242222
 20
29.9893781576
  0
VERTEX
  8
DEFAULT_2
 62
8
  6
HIDDEN
 10
50.41342642
 20
29.9723582347
  0
VERTEX
  8
DEFAULT_2
 62
8
  6
HIDDEN
 10
50.3501613546
 20
29.9583028257
  0
VERTEX
  8
DEFAULT_2
 62
8
  6
HIDDEN
 10
50.2851988042
 20
29.9472595803
  0
VERTEX
  8
DEFAULT_2
 62
8
  6
HIDDEN
 10
50.2185046166
 20
29.939285049
  0
VERTEX
  8
DEFAULT_2
 62
8
  6
HIDDEN
 10
50.1500414924
 20
29.9344447878
  0
VERTEX
  8
DEFAULT_2
 62
8
  6
HIDDEN
 10
50.0797697217
 20
29.9328133266
  0
SEQEND
  0
SOLID
  8
0
 62
7
  6
CONTINUOUS
 10
31.600484088
 20
33.5008174287
 11
31.8869637029
 21
33.5072872568
 12
31.9096451192
 22
33.5060015374
 13
31.9096451192
 23
33.5060015374
  0
SOLID
  8
0
 62
7
  6
CONTINUOUS
 10
31.9096451192
 20
33.5060015374
 11
32.1532075775
 21
33.4756497254
 12
31.600484088
 22
33.5008174287
 13
31.600484088
 23
33.5008174287
  0
SOLID
  8
0
 62
7
  6
CONTINUOUS
 10
31.3643415977
 20
33.4557539167
 11
31.600484088
 21
33.5008174287
 12
32.1532075775
 22
33.4756497254
 13
32.1532075775
 23
33.4756497254
  0
SOLID
  8
0
 62
7
  6
CONTINUOUS
 10
32.1532075775
 20
33.4756497254
 11
32.3687026723
 21
33.4174942195
 12
31.3643415977
 22
33.4557539167
 13
31.3643415977
 23
33.4557539167
  0
SOLID
  8
0
 62
7
  6
CONTINUOUS
 10
31.1983195156
 20
33.4007311415
 11
31.3643415977
 21
33.4557539167
 12
32.3687026723
 22
33.4174942195
 13
32.3687026723
 23
33.4174942195
  0
SOLID
  8
0
 62
7
  6
CONTINUOUS
 10
31.1983195156
 20
33.4007311415
 11
32.3687026723
 21
33.4174942195
 12
31.0796546251
 22
33.3495491132
 13
31.0796546251
 23
33.3495491132
  0
SOLID
  8
0
 62
7
  6
CONTINUOUS
 10
32.3687026723
 20
33.4174942195
 11
32.6235519094
 21
33.2960157031
 12
31.0796546251
 22
33.3495491132
 13
31.0796546251
 23
33.3495491132
  0
SOLID
  8
0
 62
7
  6
CONTINUOUS
 10
30.9716311857
 20
33.2883030676
 11
31.0796546251
 21
33.3495491132
 12
32.6235519094
 22
33.2960157031
 13
32.6235519094
 23
33.2960157031
  0
SOLID
  8
0
 62
7
  6
CONTINUOUS
 10
32.6235519094
 20
33.2960157031
 11
32.7723247042
 21
33.206398616
 12
30.9716311857
 22
33.2883030676
 13
30.9716311857
 23
33.2883030676
  0
SOLID
  8
0
 62
7
  6
CONTINUOUS
 10
30.7497689894
 20
33.1147164389
 11
30.9716311857
 21
33.2883030676
 12
32.7723247042
 22
33.206398616
 13
32.7723247042
 23
33.206398616
  0
SOLID
  8
0
 62
7
  6
CONTINUOUS
 10
32.7723247042
 20
33.206398616
 11
32.9210102734
 21
33.0855755472
 12
30.7497689894
 22
33.1147164389
 13
30.7497689894
 23
33.1147164389
  0
SOLID
  8
0
 62
7
  6
CONTINUOUS
 10
30.6832751023
 20
33.0494811925
 11
30.7497689894
 21
33.1147164389
 12
32.9210102734
 22
33.0855755472
 13
32.9210102734
 23
33.0855755472
  0
SOLID
  8
0
 62
7
  6
CONTINUOUS
 10
32.9210102734
 20
33.0855755472
 11
33.0756591365
 21
32.901475224
 12
30.6832751023
 22
33.0494811925
 13
30.6832751023
 23
33.0494811925
  0
SOLID
  8
0
 62
7
  6
CONTINUOUS
 10
31.6373427086
 20
32.605973742
 11
33.2244294898
 21
32.620792799
 12
31.8398782503
 22
32.5869152454
 13
31.8398782503
 23
32.5869152454
  0
SOLID
  8
0
 62
7
  6
CONTINUOUS
 10
31.8398782503
 20
32.5869152454
 11
33.2244294898
 21
32.620792799
 12
31.9511485694
 22
32.5547444755
 13
31.9511485694
 23
32.5547444755
  0
SOLID
  8
0
 62
7
  6
CONTINUOUS
 10
31.9511485694
 20
32.5547444755
 11
33.2244294898
 21
32.620792799
 12
32.0253137573
 22
32.5162018592
 13
32.0253137573
 23
32.5162018592
  0
SOLID
  8
0
 62
7
  6
CONTINUOUS
 10
32.0253137573
 20
32.5162018592
 11
33.2244294898
 21
32.620792799
 12
32.1126551014
 22
32.4525450297
 13
32.1126551014
 23
32.4525450297
  0
SOLID
  8
0
 62
7
  6
CONTINUOUS
 10
32.1126551014
 20
32.4525450297
 11
33.2244294898
 21
32.620792799
 12
32.1282178457
 22
32.4392430332
 13
32.1282178457
 23
32.4392430332
  0
SOLID
  8
0
 62
7
  6
CONTINUOUS
 10
33.2244294898
 20
32.620792799
 11
33.2854903939
 21
32.3770089658
 12
32.1282178457
 22
32.4392430332
 13
32.1282178457
 23
32.4392430332
  0
SOLID
  8
0
 62
7
  6
CONTINUOUS
 10
32.197805846
 20
32.3439916609
 11
32.1282178457
 21
32.4392430332
 12
33.2854903939
 22
32.3770089658
 13
33.2854903939
 23
32.3770089658
  0
SOLID
  8
0
 62
7
  6
CONTINUOUS
 10
32.197805846
 20
32.3439916609
 11
33.2854903939
 21
32.3770089658
 12
32.2597381044
 22
32.1766241559
 13
32.2597381044
 23
32.1766241559
  0
SOLID
  8
0
 62
7
  6
CONTINUOUS
 10
33.2854903939
 20
32.3770089658
 11
33.310058327
 21
32.0729668376
 12
32.2597381044
 22
32.1766241559
 13
32.2597381044
 23
32.1766241559
  0
SOLID
  8
0
 62
7
  6
CONTINUOUS
 10
32.2964157825
 20
31.9459896306
 11
32.2597381044
 21
32.1766241559
 12
33.310058327
 22
32.0729668376
 13
33.310058327
 23
32.0729668376
  0
SOLID
  8
0
 62
7
  6
CONTINUOUS
 10
30.6832751023
 20
31.6760049599
 11
29.6692336515
 21
29.2839657091
 12
30.6845741847
 22
31.702156126
 13
30.6845741847
 23
31.702156126
  0
SOLID
  8
0
 62
7
  6
CONTINUOUS
 10
30.6845741847
 20
31.702156126
 11
29.6692336515
 21
29.2839657091
 12
30.7259177272
 22
31.9509010186
 13
30.7259177272
 23
31.9509010186
  0
SOLID
  8
0
 62
7
  6
CONTINUOUS
 10
30.7259177272
 20
31.9509010186
 11
29.6692336515
 21
29.2839657091
 12
30.8015848233
 22
32.1561014498
 13
30.8015848233
 23
32.1561014498
  0
SOLID
  8
0
 62
7
  6
CONTINUOUS
 10
33.2244294898
 20
32.620792799
 11
31.6373427086
 21
32.605973742
 12
33.1760698302
 22
32.7351434052
 13
33.1760698302
 23
32.7351434052
  0
SOLID
  8
0
 62
7
  6
CONTINUOUS
 10
31.6373427086
 20
32.605973742
 11
31.5147078992
 21
32.6047992923
 12
33.1760698302
 22
32.7351434052
 13
33.1760698302
 23
32.7351434052
  0
SOLID
  8
0
 62
7
  6
CONTINUOUS
 10
33.1760698302
 20
32.7351434052
 11
31.5147078992
 21
32.6047992923
 12
33.1718158613
 22
32.7424296396
 13
33.1718158613
 23
32.7424296396
  0
SOLID
  8
0
 62
7
  6
CONTINUOUS
 10
33.1718158613
 20
32.7424296396
 11
31.5147078992
 21
32.6047992923
 12
33.1105844031
 22
32.8499969519
 13
33.1105844031
 23
32.8499969519
  0
SOLID
  8
0
 62
7
  6
CONTINUOUS
 10
33.1105844031
 20
32.8499969519
 11
31.5147078992
 21
32.6047992923
 12
33.0756591365
 22
32.901475224
 13
33.0756591365
 23
32.901475224
  0
SOLID
  8
0
 62
7
  6
CONTINUOUS
 10
31.5147078992
 20
32.6047992923
 11
31.3540882212
 21
32.5778320829
 12
33.0756591365
 22
32.901475224
 13
33.0756591365
 23
32.901475224
  0
SOLID
  8
0
 62
7
  6
CONTINUOUS
 10
33.0756591365
 20
32.901475224
 11
31.3540882212
 21
32.5778320829
 12
30.6832751023
 22
33.0494811925
 13
30.6832751023
 23
33.0494811925
  0
SOLID
  8
0
 62
7
  6
CONTINUOUS
 10
31.3540882212
 20
32.5778320829
 11
31.1925629285
 21
32.5235705393
 12
30.6832751023
 22
33.0494811925
 13
30.6832751023
 23
33.0494811925
  0
SOLID
  8
0
 62
7
  6
CONTINUOUS
 10
31.1925629285
 20
32.5235705393
 11
31.0599390503
 21
32.4464600808
 12
30.6832751023
 22
33.0494811925
 13
30.6832751023
 23
33.0494811925
  0
SOLID
  8
0
 62
7
  6
CONTINUOUS
 10
31.0599390503
 20
32.4464600808
 11
30.8915749864
 21
32.2917330417
 12
30.6832751023
 22
33.0494811925
 13
30.6832751023
 23
33.0494811925
  0
SOLID
  8
0
 62
7
  6
CONTINUOUS
 10
30.8915749864
 20
32.2917330417
 11
30.8015848233
 21
32.1561014498
 12
30.6832751023
 22
33.0494811925
 13
30.6832751023
 23
33.0494811925
  0
SOLID
  8
0
 62
7
  6
CONTINUOUS
 10
30.8015848233
 20
32.1561014498
 11
29.6692336515
 21
29.2839657091
 12
30.6832751023
 22
33.0494811925
 13
30.6832751023
 23
33.0494811925
  0
SOLID
  8
0
 62
7
  6
CONTINUOUS
 10
30.6832751023
 20
33.0494811925
 11
29.6692336515
 21
29.2839657091
 12
30.6832751023
 22
35.0659809876
 13
30.6832751023
 23
35.0659809876
  0
SOLID
  8
0
 62
7
  6
CONTINUOUS
 10
29.6692336515
 20
29.2839657091
 11
29.6692336515
 21
35.0659809876
 12
30.6832751023
 22
35.0659809876
 13
30.6832751023
 23
35.0659809876
  0
SOLID
  8
0
 62
7
  6
CONTINUOUS
 10
30.6832751023
 20
31.6760049599
 11
30.6832751023
 21
29.2839657091
 12
29.6692336515
 22
29.2839657091
 13
29.6692336515
 23
29.2839657091
  0
SOLID
  8
0
 62
7
  6
CONTINUOUS
 10
32.2964157825
 20
31.9459896306
 11
33.310058327
 21
32.0729668376
 12
32.2972909921
 22
31.7942604475
 13
32.2972909921
 23
31.7942604475
  0
SOLID
  8
0
 62
7
  6
CONTINUOUS
 10
32.2972909921
 20
31.7942604475
 11
33.310058327
 21
32.0729668376
 12
32.2972909921
 22
29.2839657091
 13
32.2972909921
 23
29.2839657091
  0
SOLID
  8
0
 62
7
  6
CONTINUOUS
 10
33.310058327
 20
32.0729668376
 11
33.310058327
 21
29.282962669
 12
32.2972909921
 22
29.2839657091
 13
32.2972909921
 23
29.2839657091
  0
SOLID
  8
0
 62
7
  6
CONTINUOUS
 10
35.1561167692
 20
33.5357042396
 11
35.4434285898
 21
33.5489449151
 12
35.4871727597
 22
33.5479316047
 13
35.4871727597
 23
33.5479316047
  0
SOLID
  8
0
 62
7
  6
CONTINUOUS
 10
35.4871727597
 20
33.5479316047
 11
35.9036120263
 21
33.5209681587
 12
35.1561167692
 22
33.5357042396
 13
35.1561167692
 23
33.5357042396
  0
SOLID
  8
0
 62
7
  6
CONTINUOUS
 10
34.7906267741
 20
33.4863632598
 11
35.1561167692
 21
33.5357042396
 12
35.9036120263
 22
33.5209681587
 13
35.9036120263
 23
33.5209681587
  0
SOLID
  8
0
 62
7
  6
CONTINUOUS
 10
34.7906267741
 20
33.4863632598
 11
35.9036120263
 21
33.5209681587
 12
34.6850459602
 22
33.4672132216
 13
34.6850459602
 23
33.4672132216
  0
SOLID
  8
0
 62
7
  6
CONTINUOUS
 10
35.9036120263
 20
33.5209681587
 11
36.1985356584
 21
33.4664575214
 12
34.6850459602
 22
33.4672132216
 13
34.6850459602
 23
33.4672132216
  0
SOLID
  8
0
 62
7
  6
CONTINUOUS
 10
34.4094366816
 20
33.3714731403
 11
34.6850459602
 21
33.4672132216
 12
36.1985356584
 22
33.4664575214
 13
36.1985356584
 23
33.4664575214
  0
SOLID
  8
0
 62
7
  6
CONTINUOUS
 10
34.4094366816
 20
33.3714731403
 11
36.1985356584
 21
33.4664575214
 12
36.4140072117
 22
33.4048384299
 13
36.4140072117
 23
33.4048384299
  0
SOLID
  8
0
 62
7
  6
CONTINUOUS
 10
36.4140072117
 20
33.4048384299
 11
36.6450433575
 21
33.3156663306
 12
34.4094366816
 22
33.3714731403
 13
34.4094366816
 23
33.3714731403
  0
SOLID
  8
0
 62
7
  6
CONTINUOUS
 10
34.1822387498
 20
33.2457797897
 11
34.4094366816
 21
33.3714731403
 12
36.6450433575
 22
33.3156663306
 13
36.6450433575
 23
33.3156663306
  0
SOLID
  8
0
 62
7
  6
CONTINUOUS
 10
36.6450433575
 20
33.3156663306
 11
36.8244515085
 21
33.2096715977
 12
34.1822387498
 22
33.2457797897
 13
34.1822387498
 23
33.2457797897
  0
SOLID
  8
0
 62
7
  6
CONTINUOUS
 10
34.0009222268
 20
33.0947537882
 11
34.1822387498
 21
33.2457797897
 12
36.8244515085
 22
33.2096715977
 13
36.8244515085
 23
33.2096715977
  0
SOLID
  8
0
 62
7
  6
CONTINUOUS
 10
34.0009222268
 20
33.0947537882
 11
36.8244515085
 21
33.2096715977
 12
36.8632424034
 22
33.1798253054
 13
36.8632424034
 23
33.1798253054
  0
SOLID
  8
0
 62
7
  6
CONTINUOUS
 10
36.8632424034
 20
33.1798253054
 11
37.0178311527
 21
33.030571793
 12
34.0009222268
 22
33.0947537882
 13
34.0009222268
 23
33.0947537882
  0
SOLID
  8
0
 62
7
  6
CONTINUOUS
 10
33.8639376281
 20
32.9227892011
 11
34.0009222268
 21
33.0947537882
 12
37.0178311527
 22
33.030571793
 13
37.0178311527
 23
33.030571793
  0
SOLID
  8
0
 62
7
  6
CONTINUOUS
 10
37.0178311527
 20
33.030571793
 11
37.1221512033
 21
32.8726268189
 12
33.8639376281
 22
32.9227892011
 13
33.8639376281
 23
32.9227892011
  0
SOLID
  8
0
 62
7
  6
CONTINUOUS
 10
33.7729689651
 20
32.7416597959
 11
33.8639376281
 21
32.9227892011
 12
37.1221512033
 22
32.8726268189
 13
37.1221512033
 23
32.8726268189
  0
SOLID
  8
0
 62
7
  6
CONTINUOUS
 10
35.337763227
 20
32.7565989166
 11
33.7729689651
 21
32.7416597959
 12
35.5094298532
 22
32.7661245375
 13
35.5094298532
 23
32.7661245375
  0
SOLID
  8
0
 62
7
  6
CONTINUOUS
 10
33.7729689651
 20
32.7416597959
 11
37.1221512033
 21
32.8726268189
 12
35.5094298532
 22
32.7661245375
 13
35.5094298532
 23
32.7661245375
  0
SOLID
  8
0
 62
7
  6
CONTINUOUS
 10
35.337763227
 20
32.7565989166
 11
35.0745670904
 21
32.7153950837
 12
33.7729689651
 22
32.7416597959
 13
33.7729689651
 23
32.7416597959
  0
SOLID
  8
0
 62
7
  6
CONTINUOUS
 10
33.7067320136
 20
32.5130111421
 11
33.7729689651
 21
32.7416597959
 12
35.0745670904
 22
32.7153950837
 13
35.0745670904
 23
32.7153950837
  0
SOLID
  8
0
 62
7
  6
CONTINUOUS
 10
35.5094298532
 20
32.7661245375
 11
37.1221512033
 21
32.8726268189
 12
35.5390949745
 22
32.7662720347
 13
35.5390949745
 23
32.7662720347
  0
SOLID
  8
0
 62
7
  6
CONTINUOUS
 10
35.5390949745
 20
32.7662720347
 11
37.1221512033
 21
32.8726268189
 12
35.7368316776
 22
32.7519156607
 13
35.7368316776
 23
32.7519156607
  0
SOLID
  8
0
 62
7
  6
CONTINUOUS
 10
35.7368316776
 20
32.7519156607
 11
37.1221512033
 21
32.8726268189
 12
35.9170347013
 22
32.7118113481
 13
35.9170347013
 23
32.7118113481
  0
SOLID
  8
0
 62
7
  6
CONTINUOUS
 10
37.1221512033
 20
32.8726268189
 11
37.1839107201
 21
32.7066889122
 12
35.9170347013
 22
32.7118113481
 13
35.9170347013
 23
32.7118113481
  0
SOLID
  8
0
 62
7
  6
CONTINUOUS
 10
36.0413861087
 20
32.6536618924
 11
35.9170347013
 21
32.7118113481
 12
37.1839107201
 22
32.7066889122
 13
37.1839107201
 23
32.7066889122
  0
SOLID
  8
0
 62
7
  6
CONTINUOUS
 10
36.0413861087
 20
32.6536618924
 11
37.1839107201
 21
32.7066889122
 12
36.1623995005
 22
32.5492686573
 13
36.1623995005
 23
32.5492686573
  0
SOLID
  8
0
 62
7
  6
CONTINUOUS
 10
37.1839107201
 20
32.7066889122
 11
37.209343993
 21
32.5346038637
 12
36.1623995005
 22
32.5492686573
 13
36.1623995005
 23
32.5492686573
  0
SOLID
  8
0
 62
7
  6
CONTINUOUS
 10
36.2155803423
 20
32.4531601971
 11
36.1623995005
 21
32.5492686573
 12
37.209343993
 22
32.5346038637
 13
37.209343993
 23
32.5346038637
  0
SOLID
  8
0
 62
7
  6
CONTINUOUS
 10
37.209343993
 20
32.5346038637
 11
37.2138563834
 21
32.4001618464
 12
36.2155803423
 22
32.4531601971
 13
36.2155803423
 23
32.4531601971
  0
SOLID
  8
0
 62
7
  6
CONTINUOUS
 10
36.2323352246
 20
32.346089568
 11
36.2155803423
 21
32.4531601971
 12
37.2138563834
 22
32.4001618464
 13
37.2138563834
 23
32.4001618464
  0
SOLID
  8
0
 62
7
  6
CONTINUOUS
 10
36.2323352246
 20
32.346089568
 11
37.2138563834
 21
32.4001618464
 12
36.2335609479
 22
32.3278673793
 13
36.2335609479
 23
32.3278673793
  0
SOLID
  8
0
 62
7
  6
CONTINUOUS
 10
36.2335609479
 20
32.3278673793
 11
37.2138563834
 21
32.4001618464
 12
36.2248265491
 22
32.1705335453
 13
36.2248265491
 23
32.1705335453
  0
SOLID
  8
0
 62
7
  6
CONTINUOUS
 10
36.2248265491
 20
32.1705335453
 11
37.2138563834
 21
32.4001618464
 12
36.2193454174
 22
32.1447273858
 13
36.2193454174
 23
32.1447273858
  0
SOLID
  8
0
 62
7
  6
CONTINUOUS
 10
36.2193454174
 20
32.1447273858
 11
37.2138563834
 21
32.4001618464
 12
36.1952600975
 22
32.0869460032
 13
36.1952600975
 23
32.0869460032
  0
SOLID
  8
0
 62
7
  6
CONTINUOUS
 10
36.1952600975
 20
32.0869460032
 11
37.2138563834
 21
32.4001618464
 12
36.1914361596
 22
32.0827747831
 13
36.1914361596
 23
32.0827747831
  0
SOLID
  8
0
 62
7
  6
CONTINUOUS
 10
36.1914361596
 20
32.0827747831
 11
37.2138563834
 21
32.4001618464
 12
36.1248997704
 22
32.0283367442
 13
36.1248997704
 23
32.0283367442
  0
SOLID
  8
0
 62
7
  6
CONTINUOUS
 10
36.1248997704
 20
32.0283367442
 11
37.2138563834
 21
32.4001618464
 12
36.2297695506
 22
31.3342117819
 13
36.2297695506
 23
31.3342117819
  0
SOLID
  8
0
 62
7
  6
CONTINUOUS
 10
36.2297695506
 20
31.3342117819
 11
37.2138563834
 21
32.4001618464
 12
36.2297695506
 22
31.2837085127
 13
36.2297695506
 23
31.2837085127
  0
SOLID
  8
0
 62
7
  6
CONTINUOUS
 10
36.2297695506
 20
31.2837085127
 11
37.2138563834
 21
32.4001618464
 12
36.2297695506
 22
30.8486034241
 13
36.2297695506
 23
30.8486034241
  0
SOLID
  8
0
 62
7
  6
CONTINUOUS
 10
36.2297695506
 20
30.8486034241
 11
37.2138563834
 21
32.4001618464
 12
36.2302048473
 22
30.8028829951
 13
36.2302048473
 23
30.8028829951
  0
SOLID
  8
0
 62
7
  6
CONTINUOUS
 10
36.2302048473
 20
30.8028829951
 11
37.2138563834
 21
32.4001618464
 12
36.2205237721
 22
30.7060561061
 13
36.2205237721
 23
30.7060561061
  0
SOLID
  8
0
 62
7
  6
CONTINUOUS
 10
36.2205237721
 20
30.7060561061
 11
37.2138563834
 21
32.4001618464
 12
36.196037901
 22
30.6011282555
 13
36.196037901
 23
30.6011282555
  0
SOLID
  8
0
 62
7
  6
CONTINUOUS
 10
36.196037901
 20
30.6011282555
 11
37.2138563834
 21
32.4001618464
 12
36.1569227542
 22
30.4989457064
 13
36.1569227542
 23
30.4989457064
  0
SOLID
  8
0
 62
7
  6
CONTINUOUS
 10
37.2138563834
 20
32.4001618464
 11
37.2138563834
 21
29.8716093414
 12
36.1569227542
 22
30.4989457064
 13
36.1569227542
 23
30.4989457064
  0
SOLID
  8
0
 62
7
  6
CONTINUOUS
 10
34.7595843155
 20
32.5544252917
 11
33.7067320136
 21
32.5130111421
 12
34.8924395459
 22
32.6486446862
 13
34.8924395459
 23
32.6486446862
  0
SOLID
  8
0
 62
7
  6
CONTINUOUS
 10
33.7067320136
 20
32.5130111421
 11
35.0745670904
 21
32.7153950837
 12
34.8924395459
 22
32.6486446862
 13
34.8924395459
 23
32.6486446862
  0
SOLID
  8
0
 62
7
  6
CONTINUOUS
 10
34.7595843155
 20
32.5544252917
 11
34.699173939
 21
32.4667794049
 12
33.7067320136
 22
32.5130111421
 13
33.7067320136
 23
32.5130111421
  0
SOLID
  8
0
 62
7
  6
CONTINUOUS
 10
33.6674853497
 20
32.2298123985
 11
33.7067320136
 21
32.5130111421
 12
34.699173939
 22
32.4667794049
 13
34.699173939
 23
32.4667794049
  0
SOLID
  8
0
 62
7
  6
CONTINUOUS
 10
33.6674853497
 20
32.2298123985
 11
34.699173939
 21
32.4667794049
 12
34.6559975398
 22
32.3314963092
 13
34.6559975398
 23
32.3314963092
  0
SOLID
  8
0
 62
7
  6
CONTINUOUS
 10
34.6559975398
 20
32.3314963092
 11
34.6367511198
 21
32.1621617874
 12
33.6674853497
 22
32.2298123985
 13
33.6674853497
 23
32.2298123985
  0
SOLID
  8
0
 62
7
  6
CONTINUOUS
 10
33.659666426
 20
32.102576582
 11
33.6674853497
 21
32.2298123985
 12
34.6367511198
 22
32.1621617874
 13
34.6367511198
 23
32.1621617874
  0
SOLID
  8
0
 62
7
  6
CONTINUOUS
 10
34.6367511198
 20
32.1621617874
 11
34.6364283824
 21
32.102576582
 12
33.659666426
 22
32.102576582
 13
33.659666426
 23
32.102576582
  0
SOLID
  8
0
 62
7
  6
CONTINUOUS
 10
33.880659695
 20
31.3841383571
 11
36.019463063
 21
31.993502245
 12
36.2297695506
 22
31.3342117819
 13
36.2297695506
 23
31.3342117819
  0
SOLID
  8
0
 62
7
  6
CONTINUOUS
 10
36.1248997704
 20
32.0283367442
 11
36.2297695506
 21
31.3342117819
 12
36.019463063
 22
31.993502245
 13
36.019463063
 23
31.993502245
  0
SOLID
  8
0
 62
7
  6
CONTINUOUS
 10
35.7824362514
 20
31.2339847754
 11
33.7144431311
 21
31.210694287
 12
35.94131968
 22
31.2617298179
 13
35.94131968
 23
31.2617298179
  0
SOLID
  8
0
 62
7
  6
CONTINUOUS
 10
35.94131968
 20
31.2617298179
 11
33.7144431311
 21
31.210694287
 12
36.1423538808
 22
31.3099401848
 13
36.1423538808
 23
31.3099401848
  0
SOLID
  8
0
 62
7
  6
CONTINUOUS
 10
36.1423538808
 20
31.3099401848
 11
33.7144431311
 21
31.210694287
 12
36.2297695506
 22
31.3342117819
 13
36.2297695506
 23
31.3342117819
  0
SOLID
  8
0
 62
7
  6
CONTINUOUS
 10
33.7144431311
 20
31.210694287
 11
33.880659695
 21
31.3841383571
 12
36.2297695506
 22
31.3342117819
 13
36.2297695506
 23
31.3342117819
  0
SOLID
  8
0
 62
7
  6
CONTINUOUS
 10
33.7144431311
 20
31.210694287
 11
35.7824362514
 21
31.2339847754
 12
33.7118706596
 22
31.2075445234
 13
33.7118706596
 23
31.2075445234
  0
SOLID
  8
0
 62
7
  6
CONTINUOUS
 10
35.7824362514
 20
31.2339847754
 11
35.5875418112
 21
31.1991915153
 12
33.7118706596
 22
31.2075445234
 13
33.7118706596
 23
31.2075445234
  0
SOLID
  8
0
 62
7
  6
CONTINUOUS
 10
33.6004742027
 20
31.0450854971
 11
33.7118706596
 21
31.2075445234
 12
35.5875418112
 22
31.1991915153
 13
35.5875418112
 23
31.1991915153
  0
SOLID
  8
0
 62
7
  6
CONTINUOUS
 10
35.0288509001
 20
31.06143751
 11
33.6004742027
 21
31.0450854971
 12
35.2853559024
 22
31.130462991
 13
35.2853559024
 23
31.130462991
  0
SOLID
  8
0
 62
7
  6
CONTINUOUS
 10
33.6004742027
 20
31.0450854971
 11
35.5875418112
 21
31.1991915153
 12
35.2853559024
 22
31.130462991
 13
35.2853559024
 23
31.130462991
  0
SOLID
  8
0
 62
7
  6
CONTINUOUS
 10
35.0288509001
 20
31.06143751
 11
34.895584839
 21
31.0140000283
 12
33.6004742027
 22
31.0450854971
 13
33.6004742027
 23
31.0450854971
  0
SOLID
  8
0
 62
7
  6
CONTINUOUS
 10
33.5467732933
 20
30.9176424345
 11
33.6004742027
 21
31.0450854971
 12
34.895584839
 22
31.0140000283
 13
34.895584839
 23
31.0140000283
  0
SOLID
  8
0
 62
7
  6
CONTINUOUS
 10
34.7072011322
 20
30.9204078467
 11
33.5467732933
 21
30.9176424345
 12
34.770251997
 22
30.9557037903
 13
34.770251997
 23
30.9557037903
  0
SOLID
  8
0
 62
7
  6
CONTINUOUS
 10
33.5467732933
 20
30.9176424345
 11
34.895584839
 21
31.0140000283
 12
34.770251997
 22
30.9557037903
 13
34.770251997
 23
30.9557037903
  0
SOLID
  8
0
 62
7
  6
CONTINUOUS
 10
34.7072011322
 20
30.9204078467
 11
34.6403256227
 21
30.8745565941
 12
33.5467732933
 22
30.9176424345
 13
33.5467732933
 23
30.9176424345
  0
SOLID
  8
0
 62
7
  6
CONTINUOUS
 10
33.4899328528
 20
30.7023023884
 11
33.5467732933
 21
30.9176424345
 12
34.6403256227
 22
30.8745565941
 13
34.6403256227
 23
30.8745565941
  0
SOLID
  8
0
 62
7
  6
CONTINUOUS
 10
34.5442593015
 20
30.7510493247
 11
33.4899328528
 21
30.7023023884
 12
34.5862883952
 22
30.8180027819
 13
34.5862883952
 23
30.8180027819
  0
SOLID
  8
0
 62
7
  6
CONTINUOUS
 10
33.4899328528
 20
30.7023023884
 11
34.6403256227
 21
30.8745565941
 12
34.5862883952
 22
30.8180027819
 13
34.5862883952
 23
30.8180027819
  0
SOLID
  8
0
 62
7
  6
CONTINUOUS
 10
34.5442593015
 20
30.7510493247
 11
34.5143581633
 21
30.6745886862
 12
33.4899328528
 22
30.7023023884
 13
33.4899328528
 23
30.7023023884
  0
SOLID
  8
0
 62
7
  6
CONTINUOUS
 10
33.4719887023
 20
30.4922973645
 11
33.4899328528
 21
30.7023023884
 12
34.5143581633
 22
30.6745886862
 13
34.5143581633
 23
30.6745886862
  0
SOLID
  8
0
 62
7
  6
CONTINUOUS
 10
34.4938770019
 20
30.5143672489
 11
33.4719887023
 21
30.4922973645
 12
34.4935174028
 22
30.5231891721
 13
34.4935174028
 23
30.5231891721
  0
SOLID
  8
0
 62
7
  6
CONTINUOUS
 10
34.4935174028
 20
30.5231891721
 11
33.4719887023
 21
30.4922973645
 12
34.4974264278
 22
30.5927238074
 13
34.4974264278
 23
30.5927238074
  0
SOLID
  8
0
 62
7
  6
CONTINUOUS
 10
33.4719887023
 20
30.4922973645
 11
34.5143581633
 21
30.6745886862
 12
34.4974264278
 22
30.5927238074
 13
34.4974264278
 23
30.5927238074
  0
SOLID
  8
0
 62
7
  6
CONTINUOUS
 10
34.4938770019
 20
30.5143672489
 11
34.5136123738
 21
30.4024816074
 12
33.4719887023
 22
30.4922973645
 13
33.4719887023
 23
30.4922973645
  0
SOLID
  8
0
 62
7
  6
CONTINUOUS
 10
33.4936702825
 20
30.3015331631
 11
33.4719887023
 21
30.4922973645
 12
34.5136123738
 22
30.4024816074
 13
34.5136123738
 23
30.4024816074
  0
SOLID
  8
0
 62
7
  6
CONTINUOUS
 10
33.4936702825
 20
30.3015331631
 11
34.5136123738
 21
30.4024816074
 12
34.5463276793
 22
30.3094557805
 13
34.5463276793
 23
30.3094557805
  0
SOLID
  8
0
 62
7
  6
CONTINUOUS
 10
34.5463276793
 20
30.3094557805
 11
34.5904262499
 21
30.2322405257
 12
33.4936702825
 22
30.3015331631
 13
33.4936702825
 23
30.3015331631
  0
SOLID
  8
0
 62
7
  6
CONTINUOUS
 10
33.5605907305
 20
30.0734338205
 11
33.4936702825
 21
30.3015331631
 12
34.5904262499
 22
30.2322405257
 13
34.5904262499
 23
30.2322405257
  0
SOLID
  8
0
 62
7
  6
CONTINUOUS
 10
34.7106957003
 20
30.1154040383
 11
33.5605907305
 21
30.0734338205
 12
34.6451820903
 22
30.1682619803
 13
34.6451820903
 23
30.1682619803
  0
SOLID
  8
0
 62
7
  6
CONTINUOUS
 10
33.5605907305
 20
30.0734338205
 11
34.5904262499
 21
30.2322405257
 12
34.6451820903
 22
30.1682619803
 13
34.6451820903
 23
30.1682619803
  0
SOLID
  8
0
 62
7
  6
CONTINUOUS
 10
34.7106957003
 20
30.1154040383
 11
34.7878515965
 21
30.0714397134
 12
33.5605907305
 22
30.0734338205
 13
33.5605907305
 23
30.0734338205
  0
SOLID
  8
0
 62
7
  6
CONTINUOUS
 10
33.6597877113
 20
29.8679887877
 11
33.5605907305
 21
30.0734338205
 12
34.7878515965
 22
30.0714397134
 13
34.7878515965
 23
30.0714397134
  0
SOLID
  8
0
 62
7
  6
CONTINUOUS
 10
34.8088279506
 20
31.7513031227
 11
35.1265761002
 21
31.8122889286
 12
34.5644295653
 22
31.6926307558
 13
34.5644295653
 23
31.6926307558
  0
SOLID
  8
0
 62
7
  6
CONTINUOUS
 10
35.1265761002
 20
31.8122889286
 11
36.019463063
 21
31.993502245
 12
34.5644295653
 22
31.6926307558
 13
34.5644295653
 23
31.6926307558
  0
SOLID
  8
0
 62
7
  6
CONTINUOUS
 10
34.5644295653
 20
31.6926307558
 11
36.019463063
 21
31.993502245
 12
34.2072267317
 22
31.5838250008
 13
34.2072267317
 23
31.5838250008
  0
SOLID
  8
0
 62
7
  6
CONTINUOUS
 10
34.2072267317
 20
31.5838250008
 11
36.019463063
 21
31.993502245
 12
34.0497175634
 22
31.5102219205
 13
34.0497175634
 23
31.5102219205
  0
SOLID
  8
0
 62
7
  6
CONTINUOUS
 10
36.019463063
 20
31.993502245
 11
33.880659695
 21
31.3841383571
 12
34.0497175634
 22
31.5102219205
 13
34.0497175634
 23
31.5102219205
  0
SOLID
  8
0
 62
7
  6
CONTINUOUS
 10
35.172297677
 20
29.9855824461
 11
35.320964984
 21
29.9919658542
 12
37.2138563834
 22
29.8716093414
 13
37.2138563834
 23
29.8716093414
  0
SOLID
  8
0
 62
7
  6
CONTINUOUS
 10
35.320964984
 20
29.9919658542
 11
35.4672668916
 21
30.0138733771
 12
37.2138563834
 22
29.8716093414
 13
37.2138563834
 23
29.8716093414
  0
SOLID
  8
0
 62
7
  6
CONTINUOUS
 10
35.4672668916
 20
30.0138733771
 11
35.6065772869
 21
30.0506164995
 12
37.2138563834
 22
29.8716093414
 13
37.2138563834
 23
29.8716093414
  0
SOLID
  8
0
 62
7
  6
CONTINUOUS
 10
35.6065772869
 20
30.0506164995
 11
35.7368382144
 21
30.1014352262
 12
37.2138563834
 22
29.8716093414
 13
37.2138563834
 23
29.8716093414
  0
SOLID
  8
0
 62
7
  6
CONTINUOUS
 10
35.7368382144
 20
30.1014352262
 11
35.8572583168
 21
30.1657908226
 12
37.2138563834
 22
29.8716093414
 13
37.2138563834
 23
29.8716093414
  0
SOLID
  8
0
 62
7
  6
CONTINUOUS
 10
35.8572583168
 20
30.1657908226
 11
35.9544710396
 21
30.2360777825
 12
37.2138563834
 22
29.8716093414
 13
37.2138563834
 23
29.8716093414
  0
SOLID
  8
0
 62
7
  6
CONTINUOUS
 10
35.9544710396
 20
30.2360777825
 11
36.0362970019
 21
30.315389746
 12
37.2138563834
 22
29.8716093414
 13
37.2138563834
 23
29.8716093414
  0
SOLID
  8
0
 62
7
  6
CONTINUOUS
 10
36.0362970019
 20
30.315389746
 11
36.1036442228
 21
30.4032266846
 12
37.2138563834
 22
29.8716093414
 13
37.2138563834
 23
29.8716093414
  0
SOLID
  8
0
 62
7
  6
CONTINUOUS
 10
36.1569227542
 20
30.4989457064
 11
37.2138563834
 21
29.8716093414
 12
36.1036442228
 22
30.4032266846
 13
36.1036442228
 23
30.4032266846
  0
SOLID
  8
0
 62
7
  6
CONTINUOUS
 10
37.2138563834
 20
29.8716093414
 11
33.6597877113
 21
29.8679887877
 12
35.172297677
 22
29.9855824461
 13
35.172297677
 23
29.9855824461
  0
SOLID
  8
0
 62
7
  6
CONTINUOUS
 10
35.172297677
 20
29.9855824461
 11
33.6597877113
 21
29.8679887877
 12
35.0310990212
 22
29.9945775335
 13
35.0310990212
 23
29.9945775335
  0
SOLID
  8
0
 62
7
  6
CONTINUOUS
 10
35.0310990212
 20
29.9945775335
 11
33.6597877113
 21
29.8679887877
 12
34.9319711517
 22
30.0120815024
 13
34.9319711517
 23
30.0120815024
  0
SOLID
  8
0
 62
7
  6
CONTINUOUS
 10
34.9319711517
 20
30.0120815024
 11
33.6597877113
 21
29.8679887877
 12
34.8731972758
 22
30.031776534
 13
34.8731972758
 23
30.031776534
  0
SOLID
  8
0
 62
7
  6
CONTINUOUS
 10
34.8731972758
 20
30.031776534
 11
33.6597877113
 21
29.8679887877
 12
34.7937694975
 22
30.0685796112
 13
34.7937694975
 23
30.0685796112
  0
SOLID
  8
0
 62
7
  6
CONTINUOUS
 10
33.6597877113
 20
29.8679887877
 11
34.7878515965
 21
30.0714397134
 12
34.7937694975
 22
30.0685796112
 13
34.7937694975
 23
30.0685796112
  0
SOLID
  8
0
 62
7
  6
CONTINUOUS
 10
37.2138563834
 20
29.8716093414
 11
37.2364067508
 21
29.7049779635
 12
33.6597877113
 22
29.8679887877
 13
33.6597877113
 23
29.8679887877
  0
SOLID
  8
0
 62
7
  6
CONTINUOUS
 10
33.7893332578
 20
29.6972498357
 11
33.6597877113
 21
29.8679887877
 12
37.2364067508
 22
29.7049779635
 13
37.2364067508
 23
29.7049779635
  0
SOLID
  8
0
 62
7
  6
CONTINUOUS
 10
33.7893332578
 20
29.6972498357
 11
37.2364067508
 21
29.7049779635
 12
36.2297695506
 22
29.6565055756
 13
36.2297695506
 23
29.6565055756
  0
SOLID
  8
0
 62
7
  6
CONTINUOUS
 10
37.2364067508
 20
29.7049779635
 11
37.3031937311
 21
29.5204648027
 12
36.2297695506
 22
29.6565055756
 13
36.2297695506
 23
29.6565055756
  0
SOLID
  8
0
 62
7
  6
CONTINUOUS
 10
36.2297695506
 20
29.2816993174
 11
36.2297695506
 21
29.6565055756
 12
37.3031937311
 22
29.5204648027
 13
37.3031937311
 23
29.5204648027
  0
SOLID
  8
0
 62
7
  6
CONTINUOUS
 10
33.9556017509
 20
29.5542410154
 11
33.7893332578
 21
29.6972498357
 12
36.2297695506
 22
29.6565055756
 13
36.2297695506
 23
29.6565055756
  0
SOLID
  8
0
 62
7
  6
CONTINUOUS
 10
36.2297695506
 20
29.6565055756
 11
36.0231886175
 21
29.4962993403
 12
33.9556017509
 22
29.5542410154
 13
33.9556017509
 23
29.5542410154
  0
SOLID
  8
0
 62
7
  6
CONTINUOUS
 10
34.0436407981
 20
29.495123717
 11
33.9556017509
 21
29.5542410154
 12
36.0231886175
 22
29.4962993403
 13
36.0231886175
 23
29.4962993403
  0
SOLID
  8
0
 62
7
  6
CONTINUOUS
 10
36.0231886175
 20
29.4962993403
 11
35.8085292891
 21
29.3777049142
 12
34.0436407981
 22
29.495123717
 13
34.0436407981
 23
29.495123717
  0
SOLID
  8
0
 62
7
  6
CONTINUOUS
 10
34.2849048696
 20
29.3648903635
 11
34.0436407981
 21
29.495123717
 12
35.8085292891
 22
29.3777049142
 13
35.8085292891
 23
29.3777049142
  0
SOLID
  8
0
 62
7
  6
CONTINUOUS
 10
35.8085292891
 20
29.3777049142
 11
35.6125568386
 21
29.3038089462
 12
34.2849048696
 22
29.3648903635
 13
34.2849048696
 23
29.3648903635
  0
SOLID
  8
0
 62
7
  6
CONTINUOUS
 10
34.5418856578
 20
29.2777301291
 11
34.2849048696
 21
29.3648903635
 12
35.6125568386
 22
29.3038089462
 13
35.6125568386
 23
29.3038089462
  0
SOLID
  8
0
 62
7
  6
CONTINUOUS
 10
37.4132831035
 20
29.3234774841
 11
37.4407728021
 21
29.2816993174
 12
37.3031937311
 22
29.5204648027
 13
36.2297695506
 23
29.2816993174
  0
SOLID
  8
0
 62
7
  6
CONTINUOUS
 10
34.5418856578
 20
29.2777301291
 11
35.6125568386
 21
29.3038089462
 12
35.5741415257
 22
29.2922993073
 13
35.5741415257
 23
29.2922993073
  0
SOLID
  8
0
 62
7
  6
CONTINUOUS
 10
35.5741415257
 20
29.2922993073
 11
35.4049000698
 21
29.251383244
 12
34.5418856578
 22
29.2777301291
 13
34.5418856578
 23
29.2777301291
  0
SOLID
  8
0
 62
7
  6
CONTINUOUS
 10
34.8399516218
 20
29.2288256421
 11
34.5418856578
 21
29.2777301291
 12
35.4049000698
 22
29.251383244
 13
35.4049000698
 23
29.251383244
  0
SOLID
  8
0
 62
7
  6
CONTINUOUS
 10
35.4049000698
 20
29.251383244
 11
35.1327256043
 21
29.2217293534
 12
34.8399516218
 22
29.2288256421
 13
34.8399516218
 23
29.2288256421
  0
SOLID
  8
0
 62
7
  6
CONTINUOUS
 10
39.2304163852
 20
33.4771441605
 11
39.2401648078
 21
33.477161126
 12
38.887501445
 22
33.4532684322
 13
38.887501445
 23
33.4532684322
  0
SOLID
  8
0
 62
7
  6
CONTINUOUS
 10
39.2401648078
 20
33.477161126
 11
39.5020502317
 21
33.4517190149
 12
38.887501445
 22
33.4532684322
 13
38.887501445
 23
33.4532684322
  0
SOLID
  8
0
 62
7
  6
CONTINUOUS
 10
38.5858047808
 20
33.3873715233
 11
38.887501445
 21
33.4532684322
 12
39.5020502317
 22
33.4517190149
 13
39.5020502317
 23
33.4517190149
  0
SOLID
  8
0
 62
7
  6
CONTINUOUS
 10
39.5020502317
 20
33.4517190149
 11
39.7850167351
 21
33.37236083
 12
38.5858047808
 22
33.3873715233
 13
38.5858047808
 23
33.3873715233
  0
SOLID
  8
0
 62
7
  6
CONTINUOUS
 10
38.3260497875
 20
33.2837191885
 11
38.5858047808
 21
33.3873715233
 12
39.7850167351
 22
33.37236083
 13
39.7850167351
 23
33.37236083
  0
SOLID
  8
0
 62
7
  6
CONTINUOUS
 10
38.3260497875
 20
33.2837191885
 11
39.7850167351
 21
33.37236083
 12
39.8793652849
 22
33.3339620248
 13
39.8793652849
 23
33.3339620248
  0
SOLID
  8
0
 62
7
  6
CONTINUOUS
 10
39.8793652849
 20
33.3339620248
 11
40.1328839672
 21
33.1951632448
 12
38.3260497875
 22
33.2837191885
 13
38.3260497875
 23
33.2837191885
  0
SOLID
  8
0
 62
7
  6
CONTINUOUS
 10
38.1057374653
 20
33.1446891111
 11
38.3260497875
 21
33.2837191885
 12
40.1328839672
 22
33.1951632448
 13
40.1328839672
 23
33.1951632448
  0
SOLID
  8
0
 62
7
  6
CONTINUOUS
 10
40.1328839672
 20
33.1951632448
 11
40.323214848
 21
33.0396570889
 12
38.1057374653
 22
33.1446891111
 13
38.1057374653
 23
33.1446891111
  0
SOLID
  8
0
 62
7
  6
CONTINUOUS
 10
37.9157542597
 20
32.9817031174
 11
38.1057374653
 21
33.1446891111
 12
40.323214848
 22
33.0396570889
 13
40.323214848
 23
33.0396570889
  0
SOLID
  8
0
 62
7
  6
CONTINUOUS
 10
37.9157542597
 20
32.9817031174
 11
40.323214848
 21
33.0396570889
 12
37.7225859802
 22
32.7672381123
 13
37.7225859802
 23
32.7672381123
  0
SOLID
  8
0
 62
7
  6
CONTINUOUS
 10
37.7225859802
 20
32.7672381123
 11
40.323214848
 21
33.0396570889
 12
39.3168591706
 22
32.6479552409
 13
39.3168591706
 23
32.6479552409
  0
SOLID
  8
0
 62
7
  6
CONTINUOUS
 10
39.3168591706
 20
32.6479552409
 11
40.323214848
 21
33.0396570889
 12
39.4636275306
 22
32.6429400632
 13
39.4636275306
 23
32.6429400632
  0
SOLID
  8
0
 62
7
  6
CONTINUOUS
 10
40.323214848
 20
33.0396570889
 11
41.2667311504
 21
33.4262823773
 12
39.4636275306
 22
32.6429400632
 13
39.4636275306
 23
32.6429400632
  0
SOLID
  8
0
 62
7
  6
CONTINUOUS
 10
39.4636275306
 20
32.6429400632
 11
41.2667311504
 21
33.4262823773
 12
39.6058592837
 22
32.6171899172
 13
39.6058592837
 23
32.6171899172
  0
SOLID
  8
0
 62
7
  6
CONTINUOUS
 10
39.6058592837
 20
32.6171899172
 11
41.2667311504
 21
33.4262823773
 12
39.7429756933
 22
32.5703738917
 13
39.7429756933
 23
32.5703738917
  0
SOLID
  8
0
 62
7
  6
CONTINUOUS
 10
39.7429756933
 20
32.5703738917
 11
41.2667311504
 21
33.4262823773
 12
39.8750056775
 22
32.5016442775
 13
39.8750056775
 23
32.5016442775
  0
SOLID
  8
0
 62
7
  6
CONTINUOUS
 10
39.8750056775
 20
32.5016442775
 11
41.2667311504
 21
33.4262823773
 12
40.0020809165
 22
32.4094726929
 13
40.0020809165
 23
32.4094726929
  0
SOLID
  8
0
 62
7
  6
CONTINUOUS
 10
40.0020809165
 20
32.4094726929
 11
41.2667311504
 21
33.4262823773
 12
40.0023410342
 22
32.4092586128
 13
40.0023410342
 23
32.4092586128
  0
SOLID
  8
0
 62
7
  6
CONTINUOUS
 10
40.0023410342
 20
32.4092586128
 11
41.2667311504
 21
33.4262823773
 12
40.0649307669
 22
32.3493177845
 13
40.0649307669
 23
32.3493177845
  0
SOLID
  8
0
 62
7
  6
CONTINUOUS
 10
40.0649307669
 20
32.3493177845
 11
41.2667311504
 21
33.4262823773
 12
40.1460747801
 22
32.2511808106
 13
40.1460747801
 23
32.2511808106
  0
SOLID
  8
0
 62
7
  6
CONTINUOUS
 10
40.1460747801
 20
32.2511808106
 11
41.2667311504
 21
33.4262823773
 12
40.2110398647
 22
32.1451706834
 13
40.2110398647
 23
32.1451706834
  0
SOLID
  8
0
 62
7
  6
CONTINUOUS
 10
40.2110398647
 20
32.1451706834
 11
41.2667311504
 21
33.4262823773
 12
40.2541959419
 22
32.03910218
 13
40.2541959419
 23
32.03910218
  0
SOLID
  8
0
 62
7
  6
CONTINUOUS
 10
40.2541959419
 20
32.03910218
 11
41.2667311504
 21
33.4262823773
 12
40.2922458298
 22
31.8865946212
 13
40.2922458298
 23
31.8865946212
  0
SOLID
  8
0
 62
7
  6
CONTINUOUS
 10
40.2922458298
 20
31.8865946212
 11
41.2667311504
 21
33.4262823773
 12
40.3171753841
 22
31.7104709355
 13
40.3171753841
 23
31.7104709355
  0
SOLID
  8
0
 62
7
  6
CONTINUOUS
 10
40.3171753841
 20
31.7104709355
 11
41.2667311504
 21
33.4262823773
 12
40.3254583403
 22
31.5736588823
 13
40.3254583403
 23
31.5736588823
  0
SOLID
  8
0
 62
7
  6
CONTINUOUS
 10
40.3254583403
 20
31.5736588823
 11
41.2667311504
 21
33.4262823773
 12
40.325484528
 22
31.5714965116
 13
40.325484528
 23
31.5714965116
  0
SOLID
  8
0
 62
7
  6
CONTINUOUS
 10
40.325484528
 20
31.5714965116
 11
41.2667311504
 21
33.4262823773
 12
40.3259566215
 22
31.5649220739
 13
40.3259566215
 23
31.5649220739
  0
SOLID
  8
0
 62
7
  6
CONTINUOUS
 10
40.3259566215
 20
31.5649220739
 11
41.2667311504
 21
33.4262823773
 12
40.3300238881
 22
31.5082807645
 13
40.3300238881
 23
31.5082807645
  0
SOLID
  8
0
 62
7
  6
CONTINUOUS
 10
40.3300238881
 20
31.5082807645
 11
41.2667311504
 21
33.4262823773
 12
40.3279476414
 22
31.3586366577
 13
40.3279476414
 23
31.3586366577
  0
SOLID
  8
0
 62
7
  6
CONTINUOUS
 10
40.3279476414
 20
31.3586366577
 11
41.2667311504
 21
33.4262823773
 12
40.3136045497
 22
31.1656323687
 13
40.3136045497
 23
31.1656323687
  0
SOLID
  8
0
 62
7
  6
CONTINUOUS
 10
40.3136045497
 20
31.1656323687
 11
41.2667311504
 21
33.4262823773
 12
40.284336147
 22
31.0102409883
 13
40.284336147
 23
31.0102409883
  0
SOLID
  8
0
 62
7
  6
CONTINUOUS
 10
40.284336147
 20
31.0102409883
 11
41.2667311504
 21
33.4262823773
 12
40.2389872223
 22
30.8766510183
 13
40.2389872223
 23
30.8766510183
  0
SOLID
  8
0
 62
7
  6
CONTINUOUS
 10
40.2389872223
 20
30.8766510183
 11
41.2667311504
 21
33.4262823773
 12
40.323214848
 22
29.919969001
 13
40.323214848
 23
29.919969001
  0
SOLID
  8
0
 62
7
  6
CONTINUOUS
 10
41.2667311504
 20
33.4262823773
 11
41.2667311504
 21
29.394048031
 12
40.323214848
 22
29.919969001
 13
40.323214848
 23
29.919969001
  0
SOLID
  8
0
 62
7
  6
CONTINUOUS
 10
40.323214848
 20
29.3769222636
 11
40.323214848
 21
29.919969001
 12
41.2667311504
 22
29.394048031
 13
41.2667311504
 23
29.394048031
  0
SOLID
  8
0
 62
7
  6
CONTINUOUS
 10
40.323214848
 20
29.3769222636
 11
41.2667311504
 21
29.394048031
 12
40.3239386237
 22
29.3683961824
 13
40.3239386237
 23
29.3683961824
  0
SOLID
  8
0
 62
7
  6
CONTINUOUS
 10
40.3239386237
 20
29.3683961824
 11
41.2667311504
 21
29.394048031
 12
40.3154201142
 22
29.2580696045
 13
40.3154201142
 23
29.2580696045
  0
SOLID
  8
0
 62
7
  6
CONTINUOUS
 10
41.2667311504
 20
29.394048031
 11
41.2435008684
 21
29.1367842099
 12
40.3154201142
 22
29.2580696045
 13
40.3154201142
 23
29.2580696045
  0
SOLID
  8
0
 62
7
  6
CONTINUOUS
 10
40.2688348476
 20
29.1276249039
 11
40.3154201142
 21
29.2580696045
 12
41.2435008684
 22
29.1367842099
 13
41.2435008684
 23
29.1367842099
  0
SOLID
  8
0
 62
7
  6
CONTINUOUS
 10
40.2688348476
 20
29.1276249039
 11
41.2435008684
 21
29.1367842099
 12
40.179445712
 22
29.0094669916
 13
40.179445712
 23
29.0094669916
  0
SOLID
  8
0
 62
7
  6
CONTINUOUS
 10
41.2435008684
 20
29.1367842099
 11
41.186274685
 21
28.9428673424
 12
40.179445712
 22
29.0094669916
 13
40.179445712
 23
29.0094669916
  0
SOLID
  8
0
 62
7
  6
CONTINUOUS
 10
40.0411015355
 20
28.9114687812
 11
40.179445712
 21
29.0094669916
 12
41.186274685
 22
28.9428673424
 13
41.186274685
 23
28.9428673424
  0
SOLID
  8
0
 62
7
  6
CONTINUOUS
 10
40.0411015355
 20
28.9114687812
 11
41.186274685
 21
28.9428673424
 12
39.8425601101
 22
28.840527053
 13
39.8425601101
 23
28.840527053
  0
SOLID
  8
0
 62
7
  6
CONTINUOUS
 10
39.8425601101
 20
28.840527053
 11
41.186274685
 21
28.9428673424
 12
39.7158686119
 22
28.8182355784
 13
39.7158686119
 23
28.8182355784
  0
SOLID
  8
0
 62
7
  6
CONTINUOUS
 10
41.186274685
 20
28.9428673424
 11
41.0611961492
 21
28.7270973978
 12
39.7158686119
 22
28.8182355784
 13
39.7158686119
 23
28.8182355784
  0
SOLID
  8
0
 62
7
  6
CONTINUOUS
 10
40.323214848
 20
33.0396570889
 11
40.323214848
 21
33.4262823773
 12
41.2667311504
 22
33.4262823773
 13
41.2667311504
 23
33.4262823773
  0
SOLID
  8
0
 62
7
  6
CONTINUOUS
 10
38.8741368723
 20
32.5426205699
 11
37.5719459836
 21
32.5295184324
 12
38.8759585395
 22
32.5434689273
 13
38.8759585395
 23
32.5434689273
  0
SOLID
  8
0
 62
7
  6
CONTINUOUS
 10
38.8759585395
 20
32.5434689273
 11
37.5719459836
 21
32.5295184324
 12
38.9007763855
 22
32.5544095488
 13
38.9007763855
 23
32.5544095488
  0
SOLID
  8
0
 62
7
  6
CONTINUOUS
 10
38.9007763855
 20
32.5544095488
 11
37.5719459836
 21
32.5295184324
 12
39.0225809915
 22
32.5984463345
 13
39.0225809915
 23
32.5984463345
  0
SOLID
  8
0
 62
7
  6
CONTINUOUS
 10
39.0225809915
 20
32.5984463345
 11
37.5719459836
 21
32.5295184324
 12
39.1677468858
 22
32.6325472655
 13
39.1677468858
 23
32.6325472655
  0
SOLID
  8
0
 62
7
  6
CONTINUOUS
 10
39.1677468858
 20
32.6325472655
 11
37.5719459836
 21
32.5295184324
 12
39.3168591706
 22
32.6479552409
 13
39.3168591706
 23
32.6479552409
  0
SOLID
  8
0
 62
7
  6
CONTINUOUS
 10
37.5719459836
 20
32.5295184324
 11
37.7225859802
 21
32.7672381123
 12
39.3168591706
 22
32.6479552409
 13
39.3168591706
 23
32.6479552409
  0
SOLID
  8
0
 62
7
  6
CONTINUOUS
 10
38.8741368723
 20
32.5426205699
 11
38.7907584103
 21
32.4993166781
 12
37.5719459836
 22
32.5295184324
 13
37.5719459836
 23
32.5295184324
  0
SOLID
  8
0
 62
7
  6
CONTINUOUS
 10
37.4596972744
 20
32.2560379395
 11
37.5719459836
 21
32.5295184324
 12
38.7907584103
 22
32.4993166781
 13
38.7907584103
 23
32.4993166781
  0
SOLID
  8
0
 62
7
  6
CONTINUOUS
 10
38.5955747071
 20
32.3380782304
 11
37.4596972744
 21
32.2560379395
 12
38.6910065481
 22
32.4291874387
 13
38.6910065481
 23
32.4291874387
  0
SOLID
  8
0
 62
7
  6
CONTINUOUS
 10
37.4596972744
 20
32.2560379395
 11
38.7907584103
 21
32.4993166781
 12
38.6910065481
 22
32.4291874387
 13
38.6910065481
 23
32.4291874387
  0
SOLID
  8
0
 62
7
  6
CONTINUOUS
 10
38.5955747071
 20
32.3380782304
 11
38.5105880399
 21
32.2278966595
 12
37.4596972744
 22
32.2560379395
 13
37.4596972744
 23
32.2560379395
  0
SOLID
  8
0
 62
7
  6
CONTINUOUS
 10
37.3871258197
 20
31.9344389807
 11
37.4596972744
 21
32.2560379395
 12
38.5105880399
 22
32.2278966595
 13
38.5105880399
 23
32.2278966595
  0
SOLID
  8
0
 62
7
  6
CONTINUOUS
 10
38.3822767853
 20
31.9503389469
 11
37.3871258197
 21
31.9344389807
 12
38.4388431004
 22
32.0988948101
 13
38.4388431004
 23
32.0988948101
  0
SOLID
  8
0
 62
7
  6
CONTINUOUS
 10
37.3871258197
 20
31.9344389807
 11
38.5105880399
 21
32.2278966595
 12
38.4388431004
 22
32.0988948101
 13
38.4388431004
 23
32.0988948101
  0
SOLID
  8
0
 62
7
  6
CONTINUOUS
 10
37.3871258197
 20
31.9344389807
 11
38.3822767853
 21
31.9503389469
 12
37.3869312254
 22
31.9331053169
 13
37.3869312254
 23
31.9331053169
  0
SOLID
  8
0
 62
7
  6
CONTINUOUS
 10
38.3822767853
 20
31.9503389469
 11
38.3427973523
 21
31.7808501704
 12
37.3869312254
 22
31.9331053169
 13
37.3869312254
 23
31.9331053169
  0
SOLID
  8
0
 62
7
  6
CONTINUOUS
 10
37.3504198218
 20
31.5225236646
 11
37.3869312254
 21
31.9331053169
 12
38.3427973523
 22
31.7808501704
 13
38.3427973523
 23
31.7808501704
  0
SOLID
  8
0
 62
7
  6
CONTINUOUS
 10
37.3504198218
 20
31.5225236646
 11
38.3427973523
 21
31.7808501704
 12
38.3225950748
 22
31.588622279
 13
38.3225950748
 23
31.588622279
  0
SOLID
  8
0
 62
7
  6
CONTINUOUS
 10
38.3225950748
 20
31.588622279
 11
38.3240457048
 21
31.3927700211
 12
37.3504198218
 22
31.5225236646
 13
37.3504198218
 23
31.5225236646
  0
SOLID
  8
0
 62
7
  6
CONTINUOUS
 10
37.3646468412
 20
31.1621877528
 11
37.3504198218
 21
31.5225236646
 12
38.3240457048
 22
31.3927700211
 13
38.3240457048
 23
31.3927700211
  0
SOLID
  8
0
 62
7
  6
CONTINUOUS
 10
37.3646468412
 20
31.1621877528
 11
38.3240457048
 21
31.3927700211
 12
38.3469582355
 22
31.210340946
 13
38.3469582355
 23
31.210340946
  0
SOLID
  8
0
 62
7
  6
CONTINUOUS
 10
38.3469582355
 20
31.210340946
 11
38.3896653903
 21
31.0412839806
 12
37.3646468412
 22
31.1621877528
 13
37.3646468412
 23
31.1621877528
  0
SOLID
  8
0
 62
7
  6
CONTINUOUS
 10
37.4250961849
 20
30.8413227677
 11
37.3646468412
 21
31.1621877528
 12
38.3896653903
 22
31.0412839806
 13
38.3896653903
 23
31.0412839806
  0
SOLID
  8
0
 62
7
  6
CONTINUOUS
 10
37.4250961849
 20
30.8413227677
 11
38.3896653903
 21
31.0412839806
 12
38.4503746388
 22
30.8862698447
 13
38.4503746388
 23
30.8862698447
  0
SOLID
  8
0
 62
7
  6
CONTINUOUS
 10
38.4503746388
 20
30.8862698447
 11
38.5264628679
 21
30.7472897193
 12
37.4250961849
 22
30.8413227677
 13
37.4250961849
 23
30.8413227677
  0
SOLID
  8
0
 62
7
  6
CONTINUOUS
 10
37.5302299963
 20
30.5515396933
 11
37.4250961849
 21
30.8413227677
 12
38.5264628679
 22
30.7472897193
 13
38.5264628679
 23
30.7472897193
  0
SOLID
  8
0
 62
7
  6
CONTINUOUS
 10
37.5302299963
 20
30.5515396933
 11
38.5264628679
 21
30.7472897193
 12
38.6125343396
 22
30.6290683067
 13
38.6125343396
 23
30.6290683067
  0
SOLID
  8
0
 62
7
  6
CONTINUOUS
 10
38.6125343396
 20
30.6290683067
 11
38.6932367548
 21
30.5437898304
 12
37.5302299963
 22
30.5515396933
 13
37.5302299963
 23
30.5515396933
  0
SOLID
  8
0
 62
7
  6
CONTINUOUS
 10
37.6815652191
 20
30.2864191575
 11
37.5302299963
 21
30.5515396933
 12
38.6932367548
 22
30.5437898304
 13
38.6932367548
 23
30.5437898304
  0
SOLID
  8
0
 62
7
  6
CONTINUOUS
 10
39.281866539
 20
30.313647019
 11
37.6815652191
 21
30.2864191575
 12
39.1330997447
 22
30.3325721548
 13
39.1330997447
 23
30.3325721548
  0
SOLID
  8
0
 62
7
  6
CONTINUOUS
 10
39.1330997447
 20
30.3325721548
 11
37.6815652191
 21
30.2864191575
 12
38.9884423459
 22
30.3738964591
 13
38.9884423459
 23
30.3738964591
  0
SOLID
  8
0
 62
7
  6
CONTINUOUS
 10
38.9884423459
 20
30.3738964591
 11
37.6815652191
 21
30.2864191575
 12
38.8491128999
 22
30.4376349626
 13
38.8491128999
 23
30.4376349626
  0
SOLID
  8
0
 62
7
  6
CONTINUOUS
 10
38.8491128999
 20
30.4376349626
 11
37.6815652191
 21
30.2864191575
 12
38.7160234733
 22
30.5241939317
 13
38.7160234733
 23
30.5241939317
  0
SOLID
  8
0
 62
7
  6
CONTINUOUS
 10
37.6815652191
 20
30.2864191575
 11
38.6932367548
 21
30.5437898304
 12
38.7160234733
 22
30.5241939317
 13
38.7160234733
 23
30.5241939317
  0
SOLID
  8
0
 62
7
  6
CONTINUOUS
 10
37.6815652191
 20
30.2864191575
 11
39.281866539
 21
30.313647019
 12
37.7910588151
 22
30.1406062246
 13
37.7910588151
 23
30.1406062246
  0
SOLID
  8
0
 62
7
  6
CONTINUOUS
 10
39.281866539
 20
30.313647019
 11
39.4329494475
 21
30.3173438915
 12
37.7910588151
 22
30.1406062246
 13
37.7910588151
 23
30.1406062246
  0
SOLID
  8
0
 62
7
  6
CONTINUOUS
 10
37.7910588151
 20
30.1406062246
 11
39.4329494475
 21
30.3173438915
 12
38.0014678308
 22
29.9221164152
 13
38.0014678308
 23
29.9221164152
  0
SOLID
  8
0
 62
7
  6
CONTINUOUS
 10
39.4329494475
 20
30.3173438915
 11
39.5837257408
 21
30.3438429344
 12
38.0014678308
 22
29.9221164152
 13
38.0014678308
 23
29.9221164152
  0
SOLID
  8
0
 62
7
  6
CONTINUOUS
 10
38.0014678308
 20
29.9221164152
 11
39.5837257408
 21
30.3438429344
 12
40.323214848
 22
29.919969001
 13
40.323214848
 23
29.919969001
  0
SOLID
  8
0
 62
7
  6
CONTINUOUS
 10
39.5837257408
 20
30.3438429344
 11
39.7305981966
 21
30.3928867018
 12
40.323214848
 22
29.919969001
 13
40.323214848
 23
29.919969001
  0
SOLID
  8
0
 62
7
  6
CONTINUOUS
 10
39.7305981966
 20
30.3928867018
 11
39.8690892074
 21
30.4633504122
 12
40.323214848
 22
29.919969001
 13
40.323214848
 23
29.919969001
  0
SOLID
  8
0
 62
7
  6
CONTINUOUS
 10
39.8690892074
 20
30.4633504122
 11
39.9801578709
 21
30.5413196992
 12
40.323214848
 22
29.919969001
 13
40.323214848
 23
29.919969001
  0
SOLID
  8
0
 62
7
  6
CONTINUOUS
 10
39.9801578709
 20
30.5413196992
 11
40.0390224952
 21
30.5929472334
 12
40.323214848
 22
29.919969001
 13
40.323214848
 23
29.919969001
  0
SOLID
  8
0
 62
7
  6
CONTINUOUS
 10
40.0390224952
 20
30.5929472334
 11
40.0909291698
 21
30.6460895847
 12
40.323214848
 22
29.919969001
 13
40.323214848
 23
29.919969001
  0
SOLID
  8
0
 62
7
  6
CONTINUOUS
 10
40.0909291698
 20
30.6460895847
 11
40.1756037481
 21
30.756868604
 12
40.323214848
 22
29.919969001
 13
40.323214848
 23
29.919969001
  0
SOLID
  8
0
 62
7
  6
CONTINUOUS
 10
40.2389872223
 20
30.8766510183
 11
40.323214848
 21
29.919969001
 12
40.1756037481
 22
30.756868604
 13
40.1756037481
 23
30.756868604
  0
SOLID
  8
0
 62
7
  6
CONTINUOUS
 10
40.1948785616
 20
29.8226046996
 11
38.2344674884
 21
29.7516992792
 12
40.323214848
 22
29.919969001
 13
40.323214848
 23
29.919969001
  0
SOLID
  8
0
 62
7
  6
CONTINUOUS
 10
38.2344674884
 20
29.7516992792
 11
38.0014678308
 21
29.9221164152
 12
40.323214848
 22
29.919969001
 13
40.323214848
 23
29.919969001
  0
SOLID
  8
0
 62
7
  6
CONTINUOUS
 10
40.1948785616
 20
29.8226046996
 11
39.9577316571
 21
29.684979905
 12
38.2344674884
 22
29.7516992792
 13
38.2344674884
 23
29.7516992792
  0
SOLID
  8
0
 62
7
  6
CONTINUOUS
 10
38.4971552751
 20
29.6245523058
 11
38.2344674884
 21
29.7516992792
 12
39.9577316571
 22
29.684979905
 13
39.9577316571
 23
29.684979905
  0
SOLID
  8
0
 62
7
  6
CONTINUOUS
 10
39.9577316571
 20
29.684979905
 11
39.6914251855
 21
29.5784690389
 12
38.4971552751
 22
29.6245523058
 13
38.4971552751
 23
29.6245523058
  0
SOLID
  8
0
 62
7
  6
CONTINUOUS
 10
38.6423975225
 20
29.5768553279
 11
38.4971552751
 21
29.6245523058
 12
39.6914251855
 22
29.5784690389
 13
39.6914251855
 23
29.5784690389
  0
SOLID
  8
0
 62
7
  6
CONTINUOUS
 10
38.6423975225
 20
29.5768553279
 11
39.6914251855
 21
29.5784690389
 12
38.7975465164
 22
29.5402825257
 13
38.7975465164
 23
29.5402825257
  0
SOLID
  8
0
 62
7
  6
CONTINUOUS
 10
39.6914251855
 20
29.5784690389
 11
39.4167813844
 21
29.5164845384
 12
38.7975465164
 22
29.5402825257
 13
38.7975465164
 23
29.5402825257
  0
SOLID
  8
0
 62
7
  6
CONTINUOUS
 10
39.1404278459
 20
29.5020899585
 11
38.7975465164
 21
29.5402825257
 12
39.4167813844
 22
29.5164845384
 13
39.4167813844
 23
29.5164845384
  0
SOLID
  8
0
 62
7
  6
CONTINUOUS
 10
37.4901383426
 20
29.235376764
 11
37.4901383426
 21
29.2819565894
 12
38.5505431662
 22
29.2819565894
 13
38.5505431662
 23
29.2819565894
  0
SOLID
  8
0
 62
7
  6
CONTINUOUS
 10
38.5505431662
 20
29.2819565894
 11
38.5760709624
 21
29.1700509125
 12
37.4901383426
 22
29.235376764
 13
37.4901383426
 23
29.235376764
  0
SOLID
  8
0
 62
7
  6
CONTINUOUS
 10
37.5424365063
 20
28.9923300425
 11
37.4901383426
 21
29.235376764
 12
38.5760709624
 22
29.1700509125
 13
38.5760709624
 23
29.1700509125
  0
SOLID
  8
0
 62
7
  6
CONTINUOUS
 10
37.5424365063
 20
28.9923300425
 11
38.5760709624
 21
29.1700509125
 12
38.6426841836
 22
29.0477460273
 13
38.6426841836
 23
29.0477460273
  0
SOLID
  8
0
 62
7
  6
CONTINUOUS
 10
38.6426841836
 20
29.0477460273
 11
38.7572280118
 21
28.9456778389
 12
37.5424365063
 22
28.9923300425
 13
37.5424365063
 23
28.9923300425
  0
SOLID
  8
0
 62
7
  6
CONTINUOUS
 10
37.6357816905
 20
28.7803090284
 11
37.5424365063
 21
28.9923300425
 12
38.7572280118
 22
28.9456778389
 13
38.7572280118
 23
28.9456778389
  0
SOLID
  8
0
 62
7
  6
CONTINUOUS
 10
39.5688557421
 20
28.8069230759
 11
37.6357816905
 21
28.7803090284
 12
39.1973767943
 22
28.8160249543
 13
39.1973767943
 23
28.8160249543
  0
SOLID
  8
0
 62
7
  6
CONTINUOUS
 10
39.1973767943
 20
28.8160249543
 11
37.6357816905
 21
28.7803090284
 12
38.9364809659
 22
28.8656586566
 13
38.9364809659
 23
28.8656586566
  0
SOLID
  8
0
 62
7
  6
CONTINUOUS
 10
37.6357816905
 20
28.7803090284
 11
38.7572280118
 21
28.9456778389
 12
38.9364809659
 22
28.8656586566
 13
38.9364809659
 23
28.8656586566
  0
SOLID
  8
0
 62
7
  6
CONTINUOUS
 10
37.6357816905
 20
28.7803090284
 11
39.5688557421
 21
28.8069230759
 12
41.0611961492
 22
28.7270973978
 13
41.0611961492
 23
28.7270973978
  0
SOLID
  8
0
 62
7
  6
CONTINUOUS
 10
39.7158686119
 20
28.8182355784
 11
41.0611961492
 21
28.7270973978
 12
39.5688557421
 22
28.8069230759
 13
39.5688557421
 23
28.8069230759
  0
SOLID
  8
0
 62
7
  6
CONTINUOUS
 10
37.7635059753
 20
28.6006554418
 11
37.6357816905
 21
28.7803090284
 12
41.0611961492
 22
28.7270973978
 13
41.0611961492
 23
28.7270973978
  0
SOLID
  8
0
 62
7
  6
CONTINUOUS
 10
37.7635059753
 20
28.6006554418
 11
41.0611961492
 21
28.7270973978
 12
41.0185088734
 22
28.671357816
 13
41.0185088734
 23
28.671357816
  0
SOLID
  8
0
 62
7
  6
CONTINUOUS
 10
41.0185088734
 20
28.671357816
 11
40.8696638515
 21
28.5267633135
 12
37.7635059753
 22
28.6006554418
 13
37.7635059753
 23
28.6006554418
  0
SOLID
  8
0
 62
7
  6
CONTINUOUS
 10
37.909599128
 20
28.4625306944
 11
37.7635059753
 21
28.6006554418
 12
40.8696638515
 22
28.5267633135
 13
40.8696638515
 23
28.5267633135
  0
SOLID
  8
0
 62
7
  6
CONTINUOUS
 10
37.909599128
 20
28.4625306944
 11
40.8696638515
 21
28.5267633135
 12
38.0006873887
 22
28.4014241063
 13
38.0006873887
 23
28.4014241063
  0
SOLID
  8
0
 62
7
  6
CONTINUOUS
 10
40.8696638515
 20
28.5267633135
 11
40.6582606771
 21
28.3830021166
 12
38.0006873887
 22
28.4014241063
 13
38.0006873887
 23
28.4014241063
  0
SOLID
  8
0
 62
7
  6
CONTINUOUS
 10
38.2255752006
 20
28.2874062944
 11
38.0006873887
 21
28.4014241063
 12
40.6582606771
 22
28.3830021166
 13
40.6582606771
 23
28.3830021166
  0
SOLID
  8
0
 62
7
  6
CONTINUOUS
 10
40.6582606771
 20
28.3830021166
 11
40.3978645988
 21
28.2640984023
 12
38.2255752006
 22
28.2874062944
 13
38.2255752006
 23
28.2874062944
  0
SOLID
  8
0
 62
7
  6
CONTINUOUS
 10
38.5125051231
 20
28.1989366801
 11
38.2255752006
 21
28.2874062944
 12
40.3978645988
 22
28.2640984023
 13
40.3978645988
 23
28.2640984023
  0
SOLID
  8
0
 62
7
  6
CONTINUOUS
 10
40.3978645988
 20
28.2640984023
 11
40.0922491138
 21
28.1802592631
 12
38.5125051231
 22
28.1989366801
 13
38.5125051231
 23
28.1989366801
  0
SOLID
  8
0
 62
7
  6
CONTINUOUS
 10
38.867867126
 20
28.1412106307
 11
38.5125051231
 21
28.1989366801
 12
40.0922491138
 22
28.1802592631
 13
40.0922491138
 23
28.1802592631
  0
SOLID
  8
0
 62
7
  6
CONTINUOUS
 10
38.867867126
 20
28.1412106307
 11
40.0922491138
 21
28.1802592631
 12
40.0860339643
 22
28.1792434494
 13
40.0860339643
 23
28.1792434494
  0
SOLID
  8
0
 62
7
  6
CONTINUOUS
 10
40.0860339643
 20
28.1792434494
 11
39.7464393212
 21
28.1396980393
 12
38.867867126
 22
28.1412106307
 13
38.867867126
 23
28.1412106307
  0
SOLID
  8
0
 62
7
  6
CONTINUOUS
 10
39.2893620522
 20
28.1204164215
 11
38.867867126
 21
28.1412106307
 12
39.7464393212
 22
28.1396980393
 13
39.7464393212
 23
28.1396980393
  0
SOLID
  8
0
 62
7
  6
CONTINUOUS
 10
43.0166906264
 20
33.5303500215
 11
43.3159188941
 21
33.5690017314
 12
43.6240081706
 22
33.5649029029
 13
43.6240081706
 23
33.5649029029
  0
SOLID
  8
0
 62
7
  6
CONTINUOUS
 10
43.6240081706
 20
33.5649029029
 11
43.9376029096
 21
33.5159494418
 12
43.0166906264
 22
33.5303500215
 13
43.0166906264
 23
33.5303500215
  0
SOLID
  8
0
 62
7
  6
CONTINUOUS
 10
42.7342343016
 20
33.4523858652
 11
43.0166906264
 21
33.5303500215
 12
43.9376029096
 22
33.5159494418
 13
43.9376029096
 23
33.5159494418
  0
SOLID
  8
0
 62
7
  6
CONTINUOUS
 10
43.9376029096
 20
33.5159494418
 11
44.2443043632
 21
33.4224671277
 12
42.7342343016
 22
33.4523858652
 13
42.7342343016
 23
33.4523858652
  0
SOLID
  8
0
 62
7
  6
CONTINUOUS
 10
42.6009161268
 20
33.3995844945
 11
42.7342343016
 21
33.4523858652
 12
44.2443043632
 22
33.4224671277
 13
44.2443043632
 23
33.4224671277
  0
SOLID
  8
0
 62
7
  6
CONTINUOUS
 10
42.6009161268
 20
33.3995844945
 11
44.2443043632
 21
33.4224671277
 12
42.4680945536
 22
33.336692418
 13
42.4680945536
 23
33.336692418
  0
SOLID
  8
0
 62
7
  6
CONTINUOUS
 10
44.2443043632
 20
33.4224671277
 11
44.5126010105
 21
33.2936021064
 12
42.4680945536
 22
33.336692418
 13
42.4680945536
 23
33.336692418
  0
SOLID
  8
0
 62
7
  6
CONTINUOUS
 10
42.241480429
 20
33.2003649597
 11
42.4680945536
 21
33.336692418
 12
44.5126010105
 22
33.2936021064
 13
44.5126010105
 23
33.2936021064
  0
SOLID
  8
0
 62
7
  6
CONTINUOUS
 10
42.241480429
 20
33.2003649597
 11
44.5126010105
 21
33.2936021064
 12
44.6345811139
 22
33.2155394859
 13
44.6345811139
 23
33.2155394859
  0
SOLID
  8
0
 62
7
  6
CONTINUOUS
 10
44.6345811139
 20
33.2155394859
 11
44.7487438878
 21
33.1284081128
 12
42.241480429
 22
33.2003649597
 13
42.241480429
 23
33.2003649597
  0
SOLID
  8
0
 62
7
  6
CONTINUOUS
 10
42.03639658
 20
33.0286330171
 11
42.241480429
 21
33.2003649597
 12
44.7487438878
 22
33.1284081128
 13
44.7487438878
 23
33.1284081128
  0
SOLID
  8
0
 62
7
  6
CONTINUOUS
 10
44.7487438878
 20
33.1284081128
 11
44.955168588
 21
32.9262451512
 12
42.03639658
 22
33.0286330171
 13
42.03639658
 23
33.0286330171
  0
SOLID
  8
0
 62
7
  6
CONTINUOUS
 10
41.8454876501
 20
32.8085510893
 11
42.03639658
 21
33.0286330171
 12
44.955168588
 22
32.9262451512
 13
44.955168588
 23
32.9262451512
  0
SOLID
  8
0
 62
7
  6
CONTINUOUS
 10
41.8454876501
 20
32.8085510893
 11
44.955168588
 21
32.9262451512
 12
43.4965515968
 22
32.8099039595
 13
43.4965515968
 23
32.8099039595
  0
SOLID
  8
0
 62
7
  6
CONTINUOUS
 10
43.4965515968
 20
32.8099039595
 11
43.3643555317
 21
32.8068994994
 12
41.8454876501
 22
32.8085510893
 13
41.8454876501
 23
32.8085510893
  0
SOLID
  8
0
 62
7
  6
CONTINUOUS
 10
43.4965515968
 20
32.8099039595
 11
44.955168588
 21
32.9262451512
 12
43.6239845849
 22
32.7965253996
 13
43.6239845849
 23
32.7965253996
  0
SOLID
  8
0
 62
7
  6
CONTINUOUS
 10
43.6239845849
 20
32.7965253996
 11
44.955168588
 21
32.9262451512
 12
43.7451762673
 22
32.7671751164
 13
43.7451762673
 23
32.7671751164
  0
SOLID
  8
0
 62
7
  6
CONTINUOUS
 10
43.7451762673
 20
32.7671751164
 11
44.955168588
 21
32.9262451512
 12
43.8596372791
 22
32.7220833706
 13
43.8596372791
 23
32.7220833706
  0
SOLID
  8
0
 62
7
  6
CONTINUOUS
 10
44.955168588
 20
32.9262451512
 11
45.1364672914
 21
32.6820331631
 12
43.8596372791
 22
32.7220833706
 13
43.8596372791
 23
32.7220833706
  0
SOLID
  8
0
 62
7
  6
CONTINUOUS
 10
43.9673150845
 20
32.6610925153
 11
43.8596372791
 21
32.7220833706
 12
45.1364672914
 22
32.6820331631
 13
45.1364672914
 23
32.6820331631
  0
SOLID
  8
0
 62
7
  6
CONTINUOUS
 10
45.1364672914
 20
32.6820331631
 11
45.1836056588
 21
32.6042963519
 12
43.9673150845
 22
32.6610925153
 13
43.9673150845
 23
32.6610925153
  0
SOLID
  8
0
 62
7
  6
CONTINUOUS
 10
44.0991442814
 20
32.5633443843
 11
43.9673150845
 21
32.6610925153
 12
45.1836056588
 22
32.6042963519
 13
45.1836056588
 23
32.6042963519
  0
SOLID
  8
0
 62
7
  6
CONTINUOUS
 10
43.3643555317
 20
32.8068994994
 11
43.2308322068
 21
32.7873826959
 12
41.8454876501
 22
32.8085510893
 13
41.8454876501
 23
32.8085510893
  0
SOLID
  8
0
 62
7
  6
CONTINUOUS
 10
41.6664527527
 20
32.5270962809
 11
41.8454876501
 21
32.8085510893
 12
43.2308322068
 22
32.7873826959
 13
43.2308322068
 23
32.7873826959
  0
SOLID
  8
0
 62
7
  6
CONTINUOUS
 10
44.0991442814
 20
32.5633443843
 11
45.1836056588
 21
32.6042963519
 12
44.154460504
 22
32.514291471
 13
44.154460504
 23
32.514291471
  0
SOLID
  8
0
 62
7
  6
CONTINUOUS
 10
44.154460504
 20
32.514291471
 11
45.1836056588
 21
32.6042963519
 12
44.2032546306
 22
32.4651492667
 13
44.2032546306
 23
32.4651492667
  0
SOLID
  8
0
 62
7
  6
CONTINUOUS
 10
44.2032546306
 20
32.4651492667
 11
45.1836056588
 21
32.6042963519
 12
44.2829300639
 22
32.3666637795
 13
44.2829300639
 23
32.3666637795
  0
SOLID
  8
0
 62
7
  6
CONTINUOUS
 10
45.1836056588
 20
32.6042963519
 11
45.2973002674
 21
32.3645146117
 12
44.2829300639
 22
32.3666637795
 13
44.2829300639
 23
32.3666637795
  0
SOLID
  8
0
 62
7
  6
CONTINUOUS
 10
44.3423650206
 20
32.266201441
 11
44.2829300639
 21
32.3666637795
 12
45.2973002674
 22
32.3645146117
 13
45.2973002674
 23
32.3645146117
  0
SOLID
  8
0
 62
7
  6
CONTINUOUS
 10
44.3423650206
 20
32.266201441
 11
45.2973002674
 21
32.3645146117
 12
44.3847931279
 22
32.1612080248
 13
44.3847931279
 23
32.1612080248
  0
SOLID
  8
0
 62
7
  6
CONTINUOUS
 10
45.2973002674
 20
32.3645146117
 11
45.3839055762
 21
32.0780816384
 12
44.3847931279
 22
32.1612080248
 13
44.3847931279
 23
32.1612080248
  0
SOLID
  8
0
 62
7
  6
CONTINUOUS
 10
44.4125739251
 20
32.0476240492
 11
44.3847931279
 21
32.1612080248
 12
45.3839055762
 22
32.0780816384
 13
45.3839055762
 23
32.0780816384
  0
SOLID
  8
0
 62
7
  6
CONTINUOUS
 10
44.4125739251
 20
32.0476240492
 11
45.3839055762
 21
32.0780816384
 12
44.4274730021
 22
31.9178774821
 13
44.4274730021
 23
31.9178774821
  0
SOLID
  8
0
 62
7
  6
CONTINUOUS
 10
44.4274730021
 20
31.9178774821
 11
45.3839055762
 21
32.0780816384
 12
44.4282406719
 22
31.9049589323
 13
44.4282406719
 23
31.9049589323
  0
SOLID
  8
0
 62
7
  6
CONTINUOUS
 10
45.3839055762
 20
32.0780816384
 11
45.4389051164
 21
31.7469337628
 12
44.4282406719
 22
31.9049589323
 13
44.4282406719
 23
31.9049589323
  0
SOLID
  8
0
 62
7
  6
CONTINUOUS
 10
42.8097702113
 20
32.5847618864
 11
41.6664527527
 21
32.5270962809
 12
42.9101510552
 22
32.6573717992
 13
42.9101510552
 23
32.6573717992
  0
SOLID
  8
0
 62
7
  6
CONTINUOUS
 10
42.9101510552
 20
32.6573717992
 11
41.6664527527
 21
32.5270962809
 12
42.9789726016
 22
32.6984958104
 13
42.9789726016
 23
32.6984958104
  0
SOLID
  8
0
 62
7
  6
CONTINUOUS
 10
42.9789726016
 20
32.6984958104
 11
41.6664527527
 21
32.5270962809
 12
42.9947771328
 22
32.7070127917
 13
42.9947771328
 23
32.7070127917
  0
SOLID
  8
0
 62
7
  6
CONTINUOUS
 10
42.9947771328
 20
32.7070127917
 11
41.6664527527
 21
32.5270962809
 12
43.1031184422
 22
32.7525292951
 13
43.1031184422
 23
32.7525292951
  0
SOLID
  8
0
 62
7
  6
CONTINUOUS
 10
41.6664527527
 20
32.5270962809
 11
43.2308322068
 21
32.7873826959
 12
43.1031184422
 22
32.7525292951
 13
43.1031184422
 23
32.7525292951
  0
SOLID
  8
0
 62
7
  6
CONTINUOUS
 10
42.8097702113
 20
32.5847618864
 11
42.7204688681
 21
32.5016638336
 12
41.6664527527
 22
32.5270962809
 13
41.6664527527
 23
32.5270962809
  0
SOLID
  8
0
 62
7
  6
CONTINUOUS
 10
41.6039475138
 20
32.3851365628
 11
41.6664527527
 21
32.5270962809
 12
42.7204688681
 22
32.5016638336
 13
42.7204688681
 23
32.5016638336
  0
SOLID
  8
0
 62
7
  6
CONTINUOUS
 10
41.6039475138
 20
32.3851365628
 11
42.7204688681
 21
32.5016638336
 12
42.6431372215
 22
32.4077910801
 13
42.6431372215
 23
32.4077910801
  0
SOLID
  8
0
 62
7
  6
CONTINUOUS
 10
42.6431372215
 20
32.4077910801
 11
42.5782032546
 21
32.3025908698
 12
41.6039475138
 22
32.3851365628
 13
41.6039475138
 23
32.3851365628
  0
SOLID
  8
0
 62
7
  6
CONTINUOUS
 10
41.519200181
 20
32.109939435
 11
41.6039475138
 21
32.3851365628
 12
42.5782032546
 22
32.3025908698
 13
42.5782032546
 23
32.3025908698
  0
SOLID
  8
0
 62
7
  6
CONTINUOUS
 10
41.519200181
 20
32.109939435
 11
42.5782032546
 21
32.3025908698
 12
42.5261325796
 22
32.1851611236
 13
42.5261325796
 23
32.1851611236
  0
SOLID
  8
0
 62
7
  6
CONTINUOUS
 10
42.5261325796
 20
32.1851611236
 11
42.4876586612
 21
32.0542846166
 12
41.519200181
 22
32.109939435
 13
41.519200181
 23
32.109939435
  0
SOLID
  8
0
 62
7
  6
CONTINUOUS
 10
41.4593868409
 20
31.7782512475
 11
41.519200181
 21
32.109939435
 12
42.4876586612
 22
32.0542846166
 13
42.4876586612
 23
32.0542846166
  0
SOLID
  8
0
 62
7
  6
CONTINUOUS
 10
44.4282406719
 20
31.9049589323
 11
41.4593868409
 21
31.7782512475
 12
44.2239475984
 22
31.9053264141
 13
44.2239475984
 23
31.9053264141
  0
SOLID
  8
0
 62
7
  6
CONTINUOUS
 10
44.2239475984
 20
31.9053264141
 11
41.4593868409
 21
31.7782512475
 12
43.1553376751
 22
31.9072486267
 13
43.1553376751
 23
31.9072486267
  0
SOLID
  8
0
 62
7
  6
CONTINUOUS
 10
43.1553376751
 20
31.9072486267
 11
41.4593868409
 21
31.7782512475
 12
42.4638841954
 22
31.9084924114
 13
42.4638841954
 23
31.9084924114
  0
SOLID
  8
0
 62
7
  6
CONTINUOUS
 10
41.4593868409
 20
31.7782512475
 11
42.4876586612
 21
32.0542846166
 12
42.4638841954
 22
31.9084924114
 13
42.4638841954
 23
31.9084924114
  0
SOLID
  8
0
 62
7
  6
CONTINUOUS
 10
44.4282406719
 20
31.9049589323
 11
45.4389051164
 21
31.7469337628
 12
41.4593868409
 22
31.7782512475
 13
41.4593868409
 23
31.7782512475
  0
SOLID
  8
0
 62
7
  6
CONTINUOUS
 10
41.4370087358
 20
31.4135732072
 11
41.4593868409
 21
31.7782512475
 12
45.4389051164
 22
31.7469337628
 13
45.4389051164
 23
31.7469337628
  0
SOLID
  8
0
 62
7
  6
CONTINUOUS
 10
45.4389051164
 20
31.7469337628
 11
45.4573612186
 21
31.3860810963
 12
41.4370087358
 22
31.4135732072
 13
41.4370087358
 23
31.4135732072
  0
SOLID
  8
0
 62
7
  6
CONTINUOUS
 10
45.4573612186
 20
31.3860810963
 11
42.415782454
 21
31.1342478134
 12
41.4370087358
 22
31.4135732072
 13
41.4370087358
 23
31.4135732072
  0
SOLID
  8
0
 62
7
  6
CONTINUOUS
 10
41.4556325284
 20
31.0080786816
 11
41.4370087358
 21
31.4135732072
 12
42.415782454
 22
31.1342478134
 13
42.415782454
 23
31.1342478134
  0
SOLID
  8
0
 62
7
  6
CONTINUOUS
 10
45.4573612186
 20
31.3860810963
 11
45.4468369578
 21
31.1332425727
 12
42.415782454
 22
31.1342478134
 13
42.415782454
 23
31.1342478134
  0
SOLID
  8
0
 62
7
  6
CONTINUOUS
 10
42.4134370067
 20
31.1024111411
 11
41.4556325284
 21
31.0080786816
 12
42.4132381501
 22
31.1105262318
 13
42.4132381501
 23
31.1105262318
  0
SOLID
  8
0
 62
7
  6
CONTINUOUS
 10
42.4132381501
 20
31.1105262318
 11
41.4556325284
 21
31.0080786816
 12
42.4140286104
 22
31.1332425727
 13
42.4140286104
 23
31.1332425727
  0
SOLID
  8
0
 62
7
  6
CONTINUOUS
 10
41.4556325284
 20
31.0080786816
 11
42.415782454
 21
31.1342478134
 12
42.4140286104
 22
31.1332425727
 13
42.4140286104
 23
31.1332425727
  0
SOLID
  8
0
 62
7
  6
CONTINUOUS
 10
42.4134370067
 20
31.1024111411
 11
42.4366535432
 21
30.9089409833
 12
41.4556325284
 22
31.0080786816
 13
41.4556325284
 23
31.0080786816
  0
SOLID
  8
0
 62
7
  6
CONTINUOUS
 10
41.5075737049
 20
30.6872099636
 11
41.4556325284
 21
31.0080786816
 12
42.4366535432
 22
30.9089409833
 13
42.4366535432
 23
30.9089409833
  0
SOLID
  8
0
 62
7
  6
CONTINUOUS
 10
45.4543681688
 20
30.7234357292
 11
44.3986743769
 21
30.7033833007
 12
45.4543681688
 22
30.7602134973
 13
45.4543681688
 23
30.7602134973
  0
SOLID
  8
0
 62
7
  6
CONTINUOUS
 10
44.3986743769
 20
30.7033833007
 11
44.4083551799
 21
30.7602134973
 12
45.4543681688
 22
30.7602134973
 13
45.4543681688
 23
30.7602134973
  0
SOLID
  8
0
 62
7
  6
CONTINUOUS
 10
45.4543681688
 20
30.7234357292
 11
45.4163300698
 21
30.5177818057
 12
44.3986743769
 22
30.7033833007
 13
44.3986743769
 23
30.7033833007
  0
SOLID
  8
0
 62
7
  6
CONTINUOUS
 10
44.3364234644
 20
30.5134753771
 11
44.3986743769
 21
30.7033833007
 12
45.4163300698
 22
30.5177818057
 13
45.4163300698
 23
30.5177818057
  0
SOLID
  8
0
 62
7
  6
CONTINUOUS
 10
44.3364234644
 20
30.5134753771
 11
45.4163300698
 21
30.5177818057
 12
44.2327622174
 22
30.3429721433
 13
44.2327622174
 23
30.3429721433
  0
SOLID
  8
0
 62
7
  6
CONTINUOUS
 10
45.4163300698
 20
30.5177818057
 11
45.3298274223
 21
30.2914635467
 12
44.2327622174
 22
30.3429721433
 13
44.2327622174
 23
30.3429721433
  0
SOLID
  8
0
 62
7
  6
CONTINUOUS
 10
44.0908060551
 20
30.1979033821
 11
44.2327622174
 21
30.3429721433
 12
45.3298274223
 22
30.2914635467
 13
45.3298274223
 23
30.2914635467
  0
SOLID
  8
0
 62
7
  6
CONTINUOUS
 10
44.0908060551
 20
30.1979033821
 11
45.3298274223
 21
30.2914635467
 12
43.9119142584
 22
30.0824058736
 13
43.9119142584
 23
30.0824058736
  0
SOLID
  8
0
 62
7
  6
CONTINUOUS
 10
45.3298274223
 20
30.2914635467
 11
45.1925651755
 21
30.0498512701
 12
43.9119142584
 22
30.0824058736
 13
43.9119142584
 23
30.0824058736
  0
SOLID
  8
0
 62
7
  6
CONTINUOUS
 10
43.7253581158
 20
30.0179186069
 11
43.9119142584
 21
30.0824058736
 12
45.1925651755
 22
30.0498512701
 13
45.1925651755
 23
30.0498512701
  0
SOLID
  8
0
 62
7
  6
CONTINUOUS
 10
43.7253581158
 20
30.0179186069
 11
45.1925651755
 21
30.0498512701
 12
43.7013813703
 22
30.0127556274
 13
43.7013813703
 23
30.0127556274
  0
SOLID
  8
0
 62
7
  6
CONTINUOUS
 10
43.7013813703
 20
30.0127556274
 11
45.1925651755
 21
30.0498512701
 12
43.4800537809
 22
29.9914392805
 13
43.4800537809
 23
29.9914392805
  0
SOLID
  8
0
 62
7
  6
CONTINUOUS
 10
43.4800537809
 20
29.9914392805
 11
45.1925651755
 21
30.0498512701
 12
41.8673460159
 22
29.9251144916
 13
41.8673460159
 23
29.9251144916
  0
SOLID
  8
0
 62
7
  6
CONTINUOUS
 10
45.1925651755
 20
30.0498512701
 11
45.0241864289
 21
29.82549357
 12
41.8673460159
 22
29.9251144916
 13
41.8673460159
 23
29.9251144916
  0
SOLID
  8
0
 62
7
  6
CONTINUOUS
 10
42.0513182676
 20
29.714691918
 11
41.8673460159
 21
29.9251144916
 12
45.0241864289
 22
29.82549357
 13
45.0241864289
 23
29.82549357
  0
SOLID
  8
0
 62
7
  6
CONTINUOUS
 10
45.0241864289
 20
29.82549357
 11
44.9132747981
 21
29.7118428851
 12
42.0513182676
 22
29.714691918
 13
42.0513182676
 23
29.714691918
  0
SOLID
  8
0
 62
7
  6
CONTINUOUS
 10
42.2368021817
 20
29.5613935433
 11
42.0513182676
 21
29.714691918
 12
44.9132747981
 22
29.7118428851
 13
44.9132747981
 23
29.7118428851
  0
SOLID
  8
0
 62
7
  6
CONTINUOUS
 10
44.9132747981
 20
29.7118428851
 11
44.6942741277
 21
29.5393447098
 12
42.2368021817
 22
29.5613935433
 13
42.2368021817
 23
29.5613935433
  0
SOLID
  8
0
 62
7
  6
CONTINUOUS
 10
42.4742291578
 20
29.4182533772
 11
42.2368021817
 21
29.5613935433
 12
44.6942741277
 22
29.5393447098
 13
44.6942741277
 23
29.5393447098
  0
SOLID
  8
0
 62
7
  6
CONTINUOUS
 10
44.6942741277
 20
29.5393447098
 11
44.4417986241
 21
29.3938153895
 12
42.4742291578
 22
29.4182533772
 13
42.4742291578
 23
29.4182533772
  0
SOLID
  8
0
 62
7
  6
CONTINUOUS
 10
42.7321526542
 20
29.3037682141
 11
42.4742291578
 21
29.4182533772
 12
44.4417986241
 22
29.3938153895
 13
44.4417986241
 23
29.3938153895
  0
SOLID
  8
0
 62
7
  6
CONTINUOUS
 10
44.4417986241
 20
29.3938153895
 11
44.1709117343
 21
29.2862810484
 12
42.7321526542
 22
29.3037682141
 13
42.7321526542
 23
29.3037682141
  0
SOLID
  8
0
 62
7
  6
CONTINUOUS
 10
42.8462221121
 20
29.267616537
 11
42.7321526542
 21
29.3037682141
 12
44.1709117343
 22
29.2862810484
 13
44.1709117343
 23
29.2862810484
  0
SOLID
  8
0
 62
7
  6
CONTINUOUS
 10
42.8462221121
 20
29.267616537
 11
44.1709117343
 21
29.2862810484
 12
42.9619046702
 22
29.240992713
 13
42.9619046702
 23
29.240992713
  0
SOLID
  8
0
 62
7
  6
CONTINUOUS
 10
44.1709117343
 20
29.2862810484
 11
43.8884952873
 21
29.2204948847
 12
42.9619046702
 22
29.240992713
 13
42.9619046702
 23
29.240992713
  0
SOLID
  8
0
 62
7
  6
CONTINUOUS
 10
43.2384125814
 20
29.1992216097
 11
42.9619046702
 21
29.240992713
 12
43.8884952873
 22
29.2204948847
 13
43.8884952873
 23
29.2204948847
  0
SOLID
  8
0
 62
7
  6
CONTINUOUS
 10
43.8884952873
 20
29.2204948847
 11
43.5555872159
 21
29.1894500909
 12
43.2384125814
 22
29.1992216097
 13
43.2384125814
 23
29.1992216097
  0
SOLID
  8
0
 62
7
  6
CONTINUOUS
 10
41.5075737049
 20
30.6872099636
 11
42.4366535432
 21
30.9089409833
 12
42.4973964114
 22
30.6894722804
 13
42.4973964114
 23
30.6894722804
  0
SOLID
  8
0
 62
7
  6
CONTINUOUS
 10
42.4973964114
 20
30.6894722804
 11
42.5906968413
 21
30.4911248582
 12
41.5075737049
 22
30.6872099636
 13
41.5075737049
 23
30.6872099636
  0
SOLID
  8
0
 62
7
  6
CONTINUOUS
 10
41.5727186567
 20
30.4660847458
 11
41.5075737049
 21
30.6872099636
 12
42.5906968413
 22
30.4911248582
 13
42.5906968413
 23
30.4911248582
  0
SOLID
  8
0
 62
7
  6
CONTINUOUS
 10
41.5727186567
 20
30.4660847458
 11
42.5906968413
 21
30.4911248582
 12
41.6019732066
 22
30.3849181121
 13
41.6019732066
 23
30.3849181121
  0
SOLID
  8
0
 62
7
  6
CONTINUOUS
 10
42.5906968413
 20
30.4911248582
 11
42.7127494516
 21
30.3242041715
 12
41.6019732066
 22
30.3849181121
 13
41.6019732066
 23
30.3849181121
  0
SOLID
  8
0
 62
7
  6
CONTINUOUS
 10
41.6445025595
 20
30.2826141064
 11
41.6019732066
 21
30.3849181121
 12
42.7127494516
 22
30.3242041715
 13
42.7127494516
 23
30.3242041715
  0
SOLID
  8
0
 62
7
  6
CONTINUOUS
 10
42.7127494516
 20
30.3242041715
 11
42.8710806897
 21
30.18287945
 12
41.6445025595
 22
30.2826141064
 13
41.6445025595
 23
30.2826141064
  0
SOLID
  8
0
 62
7
  6
CONTINUOUS
 10
41.7064071825
 20
30.1669981941
 11
41.6445025595
 21
30.2826141064
 12
42.8710806897
 22
30.18287945
 13
42.8710806897
 23
30.18287945
  0
SOLID
  8
0
 62
7
  6
CONTINUOUS
 10
42.8710806897
 20
30.18287945
 11
43.0542390706
 21
30.0792767199
 12
41.7064071825
 22
30.1669981941
 13
41.7064071825
 23
30.1669981941
  0
SOLID
  8
0
 62
7
  6
CONTINUOUS
 10
41.8673460159
 20
29.9251144916
 11
41.7064071825
 21
30.1669981941
 12
43.0542390706
 22
30.0792767199
 13
43.0542390706
 23
30.0792767199
  0
SOLID
  8
0
 62
7
  6
CONTINUOUS
 10
43.4800537809
 20
29.9914392805
 11
41.8673460159
 21
29.9251144916
 12
43.2594618425
 22
30.0144780627
 13
43.0542390706
 23
30.0792767199
  0
SOLID
  8
0
 62
7
  6
CONTINUOUS
 10
47.6906179911
 20
33.461041649
 11
47.9060281196
 21
33.4766182941
 12
48.0436346145
 22
33.4641904205
 13
48.0436346145
 23
33.4641904205
  0
SOLID
  8
0
 62
7
  6
CONTINUOUS
 10
46.6266063172
 20
33.430312867
 11
46.6266063172
 21
32.7964737703
 12
45.6327185934
 22
33.4298099265
 13
45.6327185934
 23
33.4298099265
  0
SOLID
  8
0
 62
7
  6
CONTINUOUS
 10
47.6906179911
 20
33.461041649
 11
48.0436346145
 21
33.4641904205
 12
47.433874996
 22
33.4143538846
 13
47.433874996
 23
33.4143538846
  0
SOLID
  8
0
 62
7
  6
CONTINUOUS
 10
47.433874996
 20
33.4143538846
 11
48.0436346145
 21
33.4641904205
 12
47.3771740258
 22
33.399081554
 13
47.3771740258
 23
33.399081554
  0
SOLID
  8
0
 62
7
  6
CONTINUOUS
 10
47.3771740258
 20
33.399081554
 11
48.0436346145
 21
33.4641904205
 12
47.2958266011
 22
33.3683481542
 13
47.2958266011
 23
33.3683481542
  0
SOLID
  8
0
 62
7
  6
CONTINUOUS
 10
47.2958266011
 20
33.3683481542
 11
48.0436346145
 21
33.4641904205
 12
47.1110607671
 22
33.2809808469
 13
47.1110607671
 23
33.2809808469
  0
SOLID
  8
0
 62
7
  6
CONTINUOUS
 10
47.1110607671
 20
33.2809808469
 11
48.0436346145
 21
33.4641904205
 12
46.943716725
 22
33.1703803415
 13
46.943716725
 23
33.1703803415
  0
SOLID
  8
0
 62
7
  6
CONTINUOUS
 10
46.943716725
 20
33.1703803415
 11
48.0436346145
 21
33.4641904205
 12
46.8025688343
 22
33.0408163465
 13
46.8025688343
 23
33.0408163465
  0
SOLID
  8
0
 62
7
  6
CONTINUOUS
 10
46.8025688343
 20
33.0408163465
 11
48.0436346145
 21
33.4641904205
 12
46.6827540587
 22
32.8892760419
 13
46.6827540587
 23
32.8892760419
  0
SOLID
  8
0
 62
7
  6
CONTINUOUS
 10
46.6827540587
 20
32.8892760419
 11
48.0436346145
 21
33.4641904205
 12
46.6266063172
 22
32.7964737703
 13
46.6266063172
 23
32.7964737703
  0
SOLID
  8
0
 62
7
  6
CONTINUOUS
 10
46.6266063172
 20
32.7964737703
 11
48.0436346145
 21
33.4641904205
 12
47.6045206911
 22
32.4672207558
 13
47.6045206911
 23
32.4672207558
  0
SOLID
  8
0
 62
7
  6
CONTINUOUS
 10
47.6045206911
 20
32.4672207558
 11
48.0436346145
 21
33.4641904205
 12
47.8253998196
 22
32.4634047082
 13
47.8253998196
 23
32.4634047082
  0
SOLID
  8
0
 62
7
  6
CONTINUOUS
 10
48.0436346145
 20
33.4641904205
 11
48.0436346145
 21
32.4301319395
 12
47.8253998196
 22
32.4634047082
 13
47.8253998196
 23
32.4634047082
  0
SOLID
  8
0
 62
7
  6
CONTINUOUS
 10
46.6245945554
 20
31.5903761227
 11
45.6327185934
 21
29.2819588118
 12
46.6501809916
 22
31.8028385547
 13
46.6501809916
 23
31.8028385547
  0
SOLID
  8
0
 62
7
  6
CONTINUOUS
 10
46.6501809916
 20
31.8028385547
 11
45.6327185934
 21
29.2819588118
 12
46.6723863507
 22
31.8848111997
 13
46.6723863507
 23
31.8848111997
  0
SOLID
  8
0
 62
7
  6
CONTINUOUS
 10
47.6045206911
 20
32.4672207558
 11
47.4759051068
 21
32.4560785088
 12
46.6266063172
 22
32.7964737703
 13
46.6266063172
 23
32.7964737703
  0
SOLID
  8
0
 62
7
  6
CONTINUOUS
 10
47.4759051068
 20
32.4560785088
 11
47.4080079899
 21
32.444792256
 12
46.6266063172
 22
32.7964737703
 13
46.6266063172
 23
32.7964737703
  0
SOLID
  8
0
 62
7
  6
CONTINUOUS
 10
47.4080079899
 20
32.444792256
 11
47.2292397927
 21
32.393712316
 12
46.6266063172
 22
32.7964737703
 13
46.6266063172
 23
32.7964737703
  0
SOLID
  8
0
 62
7
  6
CONTINUOUS
 10
47.2292397927
 20
32.393712316
 11
47.0638188339
 21
32.3177517776
 12
46.6266063172
 22
32.7964737703
 13
46.6266063172
 23
32.7964737703
  0
SOLID
  8
0
 62
7
  6
CONTINUOUS
 10
47.0638188339
 20
32.3177517776
 11
46.9331162876
 21
32.2254738601
 12
46.6266063172
 22
32.7964737703
 13
46.6266063172
 23
32.7964737703
  0
SOLID
  8
0
 62
7
  6
CONTINUOUS
 10
46.9331162876
 20
32.2254738601
 11
46.9073545516
 21
32.202698845
 12
46.6266063172
 22
32.7964737703
 13
46.6266063172
 23
32.7964737703
  0
SOLID
  8
0
 62
7
  6
CONTINUOUS
 10
46.9073545516
 20
32.202698845
 11
46.779630481
 21
32.0752720902
 12
46.6266063172
 22
32.7964737703
 13
46.6266063172
 23
32.7964737703
  0
SOLID
  8
0
 62
7
  6
CONTINUOUS
 10
46.779630481
 20
32.0752720902
 11
46.7012351897
 21
31.9556707752
 12
46.6266063172
 22
32.7964737703
 13
46.6266063172
 23
32.7964737703
  0
SOLID
  8
0
 62
7
  6
CONTINUOUS
 10
46.7012351897
 20
31.9556707752
 11
46.6723863507
 21
31.8848111997
 12
46.6266063172
 22
32.7964737703
 13
46.6266063172
 23
32.7964737703
  0
SOLID
  8
0
 62
7
  6
CONTINUOUS
 10
46.6723863507
 20
31.8848111997
 11
45.6327185934
 21
29.2819588118
 12
46.6266063172
 22
32.7964737703
 13
46.6266063172
 23
32.7964737703
  0
SOLID
  8
0
 62
7
  6
CONTINUOUS
 10
45.6327185934
 20
29.2819588118
 11
45.6327185934
 21
33.4298099265
 12
46.6266063172
 22
32.7964737703
 13
46.6266063172
 23
32.7964737703
  0
SOLID
  8
0
 62
7
  6
CONTINUOUS
 10
46.6245945554
 20
31.5903761227
 11
46.6245945554
 21
29.2819588118
 12
45.6327185934
 22
29.2819588118
 13
45.6327185934
 23
29.2819588118
  0
SOLID
  8
DEFAULT_2
 62
8
  6
HIDDEN
 10
56.5911973184
 20
33.5792967271
 11
56.7550801362
 21
33.5734908314
 12
56.427364378
 22
33.5734908314
 13
56.427364378
 23
33.5734908314
  0
SOLID
  8
DEFAULT_2
 62
8
  6
HIDDEN
 10
56.27017966
 20
33.5563516623
 11
56.427364378
 21
33.5734908314
 12
56.7550801362
 22
33.5734908314
 13
56.7550801362
 23
33.5734908314
  0
SOLID
  8
DEFAULT_2
 62
8
  6
HIDDEN
 10
56.7550801362
 20
33.5734908314
 11
56.9123019219
 21
33.5563516623
 12
56.27017966
 22
33.5563516623
 13
56.27017966
 23
33.5563516623
  0
SOLID
  8
DEFAULT_2
 62
8
  6
HIDDEN
 10
55.9760389632
 20
33.4897644221
 11
56.27017966
 21
33.5563516623
 12
56.9123019219
 22
33.5563516623
 13
56.9123019219
 23
33.5563516623
  0
SOLID
  8
DEFAULT_2
 62
8
  6
HIDDEN
 10
55.9760389632
 20
33.4897644221
 11
56.9123019219
 21
33.5563516314
 12
57.2064825127
 22
33.4897767355
 13
57.2064825127
 23
33.4897767355
  0
SOLID
  8
DEFAULT_2
 62
8
  6
HIDDEN
 10
57.2064825127
 20
33.4897767355
 11
57.4745290679
 21
33.3822867036
 12
55.9760389632
 22
33.4897644221
 13
55.9760389632
 23
33.4897644221
  0
SOLID
  8
DEFAULT_2
 62
8
  6
HIDDEN
 10
55.7079782006
 20
33.3822522761
 11
55.9760389632
 21
33.4897644221
 12
57.4745290679
 22
33.3822867036
 13
57.4745290679
 23
33.3822867036
  0
SOLID
  8
DEFAULT_2
 62
8
  6
HIDDEN
 10
57.4745290679
 20
33.3822867036
 11
57.7169576719
 21
33.2355991867
 12
55.7079782006
 22
33.3822522761
 13
55.7079782006
 23
33.3822522761
  0
SOLID
  8
DEFAULT_2
 62
8
  6
HIDDEN
 10
55.4654984752
 20
33.2355266201
 11
55.7079782006
 21
33.3822522761
 12
57.7169576719
 22
33.2355991867
 13
57.7169576719
 23
33.2355991867
  0
SOLID
  8
DEFAULT_2
 62
8
  6
HIDDEN
 10
55.4654984752
 20
33.2355266201
 11
57.7169576719
 21
33.2355991867
 12
56.5911973184
 22
33.1531281941
 13
56.5911973184
 23
33.1531281941
  0
SOLID
  8
DEFAULT_2
 62
8
  6
HIDDEN
 10
56.5911973184
 20
33.1531281941
 11
57.7169576719
 21
33.2355991867
 12
56.8208262379
 22
33.1353251646
 13
56.8208262379
 23
33.1353251646
  0
SOLID
  8
DEFAULT_2
 62
8
  6
HIDDEN
 10
56.8208262379
 20
33.1353251646
 11
57.7169576719
 21
33.2355991867
 12
57.0321060051
 22
33.0835785027
 13
57.0321060051
 23
33.0835785027
  0
SOLID
  8
DEFAULT_2
 62
8
  6
HIDDEN
 10
57.7169576719
 20
33.2355991867
 11
57.9334672269
 21
33.0506352943
 12
57.0321060051
 22
33.0835785027
 13
57.0321060051
 23
33.0835785027
  0
SOLID
  8
DEFAULT_2
 62
8
  6
HIDDEN
 10
55.2489179078
 20
33.0505108532
 11
55.4654984752
 21
33.2355266201
 12
56.5911973184
 22
33.1531281941
 13
56.5911973184
 23
33.1531281941
  0
SOLID
  8
DEFAULT_2
 62
8
  6
HIDDEN
 10
57.2264183482
 20
32.9995024504
 11
57.0321060051
 21
33.0835785027
 12
57.9334672269
 22
33.0506352943
 13
57.9334672269
 23
33.0506352943
  0
SOLID
  8
DEFAULT_2
 62
8
  6
HIDDEN
 10
57.2264183482
 20
32.9995024504
 11
57.9334672269
 21
33.0506352943
 12
57.4044876977
 22
32.8836529177
 13
57.4044876977
 23
32.8836529177
  0
SOLID
  8
DEFAULT_2
 62
8
  6
HIDDEN
 10
57.9334672269
 20
33.0506352943
 11
58.1227112752
 21
32.8279253692
 12
57.4044876977
 22
32.8836529177
 13
57.4044876977
 23
32.8836529177
  0
SOLID
  8
DEFAULT_2
 62
8
  6
HIDDEN
 10
57.566088475
 20
32.7358490327
 11
57.4044876977
 21
32.8836529177
 12
58.1227112752
 22
32.8279253692
 13
58.1227112752
 23
32.8279253692
  0
SOLID
  8
DEFAULT_2
 62
8
  6
HIDDEN
 10
58.1227112752
 20
32.8279253692
 11
58.2822166094
 21
32.5681890533
 12
57.566088475
 22
32.7358490327
 13
57.566088475
 23
32.7358490327
  0
SOLID
  8
DEFAULT_2
 62
8
  6
HIDDEN
 10
57.7098280906
 20
32.5557451927
 11
57.566088475
 21
32.7358490327
 12
58.2822166094
 22
32.5681890533
 13
58.2822166094
 23
32.5681890533
  0
SOLID
  8
DEFAULT_2
 62
8
  6
HIDDEN
 10
57.7098280906
 20
32.5557451927
 11
58.2822166094
 21
32.5681890533
 12
57.8330769088
 22
32.34363321
 13
57.8330769088
 23
32.34363321
  0
SOLID
  8
DEFAULT_2
 62
8
  6
HIDDEN
 10
58.2822166094
 20
32.5681890533
 11
58.4085113455
 21
32.2730052327
 12
57.8330769088
 22
32.34363321
 13
57.8330769088
 23
32.34363321
  0
SOLID
  8
DEFAULT_2
 62
8
  6
HIDDEN
 10
57.932119993
 20
32.1014131404
 11
57.8330769088
 21
32.34363321
 12
58.4085113455
 22
32.2730052327
 13
58.4085113455
 23
32.2730052327
  0
SOLID
  8
DEFAULT_2
 62
8
  6
HIDDEN
 10
58.4085113455
 20
32.2730052327
 11
58.4974876979
 21
31.9454332722
 12
57.932119993
 22
32.1014131404
 13
57.932119993
 23
32.1014131404
  0
SOLID
  8
DEFAULT_2
 62
8
  6
HIDDEN
 10
58.0026108433
 20
31.8335663303
 11
57.932119993
 21
32.1014131404
 12
58.4974876979
 22
31.9454332722
 13
58.4974876979
 23
31.9454332722
  0
SOLID
  8
DEFAULT_2
 62
8
  6
HIDDEN
 10
58.4974876979
 20
31.9454332722
 11
58.5449659731
 21
31.5904106333
 12
58.0026108433
 22
31.8335663303
 13
58.0026108433
 23
31.8335663303
  0
SOLID
  8
DEFAULT_2
 62
8
  6
HIDDEN
 10
58.0403716257
 20
31.5477936834
 11
58.0026108433
 21
31.8335663303
 12
58.5449659731
 22
31.5904106333
 13
58.5449659731
 23
31.5904106333
  0
SOLID
  8
DEFAULT_2
 62
8
  6
HIDDEN
 10
58.0403716257
 20
31.5477936834
 11
58.5449659731
 21
31.5904106333
 12
58.0460363847
 22
31.3846059466
 13
58.0460363847
 23
31.3846059466
  0
SOLID
  8
DEFAULT_2
 62
8
  6
HIDDEN
 10
58.5449659731
 20
31.5904106333
 11
58.552046058
 21
31.3846059466
 12
58.0460363847
 22
31.3846059466
 13
58.0460363847
 23
31.3846059466
  0
SOLID
  8
DEFAULT_2
 62
8
  6
HIDDEN
 10
58.0403966129
 20
31.2219158575
 11
58.0460363847
 21
31.3846059466
 12
58.552046058
 22
31.3846059466
 13
58.552046058
 23
31.3846059466
  0
SOLID
  8
DEFAULT_2
 62
8
  6
HIDDEN
 10
58.552046058
 20
31.3846059466
 11
58.5449749065
 21
31.17913276
 12
58.0403966129
 22
31.2219158575
 13
58.0403966129
 23
31.2219158575
  0
SOLID
  8
DEFAULT_2
 62
8
  6
HIDDEN
 10
58.0026730249
 20
30.9362991194
 11
58.0403966129
 21
31.2219158575
 12
58.5449749065
 22
31.17913276
 13
58.5449749065
 23
31.17913276
  0
SOLID
  8
DEFAULT_2
 62
8
  6
HIDDEN
 10
58.5449749065
 20
31.17913276
 11
58.4974974332
 21
30.8242837207
 12
58.0026730249
 22
30.9362991194
 13
58.0026730249
 23
30.9362991194
  0
SOLID
  8
DEFAULT_2
 62
8
  6
HIDDEN
 10
57.9322057261
 20
30.668548316
 11
58.0026730249
 21
30.9362991194
 12
58.4974974332
 22
30.8242837207
 13
58.4974974332
 23
30.8242837207
  0
SOLID
  8
DEFAULT_2
 62
8
  6
HIDDEN
 10
58.4974974332
 20
30.8242837207
 11
58.4084965803
 21
30.4967652937
 12
57.9322057261
 22
30.668548316
 13
57.9322057261
 23
30.668548316
  0
SOLID
  8
DEFAULT_2
 62
8
  6
HIDDEN
 10
57.833172182
 20
30.426383021
 11
57.9322057261
 21
30.668548316
 12
58.4084965803
 22
30.4967652937
 13
58.4084965803
 23
30.4967652937
  0
SOLID
  8
DEFAULT_2
 62
8
  6
HIDDEN
 10
57.833172182
 20
30.426383021
 11
58.4084965803
 21
30.4967652937
 12
57.7099211899
 22
30.2142998489
 13
57.7099211899
 23
30.2142998489
  0
SOLID
  8
DEFAULT_2
 62
8
  6
HIDDEN
 10
58.4084965803
 20
30.4967652937
 11
58.2821550513
 21
30.2015650048
 12
57.7099211899
 22
30.2142998489
 13
57.7099211899
 23
30.2142998489
  0
SOLID
  8
DEFAULT_2
 62
8
  6
HIDDEN
 10
57.5661708964
 20
30.0342097633
 11
57.7099211899
 21
30.2142998489
 12
58.2821550513
 22
30.2015650048
 13
58.2821550513
 23
30.2015650048
  0
SOLID
  8
DEFAULT_2
 62
8
  6
HIDDEN
 10
58.2821550513
 20
30.2015650048
 11
58.1225911089
 21
29.9417813425
 12
57.5661708964
 22
30.0342097633
 13
57.5661708964
 23
30.0342097633
  0
SOLID
  8
DEFAULT_2
 62
8
  6
HIDDEN
 10
57.4045541096
 20
29.8864117194
 11
57.5661708964
 21
30.0342097633
 12
58.1225911089
 22
29.9417813425
 13
58.1225911089
 23
29.9417813425
  0
SOLID
  8
DEFAULT_2
 62
8
  6
HIDDEN
 10
57.4045541096
 20
29.8864117194
 11
58.1225911089
 21
29.9417813425
 12
57.2264662343
 22
29.7705644575
 13
57.2264662343
 23
29.7705644575
  0
SOLID
  8
DEFAULT_2
 62
8
  6
HIDDEN
 10
58.1225911089
 20
29.9417813425
 11
57.9332908305
 21
29.7190195049
 12
57.2264662343
 22
29.7705644575
 13
57.2264662343
 23
29.7705644575
  0
SOLID
  8
DEFAULT_2
 62
8
  6
HIDDEN
 10
57.0321352882
 20
29.6864869521
 11
57.2264662343
 21
29.7705644575
 12
57.9332908305
 22
29.7190195049
 13
57.9332908305
 23
29.7190195049
  0
SOLID
  8
DEFAULT_2
 62
8
  6
HIDDEN
 10
57.0321352882
 20
29.6864869521
 11
57.9332908305
 21
29.7190195049
 12
56.8208389541
 22
29.6347446792
 13
56.8208389541
 23
29.6347446792
  0
SOLID
  8
DEFAULT_2
 62
8
  6
HIDDEN
 10
56.8208389541
 20
29.6347446792
 11
57.9332908305
 21
29.7190195049
 12
56.5911973184
 22
29.6169409261
 13
56.5911973184
 23
29.6169409261
  0
SOLID
  8
DEFAULT_2
 62
8
  6
HIDDEN
 10
57.9332908305
 20
29.7190195049
 11
57.7167423568
 21
29.5340136366
 12
56.5911973184
 22
29.6169409261
 13
56.5911973184
 23
29.6169409261
  0
SOLID
  8
DEFAULT_2
 62
8
  6
HIDDEN
 10
56.150239924
 20
33.0835785027
 11
55.2489179078
 21
33.0505108532
 12
56.3615254409
 22
33.1353251646
 13
56.3615254409
 23
33.1353251646
  0
SOLID
  8
DEFAULT_2
 62
8
  6
HIDDEN
 10
55.2489179078
 20
33.0505108532
 11
56.5911973184
 21
33.1531281941
 12
56.3615254409
 22
33.1353251646
 13
56.3615254409
 23
33.1353251646
  0
SOLID
  8
DEFAULT_2
 62
8
  6
HIDDEN
 10
56.150239924
 20
33.0835785027
 11
55.9559511041
 21
32.9995176107
 12
55.2489179078
 22
33.0505108532
 13
55.2489179078
 23
33.0505108532
  0
SOLID
  8
DEFAULT_2
 62
8
  6
HIDDEN
 10
55.059598754
 20
32.8277437665
 11
55.2489179078
 21
33.0505108532
 12
55.9559511041
 22
32.9995176107
 13
55.9559511041
 23
32.9995176107
  0
SOLID
  8
DEFAULT_2
 62
8
  6
HIDDEN
 10
55.059598754
 20
32.8277437665
 11
55.9559511041
 21
32.9995176107
 12
55.7779261793
 22
32.883689519
 13
55.7779261793
 23
32.883689519
  0
SOLID
  8
DEFAULT_2
 62
8
  6
HIDDEN
 10
55.7779261793
 20
32.883689519
 11
55.61638202
 21
32.7359157099
 12
55.059598754
 22
32.8277437665
 13
55.059598754
 23
32.8277437665
  0
SOLID
  8
DEFAULT_2
 62
8
  6
HIDDEN
 10
54.9000273832
 20
32.5679595555
 11
55.059598754
 21
32.8277437665
 12
55.61638202
 22
32.7359157099
 13
55.61638202
 23
32.7359157099
  0
SOLID
  8
DEFAULT_2
 62
8
  6
HIDDEN
 10
55.61638202
 20
32.7359157099
 11
55.4727024702
 21
32.5558451451
 12
54.9000273832
 22
32.5679595555
 13
54.9000273832
 23
32.5679595555
  0
SOLID
  8
DEFAULT_2
 62
8
  6
HIDDEN
 10
54.7736846311
 20
32.2727562985
 11
54.9000273832
 21
32.5679595555
 12
55.4727024702
 22
32.5558451451
 13
55.4727024702
 23
32.5558451451
  0
SOLID
  8
DEFAULT_2
 62
8
  6
HIDDEN
 10
54.7736846311
 20
32.2727562985
 11
55.4727024702
 21
32.5558451451
 12
55.3495089769
 22
32.3437595162
 13
55.3495089769
 23
32.3437595162
  0
SOLID
  8
DEFAULT_2
 62
8
  6
HIDDEN
 10
55.3495089769
 20
32.3437595162
 11
55.2505099004
 21
32.1015445608
 12
54.7736846311
 22
32.2727562985
 13
54.7736846311
 23
32.2727562985
  0
SOLID
  8
DEFAULT_2
 62
8
  6
HIDDEN
 10
54.6846816898
 20
31.9452138618
 11
54.7736846311
 21
32.2727562985
 12
55.2505099004
 22
32.1015445608
 13
55.2505099004
 23
32.1015445608
  0
SOLID
  8
DEFAULT_2
 62
8
  6
HIDDEN
 10
55.2505099004
 20
32.1015445608
 11
55.1800482929
 21
31.8336657081
 12
54.6846816898
 22
31.9452138618
 13
54.6846816898
 23
31.9452138618
  0
SOLID
  8
DEFAULT_2
 62
8
  6
HIDDEN
 10
54.6371957472
 20
31.5902863815
 11
54.6846816898
 21
31.9452138618
 12
55.1800482929
 22
31.8336657081
 13
55.1800482929
 23
31.8336657081
  0
SOLID
  8
DEFAULT_2
 62
8
  6
HIDDEN
 10
55.1800482929
 20
31.8336657081
 11
55.1423029706
 21
31.5478120226
 12
54.6371957472
 22
31.5902863815
 13
54.6371957472
 23
31.5902863815
  0
SOLID
  8
DEFAULT_2
 62
8
  6
HIDDEN
 10
54.6301170829
 20
31.3846063507
 11
54.6371957472
 21
31.5902863815
 12
55.1423029706
 22
31.5478120226
 13
55.1423029706
 23
31.5478120226
  0
SOLID
  8
DEFAULT_2
 62
8
  6
HIDDEN
 10
55.1423029706
 20
31.5478120226
 11
55.1366426054
 21
31.3846063507
 12
54.6301170829
 22
31.3846063507
 13
54.6301170829
 23
31.3846063507
  0
SOLID
  8
DEFAULT_2
 62
8
  6
HIDDEN
 10
54.6371867924
 20
31.179257165
 11
54.6301170829
 21
31.3846063507
 12
55.1366426054
 22
31.3846063507
 13
55.1366426054
 23
31.3846063507
  0
SOLID
  8
DEFAULT_2
 62
8
  6
HIDDEN
 10
54.6371867924
 20
31.179257165
 11
55.1366426054
 21
31.3846069915
 12
55.1422780032
 22
31.2218975562
 13
55.1422780032
 23
31.2218975562
  0
SOLID
  8
DEFAULT_2
 62
8
  6
HIDDEN
 10
55.1422780032
 20
31.2218975562
 11
55.1799861547
 21
30.9361997722
 12
54.6371867924
 22
31.179257165
 13
54.6371867924
 23
31.179257165
  0
SOLID
  8
DEFAULT_2
 62
8
  6
HIDDEN
 10
54.6846718954
 20
30.8245032793
 11
54.6371867924
 21
31.179257165
 12
55.1799861547
 22
30.9361997722
 13
55.1799861547
 23
30.9361997722
  0
SOLID
  8
DEFAULT_2
 62
8
  6
HIDDEN
 10
55.1799861547
 20
30.9361997722
 11
55.2504242283
 21
30.6684169044
 12
54.6846718954
 22
30.8245032793
 13
54.6846718954
 23
30.8245032793
  0
SOLID
  8
DEFAULT_2
 62
8
  6
HIDDEN
 10
54.7736993219
 20
30.4970143783
 11
54.6846718954
 21
30.8245032793
 12
55.2504242283
 22
30.6684169044
 13
55.2504242283
 23
30.6684169044
  0
SOLID
  8
DEFAULT_2
 62
8
  6
HIDDEN
 10
55.2504242283
 20
30.6684169044
 11
55.349413769
 21
30.4262567097
 12
54.7736993219
 22
30.4970143783
 13
54.7736993219
 23
30.4970143783
  0
SOLID
  8
DEFAULT_2
 62
8
  6
HIDDEN
 10
54.9000888819
 20
30.2017946282
 11
54.7736993219
 21
30.4970143783
 12
55.349413769
 22
30.4262567097
 13
55.349413769
 23
30.4262567097
  0
SOLID
  8
DEFAULT_2
 62
8
  6
HIDDEN
 10
54.9000888819
 20
30.2017946282
 11
55.349413769
 21
30.4262567097
 12
55.4726094281
 22
30.2141998878
 13
55.4726094281
 23
30.2141998878
  0
SOLID
  8
DEFAULT_2
 62
8
  6
HIDDEN
 10
55.4726094281
 20
30.2141998878
 11
55.6162996399
 21
30.0341430794
 12
54.9000888819
 22
30.2017946282
 13
54.9000888819
 23
30.2017946282
  0
SOLID
  8
DEFAULT_2
 62
8
  6
HIDDEN
 10
55.059718896
 20
29.9419630272
 11
54.9000888819
 21
30.2017946282
 12
55.6162996399
 22
30.0341430794
 13
55.6162996399
 23
30.0341430794
  0
SOLID
  8
DEFAULT_2
 62
8
  6
HIDDEN
 10
55.6162996399
 20
30.0341430794
 11
55.7778597912
 21
29.8863751147
 12
55.059718896
 22
29.9419630272
 13
55.059718896
 23
29.9419630272
  0
SOLID
  8
DEFAULT_2
 62
8
  6
HIDDEN
 10
55.2490943144
 20
29.7191439859
 11
55.059718896
 21
29.9419630272
 12
55.7778597912
 22
29.8863751147
 13
55.7778597912
 23
29.8863751147
  0
SOLID
  8
DEFAULT_2
 62
8
  6
HIDDEN
 10
55.2490943144
 20
29.7191439859
 11
55.7778597912
 21
29.8863751147
 12
55.9559032275
 22
29.7705492961
 13
55.9559032275
 23
29.7705492961
  0
SOLID
  8
DEFAULT_2
 62
8
  6
HIDDEN
 10
55.9559032275
 20
29.7705492961
 11
56.1502106418
 21
29.6864869521
 12
55.2490943144
 22
29.7191439859
 13
55.2490943144
 23
29.7191439859
  0
SOLID
  8
DEFAULT_2
 62
8
  6
HIDDEN
 10
55.4657138159
 20
29.5340862152
 11
55.2490943144
 21
29.7191439859
 12
56.1502106418
 22
29.6864869521
 13
56.1502106418
 23
29.6864869521
  0
SOLID
  8
DEFAULT_2
 62
8
  6
HIDDEN
 10
56.5911973184
 20
29.6169409261
 11
55.4657138159
 21
29.5340862152
 12
56.361512723
 22
29.6347446792
 13
56.361512723
 23
29.6347446792
  0
SOLID
  8
DEFAULT_2
 62
8
  6
HIDDEN
 10
55.4657138159
 20
29.5340862152
 11
56.1502106418
 21
29.6864869521
 12
56.361512723
 22
29.6347446792
 13
56.361512723
 23
29.6347446792
  0
SOLID
  8
DEFAULT_2
 62
8
  6
HIDDEN
 10
56.5911973184
 20
29.6169409261
 11
57.7167423568
 21
29.5340136366
 12
55.4657138159
 22
29.5340862152
 13
55.4657138159
 23
29.5340862152
  0
SOLID
  8
DEFAULT_2
 62
8
  6
HIDDEN
 10
55.7082014331
 20
29.3873336099
 11
55.4657138159
 21
29.5340862152
 12
57.7167423568
 22
29.5340136366
 13
57.7167423568
 23
29.5340136366
  0
SOLID
  8
DEFAULT_2
 62
8
  6
HIDDEN
 10
57.7167423568
 20
29.5340136366
 11
57.4743058516
 21
29.3872991821
 12
55.7082014331
 22
29.3873336099
 13
55.7082014331
 23
29.3873336099
  0
SOLID
  8
DEFAULT_2
 62
8
  6
HIDDEN
 10
55.9762277254
 20
29.2798080845
 11
55.7082014331
 21
29.3873336099
 12
57.4743058516
 22
29.3872991821
 13
57.4743058516
 23
29.3872991821
  0
SOLID
  8
DEFAULT_2
 62
8
  6
HIDDEN
 10
57.4743058516
 20
29.3872991821
 11
57.2062937435
 21
29.2797957725
 12
55.9762277254
 22
29.2798080845
 13
55.9762277254
 23
29.2798080845
  0
SOLID
  8
DEFAULT_2
 62
8
  6
HIDDEN
 10
56.2702832053
 20
29.2132178781
 11
55.9762277254
 21
29.2798080845
 12
57.2062937435
 22
29.2797957725
 13
57.2062937435
 23
29.2797957725
  0
SOLID
  8
DEFAULT_2
 62
8
  6
HIDDEN
 10
57.2062937435
 20
29.2797957725
 11
56.9121983615
 21
29.2132178781
 12
56.2702832053
 22
29.2132178781
 13
56.2702832053
 23
29.2132178781
  0
SOLID
  8
DEFAULT_2
 62
8
  6
HIDDEN
 10
56.4274183995
 20
29.1960744668
 11
56.2702832053
 21
29.2132178781
 12
56.9121983615
 22
29.2132178781
 13
56.9121983615
 23
29.2132178781
  0
SOLID
  8
DEFAULT_2
 62
8
  6
HIDDEN
 10
56.9121983615
 20
29.2132178781
 11
56.7550261031
 21
29.1960744668
 12
56.4274183995
 22
29.1960744668
 13
56.4274183995
 23
29.1960744668
  0
SOLID
  8
DEFAULT_2
 62
8
  6
HIDDEN
 10
56.5911973184
 20
29.1902668735
 11
56.4274183995
 21
29.1960744668
 12
56.7550261031
 22
29.1960744668
 13
56.7550261031
 23
29.1960744668
  0
SOLID
  8
DEFAULT_2
 62
8
  6
HIDDEN
 10
49.7388175014
 20
33.4046606853
 11
50.0797697217
 21
33.4298119006
 12
50.3597846089
 22
33.4049709508
 13
50.3597846089
 23
33.4049709508
  0
SOLID
  8
DEFAULT_2
 62
8
  6
HIDDEN
 10
49.7388175014
 20
33.4046606853
 11
50.3597846089
 21
33.4049709508
 12
49.4296241821
 22
33.3319355706
 13
49.4296241821
 23
33.3319355706
  0
SOLID
  8
DEFAULT_2
 62
8
  6
HIDDEN
 10
50.3597846089
 20
33.4049709508
 11
50.628462629
 21
33.3314294795
 12
49.4296241821
 22
33.3319355706
 13
49.4296241821
 23
33.3319355706
  0
SOLID
  8
DEFAULT_2
 62
8
  6
HIDDEN
 10
49.1521531269
 20
33.2152277264
 11
49.4296241821
 21
33.3319355706
 12
50.628462629
 22
33.3314294795
 13
50.628462629
 23
33.3314294795
  0
SOLID
  8
DEFAULT_2
 62
8
  6
HIDDEN
 10
50.628462629
 20
33.3314294795
 11
50.8780039143
 21
33.2116393591
 12
49.1521531269
 22
33.2152277264
 13
49.1521531269
 23
33.2152277264
  0
SOLID
  8
DEFAULT_2
 62
8
  6
HIDDEN
 10
48.9063304163
 20
33.0571818857
 11
49.1521531269
 21
33.2152277264
 12
50.8780039143
 22
33.2116393591
 13
50.8780039143
 23
33.2116393591
  0
SOLID
  8
DEFAULT_2
 62
8
  6
HIDDEN
 10
50.8780039143
 20
33.2116393591
 11
51.0939923993
 21
33.0542661417
 12
48.9063304163
 22
33.0571818857
 13
48.9063304163
 23
33.0571818857
  0
SOLID
  8
DEFAULT_2
 62
8
  6
HIDDEN
 10
51.0939923993
 20
33.0542661417
 11
50.0797697217
 21
33.0370134275
 12
48.9063304163
 22
33.0571818857
 13
48.9063304163
 23
33.0571818857
  0
SOLID
  8
DEFAULT_2
 62
8
  6
HIDDEN
 10
50.0797697217
 20
33.0370134275
 11
49.8513541572
 21
33.0211161898
 12
48.9063304163
 22
33.0571818857
 13
48.9063304163
 23
33.0571818857
  0
SOLID
  8
DEFAULT_2
 62
8
  6
HIDDEN
 10
48.6929375834
 20
32.8597152198
 11
48.9063304163
 21
33.0571818857
 12
49.8513541572
 22
33.0211161898
 13
49.8513541572
 23
33.0211161898
  0
SOLID
  8
DEFAULT_2
 62
8
  6
HIDDEN
 10
50.0797697217
 20
33.0370134275
 11
51.0939923993
 21
33.0542661417
 12
50.1938461734
 22
33.0329677324
 13
50.1938461734
 23
33.0329677324
  0
SOLID
  8
DEFAULT_2
 62
8
  6
HIDDEN
 10
50.1938461734
 20
33.0329677324
 11
51.0939923993
 21
33.0542661417
 12
50.3021792984
 22
33.0210756539
 13
50.3021792984
 23
33.0210756539
  0
SOLID
  8
DEFAULT_2
 62
8
  6
HIDDEN
 10
50.3021792984
 20
33.0210756539
 11
51.0939923993
 21
33.0542661417
 12
50.5019716909
 22
32.9752225916
 13
50.5019716909
 23
32.9752225916
  0
SOLID
  8
DEFAULT_2
 62
8
  6
HIDDEN
 10
50.5019716909
 20
32.9752225916
 11
51.0939923993
 21
33.0542661417
 12
50.6813642036
 22
32.9016221968
 13
50.6813642036
 23
32.9016221968
  0
SOLID
  8
DEFAULT_2
 62
8
  6
HIDDEN
 10
51.0939923993
 20
33.0542661417
 11
51.2720109097
 21
32.8640779087
 12
50.6813642036
 22
32.9016221968
 13
50.6813642036
 23
32.9016221968
  0
SOLID
  8
DEFAULT_2
 62
8
  6
HIDDEN
 10
50.8422560381
 20
32.8013045992
 11
50.6813642036
 21
32.9016221968
 12
51.2720109097
 22
32.8640779087
 13
51.2720109097
 23
32.8640779087
  0
SOLID
  8
DEFAULT_2
 62
8
  6
HIDDEN
 10
50.8422560381
 20
32.8013045992
 11
51.2720109097
 21
32.8640779087
 12
50.9857546401
 22
32.6742658845
 13
50.9857546401
 23
32.6742658845
  0
SOLID
  8
DEFAULT_2
 62
8
  6
HIDDEN
 10
51.2720109097
 20
32.8640779087
 11
51.3980927298
 21
32.65907571
 12
50.9857546401
 22
32.6742658845
 13
50.9857546401
 23
32.6742658845
  0
SOLID
  8
DEFAULT_2
 62
8
  6
HIDDEN
 10
51.1119540621
 20
32.5198494579
 11
50.9857546401
 21
32.6742658845
 12
51.3980927298
 22
32.65907571
 13
51.3980927298
 23
32.65907571
  0
SOLID
  8
DEFAULT_2
 62
8
  6
HIDDEN
 10
49.4610359907
 20
32.9016221968
 11
48.6929375834
 21
32.8597152198
 12
49.6455938646
 22
32.9752321192
 13
49.6455938646
 23
32.9752321192
  0
SOLID
  8
DEFAULT_2
 62
8
  6
HIDDEN
 10
48.6929375834
 20
32.8597152198
 11
49.8513541572
 21
33.0211161898
 12
49.6455938646
 22
32.9752321192
 13
49.6455938646
 23
32.9752321192
  0
SOLID
  8
DEFAULT_2
 62
8
  6
HIDDEN
 10
49.4610359907
 20
32.9016221968
 11
49.2958927671
 21
32.8014932942
 12
48.6929375834
 22
32.8597152198
 13
48.6929375834
 23
32.8597152198
  0
SOLID
  8
DEFAULT_2
 62
8
  6
HIDDEN
 10
48.5138522805
 20
32.6244744225
 11
48.6929375834
 21
32.8597152198
 12
49.2958927671
 22
32.8014932942
 13
49.2958927671
 23
32.8014932942
  0
SOLID
  8
DEFAULT_2
 62
8
  6
HIDDEN
 10
51.4139546981
 20
32.65907571
 11
51.4139546981
 21
33.4298128859
 12
51.9204802206
 22
33.4298128859
 13
51.9204802206
 23
33.4298128859
  0
SOLID
  8
DEFAULT_2
 62
8
  6
HIDDEN
 10
51.4139546981
 20
32.65907571
 11
51.9204802206
 21
33.4298128859
 12
51.2197981171
 22
32.3373128265
 13
51.2197981171
 23
32.3373128265
  0
SOLID
  8
DEFAULT_2
 62
8
  6
HIDDEN
 10
51.2197981171
 20
32.3373128265
 11
51.9204802206
 21
33.4298128859
 12
51.3070755753
 22
32.1266817145
 13
51.3070755753
 23
32.1266817145
  0
SOLID
  8
DEFAULT_2
 62
8
  6
HIDDEN
 10
51.3070755753
 20
32.1266817145
 11
51.9204802206
 21
33.4298128859
 12
51.3706074857
 22
31.8898985668
 13
51.3706074857
 23
31.8898985668
  0
SOLID
  8
DEFAULT_2
 62
8
  6
HIDDEN
 10
51.3706074857
 20
31.8898985668
 11
51.9204802206
 21
33.4298128859
 12
51.4067344423
 22
31.6322323345
 13
51.4067344423
 23
31.6322323345
  0
SOLID
  8
DEFAULT_2
 62
8
  6
HIDDEN
 10
51.4067344423
 20
31.6322323345
 11
51.9204802206
 21
33.4298128859
 12
51.4139546981
 22
31.4513588436
 13
51.4139546981
 23
31.4513588436
  0
SOLID
  8
DEFAULT_2
 62
8
  6
HIDDEN
 10
51.4139546981
 20
31.4513588436
 11
51.9204802206
 21
33.4298128859
 12
51.4102148704
 22
31.3309474915
 13
51.4102148704
 23
31.3309474915
  0
SOLID
  8
DEFAULT_2
 62
8
  6
HIDDEN
 10
51.4102148704
 20
31.3309474915
 11
51.9204802206
 21
33.4298128859
 12
51.3788278463
 22
31.0855920571
 13
51.3788278463
 23
31.0855920571
  0
SOLID
  8
DEFAULT_2
 62
8
  6
HIDDEN
 10
51.3788278463
 20
31.0855920571
 11
51.9204802206
 21
33.4298128859
 12
51.3980927298
 22
30.3259836033
 13
51.3980927298
 23
30.3259836033
  0
SOLID
  8
DEFAULT_2
 62
8
  6
HIDDEN
 10
51.3980927298
 20
30.3259836033
 11
51.9204802206
 21
33.4298128859
 12
51.4139546981
 22
30.3259836033
 13
51.4139546981
 23
30.3259836033
  0
SOLID
  8
DEFAULT_2
 62
8
  6
HIDDEN
 10
51.4139546981
 20
30.3259836033
 11
51.9204802206
 21
33.4298128859
 12
51.4139546981
 22
29.8330505728
 13
51.4139546981
 23
29.8330505728
  0
SOLID
  8
DEFAULT_2
 62
8
  6
HIDDEN
 10
51.4139546981
 20
29.8330505728
 11
51.9204802206
 21
33.4298128859
 12
51.4111566624
 22
29.667788091
 13
51.4111566624
 23
29.667788091
  0
SOLID
  8
DEFAULT_2
 62
8
  6
HIDDEN
 10
51.9204802206
 20
33.4298128859
 11
51.9204802206
 21
29.5957916349
 12
51.4111566624
 22
29.667788091
 13
51.4111566624
 23
29.667788091
  0
SOLID
  8
DEFAULT_2
 62
8
  6
HIDDEN
 10
51.3852484042
 20
29.3169820775
 11
51.4111566624
 21
29.667788091
 12
51.9204802206
 22
29.5957916349
 13
51.9204802206
 23
29.5957916349
  0
SOLID
  8
DEFAULT_2
 62
8
  6
HIDDEN
 10
48.5138522805
 20
32.6244744225
 11
49.2958927671
 21
32.8014932942
 12
49.1490911124
 22
32.6750926257
 13
49.1490911124
 23
32.6750926257
  0
SOLID
  8
DEFAULT_2
 62
8
  6
HIDDEN
 10
49.1490911124
 20
32.6750926257
 11
49.0204878462
 21
32.5220032904
 12
48.5138522805
 22
32.6244744225
 13
48.5138522805
 23
32.6244744225
  0
SOLID
  8
DEFAULT_2
 62
8
  6
HIDDEN
 10
48.3720836341
 20
32.3534778
 11
48.5138522805
 21
32.6244744225
 12
49.0204878462
 22
32.5220032904
 13
49.0204878462
 23
32.5220032904
  0
SOLID
  8
DEFAULT_2
 62
8
  6
HIDDEN
 10
49.0204878462
 20
32.5220032904
 11
48.9110032556
 21
32.3416281506
 12
48.3720836341
 22
32.3534778
 13
48.3720836341
 23
32.3534778
  0
SOLID
  8
DEFAULT_2
 62
8
  6
HIDDEN
 10
48.2715246135
 20
32.0498012319
 11
48.3720836341
 21
32.3534778
 12
48.9110032556
 22
32.3416281506
 13
48.9110032556
 23
32.3416281506
  0
SOLID
  8
DEFAULT_2
 62
8
  6
HIDDEN
 10
51.4139546981
 20
32.65907571
 11
51.2197981171
 21
32.3373128265
 12
51.3980927298
 22
32.65907571
 13
51.1119540621
 23
32.5198494579
  0
SOLID
  8
DEFAULT_2
 62
8
  6
HIDDEN
 10
48.2715246135
 20
32.0498012319
 11
48.9110032556
 21
32.3416281506
 12
48.8226231264
 22
32.1338814821
 13
48.8226231264
 23
32.1338814821
  0
SOLID
  8
DEFAULT_2
 62
8
  6
HIDDEN
 10
48.8226231264
 20
32.1338814821
 11
48.758220099
 21
31.9000640107
 12
48.2715246135
 22
32.0498012319
 13
48.2715246135
 23
32.0498012319
  0
SOLID
  8
DEFAULT_2
 62
8
  6
HIDDEN
 10
48.2164254146
 20
31.7181011963
 11
48.2715246135
 21
32.0498012319
 12
48.758220099
 22
31.9000640107
 13
48.758220099
 23
31.9000640107
  0
SOLID
  8
DEFAULT_2
 62
8
  6
HIDDEN
 10
48.758220099
 20
31.9000640107
 11
48.721133008
 21
31.6438468431
 12
48.2164254146
 22
31.7181011963
 13
48.2164254146
 23
31.7181011963
  0
SOLID
  8
DEFAULT_2
 62
8
  6
HIDDEN
 10
48.2068452416
 20
31.5032255681
 11
48.2164254146
 21
31.7181011963
 12
48.721133008
 22
31.6438468431
 13
48.721133008
 23
31.6438468431
  0
SOLID
  8
DEFAULT_2
 62
8
  6
HIDDEN
 10
48.721133008
 20
31.6438468431
 11
48.7131128459
 21
31.4513588436
 12
48.2068452416
 22
31.5032255681
 13
48.2068452416
 23
31.5032255681
  0
SOLID
  8
DEFAULT_2
 62
8
  6
HIDDEN
 10
48.2201104739
 20
31.2153268937
 11
48.2068452416
 21
31.5032255681
 12
48.7131128459
 22
31.4513588436
 13
48.7131128459
 23
31.4513588436
  0
SOLID
  8
DEFAULT_2
 62
8
  6
HIDDEN
 10
48.2201104739
 20
31.2153268937
 11
48.7131128459
 21
31.4513588436
 12
48.7183586467
 22
31.3040447706
 13
48.7183586467
 23
31.3040447706
  0
SOLID
  8
DEFAULT_2
 62
8
  6
HIDDEN
 10
48.7183586467
 20
31.3040447706
 11
48.7517793748
 21
31.05741936
 12
48.2201104739
 22
31.2153268937
 13
48.2201104739
 23
31.2153268937
  0
SOLID
  8
DEFAULT_2
 62
8
  6
HIDDEN
 10
48.2768390379
 20
30.8675022136
 11
48.2201104739
 21
31.2153268937
 12
48.7517793748
 22
31.05741936
 13
48.7517793748
 23
31.05741936
  0
SOLID
  8
DEFAULT_2
 62
8
  6
HIDDEN
 10
48.7517793748
 20
31.05741936
 11
48.8135988056
 21
30.8300601975
 12
48.2768390379
 22
30.8675022136
 13
48.2768390379
 23
30.8675022136
  0
SOLID
  8
DEFAULT_2
 62
8
  6
HIDDEN
 10
48.3736080886
 20
30.5635964637
 11
48.2768390379
 21
30.8675022136
 12
48.8135988056
 22
30.8300601975
 13
48.8135988056
 23
30.8300601975
  0
SOLID
  8
DEFAULT_2
 62
8
  6
HIDDEN
 10
48.3736080886
 20
30.5635964637
 11
48.8135988056
 21
30.8300601975
 12
48.9006296086
 22
30.6261474583
 13
48.9006296086
 23
30.6261474583
  0
SOLID
  8
DEFAULT_2
 62
8
  6
HIDDEN
 10
48.9006296086
 20
30.6261474583
 11
49.0099676035
 21
30.4476939013
 12
48.3736080886
 22
30.5635964637
 13
48.3736080886
 23
30.5635964637
  0
SOLID
  8
DEFAULT_2
 62
8
  6
HIDDEN
 10
48.5066351976
 20
30.3016438953
 11
48.3736080886
 21
30.5635964637
 12
49.0099676035
 22
30.4476939013
 13
49.0099676035
 23
30.4476939013
  0
SOLID
  8
DEFAULT_2
 62
8
  6
HIDDEN
 10
49.0099676035
 20
30.4476939013
 11
49.1394630994
 21
30.2953002991
 12
48.5066351976
 22
30.3016438953
 13
48.5066351976
 23
30.3016438953
  0
SOLID
  8
DEFAULT_2
 62
8
  6
HIDDEN
 10
48.6739775932
 20
30.0790683964
 11
48.5066351976
 21
30.3016438953
 12
49.1394630994
 22
30.2953002991
 13
49.1394630994
 23
30.2953002991
  0
SOLID
  8
DEFAULT_2
 62
8
  6
HIDDEN
 10
51.119341642
 20
30.461824852
 11
51.2300057587
 21
30.6462364498
 12
51.3980927298
 22
30.3259822078
 13
51.3980927298
 23
30.3259822078
  0
SOLID
  8
DEFAULT_2
 62
8
  6
HIDDEN
 10
51.2300057587
 20
30.6462364498
 11
51.3176592186
 21
30.8553888817
 12
51.3980927298
 22
30.3259822078
 13
51.3980927298
 23
30.3259822078
  0
SOLID
  8
DEFAULT_2
 62
8
  6
HIDDEN
 10
51.3788278463
 20
31.0855920571
 11
51.3980927298
 21
30.3259822078
 12
51.3176592186
 22
30.8553888817
 13
51.3176592186
 23
30.8553888817
  0
SOLID
  8
DEFAULT_2
 62
8
  6
HIDDEN
 10
50.9886888929
 20
30.3040114006
 11
51.119341642
 21
30.461824852
 12
51.3980927298
 22
30.3259822078
 13
51.3980927298
 23
30.3259822078
  0
SOLID
  8
DEFAULT_2
 62
8
  6
HIDDEN
 10
50.9886888929
 20
30.3040114006
 11
51.3980927298
 21
30.3259822078
 12
50.8402328387
 22
30.1734809334
 13
50.8402328387
 23
30.1734809334
  0
SOLID
  8
DEFAULT_2
 62
8
  6
HIDDEN
 10
51.3980927298
 20
30.3259822078
 11
51.2702075457
 21
30.1060923598
 12
50.8402328387
 22
30.1734809334
 13
50.8402328387
 23
30.1734809334
  0
SOLID
  8
DEFAULT_2
 62
8
  6
HIDDEN
 10
50.6751814813
 20
30.0704488197
 11
50.8402328387
 21
30.1734809334
 12
51.2702075457
 22
30.1060923598
 13
51.2702075457
 23
30.1060923598
  0
SOLID
  8
DEFAULT_2
 62
8
  6
HIDDEN
 10
50.6751814813
 20
30.0704488197
 11
51.2702075457
 21
30.1060923598
 12
50.4938167221
 22
29.9952601207
 13
50.4938167221
 23
29.9952601207
  0
SOLID
  8
DEFAULT_2
 62
8
  6
HIDDEN
 10
50.4938167221
 20
29.9952601207
 11
51.2702075457
 21
30.1060923598
 12
50.2956719946
 22
29.948816323
 13
50.2956719946
 23
29.948816323
  0
SOLID
  8
DEFAULT_2
 62
8
  6
HIDDEN
 10
51.2702075457
 20
30.1060923598
 11
51.100153698
 21
29.9151887429
 12
50.2956719946
 22
29.948816323
 13
50.2956719946
 23
29.948816323
  0
SOLID
  8
DEFAULT_2
 62
8
  6
HIDDEN
 10
48.6739775932
 20
30.0790683964
 11
49.1394630994
 21
30.2953002991
 12
49.2879446633
 22
30.1689323981
 13
49.2879446633
 23
30.1689323981
  0
SOLID
  8
DEFAULT_2
 62
8
  6
HIDDEN
 10
49.2879446633
 20
30.1689323981
 11
49.4552427196
 21
30.0685816793
 12
48.6739775932
 22
30.0790683964
 13
48.6739775932
 23
30.0790683964
  0
SOLID
  8
DEFAULT_2
 62
8
  6
HIDDEN
 10
48.8757884637
 20
29.8937848582
 11
48.6739775932
 21
30.0790683964
 12
49.4552427196
 22
30.0685816793
 13
49.4552427196
 23
30.0685816793
  0
SOLID
  8
DEFAULT_2
 62
8
  6
HIDDEN
 10
50.2956719946
 20
29.948816323
 11
51.100153698
 21
29.9151887429
 12
50.0797697217
 22
29.9328133266
 13
50.0797697217
 23
29.9328133266
  0
SOLID
  8
DEFAULT_2
 62
8
  6
HIDDEN
 10
51.100153698
 20
29.9151887429
 11
48.8757884637
 21
29.8937848582
 12
50.0797697217
 22
29.9328133266
 13
50.0797697217
 23
29.9328133266
  0
SOLID
  8
DEFAULT_2
 62
8
  6
HIDDEN
 10
50.0797697217
 20
29.9328133266
 11
48.8757884637
 21
29.8937848582
 12
49.8498052383
 22
29.9487507597
 13
49.8498052383
 23
29.9487507597
  0
SOLID
  8
DEFAULT_2
 62
8
  6
HIDDEN
 10
49.8498052383
 20
29.9487507597
 11
48.8757884637
 21
29.8937848582
 12
49.6420683001
 22
29.9947513049
 13
49.6420683001
 23
29.9947513049
  0
SOLID
  8
DEFAULT_2
 62
8
  6
HIDDEN
 10
48.8757884637
 20
29.8937848582
 11
49.4552427196
 21
30.0685816793
 12
49.6420683001
 22
29.9947513049
 13
49.6420683001
 23
29.9947513049
  0
SOLID
  8
DEFAULT_2
 62
8
  6
HIDDEN
 10
51.100153698
 20
29.9151887429
 11
50.8912175606
 21
29.75807398
 12
48.8757884637
 22
29.8937848582
 13
48.8757884637
 23
29.8937848582
  0
SOLID
  8
DEFAULT_2
 62
8
  6
HIDDEN
 10
49.1142503629
 20
29.7450674636
 11
48.8757884637
 21
29.8937848582
 12
50.8912175606
 22
29.75807398
 13
50.8912175606
 23
29.75807398
  0
SOLID
  8
DEFAULT_2
 62
8
  6
HIDDEN
 10
49.1142503629
 20
29.7450674636
 11
50.8912175606
 21
29.75807398
 12
49.2483004177
 22
29.6847428089
 13
49.2483004177
 23
29.6847428089
  0
SOLID
  8
DEFAULT_2
 62
8
  6
HIDDEN
 10
50.8912175606
 20
29.75807398
 11
50.6476678672
 21
29.6399848651
 12
49.2483004177
 22
29.6847428089
 13
49.2483004177
 23
29.6847428089
  0
SOLID
  8
DEFAULT_2
 62
8
  6
HIDDEN
 10
49.3924389223
 20
29.634346778
 11
49.2483004177
 21
29.6847428089
 12
50.6476678672
 22
29.6399848651
 13
50.6476678672
 23
29.6399848651
  0
SOLID
  8
DEFAULT_2
 62
8
  6
HIDDEN
 10
49.3924389223
 20
29.634346778
 11
50.6476678672
 21
29.6399848651
 12
50.647105026
 22
29.6397746826
 13
50.647105026
 23
29.6397746826
  0
SOLID
  8
DEFAULT_2
 62
8
  6
HIDDEN
 10
50.647105026
 20
29.6397746826
 11
50.3742800103
 21
29.5659183716
 12
49.3924389223
 22
29.634346778
 13
49.3924389223
 23
29.634346778
  0
SOLID
  8
DEFAULT_2
 62
8
  6
HIDDEN
 10
49.7124805642
 20
29.5649356957
 11
49.3924389223
 21
29.634346778
 12
50.3742800103
 22
29.5659183716
 13
50.3742800103
 23
29.5659183716
  0
SOLID
  8
DEFAULT_2
 62
8
  6
HIDDEN
 10
50.3742800103
 20
29.5659183716
 11
50.0797697217
 21
29.5406229353
 12
49.7124805642
 22
29.5649356957
 13
49.7124805642
 23
29.5649356957
  0
SOLID
  8
DEFAULT_2
 62
8
  6
HIDDEN
 10
51.3852484042
 20
29.3169820775
 11
51.9204802206
 21
29.5957916349
 12
51.9204221301
 22
29.5782217606
 13
51.9204221301
 23
29.5782217606
  0
SOLID
  8
DEFAULT_2
 62
8
  6
HIDDEN
 10
51.9204221301
 20
29.5782217606
 11
51.900142807
 21
29.2938078123
 12
51.3852484042
 22
29.3169820775
 13
51.3852484042
 23
29.3169820775
  0
SOLID
  8
DEFAULT_2
 62
8
  6
HIDDEN
 10
51.350270019
 20
29.1612669052
 11
51.3852484042
 21
29.3169820775
 12
51.900142807
 22
29.2938078123
 13
51.900142807
 23
29.2938078123
  0
SOLID
  8
DEFAULT_2
 62
8
  6
HIDDEN
 10
51.900142807
 20
29.2938078123
 11
51.8441622298
 21
29.0537765703
 12
51.350270019
 22
29.1612669052
 13
51.350270019
 23
29.1612669052
  0
SOLID
  8
DEFAULT_2
 62
8
  6
HIDDEN
 10
51.2769197813
 20
28.9977461299
 11
51.350270019
 21
29.1612669052
 12
51.8441622298
 22
29.0537765703
 13
51.8441622298
 23
29.0537765703
  0
SOLID
  8
DEFAULT_2
 62
8
  6
HIDDEN
 10
51.8441622298
 20
29.0537765703
 11
51.7975218588
 21
28.9340710071
 12
51.2769197813
 22
28.9977461299
 13
51.2769197813
 23
28.9977461299
  0
SOLID
  8
DEFAULT_2
 62
8
  6
HIDDEN
 10
51.166862169
 20
28.8565186395
 11
51.2769197813
 21
28.9977461299
 12
51.7975218588
 22
28.9340710071
 13
51.7975218588
 23
28.9340710071
  0
SOLID
  8
DEFAULT_2
 62
8
  6
HIDDEN
 10
51.7975218588
 20
28.9340710071
 11
51.7403592866
 21
28.8226474182
 12
51.166862169
 22
28.8565186395
 13
51.166862169
 23
28.8565186395
  0
SOLID
  8
DEFAULT_2
 62
8
  6
HIDDEN
 10
51.017766575
 20
28.7421856116
 11
51.166862169
 21
28.8565186395
 12
51.7403592866
 22
28.8226474182
 13
51.7403592866
 23
28.8226474182
  0
SOLID
  8
DEFAULT_2
 62
8
  6
HIDDEN
 10
51.017766575
 20
28.7421856116
 11
51.7403592866
 21
28.8226474182
 12
50.8064994544
 22
28.6449185815
 13
50.8064994544
 23
28.6449185815
  0
SOLID
  8
DEFAULT_2
 62
8
  6
HIDDEN
 10
51.7403592866
 20
28.8226474182
 11
51.5958465604
 21
28.6246083061
 12
50.8064994544
 22
28.6449185815
 13
50.8064994544
 23
28.6449185815
  0
SOLID
  8
DEFAULT_2
 62
8
  6
HIDDEN
 10
50.5559714067
 20
28.5780121445
 11
50.8064994544
 21
28.6449185815
 12
51.5958465604
 22
28.6246083061
 13
51.5958465604
 23
28.6246083061
  0
SOLID
  8
DEFAULT_2
 62
8
  6
HIDDEN
 10
50.5559714067
 20
28.5780121445
 11
51.5958465604
 21
28.6246083061
 12
50.2961383576
 22
28.5467937181
 13
50.2961383576
 23
28.5467937181
  0
SOLID
  8
DEFAULT_2
 62
8
  6
HIDDEN
 10
51.5958465604
 20
28.6246083061
 11
51.4103499273
 21
28.4573420046
 12
50.2961383576
 22
28.5467937181
 13
50.2961383576
 23
28.5467937181
  0
SOLID
  8
DEFAULT_2
 62
8
  6
HIDDEN
 10
48.9281929037
 20
29.078735035
 11
48.4036359912
 21
29.0411204199
 12
48.8916710059
 22
29.1738060084
 13
48.8916710059
 23
29.1738060084
  0
SOLID
  8
DEFAULT_2
 62
8
  6
HIDDEN
 10
48.8916710059
 20
29.1738060084
 11
48.4036359912
 21
29.0411204199
 12
48.8657488274
 22
29.2784240631
 13
48.8657488274
 23
29.2784240631
  0
SOLID
  8
DEFAULT_2
 62
8
  6
HIDDEN
 10
48.4036359912
 20
29.0411204199
 11
48.3594812231
 21
29.2784240631
 12
48.8657488274
 22
29.2784240631
 13
48.8657488274
 23
29.2784240631
  0
SOLID
  8
DEFAULT_2
 62
8
  6
HIDDEN
 10
48.9281929037
 20
29.078735035
 11
49.0308274392
 21
28.9148908966
 12
48.4036359912
 22
29.0411204199
 13
48.4036359912
 23
29.0411204199
  0
SOLID
  8
DEFAULT_2
 62
8
  6
HIDDEN
 10
48.4931692672
 20
28.8312049799
 11
48.4036359912
 21
29.0411204199
 12
49.0308274392
 22
28.9148908966
 13
49.0308274392
 23
28.9148908966
  0
SOLID
  8
DEFAULT_2
 62
8
  6
HIDDEN
 10
49.0308274392
 20
28.9148908966
 11
49.1734236995
 21
28.7808005555
 12
48.4931692672
 22
28.8312049799
 13
48.4931692672
 23
28.8312049799
  0
SOLID
  8
DEFAULT_2
 62
8
  6
HIDDEN
 10
48.6269511294
 20
28.6452125583
 11
48.4931692672
 21
28.8312049799
 12
49.1734236995
 22
28.7808005555
 13
49.1734236995
 23
28.7808005555
  0
SOLID
  8
DEFAULT_2
 62
8
  6
HIDDEN
 10
48.6269511294
 20
28.6452125583
 11
49.1734236995
 21
28.7808005555
 12
49.3599605812
 22
28.6740574613
 13
49.3599605812
 23
28.6740574613
  0
SOLID
  8
DEFAULT_2
 62
8
  6
HIDDEN
 10
49.3599605812
 20
28.6740574613
 11
49.5965511664
 21
28.5962486491
 12
48.6269511294
 22
28.6452125583
 13
48.6269511294
 23
28.6452125583
  0
SOLID
  8
DEFAULT_2
 62
8
  6
HIDDEN
 10
48.8066185453
 20
28.4818452
 11
48.6269511294
 21
28.6452125583
 12
49.5965511664
 22
28.5962486491
 13
49.5965511664
 23
28.5962486491
  0
SOLID
  8
DEFAULT_2
 62
8
  6
HIDDEN
 10
50.2306518596
 20
28.5444655314
 11
48.8066185453
 21
28.4818452
 12
50.0797697217
 22
28.545239286
 13
50.0797697217
 23
28.545239286
  0
SOLID
  8
DEFAULT_2
 62
8
  6
HIDDEN
 10
50.0797697217
 20
28.545239286
 11
48.8066185453
 21
28.4818452
 12
49.8882398296
 22
28.5523860578
 13
49.8882398296
 23
28.5523860578
  0
SOLID
  8
DEFAULT_2
 62
8
  6
HIDDEN
 10
48.8066185453
 20
28.4818452
 11
49.5965511664
 21
28.5962486491
 12
49.8882398296
 22
28.5523860578
 13
49.8882398296
 23
28.5523860578
  0
SOLID
  8
DEFAULT_2
 62
8
  6
HIDDEN
 10
50.2306518596
 20
28.5444655314
 11
50.2961383576
 21
28.5467937181
 12
48.8066185453
 22
28.4818452
 13
48.8066185453
 23
28.4818452
  0
SOLID
  8
DEFAULT_2
 62
8
  6
HIDDEN
 10
50.2961383576
 20
28.5467937181
 11
51.4103499273
 21
28.4573420046
 12
48.8066185453
 22
28.4818452
 13
48.8066185453
 23
28.4818452
  0
SOLID
  8
DEFAULT_2
 62
8
  6
HIDDEN
 10
49.0351331259
 20
28.3425618188
 11
48.8066185453
 21
28.4818452
 12
51.4103499273
 22
28.4573420046
 13
51.4103499273
 23
28.4573420046
  0
SOLID
  8
DEFAULT_2
 62
8
  6
HIDDEN
 10
51.4103499273
 20
28.4573420046
 11
51.1813372748
 21
28.3204788772
 12
49.0351331259
 22
28.3425618188
 13
49.0351331259
 23
28.3425618188
  0
SOLID
  8
DEFAULT_2
 62
8
  6
HIDDEN
 10
49.3145207095
 20
28.2316983498
 11
49.0351331259
 21
28.3425618188
 12
51.1813372748
 22
28.3204788772
 13
51.1813372748
 23
28.3204788772
  0
SOLID
  8
DEFAULT_2
 62
8
  6
HIDDEN
 10
51.1813372748
 20
28.3204788772
 11
50.9050804984
 21
28.2160728372
 12
49.3145207095
 22
28.2316983498
 13
49.3145207095
 23
28.2316983498
  0
SOLID
  8
DEFAULT_2
 62
8
  6
HIDDEN
 10
49.642825134
 20
28.1559772242
 11
49.3145207095
 21
28.2316983498
 12
50.9050804984
 22
28.2160728372
 13
50.9050804984
 23
28.2160728372
  0
SOLID
  8
DEFAULT_2
 62
8
  6
HIDDEN
 10
50.9050804984
 20
28.2160728372
 11
50.5778708969
 21
28.1483972862
 12
49.642825134
 22
28.1559772242
 13
49.642825134
 23
28.1559772242
  0
SOLID
  8
DEFAULT_2
 62
8
  6
HIDDEN
 10
50.010532496
 20
28.1231469363
 11
49.642825134
 21
28.1559772242
 12
50.5778708969
 22
28.1483972862
 13
50.5778708969
 23
28.1483972862
  0
SOLID
  8
DEFAULT_2
 62
8
  6
HIDDEN
 10
50.1848197982
 20
28.1233367198
 11
50.010532496
 21
28.1231469363
 12
50.1972701108
 22
28.1233597122
 13
50.1972701108
 23
28.1233597122
  0
SOLID
  8
DEFAULT_2
 62
8
  6
HIDDEN
 10
50.010532496
 20
28.1231469363
 11
50.5778708969
 21
28.1483972862
 12
50.1972701108
 22
28.1233597122
 13
50.1972701108
 23
28.1233597122
  0
SOLID
  8
DEFAULT_2
 62
8
  6
HIDDEN
 10
50.1848197982
 20
28.1233367198
 11
50.0797697217
 21
28.1223308389
 12
50.010532496
 22
28.1231469363
 13
50.010532496
 23
28.1231469363
  0
SOLID
  8
DEFAULT_2
 62
8
  6
HIDDEN
 10
53.030482711
 20
33.4295583778
 11
52.5640118826
 21
33.3134243561
 12
53.0174215278
 22
33.4295583778
 13
53.0174215278
 23
33.4295583778
  0
SOLID
  8
DEFAULT_2
 62
8
  6
HIDDEN
 10
52.5640118826
 20
33.3134243561
 11
52.5640118826
 21
33.4295583778
 12
53.0174215278
 22
33.4295583778
 13
53.0174215278
 23
33.4295583778
  0
SOLID
  8
DEFAULT_2
 62
8
  6
HIDDEN
 10
54.3450829089
 20
33.4785405728
 11
54.6142551146
 21
33.485600209
 12
54.0964838323
 22
33.4350217186
 13
54.0964838323
 23
33.4350217186
  0
SOLID
  8
DEFAULT_2
 62
8
  6
HIDDEN
 10
54.0964838323
 20
33.4350217186
 11
54.6142551146
 21
33.485600209
 12
53.8682921104
 22
33.3570009655
 13
53.8682921104
 23
33.3570009655
  0
SOLID
  8
DEFAULT_2
 62
8
  6
HIDDEN
 10
53.8682921104
 20
33.3570009655
 11
54.6142551146
 21
33.485600209
 12
53.7618288453
 22
33.305448773
 13
53.7618288453
 23
33.305448773
  0
SOLID
  8
DEFAULT_2
 62
8
  6
HIDDEN
 10
53.7618288453
 20
33.305448773
 11
54.6142551146
 21
33.485600209
 12
53.6606746283
 22
33.2457701379
 13
53.6606746283
 23
33.2457701379
  0
SOLID
  8
DEFAULT_2
 62
8
  6
HIDDEN
 10
53.6606746283
 20
33.2457701379
 11
54.6142551146
 21
33.485600209
 12
53.4748056683
 22
33.1026031825
 13
53.4748056683
 23
33.1026031825
  0
SOLID
  8
DEFAULT_2
 62
8
  6
HIDDEN
 10
54.6142551146
 20
33.485600209
 11
54.6142551146
 21
32.9933877633
 12
53.4748056683
 22
33.1026031825
 13
53.4748056683
 23
33.1026031825
  0
SOLID
  8
DEFAULT_2
 62
8
  6
HIDDEN
 10
54.6142551146
 20
32.979208804
 11
54.356055886
 21
32.9715974999
 12
54.6142551146
 22
32.9933877633
 13
54.6142551146
 23
32.9933877633
  0
SOLID
  8
DEFAULT_2
 62
8
  6
HIDDEN
 10
54.356055886
 20
32.9715974999
 11
53.311231384
 21
32.9277871481
 12
54.6142551146
 22
32.9933877633
 13
54.6142551146
 23
32.9933877633
  0
SOLID
  8
DEFAULT_2
 62
8
  6
HIDDEN
 10
53.311231384
 20
32.9277871481
 11
53.4748056683
 21
33.1026031825
 12
54.6142551146
 22
32.9933877633
 13
54.6142551146
 23
32.9933877633
  0
SOLID
  8
DEFAULT_2
 62
8
  6
HIDDEN
 10
54.356055886
 20
32.9715974999
 11
54.1154234527
 21
32.9270798506
 12
53.311231384
 22
32.9277871481
 13
53.311231384
 23
32.9277871481
  0
SOLID
  8
DEFAULT_2
 62
8
  6
HIDDEN
 10
53.6935278197
 20
32.7360322495
 11
53.1711371871
 21
32.7210983217
 12
53.8939637614
 22
32.8478754776
 13
53.8939637614
 23
32.8478754776
  0
SOLID
  8
DEFAULT_2
 62
8
  6
HIDDEN
 10
53.8939637614
 20
32.8478754776
 11
53.1711371871
 21
32.7210983217
 12
54.1154234527
 22
32.9270798506
 13
54.1154234527
 23
32.9270798506
  0
SOLID
  8
DEFAULT_2
 62
8
  6
HIDDEN
 10
53.1711371871
 20
32.7210983217
 11
53.311231384
 21
32.9277871481
 12
54.1154234527
 22
32.9270798506
 13
54.1154234527
 23
32.9270798506
  0
SOLID
  8
DEFAULT_2
 62
8
  6
HIDDEN
 10
53.6935278197
 20
32.7360322495
 11
53.5162847689
 21
32.5935554664
 12
53.1711371871
 22
32.7210983217
 13
53.1711371871
 23
32.7210983217
  0
SOLID
  8
DEFAULT_2
 62
8
  6
HIDDEN
 10
53.030482711
 20
33.4295583778
 11
53.030482711
 21
32.484062931
 12
52.5640118826
 22
33.3134243561
 13
52.5640118826
 23
33.3134243561
  0
SOLID
  8
DEFAULT_2
 62
8
  6
HIDDEN
 10
53.0564179647
 20
32.4820826981
 11
53.1711371871
 21
32.7210983217
 12
53.5162847689
 22
32.5935554664
 13
53.5162847689
 23
32.5935554664
  0
SOLID
  8
DEFAULT_2
 62
8
  6
HIDDEN
 10
53.0564179647
 20
32.4820826981
 11
53.5162847689
 21
32.5935554664
 12
53.0466025976
 22
32.4568268829
 13
53.0466025976
 23
32.4568268829
  0
SOLID
  8
DEFAULT_2
 62
8
  6
HIDDEN
 10
53.5162847689
 20
32.5935554664
 11
53.364730754
 21
32.4225791499
 12
53.0466025976
 22
32.4568268829
 13
53.0466025976
 23
32.4568268829
  0
SOLID
  8
DEFAULT_2
 62
8
  6
HIDDEN
 10
53.0705116133
 20
29.3438425026
 11
52.5640118826
 21
29.2819579309
 12
53.0705116133
 22
31.492160878
 13
53.0705116133
 23
31.492160878
  0
SOLID
  8
DEFAULT_2
 62
8
  6
HIDDEN
 10
53.0705116133
 20
31.492160878
 11
52.5640118826
 21
29.2819579309
 12
53.0894906009
 22
31.7493082985
 13
53.0894906009
 23
31.7493082985
  0
SOLID
  8
DEFAULT_2
 62
8
  6
HIDDEN
 10
53.0894906009
 20
31.7493082985
 11
52.5640118826
 21
29.2819579309
 12
53.0919306298
 22
31.7649947387
 13
53.0919306298
 23
31.7649947387
  0
SOLID
  8
DEFAULT_2
 62
8
  6
HIDDEN
 10
53.364730754
 20
32.4225791499
 11
53.2416112102
 21
32.22553434
 12
53.0466025976
 22
32.4568268829
 13
53.0466025976
 23
32.4568268829
  0
SOLID
  8
DEFAULT_2
 62
8
  6
HIDDEN
 10
53.2416112102
 20
32.22553434
 11
53.1497646232
 21
32.005257268
 12
53.0466025976
 22
32.4568268829
 13
53.0466025976
 23
32.4568268829
  0
SOLID
  8
DEFAULT_2
 62
8
  6
HIDDEN
 10
53.1497646232
 20
32.005257268
 11
53.0919306298
 21
31.7649947387
 12
53.0466025976
 22
32.4568268829
 13
53.0466025976
 23
32.4568268829
  0
SOLID
  8
DEFAULT_2
 62
8
  6
HIDDEN
 10
53.0919306298
 20
31.7649947387
 11
52.5640118826
 21
29.2819579309
 12
53.0466025976
 22
32.4568268829
 13
53.0466025976
 23
32.4568268829
  0
SOLID
  8
DEFAULT_2
 62
8
  6
HIDDEN
 10
53.0466025976
 20
32.4568268829
 11
52.5640118826
 21
29.2819579309
 12
53.0461512408
 22
32.4568268829
 13
53.0461512408
 23
32.4568268829
  0
SOLID
  8
DEFAULT_2
 62
8
  6
HIDDEN
 10
53.0461512408
 20
32.4568268829
 11
52.5640118826
 21
29.2819579309
 12
53.030482711
 22
32.4568268829
 13
53.030482711
 23
32.4568268829
  0
SOLID
  8
DEFAULT_2
 62
8
  6
HIDDEN
 10
53.030482711
 20
32.4568268829
 11
52.5640118826
 21
29.2819579309
 12
53.030482711
 22
32.484062931
 13
53.030482711
 23
32.484062931
  0
SOLID
  8
DEFAULT_2
 62
8
  6
HIDDEN
 10
52.5640118826
 20
29.2819579309
 11
52.5640118826
 21
33.3134243561
 12
53.030482711
 22
32.484062931
 13
53.030482711
 23
32.484062931
  0
SOLID
  8
DEFAULT_2
 62
8
  6
HIDDEN
 10
52.5640118826
 20
29.2819579309
 11
53.0705116133
 21
29.3438425026
 12
52.5781938751
 22
29.2819579309
 13
52.5781938751
 23
29.2819579309
  0
SOLID
  8
DEFAULT_2
 62
8
  6
HIDDEN
 10
53.0705116133
 20
29.3438425026
 11
53.0705116133
 21
29.2819579309
 12
52.5781938751
 22
29.2819579309
 13
52.5781938751
 23
29.2819579309
  0
SOLID
  8
DEFAULT_2
 62
8
  6
HIDDEN
 10
61.9880836083
 20
31.2803326731
 11
61.9880836083
 21
33.4298102238
 12
62.4938611552
 22
33.4298102238
 13
62.4938611552
 23
33.4298102238
  0
SOLID
  8
DEFAULT_2
 62
8
  6
HIDDEN
 10
59.1268167176
 20
30.7659922297
 11
59.1268167176
 21
33.4298102238
 12
59.6328263909
 22
33.4298102238
 13
59.6328263909
 23
33.4298102238
  0
SOLID
  8
DEFAULT_2
 62
8
  6
HIDDEN
 10
59.6328263909
 20
33.4298102238
 11
59.6328263909
 21
30.7582031005
 12
59.1268167176
 22
30.7659922297
 13
59.1268167176
 23
30.7659922297
  0
SOLID
  8
DEFAULT_2
 62
8
  6
HIDDEN
 10
59.634785489
 20
30.7092954407
 11
59.1318321365
 21
30.5834928248
 12
59.6328263909
 22
30.7582031005
 13
59.6328263909
 23
30.7582031005
  0
SOLID
  8
DEFAULT_2
 62
8
  6
HIDDEN
 10
59.1318321365
 20
30.5834928248
 11
59.1268167176
 21
30.7659922297
 12
59.6328263909
 22
30.7582031005
 13
59.6328263909
 23
30.7582031005
  0
SOLID
  8
DEFAULT_2
 62
8
  6
HIDDEN
 10
59.634785489
 20
30.7092954407
 11
59.6663723311
 21
30.4199715387
 12
59.1318321365
 22
30.5834928248
 13
59.1318321365
 23
30.5834928248
  0
SOLID
  8
DEFAULT_2
 62
8
  6
HIDDEN
 10
59.1684371183
 20
30.2717589971
 11
59.1318321365
 21
30.5834928248
 12
59.6663723311
 22
30.4199715387
 13
59.6663723311
 23
30.4199715387
  0
SOLID
  8
DEFAULT_2
 62
8
  6
HIDDEN
 10
59.6663723311
 20
30.4199715387
 11
59.7260109403
 21
30.1953563655
 12
59.1684371183
 22
30.2717589971
 13
59.1684371183
 23
30.2717589971
  0
SOLID
  8
DEFAULT_2
 62
8
  6
HIDDEN
 10
59.8111632662
 20
30.0184791162
 11
59.2363823439
 21
30.0122871848
 12
59.7260109403
 22
30.1953563655
 13
59.7260109403
 23
30.1953563655
  0
SOLID
  8
DEFAULT_2
 62
8
  6
HIDDEN
 10
59.2363823439
 20
30.0122871848
 11
59.1684371183
 21
30.2717589971
 12
59.7260109403
 22
30.1953563655
 13
59.7260109403
 23
30.1953563655
  0
SOLID
  8
DEFAULT_2
 62
8
  6
HIDDEN
 10
61.5266695639
 20
29.9295739279
 11
61.6703442471
 21
30.1021801724
 12
62.0125342515
 22
30.0584959113
 13
62.0125342515
 23
30.0584959113
  0
SOLID
  8
DEFAULT_2
 62
8
  6
HIDDEN
 10
59.8111632662
 20
30.0184791162
 11
59.9228257009
 21
29.8779698052
 12
59.2363823439
 22
30.0122871848
 13
59.2363823439
 23
30.0122871848
  0
SOLID
  8
DEFAULT_2
 62
8
  6
HIDDEN
 10
62.0125342515
 20
30.0584959113
 11
61.8828540532
 21
29.836908285
 12
61.5266695639
 22
29.9295739279
 13
61.5266695639
 23
29.9295739279
  0
SOLID
  8
DEFAULT_2
 62
8
  6
HIDDEN
 10
59.9903146732
 20
29.8188579346
 11
59.3325076803
 21
29.7963846562
 12
59.9228257009
 22
29.8779698052
 13
59.9228257009
 23
29.8779698052
  0
SOLID
  8
DEFAULT_2
 62
8
  6
HIDDEN
 10
59.3325076803
 20
29.7963846562
 11
59.2363823439
 21
30.0122871848
 12
59.9228257009
 22
29.8779698052
 13
59.9228257009
 23
29.8779698052
  0
SOLID
  8
DEFAULT_2
 62
8
  6
HIDDEN
 10
61.363117593
 20
29.7954171401
 11
61.5266695639
 21
29.9295739279
 12
61.8828540532
 22
29.836908285
 13
61.8828540532
 23
29.836908285
  0
SOLID
  8
DEFAULT_2
 62
8
  6
HIDDEN
 10
59.9903146732
 20
29.8188579346
 11
60.06597734
 21
29.7672334039
 12
59.3325076803
 22
29.7963846562
 13
59.3325076803
 23
29.7963846562
  0
SOLID
  8
DEFAULT_2
 62
8
  6
HIDDEN
 10
61.363117593
 20
29.7954171401
 11
61.8828540532
 21
29.836908285
 12
61.1793244261
 22
29.6981619788
 13
61.1793244261
 23
29.6981619788
  0
SOLID
  8
DEFAULT_2
 62
8
  6
HIDDEN
 10
61.8828540532
 20
29.836908285
 11
61.720900311
 21
29.6439134884
 12
61.1793244261
 22
29.6981619788
 13
61.1793244261
 23
29.6981619788
  0
SOLID
  8
DEFAULT_2
 62
8
  6
HIDDEN
 10
60.9732325555
 20
29.6379023551
 11
61.1793244261
 21
29.6981619788
 12
61.720900311
 22
29.6439134884
 13
61.720900311
 23
29.6439134884
  0
SOLID
  8
DEFAULT_2
 62
8
  6
HIDDEN
 10
60.4637555417
 20
29.6354003512
 11
59.4559234971
 21
29.6171020244
 12
60.2430051455
 22
29.6866297987
 13
60.2430051455
 23
29.6866297987
  0
SOLID
  8
DEFAULT_2
 62
8
  6
HIDDEN
 10
60.2430051455
 20
29.6866297987
 11
59.4559234971
 21
29.6171020244
 12
60.06597734
 22
29.7672334039
 13
60.06597734
 23
29.7672334039
  0
SOLID
  8
DEFAULT_2
 62
8
  6
HIDDEN
 10
59.4559234971
 20
29.6171020244
 11
59.3325076803
 21
29.7963846562
 12
60.06597734
 22
29.7672334039
 13
60.06597734
 23
29.7672334039
  0
SOLID
  8
DEFAULT_2
 62
8
  6
HIDDEN
 10
60.4637555417
 20
29.6354003512
 11
60.7418229724
 21
29.6169409261
 12
59.4559234971
 22
29.6171020244
 13
59.4559234971
 23
29.6171020244
  0
SOLID
  8
DEFAULT_2
 62
8
  6
HIDDEN
 10
60.9732325555
 20
29.6379023551
 11
61.720900311
 21
29.6439134884
 12
60.8607272162
 22
29.6222632903
 13
60.8607272162
 23
29.6222632903
  0
SOLID
  8
DEFAULT_2
 62
8
  6
HIDDEN
 10
60.8607272162
 20
29.6222632903
 11
61.720900311
 21
29.6439134884
 12
60.7418229724
 22
29.6169409261
 13
60.7418229724
 23
29.6169409261
  0
SOLID
  8
DEFAULT_2
 62
8
  6
HIDDEN
 10
61.720900311
 20
29.6439134884
 11
61.5290195825
 21
29.4814675648
 12
60.7418229724
 22
29.6169409261
 13
60.7418229724
 23
29.6169409261
  0
SOLID
  8
DEFAULT_2
 62
8
  6
HIDDEN
 10
61.5290195825
 20
29.4814675648
 11
59.6082267999
 21
29.4695662124
 12
60.7418229724
 22
29.6169409261
 13
60.7418229724
 23
29.6169409261
  0
SOLID
  8
DEFAULT_2
 62
8
  6
HIDDEN
 10
59.6082267999
 20
29.4695662124
 11
59.4559234971
 21
29.6171020244
 12
60.7418229724
 22
29.6169409261
 13
60.7418229724
 23
29.6169409261
  0
SOLID
  8
DEFAULT_2
 62
8
  6
HIDDEN
 10
59.6082267999
 20
29.4695662124
 11
61.5290195825
 21
29.4814675648
 12
59.696367755
 22
29.4068696829
 13
59.696367755
 23
29.4068696829
  0
SOLID
  8
DEFAULT_2
 62
8
  6
HIDDEN
 10
61.5290195825
 20
29.4814675648
 11
61.309888239
 21
29.3520828645
 12
59.696367755
 22
29.4068696829
 13
59.696367755
 23
29.4068696829
  0
SOLID
  8
DEFAULT_2
 62
8
  6
HIDDEN
 10
59.7927417394
 20
29.3517797962
 11
59.696367755
 21
29.4068696829
 12
61.309888239
 22
29.3520828645
 13
61.309888239
 23
29.3520828645
  0
SOLID
  8
DEFAULT_2
 62
8
  6
HIDDEN
 10
61.9880836083
 20
31.2803326731
 11
62.4938611552
 21
33.4298102238
 12
61.9867203909
 22
31.192839126
 13
61.9867203909
 23
31.192839126
  0
SOLID
  8
DEFAULT_2
 62
8
  6
HIDDEN
 10
61.9867203909
 20
31.192839126
 11
62.4938611552
 21
33.4298102238
 12
61.9562066022
 22
30.8650413552
 13
61.9562066022
 23
30.8650413552
  0
SOLID
  8
DEFAULT_2
 62
8
  6
HIDDEN
 10
61.6703442471
 20
30.1021801724
 11
61.792505724
 21
30.3153541673
 12
62.0125342515
 22
30.0584959113
 13
62.0125342515
 23
30.0584959113
  0
SOLID
  8
DEFAULT_2
 62
8
  6
HIDDEN
 10
61.792505724
 20
30.3153541673
 11
61.8895277427
 21
30.5702405221
 12
62.0125342515
 22
30.0584959113
 13
62.0125342515
 23
30.0584959113
  0
SOLID
  8
DEFAULT_2
 62
8
  6
HIDDEN
 10
61.8895277427
 20
30.5702405221
 11
61.9562066022
 21
30.8650413552
 12
62.0125342515
 22
30.0584959113
 13
62.0125342515
 23
30.0584959113
  0
SOLID
  8
DEFAULT_2
 62
8
  6
HIDDEN
 10
61.9562066022
 20
30.8650413552
 11
62.4938611552
 21
33.4298102238
 12
62.0125342515
 22
30.0584959113
 13
62.0125342515
 23
30.0584959113
  0
SOLID
  8
DEFAULT_2
 62
8
  6
HIDDEN
 10
62.0125342515
 20
30.0584959113
 11
62.4938611552
 21
33.4298102238
 12
62.0283962195
 22
30.0584959113
 13
62.0283962195
 23
30.0584959113
  0
SOLID
  8
DEFAULT_2
 62
8
  6
HIDDEN
 10
62.0283962195
 20
30.0584959113
 11
62.4938611552
 21
33.4298102238
 12
62.0283962195
 22
29.2819557684
 13
62.0283962195
 23
29.2819557684
  0
SOLID
  8
DEFAULT_2
 62
8
  6
HIDDEN
 10
62.4938611552
 20
33.4298102238
 11
62.4938611552
 21
29.2819557684
 12
62.0283962195
 22
29.2819557684
 13
62.0283962195
 23
29.2819557684
  0
SOLID
  8
DEFAULT_2
 62
8
  6
HIDDEN
 10
59.7927417394
 20
29.3517797962
 11
61.309888239
 21
29.3520828645
 12
60.0117233909
 22
29.2648499753
 13
60.0117233909
 23
29.2648499753
  0
SOLID
  8
DEFAULT_2
 62
8
  6
HIDDEN
 10
61.309888239
 20
29.3520828645
 11
61.0668215734
 21
29.258647525
 12
60.0117233909
 22
29.2648499753
 13
60.0117233909
 23
29.2648499753
  0
SOLID
  8
DEFAULT_2
 62
8
  6
HIDDEN
 10
60.2718388725
 20
29.2098082071
 11
60.0117233909
 21
29.2648499753
 12
61.0668215734
 22
29.258647525
 13
61.0668215734
 23
29.258647525
  0
SOLID
  8
DEFAULT_2
 62
8
  6
HIDDEN
 10
61.0668215734
 20
29.258647525
 11
60.8039528701
 21
29.2041069368
 12
60.2718388725
 22
29.2098082071
 13
60.2718388725
 23
29.2098082071
  0
SOLID
  8
DEFAULT_2
 62
8
  6
HIDDEN
 10
60.5813720739
 20
29.1902668735
 11
60.2718388725
 21
29.2098082071
 12
60.8039528701
 22
29.2041069368
 13
60.8039528701
 23
29.2041069368
  0
SOLID
  8
DEFAULT_2
 62
8
  6
HIDDEN
 10
65.0914325008
 20
33.5792967271
 11
65.4264740884
 21
33.5536781858
 12
64.951406778
 22
33.5743776281
 13
64.951406778
 23
33.5743776281
  0
SOLID
  8
DEFAULT_2
 62
8
  6
HIDDEN
 10
64.6431784892
 20
33.526528946
 11
64.951406778
 21
33.5743776281
 12
65.4264740884
 22
33.5536781858
 13
65.4264740884
 23
33.5536781858
  0
SOLID
  8
DEFAULT_2
 62
8
  6
HIDDEN
 10
65.4264740884
 20
33.5536781858
 11
65.7275763951
 21
33.4795395111
 12
64.6431784892
 22
33.526528946
 13
64.6431784892
 23
33.526528946
  0
SOLID
  8
DEFAULT_2
 62
8
  6
HIDDEN
 10
64.3627946273
 20
33.4313210518
 11
64.6431784892
 21
33.526528946
 12
65.7275763951
 22
33.4795395111
 13
65.7275763951
 23
33.4795395111
  0
SOLID
  8
DEFAULT_2
 62
8
  6
HIDDEN
 10
65.7275763951
 20
33.4795395111
 11
65.9957365373
 21
33.3605517101
 12
64.3627946273
 22
33.4313210518
 13
64.3627946273
 23
33.4313210518
  0
SOLID
  8
DEFAULT_2
 62
8
  6
HIDDEN
 10
64.1159207559
 20
33.2936734961
 11
64.3627946273
 21
33.4313210518
 12
65.9957365373
 22
33.3605517101
 13
65.9957365373
 23
33.3605517101
  0
SOLID
  8
DEFAULT_2
 62
8
  6
HIDDEN
 10
65.9957365373
 20
33.3605517101
 11
66.2333080121
 21
33.1985057043
 12
64.1159207559
 22
33.2936734961
 13
64.1159207559
 23
33.2936734961
  0
SOLID
  8
DEFAULT_2
 62
8
  6
HIDDEN
 10
63.9066530949
 20
33.1184473751
 11
64.1159207559
 21
33.2936734961
 12
66.2333080121
 22
33.1985057043
 13
66.2333080121
 23
33.1985057043
  0
SOLID
  8
DEFAULT_2
 62
8
  6
HIDDEN
 10
64.8255980884
 20
33.1361943708
 11
63.9066530949
 21
33.1184473751
 12
65.0914325008
 22
33.1531281941
 13
65.0914325008
 23
33.1531281941
  0
SOLID
  8
DEFAULT_2
 62
8
  6
HIDDEN
 10
63.9066530949
 20
33.1184473751
 11
66.2333080121
 21
33.1985057043
 12
65.0914325008
 22
33.1531281941
 13
65.0914325008
 23
33.1531281941
  0
SOLID
  8
DEFAULT_2
 62
8
  6
HIDDEN
 10
64.8255980884
 20
33.1361943708
 11
64.5939798233
 21
33.0877903877
 12
63.9066530949
 22
33.1184473751
 13
63.9066530949
 23
33.1184473751
  0
SOLID
  8
DEFAULT_2
 62
8
  6
HIDDEN
 10
65.0914325008
 20
33.1531281941
 11
66.2333080121
 21
33.1985057043
 12
65.2063621274
 22
33.1486757066
 13
65.2063621274
 23
33.1486757066
  0
SOLID
  8
DEFAULT_2
 62
8
  6
HIDDEN
 10
65.2063621274
 20
33.1486757066
 11
66.2333080121
 21
33.1985057043
 12
65.31569545
 22
33.1355765224
 13
65.31569545
 23
33.1355765224
  0
SOLID
  8
DEFAULT_2
 62
8
  6
HIDDEN
 10
65.31569545
 20
33.1355765224
 11
66.2333080121
 21
33.1985057043
 12
65.5178575571
 22
33.084987804
 13
65.5178575571
 23
33.084987804
  0
SOLID
  8
DEFAULT_2
 62
8
  6
HIDDEN
 10
65.5178575571
 20
33.084987804
 11
66.2333080121
 21
33.1985057043
 12
65.7004588076
 22
33.0033641587
 13
65.7004588076
 23
33.0033641587
  0
SOLID
  8
DEFAULT_2
 62
8
  6
HIDDEN
 10
66.2333080121
 20
33.1985057043
 11
66.4413153862
 21
32.9935590232
 12
65.7004588076
 22
33.0033641587
 13
65.7004588076
 23
33.0033641587
  0
SOLID
  8
DEFAULT_2
 62
8
  6
HIDDEN
 10
63.737869185
 20
32.9097705091
 11
63.9066530949
 21
33.1184473751
 12
64.5939798233
 22
33.0877903877
 13
64.5939798233
 23
33.0877903877
  0
SOLID
  8
DEFAULT_2
 62
8
  6
HIDDEN
 10
65.8653923162
 20
32.8912486133
 11
65.7004588076
 21
33.0033641587
 12
66.4413153862
 22
32.9935590232
 13
66.4413153862
 23
32.9935590232
  0
SOLID
  8
DEFAULT_2
 62
8
  6
HIDDEN
 10
65.8653923162
 20
32.8912486133
 11
66.4413153862
 21
32.9935590232
 12
66.0135457467
 22
32.7479644348
 13
66.0135457467
 23
32.7479644348
  0
SOLID
  8
DEFAULT_2
 62
8
  6
HIDDEN
 10
66.4413153862
 20
32.9935590232
 11
66.6190703694
 21
32.7448585674
 12
66.0135457467
 22
32.7479644348
 13
66.0135457467
 23
32.7479644348
  0
SOLID
  8
DEFAULT_2
 62
8
  6
HIDDEN
 10
66.1445588499
 20
32.5721205046
 11
66.0135457467
 21
32.7479644348
 12
66.6190703694
 22
32.7448585674
 13
66.6190703694
 23
32.7448585674
  0
SOLID
  8
DEFAULT_2
 62
8
  6
HIDDEN
 10
66.6190703694
 20
32.7448585674
 11
66.7640242677
 21
32.4515148795
 12
66.1445588499
 22
32.5721205046
 13
66.1445588499
 23
32.5721205046
  0
SOLID
  8
DEFAULT_2
 62
8
  6
HIDDEN
 10
66.256709809
 20
32.3623941121
 11
66.1445588499
 21
32.5721205046
 12
66.7640242677
 22
32.4515148795
 13
66.7640242677
 23
32.4515148795
  0
SOLID
  8
DEFAULT_2
 62
8
  6
HIDDEN
 10
66.256709809
 20
32.3623941121
 11
66.7640242677
 21
32.4515148795
 12
66.3469738678
 22
32.1186063376
 13
66.3469738678
 23
32.1186063376
  0
SOLID
  8
DEFAULT_2
 62
8
  6
HIDDEN
 10
66.7640242677
 20
32.4515148795
 11
66.8719505258
 21
32.1138294833
 12
66.3469738678
 22
32.1186063376
 13
66.3469738678
 23
32.1186063376
  0
SOLID
  8
DEFAULT_2
 62
8
  6
HIDDEN
 10
66.4113175191
 20
31.843099044
 11
66.3469738678
 21
32.1186063376
 12
66.8719505258
 22
32.1138294833
 13
66.8719505258
 23
32.1138294833
  0
SOLID
  8
DEFAULT_2
 62
8
  6
HIDDEN
 10
66.8719505258
 20
32.1138294833
 11
66.9375101031
 21
31.7346024323
 12
66.4113175191
 22
31.843099044
 13
66.4113175191
 23
31.843099044
  0
SOLID
  8
DEFAULT_2
 62
8
  6
HIDDEN
 10
66.4453448405
 20
31.5422990319
 11
66.4113175191
 21
31.843099044
 12
66.9375101031
 22
31.7346024323
 13
66.9375101031
 23
31.7346024323
  0
SOLID
  8
DEFAULT_2
 62
8
  6
HIDDEN
 10
66.4453448405
 20
31.5422990319
 11
66.9375101031
 21
31.7346024323
 12
66.4497843768
 22
31.3846082695
 13
66.4497843768
 23
31.3846082695
  0
SOLID
  8
DEFAULT_2
 62
8
  6
HIDDEN
 10
66.9375101031
 20
31.7346024323
 11
66.9557940501
 21
31.3846082695
 12
66.4497843768
 22
31.3846082695
 13
66.4497843768
 23
31.3846082695
  0
SOLID
  8
DEFAULT_2
 62
8
  6
HIDDEN
 10
66.4453666364
 20
31.2273722622
 11
66.4497843768
 21
31.3846082695
 12
66.9557940501
 22
31.3846082695
 13
66.9557940501
 23
31.3846082695
  0
SOLID
  8
DEFAULT_2
 62
8
  6
HIDDEN
 10
66.9557940501
 20
31.3846082695
 11
66.9375287586
 21
31.0347932389
 12
66.4453666364
 22
31.2273722622
 13
66.4453666364
 23
31.2273722622
  0
SOLID
  8
DEFAULT_2
 62
8
  6
HIDDEN
 10
66.4113800242
 20
30.9266833426
 11
66.4453666364
 21
31.2273722622
 12
66.9375287586
 22
31.0347932389
 13
66.9375287586
 23
31.0347932389
  0
SOLID
  8
DEFAULT_2
 62
8
  6
HIDDEN
 10
66.9375287586
 20
31.0347932389
 11
66.8719928412
 21
30.6555915154
 12
66.4113800242
 22
30.9266833426
 13
66.4113800242
 23
30.9266833426
  0
SOLID
  8
DEFAULT_2
 62
8
  6
HIDDEN
 10
66.3470714415
 20
30.6512672058
 11
66.4113800242
 21
30.9266833426
 12
66.8719928412
 22
30.6555915154
 13
66.8719928412
 23
30.6555915154
  0
SOLID
  8
DEFAULT_2
 62
8
  6
HIDDEN
 10
66.3470714415
 20
30.6512672058
 11
66.8719928412
 21
30.6555915154
 12
66.2568347448
 22
30.4075498594
 13
66.2568347448
 23
30.4075498594
  0
SOLID
  8
DEFAULT_2
 62
8
  6
HIDDEN
 10
66.8719928412
 20
30.6555915154
 11
66.7640912155
 21
30.3179419439
 12
66.2568347448
 22
30.4075498594
 13
66.2568347448
 23
30.4075498594
  0
SOLID
  8
DEFAULT_2
 62
8
  6
HIDDEN
 10
66.1447018782
 20
30.1978746059
 11
66.2568347448
 21
30.4075498594
 12
66.7640912155
 22
30.3179419439
 13
66.7640912155
 23
30.3179419439
  0
SOLID
  8
DEFAULT_2
 62
8
  6
HIDDEN
 10
66.7640912155
 20
30.3179419439
 11
66.6191601831
 21
30.0246338547
 12
66.1447018782
 22
30.1978746059
 13
66.1447018782
 23
30.1978746059
  0
SOLID
  8
DEFAULT_2
 62
8
  6
HIDDEN
 10
66.0136963084
 20
30.0220651843
 11
66.1447018782
 21
30.1978746059
 12
66.6191601831
 22
30.0246338547
 13
66.6191601831
 23
30.0246338547
  0
SOLID
  8
DEFAULT_2
 62
8
  6
HIDDEN
 10
66.0136963084
 20
30.0220651843
 11
66.6191601831
 21
30.0246338547
 12
65.8655387091
 22
29.8788021681
 13
65.8655387091
 23
29.8788021681
  0
SOLID
  8
DEFAULT_2
 62
8
  6
HIDDEN
 10
66.6191601831
 20
30.0246338547
 11
66.4414226599
 21
29.7759627007
 12
65.8655387091
 22
29.8788021681
 13
65.8655387091
 23
29.8788021681
  0
SOLID
  8
DEFAULT_2
 62
8
  6
HIDDEN
 10
65.7005883515
 20
29.7666979686
 11
65.8655387091
 21
29.8788021681
 12
66.4414226599
 22
29.7759627007
 13
66.4414226599
 23
29.7759627007
  0
SOLID
  8
DEFAULT_2
 62
8
  6
HIDDEN
 10
65.7005883515
 20
29.7666979686
 11
66.4414226599
 21
29.7759627007
 12
65.5179568629
 22
29.6850792922
 13
65.5179568629
 23
29.6850792922
  0
SOLID
  8
DEFAULT_2
 62
8
  6
HIDDEN
 10
65.5179568629
 20
29.6850792922
 11
66.4414226599
 21
29.7759627007
 12
65.3157507717
 22
29.6344921607
 13
65.3157507717
 23
29.6344921607
  0
SOLID
  8
DEFAULT_2
 62
8
  6
HIDDEN
 10
66.4414226599
 20
29.7759627007
 11
66.2334234757
 21
29.5710366576
 12
65.3157507717
 22
29.6344921607
 13
65.3157507717
 23
29.6344921607
  0
SOLID
  8
DEFAULT_2
 62
8
  6
HIDDEN
 10
64.3917910081
 20
33.0103290027
 11
63.737869185
 21
32.9097705091
 12
64.489303275
 22
33.0525401835
 13
64.489303275
 23
33.0525401835
  0
SOLID
  8
DEFAULT_2
 62
8
  6
HIDDEN
 10
63.737869185
 20
32.9097705091
 11
64.5939798233
 21
33.0877903877
 12
64.489303275
 22
33.0525401835
 13
64.489303275
 23
33.0525401835
  0
SOLID
  8
DEFAULT_2
 62
8
  6
HIDDEN
 10
64.3917910081
 20
33.0103290027
 11
64.2174095747
 21
32.9061917468
 12
63.737869185
 22
32.9097705091
 13
63.737869185
 23
32.9097705091
  0
SOLID
  8
DEFAULT_2
 62
8
  6
HIDDEN
 10
63.6119106648
 20
32.6706665144
 11
63.737869185
 21
32.9097705091
 12
64.2174095747
 22
32.9061917468
 13
64.2174095747
 23
32.9061917468
  0
SOLID
  8
DEFAULT_2
 62
8
  6
HIDDEN
 10
63.6119106648
 20
32.6706667286
 11
64.2174095747
 21
32.9061917468
 12
64.0672329909
 22
32.7756556593
 13
64.0672329909
 23
32.7756556593
  0
SOLID
  8
DEFAULT_2
 62
8
  6
HIDDEN
 10
64.0672329909
 20
32.7756556593
 11
63.9388907522
 21
32.6173653268
 12
63.6119106648
 22
32.6706667286
 13
63.6119106648
 23
32.6706667286
  0
SOLID
  8
DEFAULT_2
 62
8
  6
HIDDEN
 10
63.9388907522
 20
32.6173653268
 11
63.8314100615
 21
32.4285837568
 12
63.6119106648
 22
32.6706667286
 13
63.6119106648
 23
32.6706667286
  0
SOLID
  8
DEFAULT_2
 62
8
  6
HIDDEN
 10
63.8314100615
 20
32.4285837568
 11
63.745243835
 21
32.2055749419
 12
63.6119106648
 22
32.6706667286
 13
63.6119106648
 23
32.6706667286
  0
SOLID
  8
DEFAULT_2
 62
8
  6
HIDDEN
 10
63.745243835
 20
32.2055749419
 11
63.6821599096
 21
31.9440687468
 12
63.6119106648
 22
32.6706667286
 13
63.6119106648
 23
32.6706667286
  0
SOLID
  8
DEFAULT_2
 62
8
  6
HIDDEN
 10
63.6821599096
 20
31.9440687468
 11
63.1300937166
 21
28.1326706423
 12
63.6119106648
 22
32.6706667286
 13
63.6119106648
 23
32.6706667286
  0
SOLID
  8
DEFAULT_2
 62
8
  6
HIDDEN
 10
63.6119106648
 20
32.6706667286
 11
63.1300937166
 21
28.1326706423
 12
63.5960495539
 22
32.6706667286
 13
63.5960495539
 23
32.6706667286
  0
SOLID
  8
DEFAULT_2
 62
8
  6
HIDDEN
 10
63.5960495539
 20
32.6706667286
 11
63.1300937166
 21
28.1326706423
 12
63.5960495539
 22
33.4298105695
 13
63.5960495539
 23
33.4298105695
  0
SOLID
  8
DEFAULT_2
 62
8
  6
HIDDEN
 10
63.1300937166
 20
28.1326706423
 11
63.1300937166
 21
33.4298105695
 12
63.5960495539
 22
33.4298105695
 13
63.5960495539
 23
33.4298105695
  0
SOLID
  8
DEFAULT_2
 62
8
  6
HIDDEN
 10
63.6363613081
 20
30.0985269801
 11
63.9621999359
 21
30.1794963082
 12
63.6524811942
 22
30.0985269801
 13
63.6524811942
 23
30.0985269801
  0
SOLID
  8
DEFAULT_2
 62
8
  6
HIDDEN
 10
63.9621999359
 20
30.1794963082
 11
64.0978094598
 21
30.0116751257
 12
63.6524811942
 22
30.0985269801
 13
63.6524811942
 23
30.0985269801
  0
SOLID
  8
DEFAULT_2
 62
8
  6
HIDDEN
 10
63.7628132734
 20
29.8673148515
 11
63.6524811942
 21
30.0985269801
 12
64.0978094598
 22
30.0116751257
 13
64.0978094598
 23
30.0116751257
  0
SOLID
  8
DEFAULT_2
 62
8
  6
HIDDEN
 10
63.9621999359
 20
30.1794963082
 11
63.6363613081
 21
30.0985269801
 12
63.8466235019
 22
30.378589348
 13
63.8466235019
 23
30.378589348
  0
SOLID
  8
DEFAULT_2
 62
8
  6
HIDDEN
 10
63.8466235019
 20
30.378589348
 11
63.6363613081
 21
30.0985269801
 12
63.753046968
 22
30.6099721621
 13
63.753046968
 23
30.6099721621
  0
SOLID
  8
DEFAULT_2
 62
8
  6
HIDDEN
 10
63.6363613081
 20
30.0985269801
 11
63.1300937166
 21
28.1326688202
 12
63.753046968
 22
30.6099721621
 13
63.753046968
 23
30.6099721621
  0
SOLID
  8
DEFAULT_2
 62
8
  6
HIDDEN
 10
63.753046968
 20
30.6099721621
 11
63.1300937166
 21
28.1326688202
 12
63.6845522964
 22
30.8731706875
 13
63.6845522964
 23
30.8731706875
  0
SOLID
  8
DEFAULT_2
 62
8
  6
HIDDEN
 10
63.6845522964
 20
30.8731706875
 11
63.1300937166
 21
28.1326688202
 12
63.6449213996
 22
31.1647656223
 13
63.6449213996
 23
31.1647656223
  0
SOLID
  8
DEFAULT_2
 62
8
  6
HIDDEN
 10
63.6449213996
 20
31.1647656223
 11
63.1300937166
 21
28.1326688202
 12
63.6363613081
 22
31.3846098045
 13
63.6363613081
 23
31.3846098045
  0
SOLID
  8
DEFAULT_2
 62
8
  6
HIDDEN
 10
63.6363613081
 20
31.3846098045
 11
63.1300937166
 21
28.1326688202
 12
63.645020338
 22
31.6398105873
 13
63.645020338
 23
31.6398105873
  0
SOLID
  8
DEFAULT_2
 62
8
  6
HIDDEN
 10
63.1300937166
 20
28.1326688202
 11
63.6821599096
 21
31.9440687468
 12
63.645020338
 22
31.6398105873
 13
63.645020338
 23
31.6398105873
  0
SOLID
  8
DEFAULT_2
 62
8
  6
HIDDEN
 10
63.6363613081
 20
30.0985269801
 11
63.6363613081
 21
28.1326688202
 12
63.1300937166
 22
28.1326688202
 13
63.1300937166
 23
28.1326688202
  0
SOLID
  8
DEFAULT_2
 62
8
  6
HIDDEN
 10
63.7628132734
 20
29.8673148515
 11
64.0978094598
 21
30.0116751257
 12
64.2527639165
 22
29.8737210795
 13
64.2527639165
 23
29.8737210795
  0
SOLID
  8
DEFAULT_2
 62
8
  6
HIDDEN
 10
64.2527639165
 20
29.8737210795
 11
64.4276402941
 21
29.7646470674
 12
63.7628132734
 22
29.8673148515
 13
63.7628132734
 23
29.8673148515
  0
SOLID
  8
DEFAULT_2
 62
8
  6
HIDDEN
 10
63.9163070687
 20
29.664654277
 11
63.7628132734
 21
29.8673148515
 12
64.4276402941
 22
29.7646470674
 13
64.4276402941
 23
29.7646470674
  0
SOLID
  8
DEFAULT_2
 62
8
  6
HIDDEN
 10
63.9163070687
 20
29.664654277
 11
64.4276402941
 21
29.7646470674
 12
64.6241297094
 22
29.6844305519
 13
64.6241297094
 23
29.6844305519
  0
SOLID
  8
DEFAULT_2
 62
8
  6
HIDDEN
 10
64.6241297094
 20
29.6844305519
 11
64.8447931157
 21
29.6343223097
 12
63.9163070687
 22
29.664654277
 13
63.9163070687
 23
29.664654277
  0
SOLID
  8
DEFAULT_2
 62
8
  6
HIDDEN
 10
64.1118591552
 20
29.4918712319
 11
63.9163070687
 21
29.664654277
 12
64.8447931157
 22
29.6343223097
 13
64.8447931157
 23
29.6343223097
  0
SOLID
  8
DEFAULT_2
 62
8
  6
HIDDEN
 10
65.0914325008
 20
29.6169409261
 11
65.2063912319
 21
29.6213933128
 12
66.2334234757
 22
29.5710366576
 13
66.2334234757
 23
29.5710366576
  0
SOLID
  8
DEFAULT_2
 62
8
  6
HIDDEN
 10
65.3157507717
 20
29.6344921607
 11
66.2334234757
 21
29.5710366576
 12
65.2063912319
 22
29.6213933128
 13
65.2063912319
 23
29.6213933128
  0
SOLID
  8
DEFAULT_2
 62
8
  6
HIDDEN
 10
66.2334234757
 20
29.5710366576
 11
64.1118591552
 21
29.4918712319
 12
65.0914325008
 22
29.6169409261
 13
65.0914325008
 23
29.6169409261
  0
SOLID
  8
DEFAULT_2
 62
8
  6
HIDDEN
 10
64.1118591552
 20
29.4918712319
 11
64.8447931157
 21
29.6343223097
 12
65.0914325008
 22
29.6169409261
 13
65.0914325008
 23
29.6169409261
  0
SOLID
  8
DEFAULT_2
 62
8
  6
HIDDEN
 10
66.2334234757
 20
29.5710366576
 11
65.9958472471
 21
29.4090029037
 12
64.1118591552
 22
29.4918712319
 13
64.1118591552
 23
29.4918712319
  0
SOLID
  8
DEFAULT_2
 62
8
  6
HIDDEN
 10
64.3477450806
 20
29.3526210165
 11
64.1118591552
 21
29.4918712319
 12
65.9958472471
 22
29.4090029037
 13
65.9958472471
 23
29.4090029037
  0
SOLID
  8
DEFAULT_2
 62
8
  6
HIDDEN
 10
65.9958472471
 20
29.4090029037
 11
65.7276662067
 21
29.2900209073
 12
64.3477450806
 22
29.3526210165
 13
64.3477450806
 23
29.3526210165
  0
SOLID
  8
DEFAULT_2
 62
8
  6
HIDDEN
 10
64.6195800824
 20
29.2526185627
 11
64.3477450806
 21
29.3526210165
 12
65.7276662067
 22
29.2900209073
 13
65.7276662067
 23
29.2900209073
  0
SOLID
  8
DEFAULT_2
 62
8
  6
HIDDEN
 10
65.7276662067
 20
29.2900209073
 11
65.426524298
 21
29.21588431
 12
64.6195800824
 22
29.2526185627
 13
64.6195800824
 23
29.2526185627
  0
SOLID
  8
DEFAULT_2
 62
8
  6
HIDDEN
 10
64.9183537254
 20
29.1984551314
 11
64.6195800824
 21
29.2526185627
 12
65.426524298
 22
29.21588431
 13
65.426524298
 23
29.21588431
  0
SOLID
  8
DEFAULT_2
 62
8
  6
HIDDEN
 10
65.426524298
 20
29.21588431
 11
65.0914325008
 21
29.1902668735
 12
64.9183537254
 22
29.1984551314
 13
64.9183537254
 23
29.1984551314
  0
ENDBLK
  8
0
  6
BYBLOCK
 62
0
  0
BLOCK
  8
0
  2
_FILLED
 70
64
 10
0.0
 20
0.0
  0
SOLID
  8
0
  6
BYBLOCK
 62
0
 10
0.0
 20
0.0
 11
-1.0
 21
0.125
 12
-1.0
 22
-0.125
 13
-1.0
 23
-0.125
  0
ENDBLK
  8
0
  6
BYBLOCK
 62
0
  0
ENDSEC
  0
SECTION
  2
ENTITIES
  0
SOLID
  8
0
 62
7
  6
CONTINUOUS
 10
210.0
 20
288.0004902961
 11
201.0
 21
297.000490144
 12
210.0
 22
297.000490144
 13
210.0
 23
297.000490144
  0
SOLID
  8
0
 62
7
  6
CONTINUOUS
 10
0.0
 20
9.000490208
 11
9.0
 21
0.000490144
 12
0.0
 22
0.000490144
 13
0.0
 23
0.000490144
  0
SOLID
  8
0
 62
7
  6
CONTINUOUS
 10
210.0
 20
9.000490208
 11
210.0
 21
0.000490144
 12
201.0
 22
0.000490144
 13
201.0
 23
0.000490144
  0
SOLID
  8
0
 62
7
  6
CONTINUOUS
 10
0.0
 20
288.0004902961
 11
0.0
 21
297.0004902961
 12
9.0
 22
297.0004902961
 13
9.0
 23
297.0004902961
  0
TEXT
  8
0
 62
7
  6
CONTINUOUS
 10
45.8747643178
 20
6.370117
  7
TEXTSTYLE_2
 40
2.5
  1
1
 41
0.5714285714
 72
0
  0
TEXT
  8
0
 62
7
  6
CONTINUOUS
 10
21.4997643178
 20
31.956617
  7
TEXTSTYLE_2
 40
2.5
  1
F
 41
0.7142857143
 72
0
  0
TEXT
  8
0
 62
7
  6
CONTINUOUS
 10
21.4997643178
 20
78.122617
  7
TEXTSTYLE_2
 40
2.5
  1
E
 41
0.7142857143
 72
0
  0
TEXT
  8
0
 62
7
  6
CONTINUOUS
 10
21.4997643178
 20
124.288617
  7
TEXTSTYLE_2
 40
2.5
  1
D
 41
0.9047619048
 72
0
  0
TEXT
  8
0
 62
7
  6
CONTINUOUS
 10
177.1247643178
 20
6.370117
  7
TEXTSTYLE_2
 40
2.5
  1
4
 41
0.7857142857
 72
0
  0
TEXT
  8
0
 62
7
  6
CONTINUOUS
 10
201.4997643178
 20
31.956617
  7
TEXTSTYLE_2
 40
2.5
  1
F
 41
0.7142857143
 72
0
  0
TEXT
  8
0
 62
7
  6
CONTINUOUS
 10
201.4997643178
 20
78.122617
  7
TEXTSTYLE_2
 40
2.5
  1
E
 41
0.7142857143
 72
0
  0
TEXT
  8
0
 62
7
  6
CONTINUOUS
 10
201.4997643178
 20
124.288617
  7
TEXTSTYLE_2
 40
2.5
  1
D
 41
0.9047619048
 72
0
  0
TEXT
  8
0
 62
7
  6
CONTINUOUS
 10
21.4997643178
 20
170.454617
  7
TEXTSTYLE_2
 40
2.5
  1
C
 41
0.8333333333
 72
0
  0
TEXT
  8
0
 62
7
  6
CONTINUOUS
 10
21.4997643178
 20
216.620617
  7
TEXTSTYLE_2
 40
2.5
  1
B
 41
0.7857142857
 72
0
  0
TEXT
  8
0
 62
7
  6
CONTINUOUS
 10
45.8747643178
 20
288.370117
  7
TEXTSTYLE_2
 40
2.5
  1
1
 41
0.5714285714
 72
0
  0
TEXT
  8
0
 62
7
  6
CONTINUOUS
 10
21.4997643178
 20
262.786617
  7
TEXTSTYLE_2
 40
2.5
  1
A
 41
0.8571428571
 72
0
  0
TEXT
  8
0
 62
7
  6
CONTINUOUS
 10
201.4997643178
 20
170.454617
  7
TEXTSTYLE_2
 40
2.5
  1
C
 41
0.8333333333
 72
0
  0
TEXT
  8
0
 62
7
  6
CONTINUOUS
 10
201.4997643178
 20
216.620617
  7
TEXTSTYLE_2
 40
2.5
  1
B
 41
0.7857142857
 72
0
  0
TEXT
  8
0
 62
7
  6
CONTINUOUS
 10
89.6247643178
 20
288.370117
  7
TEXTSTYLE_2
 40
2.5
  1
2
 41
0.7857142857
 72
0
  0
TEXT
  8
0
 62
7
  6
CONTINUOUS
 10
133.3747643178
 20
288.370117
  7
TEXTSTYLE_2
 40
2.5
  1
3
 41
0.7142857143
 72
0
  0
TEXT
  8
0
 62
7
  6
CONTINUOUS
 10
177.1247643178
 20
288.370117
  7
TEXTSTYLE_2
 40
2.5
  1
4
 41
0.7857142857
 72
0
  0
TEXT
  8
0
 62
7
  6
CONTINUOUS
 10
201.4997643178
 20
262.786617
  7
TEXTSTYLE_2
 40
2.5
  1
A
 41
0.8571428571
 72
0
  0
INSERT
  8
0
 62
2
  6
CONTINUOUS
  2
HAGER_LOGO_BL0
 10
48.3125138508
 20
31.5931952082
  0
INSERT
  8
0
 62
2
  6
CONTINUOUS
  2
04_HELTERSBERG_BL1
 10
47.7341541192
 20
20.5458114505
  0
LINE
  8
0
 62
7
  6
CONTINUOUS
 10
9.0
 20
297.0004902961
 11
0.0
 21
288.0004902961
  0
LINE
  8
0
 62
7
  6
CONTINUOUS
 10
0.0
 20
9.0004902961
 11
9.0
 21
0.0004902961
  0
LINE
  8
0
 62
7
  6
CONTINUOUS
 10
0.0
 20
0.0
 11
210.0
 21
0.0
  0
LINE
  8
0
 62
7
  6
CONTINUOUS
 10
0.0
 20
0.0004902961
 11
210.0000003178
 21
0.00049
  0
LINE
  8
0
 62
7
  6
CONTINUOUS
 10
19.9997993178
 20
5.0
 11
205.0000003178
 21
5.0
  0
LINE
  8
0
 62
7
  6
CONTINUOUS
 10
200.0000003178
 20
9.99951
 11
205.0000003178
 21
9.99951
  0
LINE
  8
0
 62
7
  6
CONTINUOUS
 10
19.9997993178
 20
10.0
 11
200.0000003178
 21
10.0
  0
LINE
  8
0
 62
7
  6
CONTINUOUS
 10
0.0
 20
0.0
 11
0.0000003178
 21
297.00049
  0
LINE
  8
0
 62
7
  6
CONTINUOUS
 10
19.9997993178
 20
5.0
 11
19.9997993178
 21
292.00049
  0
LINE
  8
0
 62
7
  6
CONTINUOUS
 10
200.0000003178
 20
56.166288
 11
205.0000003178
 21
56.166288
  0
LINE
  8
0
 62
7
  6
CONTINUOUS
 10
19.9997993178
 20
56.166792
 11
24.9997993178
 21
56.166792
  0
LINE
  8
0
 62
7
  6
CONTINUOUS
 10
24.9997993178
 20
5.0
 11
24.9997993178
 21
85.0
  0
LINE
  8
0
 62
7
  6
CONTINUOUS
 10
24.9997993178
 20
287.00049
 11
24.9997993178
 21
292.00049
  0
LINE
  8
0
 62
7
  6
CONTINUOUS
 10
25.0000003178
 20
85.0
 11
24.9997993178
 21
287.00049
  0
LINE
  8
0
 62
7
  6
CONTINUOUS
 10
62.4998013178
 20
5.0
 11
62.4998013178
 21
10.0
  0
LINE
  8
0
 62
7
  6
CONTINUOUS
 10
68.7498013178
 20
287.00049
 11
68.7498013178
 21
292.00049
  0
LINE
  8
0
 62
7
  6
CONTINUOUS
 10
19.9997993178
 20
102.33349
 11
24.9997993178
 21
102.33349
  0
LINE
  8
0
 62
7
  6
CONTINUOUS
 10
200.0000003178
 20
102.33349
 11
205.0000003178
 21
102.33349
  0
LINE
  8
0
 62
7
  6
CONTINUOUS
 10
72.4998013178
 20
5.0
 11
72.4998013178
 21
10.0
  0
LINE
  8
0
 62
7
  6
CONTINUOUS
 10
82.4998013178
 20
5.0
 11
82.4998013178
 21
10.0
  0
LINE
  8
0
 62
7
  6
CONTINUOUS
 10
92.4998013178
 20
5.0
 11
92.4998013178
 21
10.0
  0
LINE
  8
0
 62
7
  6
CONTINUOUS
 10
102.5000003178
 20
5.0
 11
102.5000003178
 21
10.0
  0
LINE
  8
0
 62
7
  6
CONTINUOUS
 10
0.0000003178
 20
148.50049
 11
30.0000003178
 21
148.50049
  0
LINE
  8
0
 62
7
  6
CONTINUOUS
 10
112.5000003178
 20
0.0
 11
112.5000003178
 21
9.99951
  0
LINE
  8
0
 62
7
  6
CONTINUOUS
 10
112.5000003178
 20
282.00049
 11
112.5000003178
 21
297.00049
  0
LINE
  8
0
 62
7
  6
CONTINUOUS
 10
122.5000003178
 20
5.0
 11
122.5000003178
 21
10.0
  0
LINE
  8
0
 62
7
  6
CONTINUOUS
 10
132.5000003178
 20
5.0
 11
132.5000003178
 21
10.0
  0
LINE
  8
0
 62
7
  6
CONTINUOUS
 10
142.5000003178
 20
5.0
 11
142.5000003178
 21
10.0
  0
LINE
  8
0
 62
7
  6
CONTINUOUS
 10
152.5000003178
 20
5.0
 11
152.5000003178
 21
10.0
  0
LINE
  8
0
 62
7
  6
CONTINUOUS
 10
200.0000003178
 20
194.666491
 11
205.0000003178
 21
194.666491
  0
LINE
  8
0
 62
7
  6
CONTINUOUS
 10
19.9997993178
 20
194.667498
 11
24.9997993178
 21
194.667498
  0
LINE
  8
0
 62
7
  6
CONTINUOUS
 10
156.2500003178
 20
287.00049
 11
156.2500003178
 21
292.00049
  0
LINE
  8
0
 62
7
  6
CONTINUOUS
 10
162.5000003178
 20
5.0
 11
162.5000003178
 21
10.0
  0
LINE
  8
0
 62
7
  6
CONTINUOUS
 10
200.0000003178
 20
5.0
 11
200.0000003178
 21
292.00049
  0
LINE
  8
0
 62
7
  6
CONTINUOUS
 10
19.9997993178
 20
240.833483
 11
24.9997993178
 21
240.833483
  0
LINE
  8
0
 62
7
  6
CONTINUOUS
 10
200.0000003178
 20
240.833483
 11
205.0000003178
 21
240.833483
  0
LINE
  8
0
 62
7
  6
CONTINUOUS
 10
205.0000003178
 20
5.0
 11
205.0000003178
 21
292.00049
  0
LINE
  8
0
 62
7
  6
CONTINUOUS
 10
210.0
 20
0.0
 11
210.0
 21
297.0004902961
  0
LINE
  8
0
 62
7
  6
CONTINUOUS
 10
19.9997993178
 20
287.00049
 11
205.0000003178
 21
287.00049
  0
LINE
  8
0
 62
7
  6
CONTINUOUS
 10
19.9997993178
 20
292.00049
 11
205.0000003178
 21
292.00049
  0
LINE
  8
0
 62
7
  6
CONTINUOUS
 10
0.0
 20
297.0
 11
210.0
 21
297.0
  0
LINE
  8
0
 62
7
  6
CONTINUOUS
 10
0.0
 20
297.0004902961
 11
210.0
 21
297.0004902961
  0
LINE
  8
0
 62
7
  6
CONTINUOUS
 10
210.0
 20
9.0004902961
 11
201.0
 21
0.0004902961
  0
LINE
  8
0
 62
7
  6
CONTINUOUS
 10
201.0
 20
297.0004902961
 11
210.0
 21
288.0004902961
  0
LINE
  8
0
 62
7
  6
CONTINUOUS
 10
60.9820815451
 20
160.6683476395
 11
60.9820815451
 21
157.7883476395
  0
LINE
  8
0
 62
7
  6
CONTINUOUS
 10
61.5820815451
 20
159.0183476395
 11
61.5820815451
 21
139.5183476395
  0
LINE
  8
0
 62
7
  6
CONTINUOUS
 10
61.5820815451
 20
159.7683476395
 11
61.5820815451
 21
160.6683476395
  0
LINE
  8
0
 62
7
  6
CONTINUOUS
 10
61.8820815451
 20
139.8183476395
 11
61.8820815451
 21
158.7183476395
  0
LINE
  8
0
 62
7
  6
CONTINUOUS
 10
62.4820815451
 20
152.5683476395
 11
62.4820815451
 21
155.7183476395
  0
LINE
  8
0
 62
7
  6
CONTINUOUS
 10
62.9320815451
 20
155.5683476395
 11
62.9320815451
 21
152.5683476395
  0
LINE
  8
0
 62
7
  6
CONTINUOUS
 10
63.6820815451
 20
158.7183476395
 11
63.6820815451
 21
159.0183476395
  0
LINE
  8
0
 62
7
  6
CONTINUOUS
 10
64.2820815451
 20
159.0183476395
 11
64.2820815451
 21
156.3183476395
  0
LINE
  8
0
 62
7
  6
CONTINUOUS
 10
64.2820815451
 20
155.7183476395
 11
64.2820815451
 21
154.7433476395
  0
LINE
  8
0
 62
7
  6
CONTINUOUS
 10
64.2820815451
 20
153.2433476395
 11
64.2820815451
 21
152.5683476395
  0
LINE
  8
0
 62
7
  6
CONTINUOUS
 10
64.8820815451
 20
151.9683476395
 11
64.8820815451
 21
152.5683476395
  0
LINE
  8
0
 62
7
  6
CONTINUOUS
 10
65.0920815451
 20
156.8883476395
 11
65.0920815451
 21
159.7683476395
  0
LINE
  8
0
 62
7
  6
CONTINUOUS
 10
65.4820815451
 20
152.5683476395
 11
65.4820815451
 21
153.2433476395
  0
LINE
  8
0
 62
7
  6
CONTINUOUS
 10
65.4820815451
 20
154.7433476395
 11
65.4820815451
 21
155.6433476395
  0
LINE
  8
0
 62
7
  6
CONTINUOUS
 10
66.1120815451
 20
159.7623476395
 11
66.1120815451
 21
156.8823476395
  0
LINE
  8
0
 62
7
  6
CONTINUOUS
 10
66.9220815451
 20
155.6433476395
 11
66.9220815451
 21
157.9623476395
  0
LINE
  8
0
 62
7
  6
CONTINUOUS
 10
66.9220815451
 20
158.5623476395
 11
66.9220815451
 21
159.7623476395
  0
LINE
  8
0
 62
7
  6
CONTINUOUS
 10
68.1220815451
 20
157.9623476395
 11
68.1220815451
 21
158.5623476395
  0
LINE
  8
0
 62
7
  6
CONTINUOUS
 10
66.1120815451
 20
156.8823476395
 11
65.600010397
 21
156.533252477
  0
LINE
  8
0
 62
7
  6
CONTINUOUS
 10
65.600010397
 20
156.533252477
 11
65.0920815451
 21
156.8883476395
  0
LINE
  8
0
 62
7
  6
CONTINUOUS
 10
61.5820815451
 20
139.5183476395
 11
166.5820815451
 21
139.5183476395
  0
LINE
  8
0
 62
7
  6
CONTINUOUS
 10
166.2820815451
 20
139.8183476395
 11
61.8820815451
 21
139.8183476395
  0
LINE
  8
0
 62
7
  6
CONTINUOUS
 10
166.2820815451
 20
151.9683476395
 11
163.2070815451
 21
151.9683476395
  0
LINE
  8
0
 62
7
  6
CONTINUOUS
 10
61.8820815451
 20
151.9683476395
 11
64.8820815451
 21
151.9683476395
  0
LINE
  8
0
 62
7
  6
CONTINUOUS
 10
163.2070815451
 20
152.5683476395
 11
162.5320815451
 21
152.5683476395
  0
LINE
  8
0
 62
7
  6
CONTINUOUS
 10
62.4820815451
 20
152.5683476395
 11
64.2820815451
 21
152.5683476395
  0
LINE
  8
0
 62
7
  6
CONTINUOUS
 10
64.8820815451
 20
152.5683476395
 11
65.4820815451
 21
152.5683476395
  0
LINE
  8
0
 62
7
  6
CONTINUOUS
 10
163.7320815451
 20
152.5683476395
 11
165.5320815451
 21
152.5683476395
  0
LINE
  8
0
 62
7
  6
CONTINUOUS
 10
65.4820815451
 20
153.2433476395
 11
64.2820815451
 21
153.2433476395
  0
LINE
  8
0
 62
7
  6
CONTINUOUS
 10
162.5320815451
 20
153.2433476395
 11
163.7320815451
 21
153.2433476395
  0
LINE
  8
0
 62
7
  6
CONTINUOUS
 10
163.7320815451
 20
154.7433476395
 11
162.5320815451
 21
154.7433476395
  0
LINE
  8
0
 62
7
  6
CONTINUOUS
 10
64.2820815451
 20
154.7433476395
 11
65.4820815451
 21
154.7433476395
  0
LINE
  8
0
 62
7
  6
CONTINUOUS
 10
62.4820815451
 20
155.5683476395
 11
62.9320815451
 21
155.5683476395
  0
LINE
  8
0
 62
7
  6
CONTINUOUS
 10
165.5320815451
 20
155.6433476395
 11
163.7320815451
 21
155.6433476395
  0
LINE
  8
0
 62
7
  6
CONTINUOUS
 10
162.5320815451
 20
155.6433476395
 11
161.0920815451
 21
155.6433476395
  0
LINE
  8
0
 62
7
  6
CONTINUOUS
 10
65.4820815451
 20
155.6433476395
 11
66.9220815451
 21
155.6433476395
  0
LINE
  8
0
 62
7
  6
CONTINUOUS
 10
62.4820815451
 20
155.7183476395
 11
64.2820815451
 21
155.7183476395
  0
LINE
  8
0
 62
7
  6
CONTINUOUS
 10
64.2820815451
 20
156.3183476395
 11
61.8820815451
 21
156.3183476395
  0
LINE
  8
0
 62
7
  6
CONTINUOUS
 10
163.8820815451
 20
156.3183476395
 11
166.2820815451
 21
156.3183476395
  0
LINE
  8
0
 62
7
  6
CONTINUOUS
 10
167.1820815451
 20
157.7883476395
 11
166.5820815451
 21
157.7883476395
  0
LINE
  8
0
 62
7
  6
CONTINUOUS
 10
60.9820815451
 20
157.7883476395
 11
61.5820815451
 21
157.7883476395
  0
LINE
  8
0
 62
7
  6
CONTINUOUS
 10
66.9220815451
 20
157.9623476395
 11
68.1220815451
 21
157.9623476395
  0
LINE
  8
0
 62
7
  6
CONTINUOUS
 10
161.0920815451
 20
157.9683476395
 11
159.8920815451
 21
157.9683476395
  0
LINE
  8
0
 62
7
  6
CONTINUOUS
 10
68.1220815451
 20
158.5623476395
 11
66.9220815451
 21
158.5623476395
  0
LINE
  8
0
 62
7
  6
CONTINUOUS
 10
159.8920815451
 20
158.5683476395
 11
161.0920815451
 21
158.5683476395
  0
LINE
  8
0
 62
7
  6
CONTINUOUS
 10
61.8820815451
 20
158.7183476395
 11
63.6820815451
 21
158.7183476395
  0
LINE
  8
0
 62
7
  6
CONTINUOUS
 10
164.4820815451
 20
158.7183476395
 11
166.2820815451
 21
158.7183476395
  0
LINE
  8
0
 62
7
  6
CONTINUOUS
 10
166.5820815451
 20
159.0183476395
 11
163.8820815451
 21
159.0183476395
  0
LINE
  8
0
 62
7
  6
CONTINUOUS
 10
61.5820815451
 20
159.0183476395
 11
64.2820815451
 21
159.0183476395
  0
LINE
  8
0
 62
7
  6
CONTINUOUS
 10
66.9220815451
 20
159.7623476395
 11
66.1120815451
 21
159.7623476395
  0
LINE
  8
0
 62
7
  6
CONTINUOUS
 10
65.0920815451
 20
159.7683476395
 11
61.5820815451
 21
159.7683476395
  0
LINE
  8
0
 62
7
  6
CONTINUOUS
 10
161.0920815451
 20
159.7683476395
 11
161.9020815451
 21
159.7683476395
  0
LINE
  8
0
 62
7
  6
CONTINUOUS
 10
163.0720815451
 20
159.7683476395
 11
167.1820815451
 21
159.7683476395
  0
LINE
  8
0
 62
7
  6
CONTINUOUS
 10
61.5820815451
 20
160.6683476395
 11
60.9820815451
 21
160.6683476395
  0
LINE
  8
0
 62
7
  6
CONTINUOUS
 10
162.4870815451
 20
156.4683476395
 11
163.0720815451
 21
156.8883476395
  0
LINE
  8
0
 62
7
  6
CONTINUOUS
 10
161.9020815451
 20
156.8883476395
 11
162.4870815451
 21
156.4683476395
  0
LINE
  8
0
 62
7
  6
CONTINUOUS
 10
159.8920815451
 20
157.9683476395
 11
159.8920815451
 21
158.5683476395
  0
LINE
  8
0
 62
7
  6
CONTINUOUS
 10
161.0920815451
 20
155.6433476395
 11
161.0920815451
 21
157.9683476395
  0
LINE
  8
0
 62
7
  6
CONTINUOUS
 10
161.0920815451
 20
158.5683476395
 11
161.0920815451
 21
159.7683476395
  0
LINE
  8
0
 62
7
  6
CONTINUOUS
 10
161.9020815451
 20
159.7683476395
 11
161.9020815451
 21
156.8883476395
  0
LINE
  8
0
 62
7
  6
CONTINUOUS
 10
162.5320815451
 20
152.5683476395
 11
162.5320815451
 21
153.2433476395
  0
LINE
  8
0
 62
7
  6
CONTINUOUS
 10
162.5320815451
 20
154.7433476395
 11
162.5320815451
 21
155.6433476395
  0
LINE
  8
0
 62
7
  6
CONTINUOUS
 10
163.0720815451
 20
156.8883476395
 11
163.0720815451
 21
159.7683476395
  0
LINE
  8
0
 62
7
  6
CONTINUOUS
 10
163.2070815451
 20
151.9683476395
 11
163.2070815451
 21
152.5683476395
  0
LINE
  8
0
 62
7
  6
CONTINUOUS
 10
163.7320815451
 20
155.6433476395
 11
163.7320815451
 21
154.7433476395
  0
LINE
  8
0
 62
7
  6
CONTINUOUS
 10
163.7320815451
 20
153.2433476395
 11
163.7320815451
 21
152.5683476395
  0
LINE
  8
0
 62
7
  6
CONTINUOUS
 10
163.8820815451
 20
159.0183476395
 11
163.8820815451
 21
156.3183476395
  0
LINE
  8
0
 62
7
  6
CONTINUOUS
 10
164.4820815451
 20
159.0183476395
 11
164.4820815451
 21
158.7183476395
  0
LINE
  8
0
 62
7
  6
CONTINUOUS
 10
165.5320815451
 20
152.5683476395
 11
165.5320815451
 21
155.6433476395
  0
LINE
  8
0
 62
7
  6
CONTINUOUS
 10
166.2820815451
 20
158.7183476395
 11
166.2820815451
 21
139.8183476395
  0
LINE
  8
0
 62
7
  6
CONTINUOUS
 10
166.5820815451
 20
139.5183476395
 11
166.5820815451
 21
159.0183476395
  0
LINE
  8
0
 62
7
  6
CONTINUOUS
 10
167.1820815451
 20
159.7683476395
 11
167.1820815451
 21
157.7883476395
  0
CIRCLE
  8
0
 62
7
  6
CONTINUOUS
 10
19.9997993178
 20
5.0
 40
2.0
  0
ENDSEC
  0
EOF
