ISO-10303-21;
HEADER;
FILE_DESCRIPTION((''),'2;1');
FILE_NAME('BRN0252KUN','2022-09-15T10:27:53',('a.koch'),(''),
'CREO PARAMETRIC BY PTC INC, 2022162','CREO PARAMETRIC BY PTC INC, 2022162','');
FILE_SCHEMA(('AUTOMOTIVE_DESIGN { 1 0 10303 214 1 1 1 1 }'));
ENDSEC;
DATA;
#99=CARTESIAN_POINT('',(2.E0,2.E0,-1.E3));
#100=DIRECTION('',(0.E0,0.E0,-1.E0));
#101=DIRECTION('',(0.E0,-1.E0,0.E0));
#102=AXIS2_PLACEMENT_3D('',#99,#100,#101);
#104=DIRECTION('',(1.E0,0.E0,0.E0));
#105=VECTOR('',#104,2.08E1);
#106=CARTESIAN_POINT('',(2.E0,0.E0,-1.E3));
#107=LINE('',#106,#105);
#108=CARTESIAN_POINT('',(2.28E1,2.E0,-1.E3));
#109=DIRECTION('',(0.E0,0.E0,-1.E0));
#110=DIRECTION('',(1.E0,0.E0,0.E0));
#111=AXIS2_PLACEMENT_3D('',#108,#109,#110);
#113=DIRECTION('',(0.E0,1.E0,0.E0));
#114=VECTOR('',#113,8.E0);
#115=CARTESIAN_POINT('',(2.48E1,2.E0,-1.E3));
#116=LINE('',#115,#114);
#117=DIRECTION('',(-1.E0,0.E0,0.E0));
#118=VECTOR('',#117,1.8E0);
#119=CARTESIAN_POINT('',(2.48E1,1.E1,-1.E3));
#120=LINE('',#119,#118);
#121=DIRECTION('',(0.E0,-1.E0,0.E0));
#122=VECTOR('',#121,8.2E0);
#123=CARTESIAN_POINT('',(2.3E1,1.E1,-1.E3));
#124=LINE('',#123,#122);
#125=DIRECTION('',(-1.E0,0.E0,0.E0));
#126=VECTOR('',#125,2.12E1);
#127=CARTESIAN_POINT('',(2.3E1,1.8E0,-1.E3));
#128=LINE('',#127,#126);
#129=DIRECTION('',(0.E0,1.E0,0.E0));
#130=VECTOR('',#129,1.92E1);
#131=CARTESIAN_POINT('',(1.8E0,1.8E0,-1.E3));
#132=LINE('',#131,#130);
#133=DIRECTION('',(-1.E0,0.E0,0.E0));
#134=VECTOR('',#133,1.8E0);
#135=CARTESIAN_POINT('',(1.8E0,2.1E1,-1.E3));
#136=LINE('',#135,#134);
#137=DIRECTION('',(0.E0,-1.E0,0.E0));
#138=VECTOR('',#137,1.9E1);
#139=CARTESIAN_POINT('',(0.E0,2.1E1,-1.E3));
#140=LINE('',#139,#138);
#141=DIRECTION('',(0.E0,0.E0,-1.E0));
#142=VECTOR('',#141,2.E3);
#143=CARTESIAN_POINT('',(0.E0,2.E0,1.E3));
#144=LINE('',#143,#142);
#145=DIRECTION('',(0.E0,0.E0,1.E0));
#146=VECTOR('',#145,2.E3);
#147=CARTESIAN_POINT('',(0.E0,2.1E1,-1.E3));
#148=LINE('',#147,#146);
#149=DIRECTION('',(0.E0,0.E0,1.E0));
#150=VECTOR('',#149,2.E3);
#151=CARTESIAN_POINT('',(1.8E0,2.1E1,-1.E3));
#152=LINE('',#151,#150);
#153=DIRECTION('',(0.E0,0.E0,1.E0));
#154=VECTOR('',#153,2.E3);
#155=CARTESIAN_POINT('',(1.8E0,1.8E0,-1.E3));
#156=LINE('',#155,#154);
#157=DIRECTION('',(0.E0,0.E0,1.E0));
#158=VECTOR('',#157,2.E3);
#159=CARTESIAN_POINT('',(2.3E1,1.8E0,-1.E3));
#160=LINE('',#159,#158);
#161=DIRECTION('',(0.E0,0.E0,1.E0));
#162=VECTOR('',#161,2.E3);
#163=CARTESIAN_POINT('',(2.3E1,1.E1,-1.E3));
#164=LINE('',#163,#162);
#165=DIRECTION('',(0.E0,0.E0,1.E0));
#166=VECTOR('',#165,2.E3);
#167=CARTESIAN_POINT('',(2.48E1,1.E1,-1.E3));
#168=LINE('',#167,#166);
#169=DIRECTION('',(0.E0,0.E0,-1.E0));
#170=VECTOR('',#169,2.E3);
#171=CARTESIAN_POINT('',(2.48E1,2.E0,1.E3));
#172=LINE('',#171,#170);
#173=DIRECTION('',(0.E0,0.E0,-1.E0));
#174=VECTOR('',#173,2.E3);
#175=CARTESIAN_POINT('',(2.E0,0.E0,1.E3));
#176=LINE('',#175,#174);
#177=DIRECTION('',(0.E0,0.E0,-1.E0));
#178=VECTOR('',#177,2.E3);
#179=CARTESIAN_POINT('',(2.28E1,0.E0,1.E3));
#180=LINE('',#179,#178);
#181=CARTESIAN_POINT('',(2.E0,2.E0,1.E3));
#182=DIRECTION('',(0.E0,0.E0,1.E0));
#183=DIRECTION('',(-1.E0,0.E0,0.E0));
#184=AXIS2_PLACEMENT_3D('',#181,#182,#183);
#186=DIRECTION('',(0.E0,-1.E0,0.E0));
#187=VECTOR('',#186,1.9E1);
#188=CARTESIAN_POINT('',(0.E0,2.1E1,1.E3));
#189=LINE('',#188,#187);
#190=DIRECTION('',(-1.E0,0.E0,0.E0));
#191=VECTOR('',#190,1.8E0);
#192=CARTESIAN_POINT('',(1.8E0,2.1E1,1.E3));
#193=LINE('',#192,#191);
#194=DIRECTION('',(0.E0,1.E0,0.E0));
#195=VECTOR('',#194,1.92E1);
#196=CARTESIAN_POINT('',(1.8E0,1.8E0,1.E3));
#197=LINE('',#196,#195);
#198=DIRECTION('',(-1.E0,0.E0,0.E0));
#199=VECTOR('',#198,2.12E1);
#200=CARTESIAN_POINT('',(2.3E1,1.8E0,1.E3));
#201=LINE('',#200,#199);
#202=DIRECTION('',(0.E0,-1.E0,0.E0));
#203=VECTOR('',#202,8.2E0);
#204=CARTESIAN_POINT('',(2.3E1,1.E1,1.E3));
#205=LINE('',#204,#203);
#206=DIRECTION('',(-1.E0,0.E0,0.E0));
#207=VECTOR('',#206,1.8E0);
#208=CARTESIAN_POINT('',(2.48E1,1.E1,1.E3));
#209=LINE('',#208,#207);
#210=DIRECTION('',(0.E0,1.E0,0.E0));
#211=VECTOR('',#210,8.E0);
#212=CARTESIAN_POINT('',(2.48E1,2.E0,1.E3));
#213=LINE('',#212,#211);
#214=CARTESIAN_POINT('',(2.28E1,2.E0,1.E3));
#215=DIRECTION('',(0.E0,0.E0,1.E0));
#216=DIRECTION('',(0.E0,-1.E0,0.E0));
#217=AXIS2_PLACEMENT_3D('',#214,#215,#216);
#219=DIRECTION('',(1.E0,0.E0,0.E0));
#220=VECTOR('',#219,2.08E1);
#221=CARTESIAN_POINT('',(2.E0,0.E0,1.E3));
#222=LINE('',#221,#220);
#223=CARTESIAN_POINT('',(2.48E1,1.E1,-1.E3));
#224=CARTESIAN_POINT('',(2.3E1,1.E1,-1.E3));
#225=VERTEX_POINT('',#223);
#226=VERTEX_POINT('',#224);
#227=CARTESIAN_POINT('',(2.3E1,1.8E0,-1.E3));
#228=VERTEX_POINT('',#227);
#229=CARTESIAN_POINT('',(1.8E0,1.8E0,-1.E3));
#230=VERTEX_POINT('',#229);
#231=CARTESIAN_POINT('',(1.8E0,2.1E1,-1.E3));
#232=VERTEX_POINT('',#231);
#233=CARTESIAN_POINT('',(0.E0,2.1E1,-1.E3));
#234=VERTEX_POINT('',#233);
#235=CARTESIAN_POINT('',(2.48E1,1.E1,1.E3));
#236=CARTESIAN_POINT('',(2.3E1,1.E1,1.E3));
#237=VERTEX_POINT('',#235);
#238=VERTEX_POINT('',#236);
#239=CARTESIAN_POINT('',(2.3E1,1.8E0,1.E3));
#240=VERTEX_POINT('',#239);
#241=CARTESIAN_POINT('',(1.8E0,1.8E0,1.E3));
#242=VERTEX_POINT('',#241);
#243=CARTESIAN_POINT('',(1.8E0,2.1E1,1.E3));
#244=VERTEX_POINT('',#243);
#245=CARTESIAN_POINT('',(0.E0,2.1E1,1.E3));
#246=VERTEX_POINT('',#245);
#247=CARTESIAN_POINT('',(2.E0,0.E0,-1.E3));
#248=CARTESIAN_POINT('',(0.E0,2.E0,-1.E3));
#249=VERTEX_POINT('',#247);
#250=VERTEX_POINT('',#248);
#251=CARTESIAN_POINT('',(0.E0,2.E0,1.E3));
#252=VERTEX_POINT('',#251);
#253=CARTESIAN_POINT('',(2.E0,0.E0,1.E3));
#254=VERTEX_POINT('',#253);
#255=CARTESIAN_POINT('',(2.48E1,2.E0,-1.E3));
#256=CARTESIAN_POINT('',(2.28E1,0.E0,-1.E3));
#257=VERTEX_POINT('',#255);
#258=VERTEX_POINT('',#256);
#259=CARTESIAN_POINT('',(2.28E1,0.E0,1.E3));
#260=VERTEX_POINT('',#259);
#261=CARTESIAN_POINT('',(2.48E1,2.E0,1.E3));
#262=VERTEX_POINT('',#261);
#263=CARTESIAN_POINT('',(0.E0,0.E0,-1.E3));
#264=DIRECTION('',(0.E0,0.E0,1.E0));
#265=DIRECTION('',(1.E0,0.E0,0.E0));
#266=AXIS2_PLACEMENT_3D('',#263,#264,#265);
#267=PLANE('',#266);
#269=ORIENTED_EDGE('',*,*,#268,.F.);
#271=ORIENTED_EDGE('',*,*,#270,.T.);
#273=ORIENTED_EDGE('',*,*,#272,.F.);
#275=ORIENTED_EDGE('',*,*,#274,.T.);
#277=ORIENTED_EDGE('',*,*,#276,.T.);
#279=ORIENTED_EDGE('',*,*,#278,.T.);
#281=ORIENTED_EDGE('',*,*,#280,.T.);
#283=ORIENTED_EDGE('',*,*,#282,.T.);
#285=ORIENTED_EDGE('',*,*,#284,.T.);
#287=ORIENTED_EDGE('',*,*,#286,.T.);
#288=EDGE_LOOP('',(#269,#271,#273,#275,#277,#279,#281,#283,#285,#287));
#289=FACE_OUTER_BOUND('',#288,.F.);
#291=CARTESIAN_POINT('',(2.E0,2.E0,3.6072E3));
#292=DIRECTION('',(0.E0,0.E0,-1.E0));
#293=DIRECTION('',(0.E0,-1.E0,0.E0));
#294=AXIS2_PLACEMENT_3D('',#291,#292,#293);
#295=CYLINDRICAL_SURFACE('',#294,2.E0);
#296=ORIENTED_EDGE('',*,*,#268,.T.);
#298=ORIENTED_EDGE('',*,*,#297,.F.);
#300=ORIENTED_EDGE('',*,*,#299,.T.);
#302=ORIENTED_EDGE('',*,*,#301,.T.);
#303=EDGE_LOOP('',(#296,#298,#300,#302));
#304=FACE_OUTER_BOUND('',#303,.F.);
#306=CARTESIAN_POINT('',(0.E0,2.1E1,-1.E3));
#307=DIRECTION('',(-1.E0,0.E0,0.E0));
#308=DIRECTION('',(0.E0,-1.E0,0.E0));
#309=AXIS2_PLACEMENT_3D('',#306,#307,#308);
#310=PLANE('',#309);
#311=ORIENTED_EDGE('',*,*,#297,.T.);
#312=ORIENTED_EDGE('',*,*,#286,.F.);
#314=ORIENTED_EDGE('',*,*,#313,.T.);
#316=ORIENTED_EDGE('',*,*,#315,.T.);
#317=EDGE_LOOP('',(#311,#312,#314,#316));
#318=FACE_OUTER_BOUND('',#317,.F.);
#320=CARTESIAN_POINT('',(1.8E0,2.1E1,-1.E3));
#321=DIRECTION('',(0.E0,1.E0,0.E0));
#322=DIRECTION('',(-1.E0,0.E0,0.E0));
#323=AXIS2_PLACEMENT_3D('',#320,#321,#322);
#324=PLANE('',#323);
#325=ORIENTED_EDGE('',*,*,#284,.F.);
#327=ORIENTED_EDGE('',*,*,#326,.T.);
#329=ORIENTED_EDGE('',*,*,#328,.T.);
#330=ORIENTED_EDGE('',*,*,#313,.F.);
#331=EDGE_LOOP('',(#325,#327,#329,#330));
#332=FACE_OUTER_BOUND('',#331,.F.);
#334=CARTESIAN_POINT('',(1.8E0,1.8E0,-1.E3));
#335=DIRECTION('',(1.E0,0.E0,0.E0));
#336=DIRECTION('',(0.E0,1.E0,0.E0));
#337=AXIS2_PLACEMENT_3D('',#334,#335,#336);
#338=PLANE('',#337);
#339=ORIENTED_EDGE('',*,*,#282,.F.);
#341=ORIENTED_EDGE('',*,*,#340,.T.);
#343=ORIENTED_EDGE('',*,*,#342,.T.);
#344=ORIENTED_EDGE('',*,*,#326,.F.);
#345=EDGE_LOOP('',(#339,#341,#343,#344));
#346=FACE_OUTER_BOUND('',#345,.F.);
#348=CARTESIAN_POINT('',(2.3E1,1.8E0,-1.E3));
#349=DIRECTION('',(0.E0,1.E0,0.E0));
#350=DIRECTION('',(-1.E0,0.E0,0.E0));
#351=AXIS2_PLACEMENT_3D('',#348,#349,#350);
#352=PLANE('',#351);
#353=ORIENTED_EDGE('',*,*,#280,.F.);
#355=ORIENTED_EDGE('',*,*,#354,.T.);
#357=ORIENTED_EDGE('',*,*,#356,.T.);
#358=ORIENTED_EDGE('',*,*,#340,.F.);
#359=EDGE_LOOP('',(#353,#355,#357,#358));
#360=FACE_OUTER_BOUND('',#359,.F.);
#362=CARTESIAN_POINT('',(2.3E1,1.E1,-1.E3));
#363=DIRECTION('',(-1.E0,0.E0,0.E0));
#364=DIRECTION('',(0.E0,-1.E0,0.E0));
#365=AXIS2_PLACEMENT_3D('',#362,#363,#364);
#366=PLANE('',#365);
#367=ORIENTED_EDGE('',*,*,#278,.F.);
#369=ORIENTED_EDGE('',*,*,#368,.T.);
#371=ORIENTED_EDGE('',*,*,#370,.T.);
#372=ORIENTED_EDGE('',*,*,#354,.F.);
#373=EDGE_LOOP('',(#367,#369,#371,#372));
#374=FACE_OUTER_BOUND('',#373,.F.);
#376=CARTESIAN_POINT('',(2.48E1,1.E1,-1.E3));
#377=DIRECTION('',(0.E0,1.E0,0.E0));
#378=DIRECTION('',(-1.E0,0.E0,0.E0));
#379=AXIS2_PLACEMENT_3D('',#376,#377,#378);
#380=PLANE('',#379);
#381=ORIENTED_EDGE('',*,*,#276,.F.);
#383=ORIENTED_EDGE('',*,*,#382,.T.);
#385=ORIENTED_EDGE('',*,*,#384,.T.);
#386=ORIENTED_EDGE('',*,*,#368,.F.);
#387=EDGE_LOOP('',(#381,#383,#385,#386));
#388=FACE_OUTER_BOUND('',#387,.F.);
#390=CARTESIAN_POINT('',(2.48E1,0.E0,-1.E3));
#391=DIRECTION('',(1.E0,0.E0,0.E0));
#392=DIRECTION('',(0.E0,1.E0,0.E0));
#393=AXIS2_PLACEMENT_3D('',#390,#391,#392);
#394=PLANE('',#393);
#396=ORIENTED_EDGE('',*,*,#395,.F.);
#398=ORIENTED_EDGE('',*,*,#397,.T.);
#399=ORIENTED_EDGE('',*,*,#382,.F.);
#400=ORIENTED_EDGE('',*,*,#274,.F.);
#401=EDGE_LOOP('',(#396,#398,#399,#400));
#402=FACE_OUTER_BOUND('',#401,.F.);
#404=CARTESIAN_POINT('',(2.28E1,2.E0,3.6072E3));
#405=DIRECTION('',(0.E0,0.E0,-1.E0));
#406=DIRECTION('',(1.E0,0.E0,0.E0));
#407=AXIS2_PLACEMENT_3D('',#404,#405,#406);
#408=CYLINDRICAL_SURFACE('',#407,2.E0);
#409=ORIENTED_EDGE('',*,*,#272,.T.);
#411=ORIENTED_EDGE('',*,*,#410,.F.);
#413=ORIENTED_EDGE('',*,*,#412,.T.);
#414=ORIENTED_EDGE('',*,*,#395,.T.);
#415=EDGE_LOOP('',(#409,#411,#413,#414));
#416=FACE_OUTER_BOUND('',#415,.F.);
#418=CARTESIAN_POINT('',(0.E0,0.E0,-1.E3));
#419=DIRECTION('',(0.E0,-1.E0,0.E0));
#420=DIRECTION('',(1.E0,0.E0,0.E0));
#421=AXIS2_PLACEMENT_3D('',#418,#419,#420);
#422=PLANE('',#421);
#423=ORIENTED_EDGE('',*,*,#301,.F.);
#425=ORIENTED_EDGE('',*,*,#424,.T.);
#426=ORIENTED_EDGE('',*,*,#410,.T.);
#427=ORIENTED_EDGE('',*,*,#270,.F.);
#428=EDGE_LOOP('',(#423,#425,#426,#427));
#429=FACE_OUTER_BOUND('',#428,.F.);
#431=CARTESIAN_POINT('',(0.E0,0.E0,1.E3));
#432=DIRECTION('',(0.E0,0.E0,1.E0));
#433=DIRECTION('',(1.E0,0.E0,0.E0));
#434=AXIS2_PLACEMENT_3D('',#431,#432,#433);
#435=PLANE('',#434);
#436=ORIENTED_EDGE('',*,*,#299,.F.);
#437=ORIENTED_EDGE('',*,*,#315,.F.);
#438=ORIENTED_EDGE('',*,*,#328,.F.);
#439=ORIENTED_EDGE('',*,*,#342,.F.);
#440=ORIENTED_EDGE('',*,*,#356,.F.);
#441=ORIENTED_EDGE('',*,*,#370,.F.);
#442=ORIENTED_EDGE('',*,*,#384,.F.);
#443=ORIENTED_EDGE('',*,*,#397,.F.);
#444=ORIENTED_EDGE('',*,*,#412,.F.);
#445=ORIENTED_EDGE('',*,*,#424,.F.);
#446=EDGE_LOOP('',(#436,#437,#438,#439,#440,#441,#442,#443,#444,#445));
#447=FACE_OUTER_BOUND('',#446,.F.);
#451=PRESENTATION_LAYER_ASSIGNMENT('VOLUMEN','',(#450));
#454=PLANE_ANGLE_MEASURE_WITH_UNIT(PLANE_ANGLE_MEASURE(1.745329251994E-2),#453);
#455=(CONVERSION_BASED_UNIT('DEGREE',#454)NAMED_UNIT(*)PLANE_ANGLE_UNIT());
#457=UNCERTAINTY_MEASURE_WITH_UNIT(LENGTH_MEASURE(1.E-3),#452,
'distance_accuracy_value',
'Maximum model space distance between geometric entities at asserted connectivities');
#460=APPLICATION_CONTEXT('automotive_design');
#461=APPLICATION_PROTOCOL_DEFINITION('international standard',
'automotive_design',2001,#460);
#462=PRODUCT_DEFINITION_CONTEXT('part definition',#460,'design');
#463=PRODUCT_CONTEXT('',#460,'mechanical');
#464=PRODUCT('BRN0252KUN','BRN0252KUN','NOT SPECIFIED',(#463));
#465=PRODUCT_DEFINITION_FORMATION('3','LAST_VERSION',#464);
#473=DERIVED_UNIT_ELEMENT(#472,2.E0);
#474=DERIVED_UNIT((#473));
#475=MEASURE_REPRESENTATION_ITEM('surface area measure',AREA_MEASURE(
2.127508569850E5),#474);
#480=DERIVED_UNIT_ELEMENT(#479,3.E0);
#481=DERIVED_UNIT((#480));
#482=MEASURE_REPRESENTATION_ITEM('volume measure',VOLUME_MEASURE(
1.844863699863E5),#481);
#486=CARTESIAN_POINT('centre point',(9.931525076053E0,5.642444409663E0,
8.451907201490E-14));
#491=DERIVED_UNIT_ELEMENT(#490,2.E0);
#492=DERIVED_UNIT((#491));
#493=MEASURE_REPRESENTATION_ITEM('surface area measure',AREA_MEASURE(
2.127508569850E5),#492);
#498=DERIVED_UNIT_ELEMENT(#497,3.E0);
#499=DERIVED_UNIT((#498));
#500=MEASURE_REPRESENTATION_ITEM('volume measure',VOLUME_MEASURE(
1.844863699863E5),#499);
#504=CARTESIAN_POINT('centre point',(9.931525076053E0,5.642444409663E0,
8.451907201490E-14));
#509=PRODUCT_RELATED_PRODUCT_CATEGORY('part','',(#464));
#511=GENERAL_PROPERTY('','LMR','user defined attribute');
#512=GENERAL_PROPERTY_ASSOCIATION('user defined attribute','',#511,#510);
#513=DESCRIPTIVE_REPRESENTATION_ITEM('LMR','');
#517=GENERAL_PROPERTY('','BENENNUNG','user defined attribute');
#518=GENERAL_PROPERTY_ASSOCIATION('user defined attribute','',#517,#516);
#519=DESCRIPTIVE_REPRESENTATION_ITEM('BENENNUNG','');
#523=GENERAL_PROPERTY('','DIN','user defined attribute');
#524=GENERAL_PROPERTY_ASSOCIATION('user defined attribute','',#523,#522);
#525=DESCRIPTIVE_REPRESENTATION_ITEM('DIN','');
#529=GENERAL_PROPERTY('','VERSION','user defined attribute');
#530=GENERAL_PROPERTY_ASSOCIATION('user defined attribute','',#529,#528);
#531=VALUE_REPRESENTATION_ITEM('VERSION',NUMERIC_MEASURE(0.E0));
#534=DESCRIPTIVE_REPRESENTATION_ITEM('attribute description','Real Number');
#539=GENERAL_PROPERTY('','ERZEUGER','user defined attribute');
#540=GENERAL_PROPERTY_ASSOCIATION('user defined attribute','',#539,#538);
#541=DESCRIPTIVE_REPRESENTATION_ITEM('ERZEUGER','');
#545=GENERAL_PROPERTY('','PTC_COMMON_NAME','user defined attribute');
#546=GENERAL_PROPERTY_ASSOCIATION('user defined attribute','',#545,#544);
#547=DESCRIPTIVE_REPRESENTATION_ITEM('PTC_COMMON_NAME','brn0252kun.prt');
#551=GENERAL_PROPERTY('','PTC_MASTER_MATERIAL','user defined attribute');
#552=GENERAL_PROPERTY_ASSOCIATION('user defined attribute','',#551,#550);
#553=DESCRIPTIVE_REPRESENTATION_ITEM('PTC_MASTER_MATERIAL',
'PTC_SYSTEM_MTRL_PROPS');
#1=DRAUGHTING_PRE_DEFINED_COLOUR('blue');
#2=COLOUR_RGB('',0.E0,5.21569E-1,2.70588E-1);
#3=DRAUGHTING_PRE_DEFINED_COLOUR('green');
#4=DRAUGHTING_PRE_DEFINED_COLOUR('cyan');
#5=COLOUR_RGB('',1.1E-2,1.2E-2,1.E0);
#6=COLOUR_RGB('',1.1E-1,1.1E-1,1.1E-1);
#7=COLOUR_RGB('',1.7E-1,1.7E-1,1.6E-1);
#8=COLOUR_RGB('',1.80392E-1,4.31373E-1,4.E-1);
#9=COLOUR_RGB('',2.27451E-1,4.5098E-1,7.29412E-1);
#10=COLOUR_RGB('',2.62745E-1,2.35294E-1,2.58824E-1);
#11=COLOUR_RGB('',3.01961E-1,3.92157E-1,2.90196E-1);
#12=COLOUR_RGB('',3.09804E-1,2.78431E-1,3.17647E-1);
#13=COLOUR_RGB('',3.13725E-1,3.13725E-1,3.13725E-1);
#14=COLOUR_RGB('',3.2549E-1,3.05882E-1,3.52941E-1);
#15=COLOUR_RGB('',3.37E-1,3.37E-1,3.37E-1);
#16=COLOUR_RGB('',3.45098E-1,1.33333E-1,7.8431E-2);
#17=COLOUR_RGB('',3.5E-1,7.5E-1,3.5E-1);
#18=COLOUR_RGB('',3.52941E-1,3.52941E-1,3.52941E-1);
#19=COLOUR_RGB('',3.64706E-1,4.47059E-1,3.17647E-1);
#20=COLOUR_RGB('',3.68627E-1,2.78431E-1,2.82353E-1);
#21=COLOUR_RGB('',3.72549E-1,3.72549E-1,3.72549E-1);
#22=COLOUR_RGB('',3.88235E-1,3.60784E-1,3.2549E-1);
#23=COLOUR_RGB('',3.92E-1,1.2E-2,1.2E-2);
#24=COLOUR_RGB('',3.92157E-1,3.56863E-1,3.52941E-1);
#25=COLOUR_RGB('',3.92157E-1,3.92157E-1,3.92157E-1);
#26=COLOUR_RGB('',3.92E-1,4.35294E-1,4.86275E-1);
#27=COLOUR_RGB('',4.E-1,3.60784E-1,4.27451E-1);
#28=COLOUR_RGB('',4.1E-1,0.E0,2.2E-1);
#29=COLOUR_RGB('',4.11765E-1,3.80392E-1,4.39216E-1);
#30=COLOUR_RGB('',4.19608E-1,3.52941E-1,3.4902E-1);
#31=COLOUR_RGB('',4.19608E-1,3.80392E-1,4.11765E-1);
#32=COLOUR_RGB('',4.31373E-1,3.92157E-1,4.03922E-1);
#33=COLOUR_RGB('',4.31373E-1,3.92157E-1,4.47059E-1);
#34=COLOUR_RGB('',4.31373E-1,4.31373E-1,4.31373E-1);
#35=COLOUR_RGB('',4.39216E-1,6.03922E-1,3.41176E-1);
#36=COLOUR_RGB('',4.47059E-1,4.23529E-1,4.94118E-1);
#37=COLOUR_RGB('',4.58824E-1,2.58824E-1,2.82353E-1);
#38=COLOUR_RGB('',4.70588E-1,5.09804E-1,5.4902E-1);
#39=COLOUR_RGB('',5.E-1,5.E-1,1.E0);
#40=COLOUR_RGB('',5.E-1,1.E0,5.E-1);
#41=COLOUR_RGB('',5.E-1,1.E0,1.E0);
#42=COLOUR_RGB('',5.01961E-1,4.5098E-1,4.94118E-1);
#43=COLOUR_RGB('',5.09804E-1,3.92157E-1,2.54902E-1);
#44=COLOUR_RGB('',5.09804E-1,3.96078E-1,1.05882E-1);
#45=COLOUR_RGB('',5.09804E-1,4.90196E-1,4.66667E-1);
#46=COLOUR_RGB('',5.13725E-1,4.03922E-1,3.4902E-1);
#47=COLOUR_RGB('',5.17647E-1,4.98039E-1,4.23529E-1);
#48=COLOUR_RGB('',5.29412E-1,4.66667E-1,4.78431E-1);
#49=COLOUR_RGB('',5.45098E-1,4.7451E-1,4.23529E-1);
#50=COLOUR_RGB('',5.52941E-1,5.17647E-1,6.07843E-1);
#51=COLOUR_RGB('',5.60784E-1,5.80392E-1,6.19608E-1);
#52=COLOUR_RGB('',5.68627E-1,4.86275E-1,4.62745E-1);
#53=COLOUR_RGB('',5.80392E-1,3.72549E-1,5.64706E-1);
#54=COLOUR_RGB('',5.8E-1,5.6E-1,5.50196E-1);
#55=COLOUR_RGB('',5.84314E-1,1.56863E-1,2.58824E-1);
#56=COLOUR_RGB('',5.92157E-1,5.96078E-1,5.29412E-1);
#57=COLOUR_RGB('',6.19608E-1,5.68627E-1,6.62745E-1);
#58=COLOUR_RGB('',6.35294E-1,6.86275E-1,7.4902E-1);
#59=COLOUR_RGB('',6.43137E-1,4.07843E-1,2.82353E-1);
#60=COLOUR_RGB('',6.54902E-1,1.56863E-1,2.58824E-1);
#61=COLOUR_RGB('',6.66667E-1,5.52941E-1,4.54902E-1);
#62=COLOUR_RGB('',6.94118E-1,1.76471E-1,2.58824E-1);
#63=COLOUR_RGB('',7.5E-1,7.5E-1,1.E0);
#64=COLOUR_RGB('',7.5E-1,1.E0,7.5E-1);
#65=COLOUR_RGB('',7.5E-1,1.E0,1.E0);
#66=COLOUR_RGB('',7.60784E-1,6.66667E-1,6.82353E-1);
#67=COLOUR_RGB('',7.60784E-1,7.4902E-1,7.21569E-1);
#68=COLOUR_RGB('',8.19608E-1,7.33333E-1,8.07843E-1);
#69=COLOUR_RGB('',8.5098E-1,8.39216E-1,8.58824E-1);
#70=COLOUR_RGB('',8.62745E-1,4.35294E-1,1.96078E-1);
#71=COLOUR_RGB('',8.70588E-1,6.70588E-1,2.82353E-1);
#72=COLOUR_RGB('',8.8E-1,8.8E-1,8.8E-1);
#73=COLOUR_RGB('',8.784E-1,9.49E-1,1.E0);
#74=COLOUR_RGB('',8.90196E-1,7.33333E-1,6.5098E-1);
#75=COLOUR_RGB('',8.98039E-1,6.15686E-1,1.33333E-1);
#76=COLOUR_RGB('',9.E-1,9.E-1,9.E-1);
#77=COLOUR_RGB('',9.01961E-1,3.21569E-1,2.23529E-1);
#78=COLOUR_RGB('',9.13725E-1,5.4902E-1,1.01961E-1);
#79=COLOUR_RGB('',9.13725E-1,7.88235E-1,8.11765E-1);
#80=COLOUR_RGB('',9.2549E-1,7.76471E-1,7.56863E-1);
#81=COLOUR_RGB('',9.41176E-1,8.15686E-1,8.66667E-1);
#82=COLOUR_RGB('',9.52941E-1,7.01961E-1,0.E0);
#83=COLOUR_RGB('',9.6E-1,9.6E-1,9.6E-1);
#84=COLOUR_RGB('',9.76471E-1,4.66667E-1,2.82353E-1);
#85=COLOUR_RGB('',9.8E-1,6.27E-1,0.E0);
#86=DRAUGHTING_PRE_DEFINED_COLOUR('red');
#87=DRAUGHTING_PRE_DEFINED_COLOUR('magenta');
#88=COLOUR_RGB('',1.E0,5.E-1,5.E-1);
#89=COLOUR_RGB('',1.E0,5.E-1,1.E0);
#90=COLOUR_RGB('',1.E0,7.17647E-1,0.E0);
#91=COLOUR_RGB('',1.E0,7.2E-1,4.2E-2);
#92=COLOUR_RGB('',1.E0,7.5E-1,7.5E-1);
#93=COLOUR_RGB('',1.E0,7.5E-1,1.E0);
#94=DRAUGHTING_PRE_DEFINED_COLOUR('yellow');
#95=COLOUR_RGB('',1.E0,1.E0,5.E-1);
#96=COLOUR_RGB('',1.E0,1.E0,7.5E-1);
#97=COLOUR_RGB('',1.E0,1.E0,9.49E-1);
#98=DRAUGHTING_PRE_DEFINED_COLOUR('white');
#103=CIRCLE('',#102,2.E0);
#112=CIRCLE('',#111,2.E0);
#185=CIRCLE('',#184,2.E0);
#218=CIRCLE('',#217,2.E0);
#268=EDGE_CURVE('',#249,#250,#103,.T.);
#270=EDGE_CURVE('',#249,#258,#107,.T.);
#272=EDGE_CURVE('',#257,#258,#112,.T.);
#274=EDGE_CURVE('',#257,#225,#116,.T.);
#276=EDGE_CURVE('',#225,#226,#120,.T.);
#278=EDGE_CURVE('',#226,#228,#124,.T.);
#280=EDGE_CURVE('',#228,#230,#128,.T.);
#282=EDGE_CURVE('',#230,#232,#132,.T.);
#284=EDGE_CURVE('',#232,#234,#136,.T.);
#286=EDGE_CURVE('',#234,#250,#140,.T.);
#290=ADVANCED_FACE('',(#289),#267,.F.);
#297=EDGE_CURVE('',#252,#250,#144,.T.);
#299=EDGE_CURVE('',#252,#254,#185,.T.);
#301=EDGE_CURVE('',#254,#249,#176,.T.);
#305=ADVANCED_FACE('',(#304),#295,.T.);
#313=EDGE_CURVE('',#234,#246,#148,.T.);
#315=EDGE_CURVE('',#246,#252,#189,.T.);
#319=ADVANCED_FACE('',(#318),#310,.T.);
#326=EDGE_CURVE('',#232,#244,#152,.T.);
#328=EDGE_CURVE('',#244,#246,#193,.T.);
#333=ADVANCED_FACE('',(#332),#324,.T.);
#340=EDGE_CURVE('',#230,#242,#156,.T.);
#342=EDGE_CURVE('',#242,#244,#197,.T.);
#347=ADVANCED_FACE('',(#346),#338,.T.);
#354=EDGE_CURVE('',#228,#240,#160,.T.);
#356=EDGE_CURVE('',#240,#242,#201,.T.);
#361=ADVANCED_FACE('',(#360),#352,.T.);
#368=EDGE_CURVE('',#226,#238,#164,.T.);
#370=EDGE_CURVE('',#238,#240,#205,.T.);
#375=ADVANCED_FACE('',(#374),#366,.T.);
#382=EDGE_CURVE('',#225,#237,#168,.T.);
#384=EDGE_CURVE('',#237,#238,#209,.T.);
#389=ADVANCED_FACE('',(#388),#380,.T.);
#395=EDGE_CURVE('',#262,#257,#172,.T.);
#397=EDGE_CURVE('',#262,#237,#213,.T.);
#403=ADVANCED_FACE('',(#402),#394,.T.);
#410=EDGE_CURVE('',#260,#258,#180,.T.);
#412=EDGE_CURVE('',#260,#262,#218,.T.);
#417=ADVANCED_FACE('',(#416),#408,.T.);
#424=EDGE_CURVE('',#254,#260,#222,.T.);
#430=ADVANCED_FACE('',(#429),#422,.T.);
#448=ADVANCED_FACE('',(#447),#435,.T.);
#449=CLOSED_SHELL('',(#290,#305,#319,#333,#347,#361,#375,#389,#403,#417,#430,
#448));
#450=MANIFOLD_SOLID_BREP('',#449);
#452=(LENGTH_UNIT()NAMED_UNIT(*)SI_UNIT(.MILLI.,.METRE.));
#453=(NAMED_UNIT(*)PLANE_ANGLE_UNIT()SI_UNIT($,.RADIAN.));
#456=(NAMED_UNIT(*)SI_UNIT($,.STERADIAN.)SOLID_ANGLE_UNIT());
#458=(GEOMETRIC_REPRESENTATION_CONTEXT(3)GLOBAL_UNCERTAINTY_ASSIGNED_CONTEXT((
#457))GLOBAL_UNIT_ASSIGNED_CONTEXT((#452,#455,#456))REPRESENTATION_CONTEXT
('ID1','3'));
#459=ADVANCED_BREP_SHAPE_REPRESENTATION('',(#450),#458);
#466=PRODUCT_DEFINITION('part definition','',#465,#462);
#467=PRODUCT_DEFINITION_SHAPE('','SHAPE FOR BRN0252KUN.',#466);
#468=SHAPE_ASPECT('','solid data associated with BRN0252KUN',#467,.F.);
#469=PROPERTY_DEFINITION('',
'shape for solid data with which properties are associated',#468);
#470=SHAPE_REPRESENTATION('',(#450),#458);
#471=SHAPE_DEFINITION_REPRESENTATION(#469,#470);
#472=(LENGTH_UNIT()NAMED_UNIT(*)SI_UNIT(.MILLI.,.METRE.));
#476=PROPERTY_DEFINITION('geometric validation property','area of BRN0252KUN',
#468);
#477=REPRESENTATION('surface area',(#475),#458);
#478=PROPERTY_DEFINITION_REPRESENTATION(#476,#477);
#479=(LENGTH_UNIT()NAMED_UNIT(*)SI_UNIT(.MILLI.,.METRE.));
#483=PROPERTY_DEFINITION('geometric validation property','volume of BRN0252KUN',
#468);
#484=REPRESENTATION('volume',(#482),#458);
#485=PROPERTY_DEFINITION_REPRESENTATION(#483,#484);
#487=PROPERTY_DEFINITION('geometric validation property',
'centroid of BRN0252KUN',#468);
#488=REPRESENTATION('centroid',(#486),#458);
#489=PROPERTY_DEFINITION_REPRESENTATION(#487,#488);
#490=(LENGTH_UNIT()NAMED_UNIT(*)SI_UNIT(.MILLI.,.METRE.));
#494=PROPERTY_DEFINITION('geometric validation property','area of BRN0252KUN',
#467);
#495=REPRESENTATION('surface area',(#493),#458);
#496=PROPERTY_DEFINITION_REPRESENTATION(#494,#495);
#497=(LENGTH_UNIT()NAMED_UNIT(*)SI_UNIT(.MILLI.,.METRE.));
#501=PROPERTY_DEFINITION('geometric validation property','volume of BRN0252KUN',
#467);
#502=REPRESENTATION('volume',(#500),#458);
#503=PROPERTY_DEFINITION_REPRESENTATION(#501,#502);
#505=PROPERTY_DEFINITION('geometric validation property',
'centroid of BRN0252KUN',#467);
#506=REPRESENTATION('centroid',(#504),#458);
#507=PROPERTY_DEFINITION_REPRESENTATION(#505,#506);
#508=SHAPE_DEFINITION_REPRESENTATION(#467,#459);
#510=PROPERTY_DEFINITION('LMR','user defined attribute',#466);
#514=REPRESENTATION('',(#513),#458);
#515=PROPERTY_DEFINITION_REPRESENTATION(#510,#514);
#516=PROPERTY_DEFINITION('BENENNUNG','user defined attribute',#466);
#520=REPRESENTATION('',(#519),#458);
#521=PROPERTY_DEFINITION_REPRESENTATION(#516,#520);
#522=PROPERTY_DEFINITION('DIN','user defined attribute',#466);
#526=REPRESENTATION('',(#525),#458);
#527=PROPERTY_DEFINITION_REPRESENTATION(#522,#526);
#528=PROPERTY_DEFINITION('VERSION','user defined attribute',#466);
#532=REPRESENTATION('',(#531),#458);
#533=PROPERTY_DEFINITION_REPRESENTATION(#528,#532);
#535=REPRESENTATION('',(#534),#458);
#536=PROPERTY_DEFINITION('attribute type designation','Real Number',#529);
#537=PROPERTY_DEFINITION_REPRESENTATION(#536,#535);
#538=PROPERTY_DEFINITION('ERZEUGER','user defined attribute',#466);
#542=REPRESENTATION('',(#541),#458);
#543=PROPERTY_DEFINITION_REPRESENTATION(#538,#542);
#544=PROPERTY_DEFINITION('PTC_COMMON_NAME','user defined attribute',#466);
#548=REPRESENTATION('',(#547),#458);
#549=PROPERTY_DEFINITION_REPRESENTATION(#544,#548);
#550=PROPERTY_DEFINITION('PTC_MASTER_MATERIAL','user defined attribute',#466);
#554=REPRESENTATION('',(#553),#458);
#555=PROPERTY_DEFINITION_REPRESENTATION(#550,#554);
ENDSEC;
END-ISO-10303-21;
