ISO-10303-21;
HEADER;
FILE_DESCRIPTION((''),'2;1');
FILE_NAME('BRS0802KUN','2022-09-15T10:27:56',('a.koch'),(''),
'CREO PARAMETRIC BY PTC INC, 2022162','CREO PARAMETRIC BY PTC INC, 2022162','');
FILE_SCHEMA(('AUTOMOTIVE_DESIGN { 1 0 10303 214 1 1 1 1 }'));
ENDSEC;
DATA;
#99=DIRECTION('',(0.E0,1.E0,0.E0));
#100=VECTOR('',#99,1.42E1);
#101=CARTESIAN_POINT('',(-3.95E1,-1.42E1,-1.E3));
#102=LINE('',#101,#100);
#103=DIRECTION('',(1.E0,0.E0,0.E0));
#104=VECTOR('',#103,7.9E1);
#105=CARTESIAN_POINT('',(-3.95E1,0.E0,-1.E3));
#106=LINE('',#105,#104);
#107=DIRECTION('',(0.E0,-1.E0,0.E0));
#108=VECTOR('',#107,1.42E1);
#109=CARTESIAN_POINT('',(3.95E1,0.E0,-1.E3));
#110=LINE('',#109,#108);
#111=DIRECTION('',(1.E0,0.E0,0.E0));
#112=VECTOR('',#111,8.E-1);
#113=CARTESIAN_POINT('',(3.95E1,-1.42E1,-1.E3));
#114=LINE('',#113,#112);
#115=DIRECTION('',(0.E0,1.E0,0.E0));
#116=VECTOR('',#115,1.5E1);
#117=CARTESIAN_POINT('',(4.03E1,-1.42E1,-1.E3));
#118=LINE('',#117,#116);
#119=DIRECTION('',(-1.E0,0.E0,0.E0));
#120=VECTOR('',#119,8.06E1);
#121=CARTESIAN_POINT('',(4.03E1,8.E-1,-1.E3));
#122=LINE('',#121,#120);
#123=DIRECTION('',(0.E0,-1.E0,0.E0));
#124=VECTOR('',#123,1.5E1);
#125=CARTESIAN_POINT('',(-4.03E1,8.E-1,-1.E3));
#126=LINE('',#125,#124);
#127=DIRECTION('',(1.E0,0.E0,0.E0));
#128=VECTOR('',#127,8.E-1);
#129=CARTESIAN_POINT('',(-4.03E1,-1.42E1,-1.E3));
#130=LINE('',#129,#128);
#131=DIRECTION('',(0.E0,0.E0,1.E0));
#132=VECTOR('',#131,2.E3);
#133=CARTESIAN_POINT('',(-3.95E1,-1.42E1,-1.E3));
#134=LINE('',#133,#132);
#135=DIRECTION('',(0.E0,0.E0,1.E0));
#136=VECTOR('',#135,2.E3);
#137=CARTESIAN_POINT('',(-4.03E1,-1.42E1,-1.E3));
#138=LINE('',#137,#136);
#139=DIRECTION('',(0.E0,0.E0,1.E0));
#140=VECTOR('',#139,2.E3);
#141=CARTESIAN_POINT('',(-4.03E1,8.E-1,-1.E3));
#142=LINE('',#141,#140);
#143=DIRECTION('',(0.E0,0.E0,1.E0));
#144=VECTOR('',#143,2.E3);
#145=CARTESIAN_POINT('',(4.03E1,8.E-1,-1.E3));
#146=LINE('',#145,#144);
#147=DIRECTION('',(0.E0,0.E0,1.E0));
#148=VECTOR('',#147,2.E3);
#149=CARTESIAN_POINT('',(4.03E1,-1.42E1,-1.E3));
#150=LINE('',#149,#148);
#151=DIRECTION('',(0.E0,0.E0,1.E0));
#152=VECTOR('',#151,2.E3);
#153=CARTESIAN_POINT('',(3.95E1,-1.42E1,-1.E3));
#154=LINE('',#153,#152);
#155=DIRECTION('',(0.E0,0.E0,1.E0));
#156=VECTOR('',#155,2.E3);
#157=CARTESIAN_POINT('',(3.95E1,0.E0,-1.E3));
#158=LINE('',#157,#156);
#159=DIRECTION('',(0.E0,0.E0,1.E0));
#160=VECTOR('',#159,2.E3);
#161=CARTESIAN_POINT('',(-3.95E1,0.E0,-1.E3));
#162=LINE('',#161,#160);
#163=DIRECTION('',(0.E0,1.E0,0.E0));
#164=VECTOR('',#163,1.42E1);
#165=CARTESIAN_POINT('',(-3.95E1,-1.42E1,1.E3));
#166=LINE('',#165,#164);
#167=DIRECTION('',(1.E0,0.E0,0.E0));
#168=VECTOR('',#167,8.E-1);
#169=CARTESIAN_POINT('',(-4.03E1,-1.42E1,1.E3));
#170=LINE('',#169,#168);
#171=DIRECTION('',(0.E0,-1.E0,0.E0));
#172=VECTOR('',#171,1.5E1);
#173=CARTESIAN_POINT('',(-4.03E1,8.E-1,1.E3));
#174=LINE('',#173,#172);
#175=DIRECTION('',(-1.E0,0.E0,0.E0));
#176=VECTOR('',#175,8.06E1);
#177=CARTESIAN_POINT('',(4.03E1,8.E-1,1.E3));
#178=LINE('',#177,#176);
#179=DIRECTION('',(0.E0,1.E0,0.E0));
#180=VECTOR('',#179,1.5E1);
#181=CARTESIAN_POINT('',(4.03E1,-1.42E1,1.E3));
#182=LINE('',#181,#180);
#183=DIRECTION('',(1.E0,0.E0,0.E0));
#184=VECTOR('',#183,8.E-1);
#185=CARTESIAN_POINT('',(3.95E1,-1.42E1,1.E3));
#186=LINE('',#185,#184);
#187=DIRECTION('',(0.E0,-1.E0,0.E0));
#188=VECTOR('',#187,1.42E1);
#189=CARTESIAN_POINT('',(3.95E1,0.E0,1.E3));
#190=LINE('',#189,#188);
#191=DIRECTION('',(1.E0,0.E0,0.E0));
#192=VECTOR('',#191,7.9E1);
#193=CARTESIAN_POINT('',(-3.95E1,0.E0,1.E3));
#194=LINE('',#193,#192);
#195=CARTESIAN_POINT('',(-3.95E1,-1.42E1,-1.E3));
#196=CARTESIAN_POINT('',(-3.95E1,0.E0,-1.E3));
#197=VERTEX_POINT('',#195);
#198=VERTEX_POINT('',#196);
#199=CARTESIAN_POINT('',(3.95E1,0.E0,-1.E3));
#200=VERTEX_POINT('',#199);
#201=CARTESIAN_POINT('',(3.95E1,-1.42E1,-1.E3));
#202=VERTEX_POINT('',#201);
#203=CARTESIAN_POINT('',(4.03E1,-1.42E1,-1.E3));
#204=VERTEX_POINT('',#203);
#205=CARTESIAN_POINT('',(4.03E1,8.E-1,-1.E3));
#206=VERTEX_POINT('',#205);
#207=CARTESIAN_POINT('',(-4.03E1,8.E-1,-1.E3));
#208=VERTEX_POINT('',#207);
#209=CARTESIAN_POINT('',(-4.03E1,-1.42E1,-1.E3));
#210=VERTEX_POINT('',#209);
#211=CARTESIAN_POINT('',(-3.95E1,-1.42E1,1.E3));
#212=CARTESIAN_POINT('',(-3.95E1,0.E0,1.E3));
#213=VERTEX_POINT('',#211);
#214=VERTEX_POINT('',#212);
#215=CARTESIAN_POINT('',(3.95E1,0.E0,1.E3));
#216=VERTEX_POINT('',#215);
#217=CARTESIAN_POINT('',(3.95E1,-1.42E1,1.E3));
#218=VERTEX_POINT('',#217);
#219=CARTESIAN_POINT('',(4.03E1,-1.42E1,1.E3));
#220=VERTEX_POINT('',#219);
#221=CARTESIAN_POINT('',(4.03E1,8.E-1,1.E3));
#222=VERTEX_POINT('',#221);
#223=CARTESIAN_POINT('',(-4.03E1,8.E-1,1.E3));
#224=VERTEX_POINT('',#223);
#225=CARTESIAN_POINT('',(-4.03E1,-1.42E1,1.E3));
#226=VERTEX_POINT('',#225);
#227=CARTESIAN_POINT('',(0.E0,0.E0,-1.E3));
#228=DIRECTION('',(0.E0,0.E0,1.E0));
#229=DIRECTION('',(1.E0,0.E0,0.E0));
#230=AXIS2_PLACEMENT_3D('',#227,#228,#229);
#231=PLANE('',#230);
#233=ORIENTED_EDGE('',*,*,#232,.T.);
#235=ORIENTED_EDGE('',*,*,#234,.T.);
#237=ORIENTED_EDGE('',*,*,#236,.T.);
#239=ORIENTED_EDGE('',*,*,#238,.T.);
#241=ORIENTED_EDGE('',*,*,#240,.T.);
#243=ORIENTED_EDGE('',*,*,#242,.T.);
#245=ORIENTED_EDGE('',*,*,#244,.T.);
#247=ORIENTED_EDGE('',*,*,#246,.T.);
#248=EDGE_LOOP('',(#233,#235,#237,#239,#241,#243,#245,#247));
#249=FACE_OUTER_BOUND('',#248,.F.);
#251=CARTESIAN_POINT('',(-3.95E1,-1.42E1,-1.E3));
#252=DIRECTION('',(1.E0,0.E0,0.E0));
#253=DIRECTION('',(0.E0,1.E0,0.E0));
#254=AXIS2_PLACEMENT_3D('',#251,#252,#253);
#255=PLANE('',#254);
#256=ORIENTED_EDGE('',*,*,#232,.F.);
#258=ORIENTED_EDGE('',*,*,#257,.T.);
#260=ORIENTED_EDGE('',*,*,#259,.T.);
#262=ORIENTED_EDGE('',*,*,#261,.F.);
#263=EDGE_LOOP('',(#256,#258,#260,#262));
#264=FACE_OUTER_BOUND('',#263,.F.);
#266=CARTESIAN_POINT('',(-4.03E1,-1.42E1,-1.E3));
#267=DIRECTION('',(0.E0,-1.E0,0.E0));
#268=DIRECTION('',(1.E0,0.E0,0.E0));
#269=AXIS2_PLACEMENT_3D('',#266,#267,#268);
#270=PLANE('',#269);
#271=ORIENTED_EDGE('',*,*,#246,.F.);
#273=ORIENTED_EDGE('',*,*,#272,.T.);
#275=ORIENTED_EDGE('',*,*,#274,.T.);
#276=ORIENTED_EDGE('',*,*,#257,.F.);
#277=EDGE_LOOP('',(#271,#273,#275,#276));
#278=FACE_OUTER_BOUND('',#277,.F.);
#280=CARTESIAN_POINT('',(-4.03E1,8.E-1,-1.E3));
#281=DIRECTION('',(-1.E0,0.E0,0.E0));
#282=DIRECTION('',(0.E0,-1.E0,0.E0));
#283=AXIS2_PLACEMENT_3D('',#280,#281,#282);
#284=PLANE('',#283);
#285=ORIENTED_EDGE('',*,*,#244,.F.);
#287=ORIENTED_EDGE('',*,*,#286,.T.);
#289=ORIENTED_EDGE('',*,*,#288,.T.);
#290=ORIENTED_EDGE('',*,*,#272,.F.);
#291=EDGE_LOOP('',(#285,#287,#289,#290));
#292=FACE_OUTER_BOUND('',#291,.F.);
#294=CARTESIAN_POINT('',(4.03E1,8.E-1,-1.E3));
#295=DIRECTION('',(0.E0,1.E0,0.E0));
#296=DIRECTION('',(-1.E0,0.E0,0.E0));
#297=AXIS2_PLACEMENT_3D('',#294,#295,#296);
#298=PLANE('',#297);
#299=ORIENTED_EDGE('',*,*,#242,.F.);
#301=ORIENTED_EDGE('',*,*,#300,.T.);
#303=ORIENTED_EDGE('',*,*,#302,.T.);
#304=ORIENTED_EDGE('',*,*,#286,.F.);
#305=EDGE_LOOP('',(#299,#301,#303,#304));
#306=FACE_OUTER_BOUND('',#305,.F.);
#308=CARTESIAN_POINT('',(4.03E1,-1.42E1,-1.E3));
#309=DIRECTION('',(1.E0,0.E0,0.E0));
#310=DIRECTION('',(0.E0,1.E0,0.E0));
#311=AXIS2_PLACEMENT_3D('',#308,#309,#310);
#312=PLANE('',#311);
#313=ORIENTED_EDGE('',*,*,#240,.F.);
#315=ORIENTED_EDGE('',*,*,#314,.T.);
#317=ORIENTED_EDGE('',*,*,#316,.T.);
#318=ORIENTED_EDGE('',*,*,#300,.F.);
#319=EDGE_LOOP('',(#313,#315,#317,#318));
#320=FACE_OUTER_BOUND('',#319,.F.);
#322=CARTESIAN_POINT('',(3.95E1,-1.42E1,-1.E3));
#323=DIRECTION('',(0.E0,-1.E0,0.E0));
#324=DIRECTION('',(1.E0,0.E0,0.E0));
#325=AXIS2_PLACEMENT_3D('',#322,#323,#324);
#326=PLANE('',#325);
#327=ORIENTED_EDGE('',*,*,#238,.F.);
#329=ORIENTED_EDGE('',*,*,#328,.T.);
#331=ORIENTED_EDGE('',*,*,#330,.T.);
#332=ORIENTED_EDGE('',*,*,#314,.F.);
#333=EDGE_LOOP('',(#327,#329,#331,#332));
#334=FACE_OUTER_BOUND('',#333,.F.);
#336=CARTESIAN_POINT('',(3.95E1,0.E0,-1.E3));
#337=DIRECTION('',(-1.E0,0.E0,0.E0));
#338=DIRECTION('',(0.E0,-1.E0,0.E0));
#339=AXIS2_PLACEMENT_3D('',#336,#337,#338);
#340=PLANE('',#339);
#341=ORIENTED_EDGE('',*,*,#236,.F.);
#343=ORIENTED_EDGE('',*,*,#342,.T.);
#345=ORIENTED_EDGE('',*,*,#344,.T.);
#346=ORIENTED_EDGE('',*,*,#328,.F.);
#347=EDGE_LOOP('',(#341,#343,#345,#346));
#348=FACE_OUTER_BOUND('',#347,.F.);
#350=CARTESIAN_POINT('',(-3.95E1,0.E0,-1.E3));
#351=DIRECTION('',(0.E0,-1.E0,0.E0));
#352=DIRECTION('',(1.E0,0.E0,0.E0));
#353=AXIS2_PLACEMENT_3D('',#350,#351,#352);
#354=PLANE('',#353);
#355=ORIENTED_EDGE('',*,*,#234,.F.);
#356=ORIENTED_EDGE('',*,*,#261,.T.);
#358=ORIENTED_EDGE('',*,*,#357,.T.);
#359=ORIENTED_EDGE('',*,*,#342,.F.);
#360=EDGE_LOOP('',(#355,#356,#358,#359));
#361=FACE_OUTER_BOUND('',#360,.F.);
#363=CARTESIAN_POINT('',(0.E0,0.E0,1.E3));
#364=DIRECTION('',(0.E0,0.E0,1.E0));
#365=DIRECTION('',(1.E0,0.E0,0.E0));
#366=AXIS2_PLACEMENT_3D('',#363,#364,#365);
#367=PLANE('',#366);
#368=ORIENTED_EDGE('',*,*,#259,.F.);
#369=ORIENTED_EDGE('',*,*,#274,.F.);
#370=ORIENTED_EDGE('',*,*,#288,.F.);
#371=ORIENTED_EDGE('',*,*,#302,.F.);
#372=ORIENTED_EDGE('',*,*,#316,.F.);
#373=ORIENTED_EDGE('',*,*,#330,.F.);
#374=ORIENTED_EDGE('',*,*,#344,.F.);
#375=ORIENTED_EDGE('',*,*,#357,.F.);
#376=EDGE_LOOP('',(#368,#369,#370,#371,#372,#373,#374,#375));
#377=FACE_OUTER_BOUND('',#376,.F.);
#381=PRESENTATION_LAYER_ASSIGNMENT('VOLUMEN','',(#380));
#384=PLANE_ANGLE_MEASURE_WITH_UNIT(PLANE_ANGLE_MEASURE(1.745329251994E-2),#383);
#385=(CONVERSION_BASED_UNIT('DEGREE',#384)NAMED_UNIT(*)PLANE_ANGLE_UNIT());
#387=UNCERTAINTY_MEASURE_WITH_UNIT(LENGTH_MEASURE(1.E-3),#382,
'distance_accuracy_value',
'Maximum model space distance between geometric entities at asserted connectivities');
#390=APPLICATION_CONTEXT('automotive_design');
#391=APPLICATION_PROTOCOL_DEFINITION('international standard',
'automotive_design',2001,#390);
#392=PRODUCT_DEFINITION_CONTEXT('part definition',#390,'design');
#393=PRODUCT_CONTEXT('',#390,'mechanical');
#394=PRODUCT('BRS0802KUN','BRS0802KUN','NOT SPECIFIED',(#393));
#395=PRODUCT_DEFINITION_FORMATION('2','LAST_VERSION',#394);
#403=DERIVED_UNIT_ELEMENT(#402,2.E0);
#404=DERIVED_UNIT((#403));
#405=MEASURE_REPRESENTATION_ITEM('surface area measure',AREA_MEASURE
(4.393744E5),#404);
#410=DERIVED_UNIT_ELEMENT(#409,3.E0);
#411=DERIVED_UNIT((#410));
#412=MEASURE_REPRESENTATION_ITEM('volume measure',VOLUME_MEASURE(1.744E5),#411);
#416=CARTESIAN_POINT('centre point',(0.E0,-1.554128440367E0,0.E0));
#421=DERIVED_UNIT_ELEMENT(#420,2.E0);
#422=DERIVED_UNIT((#421));
#423=MEASURE_REPRESENTATION_ITEM('surface area measure',AREA_MEASURE
(4.393744E5),#422);
#428=DERIVED_UNIT_ELEMENT(#427,3.E0);
#429=DERIVED_UNIT((#428));
#430=MEASURE_REPRESENTATION_ITEM('volume measure',VOLUME_MEASURE(1.744E5),#429);
#434=CARTESIAN_POINT('centre point',(0.E0,-1.554128440367E0,0.E0));
#439=PRODUCT_RELATED_PRODUCT_CATEGORY('part','',(#394));
#441=GENERAL_PROPERTY('','LMR','user defined attribute');
#442=GENERAL_PROPERTY_ASSOCIATION('user defined attribute','',#441,#440);
#443=DESCRIPTIVE_REPRESENTATION_ITEM('LMR','');
#447=GENERAL_PROPERTY('','BENENNUNG','user defined attribute');
#448=GENERAL_PROPERTY_ASSOCIATION('user defined attribute','',#447,#446);
#449=DESCRIPTIVE_REPRESENTATION_ITEM('BENENNUNG','');
#453=GENERAL_PROPERTY('','DIN','user defined attribute');
#454=GENERAL_PROPERTY_ASSOCIATION('user defined attribute','',#453,#452);
#455=DESCRIPTIVE_REPRESENTATION_ITEM('DIN','');
#459=GENERAL_PROPERTY('','VERSION','user defined attribute');
#460=GENERAL_PROPERTY_ASSOCIATION('user defined attribute','',#459,#458);
#461=VALUE_REPRESENTATION_ITEM('VERSION',NUMERIC_MEASURE(0.E0));
#464=DESCRIPTIVE_REPRESENTATION_ITEM('attribute description','Real Number');
#469=GENERAL_PROPERTY('','ERZEUGER','user defined attribute');
#470=GENERAL_PROPERTY_ASSOCIATION('user defined attribute','',#469,#468);
#471=DESCRIPTIVE_REPRESENTATION_ITEM('ERZEUGER','');
#475=GENERAL_PROPERTY('','PTC_COMMON_NAME','user defined attribute');
#476=GENERAL_PROPERTY_ASSOCIATION('user defined attribute','',#475,#474);
#477=DESCRIPTIVE_REPRESENTATION_ITEM('PTC_COMMON_NAME','brs0802kun.prt');
#481=GENERAL_PROPERTY('','PTC_MASTER_MATERIAL','user defined attribute');
#482=GENERAL_PROPERTY_ASSOCIATION('user defined attribute','',#481,#480);
#483=DESCRIPTIVE_REPRESENTATION_ITEM('PTC_MASTER_MATERIAL',
'PTC_SYSTEM_MTRL_PROPS');
#1=DRAUGHTING_PRE_DEFINED_COLOUR('blue');
#2=COLOUR_RGB('',0.E0,5.21569E-1,2.70588E-1);
#3=DRAUGHTING_PRE_DEFINED_COLOUR('green');
#4=DRAUGHTING_PRE_DEFINED_COLOUR('cyan');
#5=COLOUR_RGB('',1.1E-2,1.2E-2,1.E0);
#6=COLOUR_RGB('',1.1E-1,1.1E-1,1.1E-1);
#7=COLOUR_RGB('',1.7E-1,1.7E-1,1.6E-1);
#8=COLOUR_RGB('',1.80392E-1,4.31373E-1,4.E-1);
#9=COLOUR_RGB('',2.27451E-1,4.5098E-1,7.29412E-1);
#10=COLOUR_RGB('',2.62745E-1,2.35294E-1,2.58824E-1);
#11=COLOUR_RGB('',3.01961E-1,3.92157E-1,2.90196E-1);
#12=COLOUR_RGB('',3.09804E-1,2.78431E-1,3.17647E-1);
#13=COLOUR_RGB('',3.13725E-1,3.13725E-1,3.13725E-1);
#14=COLOUR_RGB('',3.2549E-1,3.05882E-1,3.52941E-1);
#15=COLOUR_RGB('',3.37E-1,3.37E-1,3.37E-1);
#16=COLOUR_RGB('',3.45098E-1,1.33333E-1,7.8431E-2);
#17=COLOUR_RGB('',3.5E-1,7.5E-1,3.5E-1);
#18=COLOUR_RGB('',3.52941E-1,3.52941E-1,3.52941E-1);
#19=COLOUR_RGB('',3.64706E-1,4.47059E-1,3.17647E-1);
#20=COLOUR_RGB('',3.68627E-1,2.78431E-1,2.82353E-1);
#21=COLOUR_RGB('',3.72549E-1,3.72549E-1,3.72549E-1);
#22=COLOUR_RGB('',3.88235E-1,3.60784E-1,3.2549E-1);
#23=COLOUR_RGB('',3.92E-1,1.2E-2,1.2E-2);
#24=COLOUR_RGB('',3.92157E-1,3.56863E-1,3.52941E-1);
#25=COLOUR_RGB('',3.92157E-1,3.92157E-1,3.92157E-1);
#26=COLOUR_RGB('',3.92E-1,4.35294E-1,4.86275E-1);
#27=COLOUR_RGB('',4.E-1,3.60784E-1,4.27451E-1);
#28=COLOUR_RGB('',4.1E-1,0.E0,2.2E-1);
#29=COLOUR_RGB('',4.11765E-1,3.80392E-1,4.39216E-1);
#30=COLOUR_RGB('',4.19608E-1,3.52941E-1,3.4902E-1);
#31=COLOUR_RGB('',4.19608E-1,3.80392E-1,4.11765E-1);
#32=COLOUR_RGB('',4.31373E-1,3.92157E-1,4.03922E-1);
#33=COLOUR_RGB('',4.31373E-1,3.92157E-1,4.47059E-1);
#34=COLOUR_RGB('',4.31373E-1,4.31373E-1,4.31373E-1);
#35=COLOUR_RGB('',4.39216E-1,6.03922E-1,3.41176E-1);
#36=COLOUR_RGB('',4.47059E-1,4.23529E-1,4.94118E-1);
#37=COLOUR_RGB('',4.58824E-1,2.58824E-1,2.82353E-1);
#38=COLOUR_RGB('',4.70588E-1,5.09804E-1,5.4902E-1);
#39=COLOUR_RGB('',5.E-1,5.E-1,1.E0);
#40=COLOUR_RGB('',5.E-1,1.E0,5.E-1);
#41=COLOUR_RGB('',5.E-1,1.E0,1.E0);
#42=COLOUR_RGB('',5.01961E-1,4.5098E-1,4.94118E-1);
#43=COLOUR_RGB('',5.09804E-1,3.92157E-1,2.54902E-1);
#44=COLOUR_RGB('',5.09804E-1,3.96078E-1,1.05882E-1);
#45=COLOUR_RGB('',5.09804E-1,4.90196E-1,4.66667E-1);
#46=COLOUR_RGB('',5.13725E-1,4.03922E-1,3.4902E-1);
#47=COLOUR_RGB('',5.17647E-1,4.98039E-1,4.23529E-1);
#48=COLOUR_RGB('',5.29412E-1,4.66667E-1,4.78431E-1);
#49=COLOUR_RGB('',5.45098E-1,4.7451E-1,4.23529E-1);
#50=COLOUR_RGB('',5.52941E-1,5.17647E-1,6.07843E-1);
#51=COLOUR_RGB('',5.60784E-1,5.80392E-1,6.19608E-1);
#52=COLOUR_RGB('',5.68627E-1,4.86275E-1,4.62745E-1);
#53=COLOUR_RGB('',5.80392E-1,3.72549E-1,5.64706E-1);
#54=COLOUR_RGB('',5.8E-1,5.6E-1,5.50196E-1);
#55=COLOUR_RGB('',5.84314E-1,1.56863E-1,2.58824E-1);
#56=COLOUR_RGB('',5.92157E-1,5.96078E-1,5.29412E-1);
#57=COLOUR_RGB('',6.19608E-1,5.68627E-1,6.62745E-1);
#58=COLOUR_RGB('',6.35294E-1,6.86275E-1,7.4902E-1);
#59=COLOUR_RGB('',6.43137E-1,4.07843E-1,2.82353E-1);
#60=COLOUR_RGB('',6.54902E-1,1.56863E-1,2.58824E-1);
#61=COLOUR_RGB('',6.66667E-1,5.52941E-1,4.54902E-1);
#62=COLOUR_RGB('',6.94118E-1,1.76471E-1,2.58824E-1);
#63=COLOUR_RGB('',7.5E-1,7.5E-1,1.E0);
#64=COLOUR_RGB('',7.5E-1,1.E0,7.5E-1);
#65=COLOUR_RGB('',7.5E-1,1.E0,1.E0);
#66=COLOUR_RGB('',7.60784E-1,6.66667E-1,6.82353E-1);
#67=COLOUR_RGB('',7.60784E-1,7.4902E-1,7.21569E-1);
#68=COLOUR_RGB('',8.19608E-1,7.33333E-1,8.07843E-1);
#69=COLOUR_RGB('',8.5098E-1,8.39216E-1,8.58824E-1);
#70=COLOUR_RGB('',8.62745E-1,4.35294E-1,1.96078E-1);
#71=COLOUR_RGB('',8.70588E-1,6.70588E-1,2.82353E-1);
#72=COLOUR_RGB('',8.8E-1,8.8E-1,8.8E-1);
#73=COLOUR_RGB('',8.784E-1,9.49E-1,1.E0);
#74=COLOUR_RGB('',8.90196E-1,7.33333E-1,6.5098E-1);
#75=COLOUR_RGB('',8.98039E-1,6.15686E-1,1.33333E-1);
#76=COLOUR_RGB('',9.E-1,9.E-1,9.E-1);
#77=COLOUR_RGB('',9.01961E-1,3.21569E-1,2.23529E-1);
#78=COLOUR_RGB('',9.13725E-1,5.4902E-1,1.01961E-1);
#79=COLOUR_RGB('',9.13725E-1,7.88235E-1,8.11765E-1);
#80=COLOUR_RGB('',9.2549E-1,7.76471E-1,7.56863E-1);
#81=COLOUR_RGB('',9.41176E-1,8.15686E-1,8.66667E-1);
#82=COLOUR_RGB('',9.52941E-1,7.01961E-1,0.E0);
#83=COLOUR_RGB('',9.6E-1,9.6E-1,9.6E-1);
#84=COLOUR_RGB('',9.76471E-1,4.66667E-1,2.82353E-1);
#85=COLOUR_RGB('',9.8E-1,6.27E-1,0.E0);
#86=DRAUGHTING_PRE_DEFINED_COLOUR('red');
#87=DRAUGHTING_PRE_DEFINED_COLOUR('magenta');
#88=COLOUR_RGB('',1.E0,5.E-1,5.E-1);
#89=COLOUR_RGB('',1.E0,5.E-1,1.E0);
#90=COLOUR_RGB('',1.E0,7.17647E-1,0.E0);
#91=COLOUR_RGB('',1.E0,7.2E-1,4.2E-2);
#92=COLOUR_RGB('',1.E0,7.5E-1,7.5E-1);
#93=COLOUR_RGB('',1.E0,7.5E-1,1.E0);
#94=DRAUGHTING_PRE_DEFINED_COLOUR('yellow');
#95=COLOUR_RGB('',1.E0,1.E0,5.E-1);
#96=COLOUR_RGB('',1.E0,1.E0,7.5E-1);
#97=COLOUR_RGB('',1.E0,1.E0,9.49E-1);
#98=DRAUGHTING_PRE_DEFINED_COLOUR('white');
#232=EDGE_CURVE('',#197,#198,#102,.T.);
#234=EDGE_CURVE('',#198,#200,#106,.T.);
#236=EDGE_CURVE('',#200,#202,#110,.T.);
#238=EDGE_CURVE('',#202,#204,#114,.T.);
#240=EDGE_CURVE('',#204,#206,#118,.T.);
#242=EDGE_CURVE('',#206,#208,#122,.T.);
#244=EDGE_CURVE('',#208,#210,#126,.T.);
#246=EDGE_CURVE('',#210,#197,#130,.T.);
#250=ADVANCED_FACE('',(#249),#231,.F.);
#257=EDGE_CURVE('',#197,#213,#134,.T.);
#259=EDGE_CURVE('',#213,#214,#166,.T.);
#261=EDGE_CURVE('',#198,#214,#162,.T.);
#265=ADVANCED_FACE('',(#264),#255,.T.);
#272=EDGE_CURVE('',#210,#226,#138,.T.);
#274=EDGE_CURVE('',#226,#213,#170,.T.);
#279=ADVANCED_FACE('',(#278),#270,.T.);
#286=EDGE_CURVE('',#208,#224,#142,.T.);
#288=EDGE_CURVE('',#224,#226,#174,.T.);
#293=ADVANCED_FACE('',(#292),#284,.T.);
#300=EDGE_CURVE('',#206,#222,#146,.T.);
#302=EDGE_CURVE('',#222,#224,#178,.T.);
#307=ADVANCED_FACE('',(#306),#298,.T.);
#314=EDGE_CURVE('',#204,#220,#150,.T.);
#316=EDGE_CURVE('',#220,#222,#182,.T.);
#321=ADVANCED_FACE('',(#320),#312,.T.);
#328=EDGE_CURVE('',#202,#218,#154,.T.);
#330=EDGE_CURVE('',#218,#220,#186,.T.);
#335=ADVANCED_FACE('',(#334),#326,.T.);
#342=EDGE_CURVE('',#200,#216,#158,.T.);
#344=EDGE_CURVE('',#216,#218,#190,.T.);
#349=ADVANCED_FACE('',(#348),#340,.T.);
#357=EDGE_CURVE('',#214,#216,#194,.T.);
#362=ADVANCED_FACE('',(#361),#354,.T.);
#378=ADVANCED_FACE('',(#377),#367,.T.);
#379=CLOSED_SHELL('',(#250,#265,#279,#293,#307,#321,#335,#349,#362,#378));
#380=MANIFOLD_SOLID_BREP('',#379);
#382=(LENGTH_UNIT()NAMED_UNIT(*)SI_UNIT(.MILLI.,.METRE.));
#383=(NAMED_UNIT(*)PLANE_ANGLE_UNIT()SI_UNIT($,.RADIAN.));
#386=(NAMED_UNIT(*)SI_UNIT($,.STERADIAN.)SOLID_ANGLE_UNIT());
#388=(GEOMETRIC_REPRESENTATION_CONTEXT(3)GLOBAL_UNCERTAINTY_ASSIGNED_CONTEXT((
#387))GLOBAL_UNIT_ASSIGNED_CONTEXT((#382,#385,#386))REPRESENTATION_CONTEXT
('ID1','3'));
#389=ADVANCED_BREP_SHAPE_REPRESENTATION('',(#380),#388);
#396=PRODUCT_DEFINITION('part definition','',#395,#392);
#397=PRODUCT_DEFINITION_SHAPE('','SHAPE FOR BRS0802KUN.',#396);
#398=SHAPE_ASPECT('','solid data associated with BRS0802KUN',#397,.F.);
#399=PROPERTY_DEFINITION('',
'shape for solid data with which properties are associated',#398);
#400=SHAPE_REPRESENTATION('',(#380),#388);
#401=SHAPE_DEFINITION_REPRESENTATION(#399,#400);
#402=(LENGTH_UNIT()NAMED_UNIT(*)SI_UNIT(.MILLI.,.METRE.));
#406=PROPERTY_DEFINITION('geometric validation property','area of BRS0802KUN',
#398);
#407=REPRESENTATION('surface area',(#405),#388);
#408=PROPERTY_DEFINITION_REPRESENTATION(#406,#407);
#409=(LENGTH_UNIT()NAMED_UNIT(*)SI_UNIT(.MILLI.,.METRE.));
#413=PROPERTY_DEFINITION('geometric validation property','volume of BRS0802KUN',
#398);
#414=REPRESENTATION('volume',(#412),#388);
#415=PROPERTY_DEFINITION_REPRESENTATION(#413,#414);
#417=PROPERTY_DEFINITION('geometric validation property',
'centroid of BRS0802KUN',#398);
#418=REPRESENTATION('centroid',(#416),#388);
#419=PROPERTY_DEFINITION_REPRESENTATION(#417,#418);
#420=(LENGTH_UNIT()NAMED_UNIT(*)SI_UNIT(.MILLI.,.METRE.));
#424=PROPERTY_DEFINITION('geometric validation property','area of BRS0802KUN',
#397);
#425=REPRESENTATION('surface area',(#423),#388);
#426=PROPERTY_DEFINITION_REPRESENTATION(#424,#425);
#427=(LENGTH_UNIT()NAMED_UNIT(*)SI_UNIT(.MILLI.,.METRE.));
#431=PROPERTY_DEFINITION('geometric validation property','volume of BRS0802KUN',
#397);
#432=REPRESENTATION('volume',(#430),#388);
#433=PROPERTY_DEFINITION_REPRESENTATION(#431,#432);
#435=PROPERTY_DEFINITION('geometric validation property',
'centroid of BRS0802KUN',#397);
#436=REPRESENTATION('centroid',(#434),#388);
#437=PROPERTY_DEFINITION_REPRESENTATION(#435,#436);
#438=SHAPE_DEFINITION_REPRESENTATION(#397,#389);
#440=PROPERTY_DEFINITION('LMR','user defined attribute',#396);
#444=REPRESENTATION('',(#443),#388);
#445=PROPERTY_DEFINITION_REPRESENTATION(#440,#444);
#446=PROPERTY_DEFINITION('BENENNUNG','user defined attribute',#396);
#450=REPRESENTATION('',(#449),#388);
#451=PROPERTY_DEFINITION_REPRESENTATION(#446,#450);
#452=PROPERTY_DEFINITION('DIN','user defined attribute',#396);
#456=REPRESENTATION('',(#455),#388);
#457=PROPERTY_DEFINITION_REPRESENTATION(#452,#456);
#458=PROPERTY_DEFINITION('VERSION','user defined attribute',#396);
#462=REPRESENTATION('',(#461),#388);
#463=PROPERTY_DEFINITION_REPRESENTATION(#458,#462);
#465=REPRESENTATION('',(#464),#388);
#466=PROPERTY_DEFINITION('attribute type designation','Real Number',#459);
#467=PROPERTY_DEFINITION_REPRESENTATION(#466,#465);
#468=PROPERTY_DEFINITION('ERZEUGER','user defined attribute',#396);
#472=REPRESENTATION('',(#471),#388);
#473=PROPERTY_DEFINITION_REPRESENTATION(#468,#472);
#474=PROPERTY_DEFINITION('PTC_COMMON_NAME','user defined attribute',#396);
#478=REPRESENTATION('',(#477),#388);
#479=PROPERTY_DEFINITION_REPRESENTATION(#474,#478);
#480=PROPERTY_DEFINITION('PTC_MASTER_MATERIAL','user defined attribute',#396);
#484=REPRESENTATION('',(#483),#388);
#485=PROPERTY_DEFINITION_REPRESENTATION(#480,#484);
ENDSEC;
END-ISO-10303-21;
