  0
SECTION
  2
HEADER
  9
$ACADVER
  1
AC1032
  9
$ACADMAINTVER
 90
      251
  9
$DWGCODEPAGE
  3
ANSI_1252
  9
$REQUIREDVERSIONS
160
                 0
  9
$INSBASE
 10
0.0
 20
0.0
 30
0.0
  9
$EXTMIN
 10
1.000000000000000E+20
 20
1.000000000000000E+20
 30
1.000000000000000E+20
  9
$EXTMAX
 10
-1.000000000000000E+20
 20
-1.000000000000000E+20
 30
-1.000000000000000E+20
  9
$LIMMIN
 10
0.0
 20
0.0
  9
$LIMMAX
 10
12.0
 20
9.0
  9
$ORTHOMODE
 70
     0
  9
$REGENMODE
 70
     1
  9
$FILLMODE
 70
     1
  9
$QTEXTMODE
 70
     0
  9
$MIRRTEXT
 70
     0
  9
$LTSCALE
 40
1.0
  9
$ATTMODE
 70
     1
  9
$TEXTSIZE
 40
0.2
  9
$TRACEWID
 40
0.05
  9
$TEXTSTYLE
  7
Standard
  9
$CLAYER
  8
0
  9
$CELTYPE
  6
ByLayer
  9
$CECOLOR
 62
   256
  9
$CELTSCALE
 40
1.0
  9
$DISPSILH
 70
     0
  9
$DIMSCALE
 40
1.0
  9
$DIMASZ
 40
0.18
  9
$DIMEXO
 40
0.0625
  9
$DIMDLI
 40
0.38
  9
$DIMRND
 40
0.0
  9
$DIMDLE
 40
0.0
  9
$DIMEXE
 40
0.18
  9
$DIMTP
 40
0.0
  9
$DIMTM
 40
0.0
  9
$DIMTXT
 40
0.18
  9
$DIMCEN
 40
0.09
  9
$DIMTSZ
 40
0.0
  9
$DIMTOL
 70
     0
  9
$DIMLIM
 70
     0
  9
$DIMTIH
 70
     1
  9
$DIMTOH
 70
     1
  9
$DIMSE1
 70
     0
  9
$DIMSE2
 70
     0
  9
$DIMTAD
 70
     0
  9
$DIMZIN
 70
     0
  9
$DIMBLK
  1

  9
$DIMASO
 70
     1
  9
$DIMSHO
 70
     1
  9
$DIMPOST
  1

  9
$DIMAPOST
  1

  9
$DIMALT
 70
     0
  9
$DIMALTD
 70
     2
  9
$DIMALTF
 40
25.4
  9
$DIMLFAC
 40
1.0
  9
$DIMTOFL
 70
     0
  9
$DIMTVP
 40
0.0
  9
$DIMTIX
 70
     0
  9
$DIMSOXD
 70
     0
  9
$DIMSAH
 70
     0
  9
$DIMBLK1
  1

  9
$DIMBLK2
  1

  9
$DIMSTYLE
  2
Standard
  9
$DIMCLRD
 70
     0
  9
$DIMCLRE
 70
     0
  9
$DIMCLRT
 70
     0
  9
$DIMTFAC
 40
1.0
  9
$DIMGAP
 40
0.09
  9
$DIMJUST
 70
     0
  9
$DIMSD1
 70
     0
  9
$DIMSD2
 70
     0
  9
$DIMTOLJ
 70
     1
  9
$DIMTZIN
 70
     0
  9
$DIMALTZ
 70
     0
  9
$DIMALTTZ
 70
     0
  9
$DIMUPT
 70
     0
  9
$DIMDEC
 70
     4
  9
$DIMTDEC
 70
     4
  9
$DIMALTU
 70
     2
  9
$DIMALTTD
 70
     2
  9
$DIMTXSTY
  7
Standard
  9
$DIMAUNIT
 70
     0
  9
$DIMADEC
 70
     0
  9
$DIMALTRND
 40
0.0
  9
$DIMAZIN
 70
     0
  9
$DIMDSEP
 70
    46
  9
$DIMATFIT
 70
     3
  9
$DIMFRAC
 70
     0
  9
$DIMLDRBLK
  1

  9
$DIMLUNIT
 70
     2
  9
$DIMLWD
 70
    -2
  9
$DIMLWE
 70
    -2
  9
$DIMTMOVE
 70
     0
  9
$DIMFXL
 40
1.0
  9
$DIMFXLON
 70
     0
  9
$DIMJOGANG
 40
0.7853981633974483
  9
$DIMTFILL
 70
     0
  9
$DIMTFILLCLR
 70
     0
  9
$DIMARCSYM
 70
     0
  9
$DIMLTYPE
  6

  9
$DIMLTEX1
  6

  9
$DIMLTEX2
  6

  9
$DIMTXTDIRECTION
 70
     0
  9
$LUNITS
 70
     2
  9
$LUPREC
 70
     4
  9
$SKETCHINC
 40
0.1
  9
$FILLETRAD
 40
0.0
  9
$AUNITS
 70
     0
  9
$AUPREC
 70
     0
  9
$MENU
  1
.
  9
$ELEVATION
 40
0.0
  9
$PELEVATION
 40
0.0
  9
$THICKNESS
 40
0.0
  9
$LIMCHECK
 70
     0
  9
$CHAMFERA
 40
0.0
  9
$CHAMFERB
 40
0.0
  9
$CHAMFERC
 40
0.0
  9
$CHAMFERD
 40
0.0
  9
$SKPOLY
 70
     0
  9
$TDCREATE
 40
2459963.383240741
  9
$TDUCREATE
 40
2459963.341574074
  9
$TDUPDATE
 40
2459963.383240741
  9
$TDUUPDATE
 40
2459963.341574074
  9
$TDINDWG
 40
0.0000000000
  9
$TDUSRTIMER
 40
0.0000000000
  9
$USRTIMER
 70
     1
  9
$ANGBASE
 50
0.0
  9
$ANGDIR
 70
     0
  9
$PDMODE
 70
     0
  9
$PDSIZE
 40
0.0
  9
$PLINEWID
 40
0.0
  9
$SPLFRAME
 70
     0
  9
$SPLINETYPE
 70
     6
  9
$SPLINESEGS
 70
     8
  9
$HANDSEED
  5
2E4
  9
$SURFTAB1
 70
     6
  9
$SURFTAB2
 70
     6
  9
$SURFTYPE
 70
     6
  9
$SURFU
 70
     6
  9
$SURFV
 70
     6
  9
$UCSBASE
  2

  9
$UCSNAME
  2

  9
$UCSORG
 10
0.0
 20
0.0
 30
0.0
  9
$UCSXDIR
 10
1.0
 20
0.0
 30
0.0
  9
$UCSYDIR
 10
0.0
 20
1.0
 30
0.0
  9
$UCSORTHOREF
  2

  9
$UCSORTHOVIEW
 70
     0
  9
$UCSORGTOP
 10
0.0
 20
0.0
 30
0.0
  9
$UCSORGBOTTOM
 10
0.0
 20
0.0
 30
0.0
  9
$UCSORGLEFT
 10
0.0
 20
0.0
 30
0.0
  9
$UCSORGRIGHT
 10
0.0
 20
0.0
 30
0.0
  9
$UCSORGFRONT
 10
0.0
 20
0.0
 30
0.0
  9
$UCSORGBACK
 10
0.0
 20
0.0
 30
0.0
  9
$PUCSBASE
  2

  9
$PUCSNAME
  2

  9
$PUCSORG
 10
0.0
 20
0.0
 30
0.0
  9
$PUCSXDIR
 10
1.0
 20
0.0
 30
0.0
  9
$PUCSYDIR
 10
0.0
 20
1.0
 30
0.0
  9
$PUCSORTHOREF
  2

  9
$PUCSORTHOVIEW
 70
     0
  9
$PUCSORGTOP
 10
0.0
 20
0.0
 30
0.0
  9
$PUCSORGBOTTOM
 10
0.0
 20
0.0
 30
0.0
  9
$PUCSORGLEFT
 10
0.0
 20
0.0
 30
0.0
  9
$PUCSORGRIGHT
 10
0.0
 20
0.0
 30
0.0
  9
$PUCSORGFRONT
 10
0.0
 20
0.0
 30
0.0
  9
$PUCSORGBACK
 10
0.0
 20
0.0
 30
0.0
  9
$USERI1
 70
     0
  9
$USERI2
 70
     0
  9
$USERI3
 70
     0
  9
$USERI4
 70
     0
  9
$USERI5
 70
     0
  9
$USERR1
 40
0.0
  9
$USERR2
 40
0.0
  9
$USERR3
 40
0.0
  9
$USERR4
 40
0.0
  9
$USERR5
 40
0.0
  9
$WORLDVIEW
 70
     1
  9
$SHADEDGE
 70
     3
  9
$SHADEDIF
 70
    70
  9
$TILEMODE
 70
     1
  9
$MAXACTVP
 70
    64
  9
$PINSBASE
 10
0.0
 20
0.0
 30
0.0
  9
$PLIMCHECK
 70
     0
  9
$PEXTMIN
 10
1.000000000000000E+20
 20
1.000000000000000E+20
 30
1.000000000000000E+20
  9
$PEXTMAX
 10
-1.000000000000000E+20
 20
-1.000000000000000E+20
 30
-1.000000000000000E+20
  9
$PLIMMIN
 10
0.0
 20
0.0
  9
$PLIMMAX
 10
12.0
 20
9.0
  9
$UNITMODE
 70
     0
  9
$VISRETAIN
 70
     1
  9
$PLINEGEN
 70
     0
  9
$PSLTSCALE
 70
     1
  9
$TREEDEPTH
 70
  3020
  9
$CMLSTYLE
  2
Standard
  9
$CMLJUST
 70
     0
  9
$CMLSCALE
 40
1.0
  9
$PROXYGRAPHICS
 70
     1
  9
$MEASUREMENT
 70
     0
  9
$CELWEIGHT
370
    -1
  9
$ENDCAPS
280
     0
  9
$JOINSTYLE
280
     0
  9
$LWDISPLAY
290
     1
  9
$INSUNITS
 70
     4
  9
$HYPERLINKBASE
  1

  9
$STYLESHEET
  1

  9
$XEDIT
290
     1
  9
$CEPSNTYPE
380
     0
  9
$PSTYLEMODE
290
     1
  9
$FINGERPRINTGUID
  2
{17935285-B6C5-4C42-92FB-2F3A6A01B3B3}
  9
$VERSIONGUID
  2
{3B3B9821-59AC-DC4B-8970-AE6A6763BAC8}
  9
$EXTNAMES
290
     1
  9
$PSVPSCALE
 40
0.0
  9
$OLESTARTUP
290
     0
  9
$SORTENTS
280
   127
  9
$INDEXCTL
280
     0
  9
$HIDETEXT
280
     1
  9
$XCLIPFRAME
280
     2
  9
$HALOGAP
280
     0
  9
$OBSCOLOR
 70
   257
  9
$OBSLTYPE
280
     0
  9
$INTERSECTIONDISPLAY
280
     0
  9
$INTERSECTIONCOLOR
 70
   257
  9
$DIMASSOC
280
     2
  9
$PROJECTNAME
  1

  9
$CAMERADISPLAY
290
     0
  9
$LENSLENGTH
 40
50.0
  9
$CAMERAHEIGHT
 40
0.0
  9
$STEPSPERSEC
 40
2.0
  9
$STEPSIZE
 40
6.0
  9
$3DDWFPREC
 40
2.0
  9
$PSOLWIDTH
 40
0.25
  9
$PSOLHEIGHT
 40
4.0
  9
$LOFTANG1
 40
1.570796326794896
  9
$LOFTANG2
 40
1.570796326794896
  9
$LOFTMAG1
 40
0.0
  9
$LOFTMAG2
 40
0.0
  9
$LOFTPARAM
 70
     7
  9
$LOFTNORMALS
280
     1
  9
$LATITUDE
 40
37.795
  9
$LONGITUDE
 40
-122.394
  9
$NORTHDIRECTION
 40
0.0
  9
$TIMEZONE
 70
 -8000
  9
$LIGHTGLYPHDISPLAY
280
     1
  9
$TILEMODELIGHTSYNCH
280
     1
  9
$CMATERIAL
347
11
  9
$SOLIDHIST
280
     0
  9
$SHOWHIST
280
     1
  9
$DWFFRAME
280
     2
  9
$DGNFRAME
280
     0
  9
$REALWORLDSCALE
290
     1
  9
$INTERFERECOLOR
 62
     1
  9
$INTERFEREOBJVS
345
33
  9
$INTERFEREVPVS
346
30
  9
$CSHADOW
280
     0
  9
$SHADOWPLANELOCATION
 40
0.0
  0
ENDSEC
  0
SECTION
  2
CLASSES
  0
CLASS
  1
ACDBDICTIONARYWDFLT
  2
AcDbDictionaryWithDefault
  3
ObjectDBX Classes
 90
        0
 91
        1
280
     0
281
     0
  0
CLASS
  1
MATERIAL
  2
AcDbMaterial
  3
ObjectDBX Classes
 90
     1153
 91
        3
280
     0
281
     0
  0
CLASS
  1
VISUALSTYLE
  2
AcDbVisualStyle
  3
ObjectDBX Classes
 90
     4095
 91
       24
280
     0
281
     0
  0
CLASS
  1
SCALE
  2
AcDbScale
  3
ObjectDBX Classes
 90
     1153
 91
       17
280
     0
281
     0
  0
CLASS
  1
TABLESTYLE
  2
AcDbTableStyle
  3
ObjectDBX Classes
 90
     4095
 91
        1
280
     0
281
     0
  0
CLASS
  1
MLEADERSTYLE
  2
AcDbMLeaderStyle
  3
ACDB_MLEADERSTYLE_CLASS
 90
     4095
 91
        1
280
     0
281
     0
  0
CLASS
  1
ACDBSECTIONVIEWSTYLE
  2
AcDbSectionViewStyle
  3
ObjectDBX Classes
 90
     1025
 91
        1
280
     0
281
     0
  0
CLASS
  1
ACDBDETAILVIEWSTYLE
  2
AcDbDetailViewStyle
  3
ObjectDBX Classes
 90
     1025
 91
        1
280
     0
281
     0
  0
CLASS
  1
DICTIONARYVAR
  2
AcDbDictionaryVar
  3
ObjectDBX Classes
 90
        0
 91
        5
280
     0
281
     0
  0
CLASS
  1
CELLSTYLEMAP
  2
AcDbCellStyleMap
  3
ObjectDBX Classes
 90
     1152
 91
        1
280
     0
281
     0
  0
ENDSEC
  0
SECTION
  2
TABLES
  0
TABLE
  2
VPORT
  5
8
330
0
100
AcDbSymbolTable
 70
     1
  0
VPORT
  5
57
330
8
100
AcDbSymbolTableRecord
100
AcDbViewportTableRecord
  2
*Active
 70
     0
 10
0.0
 20
0.0
 11
1.0
 21
1.0
 12
0.0
 22
0.0
 13
0.0
 23
0.0
 14
1.0
 24
1.0
 15
0.0
 25
0.0
 16
0.0
 26
0.0
 36
1.0
 17
148.5000119155985
 27
104.9999970067687
 37
0.0
 40
89.75999997755989
 41
0.9999999999999998
 42
50.0
 43
0.0
 44
0.0
 50
0.0
 51
0.0
 71
     0
 72
   100
 73
     1
 74
     1
 75
     0
 76
     0
 77
     0
 78
     0
281
     0
 65
     1
110
0.0
120
0.0
130
0.0
111
1.0
121
0.0
131
0.0
112
0.0
122
1.0
132
0.0
 79
     0
146
0.0
 60
     3
 61
     5
292
     1
282
     1
141
0.0
142
0.0
 63
   250
421
  3355443
  0
ENDTAB
  0
TABLE
  2
LTYPE
  5
5
330
0
100
AcDbSymbolTable
 70
     2
  0
LTYPE
  5
5B
330
5
100
AcDbSymbolTableRecord
100
AcDbLinetypeTableRecord
  2
ByBlock
 70
     0
  3

 72
    65
 73
     0
 40
0.0
  0
LTYPE
  5
5C
330
5
100
AcDbSymbolTableRecord
100
AcDbLinetypeTableRecord
  2
ByLayer
 70
     0
  3

 72
    65
 73
     0
 40
0.0
  0
LTYPE
  5
5D
330
5
100
AcDbSymbolTableRecord
100
AcDbLinetypeTableRecord
  2
Continuous
 70
     0
  3
Solid line
 72
    65
 73
     0
 40
0.0
  0
LTYPE
  5
293
330
5
100
AcDbSymbolTableRecord
100
AcDbLinetypeTableRecord
  2
AI-Linetype-0
 70
     0
  3
Adobe Illustrator Linetype No. 0
 72
    65
 73
     2
 40
1.411111110758333
 49
0.7055555553791667
 74
     0
 49
-0.7055555553791667
 74
     0
  0
ENDTAB
  0
TABLE
  2
LAYER
  5
2
330
0
100
AcDbSymbolTable
 70
     1
  0
LAYER
  5
54
330
2
100
AcDbSymbolTableRecord
100
AcDbLayerTableRecord
  2
0
 70
     0
 62
     7
  6
Continuous
370
     0
390
F
347
21
348
0
  0
ENDTAB
  0
TABLE
  2
STYLE
  5
3
330
0
100
AcDbSymbolTable
 70
     2
  0
STYLE
  5
55
330
3
100
AcDbSymbolTableRecord
100
AcDbTextStyleTableRecord
  2
Standard
 70
     0
 40
0.0
 41
1.0
 50
0.0
 71
     0
 42
0.2
  3
txt
  4

  0
STYLE
  5
5A
330
3
100
AcDbSymbolTableRecord
100
AcDbTextStyleTableRecord
  2
Annotative
 70
     0
 40
0.0
 41
1.0
 50
0.0
 71
     0
 42
0.2
  3
txt
  4

1001
AcadAnnotative
1000
AnnotativeData
1002
{
1070
     1
1070
     1
1002
}
  0
ENDTAB
  0
TABLE
  2
VIEW
  5
6
330
0
100
AcDbSymbolTable
 70
     0
  0
ENDTAB
  0
TABLE
  2
UCS
  5
7
330
0
100
AcDbSymbolTable
 70
     0
  0
ENDTAB
  0
TABLE
  2
APPID
  5
9
330
0
100
AcDbSymbolTable
 70
     2
  0
APPID
  5
56
330
9
100
AcDbSymbolTableRecord
100
AcDbRegAppTableRecord
  2
ACAD
 70
     0
  0
APPID
  5
5E
330
9
100
AcDbSymbolTableRecord
100
AcDbRegAppTableRecord
  2
AcadAnnotative
 70
     0
  0
ENDTAB
  0
TABLE
  2
DIMSTYLE
  5
A
330
0
100
AcDbSymbolTable
 70
     2
100
AcDbDimStyleTable
 71
     0
  0
DIMSTYLE
105
58
330
A
100
AcDbSymbolTableRecord
100
AcDbDimStyleTableRecord
  2
Standard
 70
     0
340
55
  0
DIMSTYLE
105
59
330
A
100
AcDbSymbolTableRecord
100
AcDbDimStyleTableRecord
  2
Annotative
 70
     0
340
55
1001
AcadAnnotative
1000
AnnotativeData
1002
{
1070
     1
1070
     1
1002
}
  0
ENDTAB
  0
TABLE
  2
BLOCK_RECORD
  5
1
330
0
100
AcDbSymbolTable
 70
    46
  0
BLOCK_RECORD
  5
70
330
1
100
AcDbSymbolTableRecord
100
AcDbBlockTableRecord
  2
*Model_Space
340
73
 70
     0
280
     1
281
     0
  0
BLOCK_RECORD
  5
6C
330
1
100
AcDbSymbolTableRecord
100
AcDbBlockTableRecord
  2
*Paper_Space
340
6F
 70
     0
280
     1
281
     0
  0
BLOCK_RECORD
  5
74
330
1
100
AcDbSymbolTableRecord
100
AcDbBlockTableRecord
  2
*Paper_Space0
340
77
 70
     0
280
     1
281
     0
  0
BLOCK_RECORD
  5
78
330
1
100
AcDbSymbolTableRecord
100
AcDbBlockTableRecord
  2
Block_0
340
0
102
{BLKREFS
331
79
102
}
 70
     0
280
     1
281
     0
  0
BLOCK_RECORD
  5
7E
330
1
100
AcDbSymbolTableRecord
100
AcDbBlockTableRecord
  2
Block_1
340
0
102
{BLKREFS
331
7F
102
}
 70
     0
280
     1
281
     0
  0
BLOCK_RECORD
  5
82
330
1
100
AcDbSymbolTableRecord
100
AcDbBlockTableRecord
  2
Block_2
340
0
102
{BLKREFS
331
83
102
}
 70
     0
280
     1
281
     0
  0
BLOCK_RECORD
  5
86
330
1
100
AcDbSymbolTableRecord
100
AcDbBlockTableRecord
  2
Block_3
340
0
102
{BLKREFS
331
87
102
}
 70
     0
280
     1
281
     0
  0
BLOCK_RECORD
  5
8A
330
1
100
AcDbSymbolTableRecord
100
AcDbBlockTableRecord
  2
Block_4
340
0
102
{BLKREFS
331
8B
102
}
 70
     0
280
     1
281
     0
  0
BLOCK_RECORD
  5
8E
330
1
100
AcDbSymbolTableRecord
100
AcDbBlockTableRecord
  2
Block_5
340
0
102
{BLKREFS
331
8F
102
}
 70
     0
280
     1
281
     0
  0
BLOCK_RECORD
  5
92
330
1
100
AcDbSymbolTableRecord
100
AcDbBlockTableRecord
  2
Block_6
340
0
102
{BLKREFS
331
93
102
}
 70
     0
280
     1
281
     0
  0
BLOCK_RECORD
  5
9B
330
1
100
AcDbSymbolTableRecord
100
AcDbBlockTableRecord
  2
Block_7
340
0
102
{BLKREFS
331
9C
102
}
 70
     0
280
     1
281
     0
  0
BLOCK_RECORD
  5
B0
330
1
100
AcDbSymbolTableRecord
100
AcDbBlockTableRecord
  2
Block_8
340
0
102
{BLKREFS
331
B1
102
}
 70
     0
280
     1
281
     0
  0
BLOCK_RECORD
  5
B4
330
1
100
AcDbSymbolTableRecord
100
AcDbBlockTableRecord
  2
Block_9
340
0
102
{BLKREFS
331
B5
102
}
 70
     0
280
     1
281
     0
  0
BLOCK_RECORD
  5
B9
330
1
100
AcDbSymbolTableRecord
100
AcDbBlockTableRecord
  2
Block_10
340
0
102
{BLKREFS
331
BA
102
}
 70
     0
280
     1
281
     0
  0
BLOCK_RECORD
  5
BF
330
1
100
AcDbSymbolTableRecord
100
AcDbBlockTableRecord
  2
Block_11
340
0
102
{BLKREFS
331
C0
102
}
 70
     0
280
     1
281
     0
  0
BLOCK_RECORD
  5
C8
330
1
100
AcDbSymbolTableRecord
100
AcDbBlockTableRecord
  2
Block_12
340
0
102
{BLKREFS
331
C9
102
}
 70
     0
280
     1
281
     0
  0
BLOCK_RECORD
  5
CC
330
1
100
AcDbSymbolTableRecord
100
AcDbBlockTableRecord
  2
Block_13
340
0
102
{BLKREFS
331
CD
102
}
 70
     0
280
     1
281
     0
  0
BLOCK_RECORD
  5
D1
330
1
100
AcDbSymbolTableRecord
100
AcDbBlockTableRecord
  2
Block_14
340
0
102
{BLKREFS
331
D2
102
}
 70
     0
280
     1
281
     0
  0
BLOCK_RECORD
  5
D7
330
1
100
AcDbSymbolTableRecord
100
AcDbBlockTableRecord
  2
Block_15
340
0
102
{BLKREFS
331
D8
102
}
 70
     0
280
     1
281
     0
  0
BLOCK_RECORD
  5
DF
330
1
100
AcDbSymbolTableRecord
100
AcDbBlockTableRecord
  2
Block_16
340
0
102
{BLKREFS
331
E0
102
}
 70
     0
280
     1
281
     0
  0
BLOCK_RECORD
  5
E3
330
1
100
AcDbSymbolTableRecord
100
AcDbBlockTableRecord
  2
Block_17
340
0
102
{BLKREFS
331
E4
102
}
 70
     0
280
     1
281
     0
  0
BLOCK_RECORD
  5
F3
330
1
100
AcDbSymbolTableRecord
100
AcDbBlockTableRecord
  2
Block_18
340
0
102
{BLKREFS
331
F4
102
}
 70
     0
280
     1
281
     0
  0
BLOCK_RECORD
  5
F7
330
1
100
AcDbSymbolTableRecord
100
AcDbBlockTableRecord
  2
Block_19
340
0
102
{BLKREFS
331
F8
102
}
 70
     0
280
     1
281
     0
  0
BLOCK_RECORD
  5
124
330
1
100
AcDbSymbolTableRecord
100
AcDbBlockTableRecord
  2
Block_20
340
0
102
{BLKREFS
331
125
102
}
 70
     0
280
     1
281
     0
  0
BLOCK_RECORD
  5
136
330
1
100
AcDbSymbolTableRecord
100
AcDbBlockTableRecord
  2
Block_21
340
0
102
{BLKREFS
331
137
102
}
 70
     0
280
     1
281
     0
  0
BLOCK_RECORD
  5
13A
330
1
100
AcDbSymbolTableRecord
100
AcDbBlockTableRecord
  2
Block_22
340
0
102
{BLKREFS
331
13B
102
}
 70
     0
280
     1
281
     0
  0
BLOCK_RECORD
  5
13F
330
1
100
AcDbSymbolTableRecord
100
AcDbBlockTableRecord
  2
Block_23
340
0
102
{BLKREFS
331
140
102
}
 70
     0
280
     1
281
     0
  0
BLOCK_RECORD
  5
145
330
1
100
AcDbSymbolTableRecord
100
AcDbBlockTableRecord
  2
Block_24
340
0
102
{BLKREFS
331
146
102
}
 70
     0
280
     1
281
     0
  0
BLOCK_RECORD
  5
14B
330
1
100
AcDbSymbolTableRecord
100
AcDbBlockTableRecord
  2
Block_25
340
0
102
{BLKREFS
331
14C
102
}
 70
     0
280
     1
281
     0
  0
BLOCK_RECORD
  5
14F
330
1
100
AcDbSymbolTableRecord
100
AcDbBlockTableRecord
  2
Block_26
340
0
102
{BLKREFS
331
150
102
}
 70
     0
280
     1
281
     0
  0
BLOCK_RECORD
  5
15A
330
1
100
AcDbSymbolTableRecord
100
AcDbBlockTableRecord
  2
Block_27
340
0
102
{BLKREFS
331
15B
102
}
 70
     0
280
     1
281
     0
  0
BLOCK_RECORD
  5
15E
330
1
100
AcDbSymbolTableRecord
100
AcDbBlockTableRecord
  2
Block_28
340
0
102
{BLKREFS
331
15F
102
}
 70
     0
280
     1
281
     0
  0
BLOCK_RECORD
  5
163
330
1
100
AcDbSymbolTableRecord
100
AcDbBlockTableRecord
  2
Block_29
340
0
102
{BLKREFS
331
164
102
}
 70
     0
280
     1
281
     0
  0
BLOCK_RECORD
  5
169
330
1
100
AcDbSymbolTableRecord
100
AcDbBlockTableRecord
  2
Block_30
340
0
102
{BLKREFS
331
16A
102
}
 70
     0
280
     1
281
     0
  0
BLOCK_RECORD
  5
16F
330
1
100
AcDbSymbolTableRecord
100
AcDbBlockTableRecord
  2
Block_31
340
0
102
{BLKREFS
331
170
102
}
 70
     0
280
     1
281
     0
  0
BLOCK_RECORD
  5
173
330
1
100
AcDbSymbolTableRecord
100
AcDbBlockTableRecord
  2
Block_32
340
0
102
{BLKREFS
331
174
102
}
 70
     0
280
     1
281
     0
  0
BLOCK_RECORD
  5
294
330
1
100
AcDbSymbolTableRecord
100
AcDbBlockTableRecord
  2
Block_33
340
0
102
{BLKREFS
331
295
102
}
 70
     0
280
     1
281
     0
  0
BLOCK_RECORD
  5
298
330
1
100
AcDbSymbolTableRecord
100
AcDbBlockTableRecord
  2
Block_34
340
0
102
{BLKREFS
331
299
102
}
 70
     0
280
     1
281
     0
  0
BLOCK_RECORD
  5
29D
330
1
100
AcDbSymbolTableRecord
100
AcDbBlockTableRecord
  2
Block_35
340
0
102
{BLKREFS
331
29E
102
}
 70
     0
280
     1
281
     0
  0
BLOCK_RECORD
  5
2A3
330
1
100
AcDbSymbolTableRecord
100
AcDbBlockTableRecord
  2
Block_36
340
0
102
{BLKREFS
331
2A4
102
}
 70
     0
280
     1
281
     0
  0
BLOCK_RECORD
  5
2AA
330
1
100
AcDbSymbolTableRecord
100
AcDbBlockTableRecord
  2
Block_37
340
0
102
{BLKREFS
331
2AB
102
}
 70
     0
280
     1
281
     0
  0
BLOCK_RECORD
  5
2AE
330
1
100
AcDbSymbolTableRecord
100
AcDbBlockTableRecord
  2
Block_38
340
0
102
{BLKREFS
331
2AF
102
}
 70
     0
280
     1
281
     0
  0
BLOCK_RECORD
  5
2B3
330
1
100
AcDbSymbolTableRecord
100
AcDbBlockTableRecord
  2
Block_39
340
0
102
{BLKREFS
331
2B4
102
}
 70
     0
280
     1
281
     0
  0
BLOCK_RECORD
  5
2B9
330
1
100
AcDbSymbolTableRecord
100
AcDbBlockTableRecord
  2
Block_40
340
0
102
{BLKREFS
331
2BA
102
}
 70
     0
280
     1
281
     0
  0
BLOCK_RECORD
  5
2BF
330
1
100
AcDbSymbolTableRecord
100
AcDbBlockTableRecord
  2
Block_41
340
0
102
{BLKREFS
331
2C0
102
}
 70
     0
280
     1
281
     0
  0
BLOCK_RECORD
  5
2C3
330
1
100
AcDbSymbolTableRecord
100
AcDbBlockTableRecord
  2
Block_42
340
0
102
{BLKREFS
331
2C4
102
}
 70
     0
280
     1
281
     0
  0
BLOCK_RECORD
  5
2CD
330
1
100
AcDbSymbolTableRecord
100
AcDbBlockTableRecord
  2
Block_43
340
0
102
{BLKREFS
331
2CE
102
}
 70
     0
280
     1
281
     0
  0
BLOCK_RECORD
  5
2D1
330
1
100
AcDbSymbolTableRecord
100
AcDbBlockTableRecord
  2
Block_44
340
0
102
{BLKREFS
331
2D2
102
}
 70
     0
280
     1
281
     0
  0
ENDTAB
  0
ENDSEC
  0
SECTION
  2
BLOCKS
  0
BLOCK
  5
71
330
70
100
AcDbEntity
  8
0
100
AcDbBlockBegin
  2
*Model_Space
 70
     0
 10
0.0
 20
0.0
 30
0.0
  3
*Model_Space
  1

  0
ENDBLK
  5
72
330
70
100
AcDbEntity
  8
0
100
AcDbBlockEnd
  0
BLOCK
  5
6D
330
6C
100
AcDbEntity
 67
     1
  8
0
100
AcDbBlockBegin
  2
*Paper_Space
 70
     0
 10
0.0
 20
0.0
 30
0.0
  3
*Paper_Space
  1

  0
ENDBLK
  5
6E
330
6C
100
AcDbEntity
 67
     1
  8
0
100
AcDbBlockEnd
  0
BLOCK
  5
75
330
74
100
AcDbEntity
 67
     1
  8
0
100
AcDbBlockBegin
  2
*Paper_Space0
 70
     0
 10
0.0
 20
0.0
 30
0.0
  3
*Paper_Space0
  1

  0
ENDBLK
  5
76
330
74
100
AcDbEntity
 67
     1
  8
0
100
AcDbBlockEnd
  0
BLOCK
  5
7A
330
78
100
AcDbEntity
  8
0
100
AcDbBlockBegin
  2
Block_0
 70
     0
 10
0.0
 20
0.0
 30
0.0
  3
Block_0
  1

  0
SPLINE
  5
7C
330
78
100
AcDbEntity
  8
0
100
AcDbSpline
210
0.0
220
0.0
230
1.0
 70
     8
 71
     3
 72
    38
 73
    34
 74
     0
 42
0.0000000001
 43
0.0000000001
 40
0.0
 40
0.0
 40
0.0
 40
0.0
 40
1.0
 40
1.0
 40
1.0
 40
2.0
 40
2.0
 40
2.0
 40
3.0
 40
3.0
 40
3.0
 40
4.0
 40
4.0
 40
4.0
 40
5.0
 40
5.0
 40
5.0
 40
6.0
 40
6.0
 40
6.0
 40
7.0
 40
7.0
 40
7.0
 40
8.0
 40
8.0
 40
8.0
 40
9.0
 40
9.0
 40
9.0
 40
10.0
 40
10.0
 40
10.0
 40
11.0
 40
11.0
 40
11.0
 40
11.0
 10
156.7563224567608
 20
143.8551078160495
 30
0.0
 10
156.7563224567608
 20
143.8551078160495
 30
0.0
 10
157.1877495923322
 20
143.8551078160495
 30
0.0
 10
157.1877495923322
 20
143.8551078160495
 30
0.0
 10
157.1877495923322
 20
143.8551078160495
 30
0.0
 10
157.1877495923322
 20
139.538120519021
 30
0.0
 10
157.1877495923322
 20
139.538120519021
 30
0.0
 10
157.1877495923322
 20
139.538120519021
 30
0.0
 10
157.1877495923322
 20
139.1051078172379
 30
0.0
 10
157.1877495923322
 20
139.1051078172379
 30
0.0
 10
157.1877495923322
 20
138.6908942549679
 30
0.0
 10
156.8980148304354
 20
138.3551078174245
 30
0.0
 10
156.5406088889754
 20
138.3551078174245
 30
0.0
 10
156.5406088889754
 20
138.3551078174245
 30
0.0
 10
114.9078903064201
 20
138.3551078174245
 30
0.0
 10
114.9078903064201
 20
138.3551078174245
 30
0.0
 10
114.5504843649627
 20
138.3551078174245
 30
0.0
 10
114.2607496030639
 20
138.6908942549679
 30
0.0
 10
114.2607496030639
 20
139.1051078172379
 30
0.0
 10
114.2607496030639
 20
139.1051078172379
 30
0.0
 10
114.2607496030639
 20
139.538120519021
 30
0.0
 10
114.2607496030639
 20
139.538120519021
 30
0.0
 10
114.2607496030639
 20
139.538120519021
 30
0.0
 10
114.2607496030639
 20
143.8551078160495
 30
0.0
 10
114.2607496030639
 20
143.8551078160495
 30
0.0
 10
114.2607496030639
 20
143.8551078160495
 30
0.0
 10
114.6921767386353
 20
143.8551078160495
 30
0.0
 10
114.6921767386353
 20
143.8551078160495
 30
0.0
 10
114.6921767386353
 20
143.8551078160495
 30
0.0
 10
114.7137480954132
 20
143.8551078160495
 30
0.0
 10
114.7137480954132
 20
143.8551078160495
 30
0.0
 10
114.7137480954132
 20
143.8551078160495
 30
0.0
 10
156.7347510999816
 20
143.8551078160495
 30
0.0
 10
156.7347510999816
 20
143.8551078160495
 30
0.0
  0
HATCH
  5
7D
330
78
100
AcDbEntity
  8
0
 62
   254
420
 14606046
440
 33554687
100
AcDbHatch
 10
0.0
 20
0.0
 30
0.0
210
0.0
220
0.0
230
1.0
  2
SOLID
 70
     1
 71
     1
 91
        1
 92
        1
 93
        2
 72
     4
 94
        3
 73
     0
 74
     0
 95
       38
 96
       34
 40
0.0
 40
0.0
 40
0.0
 40
0.0
 40
1.0
 40
1.0
 40
1.0
 40
2.0
 40
2.0
 40
2.0
 40
3.0
 40
3.0
 40
3.0
 40
4.0
 40
4.0
 40
4.0
 40
5.0
 40
5.0
 40
5.0
 40
6.0
 40
6.0
 40
6.0
 40
7.0
 40
7.0
 40
7.0
 40
8.0
 40
8.0
 40
8.0
 40
9.0
 40
9.0
 40
9.0
 40
10.0
 40
10.0
 40
10.0
 40
11.0
 40
11.0
 40
11.0
 40
11.0
 10
156.7563224567608
 20
143.8551078160495
 10
156.7563224567608
 20
143.8551078160495
 10
157.1877495923322
 20
143.8551078160495
 10
157.1877495923322
 20
143.8551078160495
 10
157.1877495923322
 20
143.8551078160495
 10
157.1877495923322
 20
139.538120519021
 10
157.1877495923322
 20
139.538120519021
 10
157.1877495923322
 20
139.538120519021
 10
157.1877495923322
 20
139.1051078172379
 10
157.1877495923322
 20
139.1051078172379
 10
157.1877495923322
 20
138.6908942549679
 10
156.8980148304354
 20
138.3551078174245
 10
156.5406088889754
 20
138.3551078174245
 10
156.5406088889754
 20
138.3551078174245
 10
114.9078903064201
 20
138.3551078174245
 10
114.9078903064201
 20
138.3551078174245
 10
114.5504843649627
 20
138.3551078174245
 10
114.2607496030639
 20
138.6908942549679
 10
114.2607496030639
 20
139.1051078172379
 10
114.2607496030639
 20
139.1051078172379
 10
114.2607496030639
 20
139.538120519021
 10
114.2607496030639
 20
139.538120519021
 10
114.2607496030639
 20
139.538120519021
 10
114.2607496030639
 20
143.8551078160495
 10
114.2607496030639
 20
143.8551078160495
 10
114.2607496030639
 20
143.8551078160495
 10
114.6921767386353
 20
143.8551078160495
 10
114.6921767386353
 20
143.8551078160495
 10
114.6921767386353
 20
143.8551078160495
 10
114.7137480954132
 20
143.8551078160495
 10
114.7137480954132
 20
143.8551078160495
 10
114.7137480954132
 20
143.8551078160495
 10
156.7347510999816
 20
143.8551078160495
 10
156.7347510999816
 20
143.8551078160495
 97
        0
 72
     1
 10
156.7347510999816
 20
143.8551078160495
 11
156.7563224567608
 21
143.8551078160495
 97
        0
 75
     2
 76
     1
 98
        1
 10
0.0
 20
0.0
450
        0
451
        0
460
0.0
461
0.0
452
        0
462
0.0
453
        0
470

  0
ENDBLK
  5
7B
330
78
100
AcDbEntity
  8
0
100
AcDbBlockEnd
  0
BLOCK
  5
80
330
7E
100
AcDbEntity
  8
0
100
AcDbBlockBegin
  2
Block_1
 70
     0
 10
0.0
 20
0.0
 30
0.0
  3
Block_1
  1

  0
ENDBLK
  5
81
330
7E
100
AcDbEntity
  8
0
100
AcDbBlockEnd
  0
BLOCK
  5
84
330
82
100
AcDbEntity
  8
0
100
AcDbBlockBegin
  2
Block_2
 70
     0
 10
0.0
 20
0.0
 30
0.0
  3
Block_2
  1

  0
ENDBLK
  5
85
330
82
100
AcDbEntity
  8
0
100
AcDbBlockEnd
  0
BLOCK
  5
88
330
86
100
AcDbEntity
  8
0
100
AcDbBlockBegin
  2
Block_3
 70
     0
 10
0.0
 20
0.0
 30
0.0
  3
Block_3
  1

  0
ENDBLK
  5
89
330
86
100
AcDbEntity
  8
0
100
AcDbBlockEnd
  0
BLOCK
  5
8C
330
8A
100
AcDbEntity
  8
0
100
AcDbBlockBegin
  2
Block_4
 70
     0
 10
0.0
 20
0.0
 30
0.0
  3
Block_4
  1

  0
ENDBLK
  5
8D
330
8A
100
AcDbEntity
  8
0
100
AcDbBlockEnd
  0
BLOCK
  5
90
330
8E
100
AcDbEntity
  8
0
100
AcDbBlockBegin
  2
Block_5
 70
     0
 10
0.0
 20
0.0
 30
0.0
  3
Block_5
  1

  0
ENDBLK
  5
91
330
8E
100
AcDbEntity
  8
0
100
AcDbBlockEnd
  0
BLOCK
  5
94
330
92
100
AcDbEntity
  8
0
100
AcDbBlockBegin
  2
Block_6
 70
     0
 10
0.0
 20
0.0
 30
0.0
  3
Block_6
  1

  0
ENDBLK
  5
95
330
92
100
AcDbEntity
  8
0
100
AcDbBlockEnd
  0
BLOCK
  5
9D
330
9B
100
AcDbEntity
  8
0
100
AcDbBlockBegin
  2
Block_7
 70
     0
 10
0.0
 20
0.0
 30
0.0
  3
Block_7
  1

  0
LINE
  5
9F
330
9B
100
AcDbEntity
  8
0
 62
    18
420
        0
370
     5
100
AcDbLine
 10
127.8643592254059
 20
76.31828626448876
 30
0.0
 11
114.2605731096811
 21
76.31828626448876
 31
0.0
  0
LINE
  5
A0
330
9B
100
AcDbEntity
  8
0
 62
    18
420
        0
370
     5
100
AcDbLine
 10
157.1879260857148
 20
76.31828626448876
 30
0.0
 11
143.4971805194126
 21
76.31828626448876
 31
0.0
  0
ENDBLK
  5
9E
330
9B
100
AcDbEntity
  8
0
100
AcDbBlockEnd
  0
BLOCK
  5
B2
330
B0
100
AcDbEntity
  8
0
100
AcDbBlockBegin
  2
Block_8
 70
     0
 10
0.0
 20
0.0
 30
0.0
  3
Block_8
  1

  0
INSERT
  5
B5
330
B0
100
AcDbEntity
  8
0
100
AcDbBlockReference
  2
Block_9
 10
0.0
 20
0.0
 30
0.0
  0
ENDBLK
  5
B3
330
B0
100
AcDbEntity
  8
0
100
AcDbBlockEnd
  0
BLOCK
  5
B6
330
B4
100
AcDbEntity
  8
0
100
AcDbBlockBegin
  2
Block_9
 70
     0
 10
0.0
 20
0.0
 30
0.0
  3
Block_9
  1

  0
LINE
  5
B8
330
B4
100
AcDbEntity
  8
0
 62
    18
420
        0
370
     5
100
AcDbLine
 10
175.4072417350572
 20
118.1970871523952
 30
0.0
 11
175.4145356481549
 21
77.36700913297021
 31
0.0
  0
INSERT
  5
BA
330
B4
100
AcDbEntity
  8
0
100
AcDbBlockReference
  2
Block_10
 10
0.0
 20
0.0
 30
0.0
  0
INSERT
  5
C0
330
B4
100
AcDbEntity
  8
0
100
AcDbBlockReference
  2
Block_11
 10
0.0
 20
0.0
 30
0.0
  0
ENDBLK
  5
B7
330
B4
100
AcDbEntity
  8
0
100
AcDbBlockEnd
  0
BLOCK
  5
BB
330
B9
100
AcDbEntity
  8
0
100
AcDbBlockBegin
  2
Block_10
 70
     0
 10
0.0
 20
0.0
 30
0.0
  3
Block_10
  1

  0
LWPOLYLINE
  5
BD
330
B9
100
AcDbEntity
  8
0
100
AcDbPolyline
 90
        3
 70
     1
 43
0.0
 10
175.1860450730574
 20
117.5645945361118
 10
175.4063643123008
 20
119.2458118988372
 10
175.6286644814483
 20
117.5646698975756
  0
HATCH
  5
BE
330
B9
100
AcDbEntity
  8
0
 62
    18
420
        0
440
 33554687
100
AcDbHatch
 10
0.0
 20
0.0
 30
0.0
210
0.0
220
0.0
230
1.0
  2
SOLID
 70
     1
 71
     1
 91
        1
 92
        1
 93
        3
 72
     1
 10
175.1860450730574
 20
117.5645945361118
 11
175.4063643123008
 21
119.2458118988372
 72
     1
 10
175.4063643123008
 20
119.2458118988372
 11
175.6286644814483
 21
117.5646698975756
 72
     1
 10
175.6286644814483
 20
117.5646698975756
 11
175.1860450730574
 21
117.5645945361118
 97
        1
330
BD
 75
     2
 76
     1
 98
        1
 10
0.0
 20
0.0
450
        0
451
        0
460
0.0
461
0.0
452
        0
462
0.0
453
        0
470

  0
ENDBLK
  5
BC
330
B9
100
AcDbEntity
  8
0
100
AcDbBlockEnd
  0
BLOCK
  5
C1
330
BF
100
AcDbEntity
  8
0
100
AcDbBlockBegin
  2
Block_11
 70
     0
 10
0.0
 20
0.0
 30
0.0
  3
Block_11
  1

  0
LWPOLYLINE
  5
C3
330
BF
100
AcDbEntity
  8
0
100
AcDbPolyline
 90
        3
 70
     1
 43
0.0
 10
175.1931129017639
 20
77.99942504204944
 10
175.4140350327172
 20
76.31828573226872
 10
175.6357376931164
 20
77.99950309499402
  0
HATCH
  5
C4
330
BF
100
AcDbEntity
  8
0
 62
    18
420
        0
440
 33554687
100
AcDbHatch
 10
0.0
 20
0.0
 30
0.0
210
0.0
220
0.0
230
1.0
  2
SOLID
 70
     1
 71
     1
 91
        1
 92
        1
 93
        3
 72
     1
 10
175.1931129017639
 20
77.99942504204944
 11
175.4140350327172
 21
76.31828573226872
 72
     1
 10
175.4140350327172
 20
76.31828573226872
 11
175.6357376931164
 21
77.99950309499402
 72
     1
 10
175.6357376931164
 20
77.99950309499402
 11
175.1931129017639
 21
77.99942504204944
 97
        1
330
C3
 75
     2
 76
     1
 98
        1
 10
0.0
 20
0.0
450
        0
451
        0
460
0.0
461
0.0
452
        0
462
0.0
453
        0
470

  0
ENDBLK
  5
C2
330
BF
100
AcDbEntity
  8
0
100
AcDbBlockEnd
  0
BLOCK
  5
CA
330
C8
100
AcDbEntity
  8
0
100
AcDbBlockBegin
  2
Block_12
 70
     0
 10
0.0
 20
0.0
 30
0.0
  3
Block_12
  1

  0
INSERT
  5
CD
330
C8
100
AcDbEntity
  8
0
100
AcDbBlockReference
  2
Block_13
 10
0.0
 20
0.0
 30
0.0
  0
ENDBLK
  5
CB
330
C8
100
AcDbEntity
  8
0
100
AcDbBlockEnd
  0
BLOCK
  5
CE
330
CC
100
AcDbEntity
  8
0
100
AcDbBlockBegin
  2
Block_13
 70
     0
 10
0.0
 20
0.0
 30
0.0
  3
Block_13
  1

  0
LINE
  5
D0
330
CC
100
AcDbEntity
  8
0
 62
    18
420
        0
370
     5
100
AcDbLine
 10
182.4573497316128
 20
119.6279483496151
 30
0.0
 11
182.4600089146905
 21
75.99035166854523
 31
0.0
  0
INSERT
  5
D2
330
CC
100
AcDbEntity
  8
0
100
AcDbBlockReference
  2
Block_14
 10
0.0
 20
0.0
 30
0.0
  0
INSERT
  5
D8
330
CC
100
AcDbEntity
  8
0
100
AcDbBlockReference
  2
Block_15
 10
0.0
 20
0.0
 30
0.0
  0
ENDBLK
  5
CF
330
CC
100
AcDbEntity
  8
0
100
AcDbBlockEnd
  0
BLOCK
  5
D3
330
D1
100
AcDbEntity
  8
0
100
AcDbBlockBegin
  2
Block_14
 70
     0
 10
0.0
 20
0.0
 30
0.0
  3
Block_14
  1

  0
LWPOLYLINE
  5
D5
330
D1
100
AcDbEntity
  8
0
100
AcDbPolyline
 90
        3
 70
     1
 43
0.0
 10
182.2360777081493
 20
118.9954826481402
 10
182.4565961169755
 20
120.6766730960577
 10
182.6786971165402
 20
118.9955095629487
  0
HATCH
  5
D6
330
D1
100
AcDbEntity
  8
0
 62
    18
420
        0
440
 33554687
100
AcDbHatch
 10
0.0
 20
0.0
 30
0.0
210
0.0
220
0.0
230
1.0
  2
SOLID
 70
     1
 71
     1
 91
        1
 92
        1
 93
        3
 72
     1
 10
182.2360777081493
 20
118.9954826481402
 11
182.4565961169755
 21
120.6766730960577
 72
     1
 10
182.4565961169755
 20
120.6766730960577
 11
182.6786971165402
 21
118.9955095629487
 72
     1
 10
182.6786971165402
 20
118.9955095629487
 11
182.2360777081493
 21
118.9954826481402
 97
        1
330
D5
 75
     2
 76
     1
 98
        1
 10
0.0
 20
0.0
450
        0
451
        0
460
0.0
461
0.0
452
        0
462
0.0
453
        0
470

  0
ENDBLK
  5
D4
330
D1
100
AcDbEntity
  8
0
100
AcDbBlockEnd
  0
BLOCK
  5
D9
330
D7
100
AcDbEntity
  8
0
100
AcDbBlockBegin
  2
Block_15
 70
     0
 10
0.0
 20
0.0
 30
0.0
  3
Block_15
  1

  0
LWPOLYLINE
  5
DB
330
D7
100
AcDbEntity
  8
0
100
AcDbPolyline
 90
        3
 70
     1
 43
0.0
 10
182.2386561468015
 20
76.62279314669252
 10
182.4593844911338
 20
74.94162826784372
 10
182.6812809381541
 20
76.62282006150099
  0
HATCH
  5
DC
330
D7
100
AcDbEntity
  8
0
 62
    18
420
        0
440
 33554687
100
AcDbHatch
 10
0.0
 20
0.0
 30
0.0
210
0.0
220
0.0
230
1.0
  2
SOLID
 70
     1
 71
     1
 91
        1
 92
        1
 93
        3
 72
     1
 10
182.2386561468015
 20
76.62279314669252
 11
182.4593844911338
 21
74.94162826784372
 72
     1
 10
182.4593844911338
 20
74.94162826784372
 11
182.6812809381541
 21
76.62282006150099
 72
     1
 10
182.6812809381541
 20
76.62282006150099
 11
182.2386561468015
 21
76.62279314669252
 97
        1
330
DB
 75
     2
 76
     1
 98
        1
 10
0.0
 20
0.0
450
        0
451
        0
460
0.0
461
0.0
452
        0
462
0.0
453
        0
470

  0
ENDBLK
  5
DA
330
D7
100
AcDbEntity
  8
0
100
AcDbBlockEnd
  0
BLOCK
  5
E1
330
DF
100
AcDbEntity
  8
0
100
AcDbBlockBegin
  2
Block_16
 70
     0
 10
0.0
 20
0.0
 30
0.0
  3
Block_16
  1

  0
INSERT
  5
E4
330
DF
100
AcDbEntity
  8
0
100
AcDbBlockReference
  2
Block_17
 10
0.0
 20
0.0
 30
0.0
  0
ENDBLK
  5
E2
330
DF
100
AcDbEntity
  8
0
100
AcDbBlockEnd
  0
BLOCK
  5
E5
330
E3
100
AcDbEntity
  8
0
100
AcDbBlockBegin
  2
Block_17
 70
     0
 10
0.0
 20
0.0
 30
0.0
  3
Block_17
  1

  0
SPLINE
  5
E7
330
E3
100
AcDbEntity
  8
0
100
AcDbSpline
210
0.0
220
0.0
230
1.0
 70
    11
 71
     3
 72
    17
 73
    13
 74
     0
 42
0.0000000001
 43
0.0000000001
 40
0.0
 40
0.0
 40
0.0
 40
0.0
 40
1.0
 40
1.0
 40
1.0
 40
2.0
 40
2.0
 40
2.0
 40
3.0
 40
3.0
 40
3.0
 40
4.0
 40
4.0
 40
4.0
 40
4.0
 10
178.1834390830583
 20
95.84358992829605
 30
0.0
 10
178.1834390830583
 20
95.84358992829605
 30
0.0
 10
176.5222140400708
 20
95.84358992829605
 30
0.0
 10
176.5222140400708
 20
95.84358992829605
 30
0.0
 10
176.5222140400708
 20
95.84358992829605
 30
0.0
 10
176.5222140400708
 20
94.18477645214826
 30
0.0
 10
176.5222140400708
 20
94.18477645214826
 30
0.0
 10
176.5222140400708
 20
94.18477645214826
 30
0.0
 10
178.1834390830583
 20
94.18477645214826
 30
0.0
 10
178.1834390830583
 20
94.18477645214826
 30
0.0
 10
178.1834390830583
 20
94.18477645214826
 30
0.0
 10
178.1834390830583
 20
95.84358992829605
 30
0.0
 10
178.1834390830583
 20
95.84358992829605
 30
0.0
  0
SPLINE
  5
E8
330
E3
100
AcDbEntity
  8
0
100
AcDbSpline
210
0.0
220
0.0
230
1.0
 70
    11
 71
     3
 72
    17
 73
    13
 74
     0
 42
0.0000000001
 43
0.0000000001
 40
0.0
 40
0.0
 40
0.0
 40
0.0
 40
1.0
 40
1.0
 40
1.0
 40
2.0
 40
2.0
 40
2.0
 40
3.0
 40
3.0
 40
3.0
 40
4.0
 40
4.0
 40
4.0
 40
4.0
 10
176.2965602857869
 20
93.95671113102471
 30
0.0
 10
176.2965602857869
 20
93.95671113102471
 30
0.0
 10
176.2965602857869
 20
96.06924368257992
 30
0.0
 10
176.2965602857869
 20
96.06924368257992
 30
0.0
 10
176.2965602857869
 20
96.06924368257992
 30
0.0
 10
178.4118489137304
 20
96.06924368257992
 30
0.0
 10
178.4118489137304
 20
96.06924368257992
 30
0.0
 10
178.4118489137304
 20
96.06924368257992
 30
0.0
 10
178.4118489137304
 20
93.95671113102471
 30
0.0
 10
178.4118489137304
 20
93.95671113102471
 30
0.0
 10
178.4118489137304
 20
93.95671113102471
 30
0.0
 10
176.2965602857869
 20
93.95671113102471
 30
0.0
 10
176.2965602857869
 20
93.95671113102471
 30
0.0
  0
HATCH
  5
E9
330
E3
100
AcDbEntity
  8
0
 62
    18
420
        0
440
 33554687
100
AcDbHatch
 10
0.0
 20
0.0
 30
0.0
210
0.0
220
0.0
230
1.0
  2
SOLID
 70
     1
 71
     1
 91
        2
 92
        1
 93
        1
 72
     4
 94
        3
 73
     0
 74
     0
 95
       17
 96
       13
 40
0.0
 40
0.0
 40
0.0
 40
0.0
 40
1.0
 40
1.0
 40
1.0
 40
2.0
 40
2.0
 40
2.0
 40
3.0
 40
3.0
 40
3.0
 40
4.0
 40
4.0
 40
4.0
 40
4.0
 10
178.1834390830583
 20
95.84358992829605
 10
178.1834390830583
 20
95.84358992829605
 10
176.5222140400708
 20
95.84358992829605
 10
176.5222140400708
 20
95.84358992829605
 10
176.5222140400708
 20
95.84358992829605
 10
176.5222140400708
 20
94.18477645214826
 10
176.5222140400708
 20
94.18477645214826
 10
176.5222140400708
 20
94.18477645214826
 10
178.1834390830583
 20
94.18477645214826
 10
178.1834390830583
 20
94.18477645214826
 10
178.1834390830583
 20
94.18477645214826
 10
178.1834390830583
 20
95.84358992829605
 10
178.1834390830583
 20
95.84358992829605
 97
        0
 97
        1
330
E7
 92
        1
 93
        1
 72
     4
 94
        3
 73
     0
 74
     0
 95
       17
 96
       13
 40
0.0
 40
0.0
 40
0.0
 40
0.0
 40
1.0
 40
1.0
 40
1.0
 40
2.0
 40
2.0
 40
2.0
 40
3.0
 40
3.0
 40
3.0
 40
4.0
 40
4.0
 40
4.0
 40
4.0
 10
176.2965602857869
 20
93.95671113102471
 10
176.2965602857869
 20
93.95671113102471
 10
176.2965602857869
 20
96.06924368257992
 10
176.2965602857869
 20
96.06924368257992
 10
176.2965602857869
 20
96.06924368257992
 10
178.4118489137304
 20
96.06924368257992
 10
178.4118489137304
 20
96.06924368257992
 10
178.4118489137304
 20
96.06924368257992
 10
178.4118489137304
 20
93.95671113102471
 10
178.4118489137304
 20
93.95671113102471
 10
178.4118489137304
 20
93.95671113102471
 10
176.2965602857869
 20
93.95671113102471
 10
176.2965602857869
 20
93.95671113102471
 97
        0
 97
        1
330
E8
 75
     2
 76
     1
 98
        1
 10
0.0
 20
0.0
450
        0
451
        0
460
0.0
461
0.0
452
        0
462
0.0
453
        0
470

  0
SPLINE
  5
EA
330
E3
100
AcDbEntity
  8
0
100
AcDbSpline
210
0.0
220
0.0
230
1.0
 70
    11
 71
     3
 72
    26
 73
    22
 74
     0
 42
0.0000000001
 43
0.0000000001
 40
0.0
 40
0.0
 40
0.0
 40
0.0
 40
1.0
 40
1.0
 40
1.0
 40
2.0
 40
2.0
 40
2.0
 40
3.0
 40
3.0
 40
3.0
 40
4.0
 40
4.0
 40
4.0
 40
5.0
 40
5.0
 40
5.0
 40
6.0
 40
6.0
 40
6.0
 40
7.0
 40
7.0
 40
7.0
 40
7.0
 10
176.979033701415
 20
97.62229272733055
 30
0.0
 10
176.979033701415
 20
97.62229272733055
 30
0.0
 10
176.979033701415
 20
97.10346134725192
 30
0.0
 10
176.979033701415
 20
97.10346134725192
 30
0.0
 10
176.979033701415
 20
97.10346134725192
 30
0.0
 10
176.7871418828865
 20
97.10346134725192
 30
0.0
 10
176.7871418828865
 20
97.10346134725192
 30
0.0
 10
176.7871418828865
 20
97.37700192878076
 30
0.0
 10
176.7168619349874
 20
97.62504880371874
 30
0.0
 10
176.4119709845428
 20
97.67879229328864
 30
0.0
 10
176.4119709845428
 20
97.67879229328864
 30
0.0
 10
176.4119709845428
 20
97.86207137310393
 30
0.0
 10
176.4119709845428
 20
97.86207137310393
 30
0.0
 10
176.4119709845428
 20
97.86207137310393
 30
0.0
 10
178.4118489137304
 20
97.86207137310393
 30
0.0
 10
178.4118489137304
 20
97.86207137310393
 30
0.0
 10
178.4118489137304
 20
97.86207137310393
 30
0.0
 10
178.4118489137304
 20
97.62229272733055
 30
0.0
 10
178.4118489137304
 20
97.62229272733055
 30
0.0
 10
178.4118489137304
 20
97.62229272733055
 30
0.0
 10
176.979033701415
 20
97.62229272733055
 30
0.0
 10
176.979033701415
 20
97.62229272733055
 30
0.0
  0
HATCH
  5
EB
330
E3
100
AcDbEntity
  8
0
 62
    18
420
        0
440
 33554687
100
AcDbHatch
 10
0.0
 20
0.0
 30
0.0
210
0.0
220
0.0
230
1.0
  2
SOLID
 70
     1
 71
     1
 91
        1
 92
        1
 93
        1
 72
     4
 94
        3
 73
     0
 74
     0
 95
       26
 96
       22
 40
0.0
 40
0.0
 40
0.0
 40
0.0
 40
1.0
 40
1.0
 40
1.0
 40
2.0
 40
2.0
 40
2.0
 40
3.0
 40
3.0
 40
3.0
 40
4.0
 40
4.0
 40
4.0
 40
5.0
 40
5.0
 40
5.0
 40
6.0
 40
6.0
 40
6.0
 40
7.0
 40
7.0
 40
7.0
 40
7.0
 10
176.979033701415
 20
97.62229272733055
 10
176.979033701415
 20
97.62229272733055
 10
176.979033701415
 20
97.10346134725192
 10
176.979033701415
 20
97.10346134725192
 10
176.979033701415
 20
97.10346134725192
 10
176.7871418828865
 20
97.10346134725192
 10
176.7871418828865
 20
97.10346134725192
 10
176.7871418828865
 20
97.37700192878076
 10
176.7168619349874
 20
97.62504880371874
 10
176.4119709845428
 20
97.67879229328864
 10
176.4119709845428
 20
97.67879229328864
 10
176.4119709845428
 20
97.86207137310393
 10
176.4119709845428
 20
97.86207137310393
 10
176.4119709845428
 20
97.86207137310393
 10
178.4118489137304
 20
97.86207137310393
 10
178.4118489137304
 20
97.86207137310393
 10
178.4118489137304
 20
97.86207137310393
 10
178.4118489137304
 20
97.62229272733055
 10
178.4118489137304
 20
97.62229272733055
 10
178.4118489137304
 20
97.62229272733055
 10
176.979033701415
 20
97.62229272733055
 10
176.979033701415
 20
97.62229272733055
 97
        0
 97
        1
330
EA
 75
     2
 76
     1
 98
        1
 10
0.0
 20
0.0
450
        0
451
        0
460
0.0
461
0.0
452
        0
462
0.0
453
        0
470

  0
SPLINE
  5
EC
330
E3
100
AcDbEntity
  8
0
100
AcDbSpline
210
0.0
220
0.0
230
1.0
 70
     9
 71
     3
 72
    17
 73
    13
 74
     0
 42
0.0000000001
 43
0.0000000001
 40
0.0
 40
0.0
 40
0.0
 40
0.0
 40
1.0
 40
1.0
 40
1.0
 40
2.0
 40
2.0
 40
2.0
 40
3.0
 40
3.0
 40
3.0
 40
4.0
 40
4.0
 40
4.0
 40
4.0
 10
178.2340819866915
 20
99.21943899429237
 30
0.0
 10
178.2340819866915
 20
99.45921764006577
 30
0.0
 10
178.0676838747539
 20
99.62871633794005
 30
0.0
 10
177.8451307064068
 20
99.62871633794005
 30
0.0
 10
177.6305012576757
 20
99.62871633794005
 30
0.0
 10
177.4641031457381
 20
99.44268118173656
 30
0.0
 10
177.4641031457381
 20
99.21668291790417
 30
0.0
 10
177.4641031457381
 20
98.9800048580675
 30
0.0
 10
177.613620289798
 20
98.79362519231548
 30
0.0
 10
177.8478867827949
 20
98.79362519231548
 30
0.0
 10
178.0876654285683
 20
98.79362519231548
 30
0.0
 10
178.2340819866915
 20
98.97139211935439
 30
0.0
 10
178.2340819866915
 20
99.21943899429237
 30
0.0
  0
SPLINE
  5
ED
330
E3
100
AcDbEntity
  8
0
100
AcDbSpline
210
0.0
220
0.0
230
1.0
 70
     9
 71
     3
 72
    17
 73
    13
 74
     0
 42
0.0000000001
 43
0.0000000001
 40
0.0
 40
0.0
 40
0.0
 40
0.0
 40
1.0
 40
1.0
 40
1.0
 40
2.0
 40
2.0
 40
2.0
 40
3.0
 40
3.0
 40
3.0
 40
4.0
 40
4.0
 40
4.0
 40
4.0
 10
176.93114687417
 20
99.5494791417793
 30
0.0
 10
176.7278862405403
 20
99.5494791417793
 30
0.0
 10
176.6234998473372
 20
99.40857473643259
 30
0.0
 10
176.6234998473372
 20
99.21392684151598
 30
0.0
 10
176.6234998473372
 20
99.02237953253608
 30
0.0
 10
176.730986826477
 20
98.86424964976312
 30
0.0
 10
176.93114687417
 20
98.86424964976312
 30
0.0
 10
177.1481878897407
 20
98.86424964976312
 30
0.0
 10
177.2525742829438
 20
99.02513560892428
 30
0.0
 10
177.2525742829438
 20
99.21943899429237
 30
0.0
 10
177.2525742829438
 20
99.41167532236931
 30
0.0
 10
177.1340629982512
 20
99.5494791417793
 30
0.0
 10
176.93114687417
 20
99.5494791417793
 30
0.0
  0
SPLINE
  5
EE
330
E3
100
AcDbEntity
  8
0
100
AcDbSpline
210
0.0
220
0.0
230
1.0
 70
     9
 71
     3
 72
    29
 73
    25
 74
     0
 42
0.0000000001
 43
0.0000000001
 40
0.0
 40
0.0
 40
0.0
 40
0.0
 40
1.0
 40
1.0
 40
1.0
 40
2.0
 40
2.0
 40
2.0
 40
3.0
 40
3.0
 40
3.0
 40
4.0
 40
4.0
 40
4.0
 40
5.0
 40
5.0
 40
5.0
 40
6.0
 40
6.0
 40
6.0
 40
7.0
 40
7.0
 40
7.0
 40
8.0
 40
8.0
 40
8.0
 40
8.0
 10
177.3373236318809
 20
98.88974335635396
 30
0.0
 10
177.2694552508215
 20
98.72058916802819
 30
0.0
 10
177.1030571388839
 20
98.61034611250019
 30
0.0
 10
176.9225341354569
 20
98.61034611250019
 30
0.0
 10
176.5955945739066
 20
98.61034611250019
 30
0.0
 10
176.4119709845428
 20
98.88974335635396
 30
0.0
 10
176.4119709845428
 20
99.19704587363824
 30
0.0
 10
176.4119709845428
 20
99.63422849071646
 30
0.0
 10
176.6658745218057
 20
99.80372718859074
 30
0.0
 10
176.9225341354569
 20
99.80372718859074
 30
0.0
 10
177.1030571388839
 20
99.80372718859074
 30
0.0
 10
177.2611870216569
 20
99.69348413306274
 30
0.0
 10
177.3373236318809
 20
99.52708602112517
 30
0.0
 10
177.413460242105
 20
99.76686466689857
 30
0.0
 10
177.5884710927556
 20
99.88261987520296
 30
0.0
 10
177.8365179676936
 20
99.88261987520296
 30
0.0
 10
178.2230576811387
 20
99.88261987520296
 30
0.0
 10
178.4459553590343
 20
99.58909773985967
 30
0.0
 10
178.4459553590343
 20
99.21943899429237
 30
0.0
 10
178.4459553590343
 20
98.83599986678406
 30
0.0
 10
178.2426947254046
 20
98.54006616460111
 30
0.0
 10
177.8365179676936
 20
98.54006616460111
 30
0.0
 10
177.5994953983085
 20
98.54006616460111
 30
0.0
 10
177.4162163184931
 20
98.6640896020701
 30
0.0
 10
177.3373236318809
 20
98.88974335635396
 30
0.0
  0
HATCH
  5
EF
330
E3
100
AcDbEntity
  8
0
 62
    18
420
        0
440
 33554687
100
AcDbHatch
 10
0.0
 20
0.0
 30
0.0
210
0.0
220
0.0
230
1.0
  2
SOLID
 70
     1
 71
     1
 91
        3
 92
        1
 93
        1
 72
     4
 94
        3
 73
     0
 74
     0
 95
       17
 96
       13
 40
0.0
 40
0.0
 40
0.0
 40
0.0
 40
1.0
 40
1.0
 40
1.0
 40
2.0
 40
2.0
 40
2.0
 40
3.0
 40
3.0
 40
3.0
 40
4.0
 40
4.0
 40
4.0
 40
4.0
 10
178.2340819866915
 20
99.21943899429237
 10
178.2340819866915
 20
99.45921764006577
 10
178.0676838747539
 20
99.62871633794005
 10
177.8451307064068
 20
99.62871633794005
 10
177.6305012576757
 20
99.62871633794005
 10
177.4641031457381
 20
99.44268118173656
 10
177.4641031457381
 20
99.21668291790417
 10
177.4641031457381
 20
98.9800048580675
 10
177.613620289798
 20
98.79362519231548
 10
177.8478867827949
 20
98.79362519231548
 10
178.0876654285683
 20
98.79362519231548
 10
178.2340819866915
 20
98.97139211935439
 10
178.2340819866915
 20
99.21943899429237
 97
        0
 97
        1
330
EC
 92
        1
 93
        1
 72
     4
 94
        3
 73
     0
 74
     0
 95
       17
 96
       13
 40
0.0
 40
0.0
 40
0.0
 40
0.0
 40
1.0
 40
1.0
 40
1.0
 40
2.0
 40
2.0
 40
2.0
 40
3.0
 40
3.0
 40
3.0
 40
4.0
 40
4.0
 40
4.0
 40
4.0
 10
176.93114687417
 20
99.5494791417793
 10
176.7278862405403
 20
99.5494791417793
 10
176.6234998473372
 20
99.40857473643259
 10
176.6234998473372
 20
99.21392684151598
 10
176.6234998473372
 20
99.02237953253608
 10
176.730986826477
 20
98.86424964976312
 10
176.93114687417
 20
98.86424964976312
 10
177.1481878897407
 20
98.86424964976312
 10
177.2525742829438
 20
99.02513560892428
 10
177.2525742829438
 20
99.21943899429237
 10
177.2525742829438
 20
99.41167532236931
 10
177.1340629982512
 20
99.5494791417793
 10
176.93114687417
 20
99.5494791417793
 97
        0
 97
        1
330
ED
 92
        1
 93
        1
 72
     4
 94
        3
 73
     0
 74
     0
 95
       29
 96
       25
 40
0.0
 40
0.0
 40
0.0
 40
0.0
 40
1.0
 40
1.0
 40
1.0
 40
2.0
 40
2.0
 40
2.0
 40
3.0
 40
3.0
 40
3.0
 40
4.0
 40
4.0
 40
4.0
 40
5.0
 40
5.0
 40
5.0
 40
6.0
 40
6.0
 40
6.0
 40
7.0
 40
7.0
 40
7.0
 40
8.0
 40
8.0
 40
8.0
 40
8.0
 10
177.3373236318809
 20
98.88974335635396
 10
177.2694552508215
 20
98.72058916802819
 10
177.1030571388839
 20
98.61034611250019
 10
176.9225341354569
 20
98.61034611250019
 10
176.5955945739066
 20
98.61034611250019
 10
176.4119709845428
 20
98.88974335635396
 10
176.4119709845428
 20
99.19704587363824
 10
176.4119709845428
 20
99.63422849071646
 10
176.6658745218057
 20
99.80372718859074
 10
176.9225341354569
 20
99.80372718859074
 10
177.1030571388839
 20
99.80372718859074
 10
177.2611870216569
 20
99.69348413306274
 10
177.3373236318809
 20
99.52708602112517
 10
177.413460242105
 20
99.76686466689857
 10
177.5884710927556
 20
99.88261987520296
 10
177.8365179676936
 20
99.88261987520296
 10
178.2230576811387
 20
99.88261987520296
 10
178.4459553590343
 20
99.58909773985967
 10
178.4459553590343
 20
99.21943899429237
 10
178.4459553590343
 20
98.83599986678406
 10
178.2426947254046
 20
98.54006616460111
 10
177.8365179676936
 20
98.54006616460111
 10
177.5994953983085
 20
98.54006616460111
 10
177.4162163184931
 20
98.6640896020701
 10
177.3373236318809
 20
98.88974335635396
 97
        0
 97
        1
330
EE
 75
     2
 76
     1
 98
        1
 10
0.0
 20
0.0
450
        0
451
        0
460
0.0
461
0.0
452
        0
462
0.0
453
        0
470

  0
SPLINE
  5
F0
330
E3
100
AcDbEntity
  8
0
100
AcDbSpline
210
0.0
220
0.0
230
1.0
 70
     9
 71
     3
 72
    17
 73
    13
 74
     0
 42
0.0000000001
 43
0.0000000001
 40
0.0
 40
0.0
 40
0.0
 40
0.0
 40
1.0
 40
1.0
 40
1.0
 40
2.0
 40
2.0
 40
2.0
 40
3.0
 40
3.0
 40
3.0
 40
4.0
 40
4.0
 40
4.0
 40
4.0
 10
177.0806640182298
 20
101.1500705042263
 30
0.0
 10
176.8350287101315
 20
101.1500705042263
 30
0.0
 10
176.6234998473372
 20
101.0060655129429
 30
0.0
 10
176.6234998473372
 20
100.7380370841905
 30
0.0
 10
176.6234998473372
 20
100.4534721971088
 30
0.0
 10
176.8522541875578
 20
100.345985217969
 30
0.0
 10
177.0975449861076
 20
100.345985217969
 30
0.0
 10
177.3145860016783
 20
100.345985217969
 30
0.0
 10
177.5206027116962
 20
100.5096272535184
 30
0.0
 10
177.5206027116962
 20
100.7407931605787
 30
0.0
 10
177.5206027116962
 20
100.9919406214534
 30
0.0
 10
177.317686587615
 20
101.1500705042263
 30
0.0
 10
177.0806640182298
 20
101.1500705042263
 30
0.0
  0
SPLINE
  5
F1
330
E3
100
AcDbEntity
  8
0
100
AcDbSpline
210
0.0
220
0.0
230
1.0
 70
     9
 71
     3
 72
    35
 73
    31
 74
     0
 42
0.0000000001
 43
0.0000000001
 40
0.0
 40
0.0
 40
0.0
 40
0.0
 40
1.0
 40
1.0
 40
1.0
 40
2.0
 40
2.0
 40
2.0
 40
3.0
 40
3.0
 40
3.0
 40
4.0
 40
4.0
 40
4.0
 40
5.0
 40
5.0
 40
5.0
 40
6.0
 40
6.0
 40
6.0
 40
7.0
 40
7.0
 40
7.0
 40
8.0
 40
8.0
 40
8.0
 40
9.0
 40
9.0
 40
9.0
 40
10.0
 40
10.0
 40
10.0
 40
10.0
 10
177.9295355457954
 20
100.3742350009481
 30
0.0
 10
178.124183440712
 20
100.3942165547625
 30
0.0
 10
178.2340819866915
 20
100.5492458515988
 30
0.0
 10
178.2340819866915
 20
100.7407931605787
 30
0.0
 10
178.2340819866915
 20
101.034315295922
 30
0.0
 10
177.9805229589771
 20
101.1783202872054
 30
0.0
 10
177.4613470693499
 20
101.1921006691464
 30
0.0
 10
177.4613470693499
 20
101.1921006691464
 30
0.0
 10
177.4558349165735
 20
101.18658851637
 30
0.0
 10
177.4558349165735
 20
101.18658851637
 30
0.0
 10
177.6249891048993
 20
101.0963270146564
 30
0.0
 10
177.7321315744906
 20
100.9185600876176
 30
0.0
 10
177.7321315744906
 20
100.7242567022495
 30
0.0
 10
177.7321315744906
 20
100.3149793586018
 30
0.0
 10
177.4585909929617
 20
100.0924261902546
 30
0.0
 10
177.0637830503521
 20
100.0924261902546
 30
0.0
 10
176.6799994132953
 20
100.0924261902546
 30
0.0
 10
176.4119709845428
 20
100.3632106953953
 30
0.0
 10
176.4119709845428
 20
100.7494058992918
 30
0.0
 10
176.4119709845428
 20
101.1218207212473
 30
0.0
 10
176.6124755417844
 20
101.434635391308
 30
0.0
 10
177.3683294912482
 20
101.434635391308
 30
0.0
 10
178.0594156455893
 20
101.434635391308
 30
0.0
 10
178.4459553590343
 20
101.2262071144504
 30
0.0
 10
178.4459553590343
 20
100.7407931605787
 30
0.0
 10
178.4459553590343
 20
100.4052408603153
 30
0.0
 10
178.2737005847718
 20
100.1654622145419
 30
0.0
 10
177.9295355457954
 20
100.1344563551747
 30
0.0
 10
177.9295355457954
 20
100.1344563551747
 30
0.0
 10
177.9295355457954
 20
100.3742350009481
 30
0.0
 10
177.9295355457954
 20
100.3742350009481
 30
0.0
  0
HATCH
  5
F2
330
E3
100
AcDbEntity
  8
0
 62
    18
420
        0
440
 33554687
100
AcDbHatch
 10
0.0
 20
0.0
 30
0.0
210
0.0
220
0.0
230
1.0
  2
SOLID
 70
     1
 71
     1
 91
        2
 92
        1
 93
        1
 72
     4
 94
        3
 73
     0
 74
     0
 95
       17
 96
       13
 40
0.0
 40
0.0
 40
0.0
 40
0.0
 40
1.0
 40
1.0
 40
1.0
 40
2.0
 40
2.0
 40
2.0
 40
3.0
 40
3.0
 40
3.0
 40
4.0
 40
4.0
 40
4.0
 40
4.0
 10
177.0806640182298
 20
101.1500705042263
 10
176.8350287101315
 20
101.1500705042263
 10
176.6234998473372
 20
101.0060655129429
 10
176.6234998473372
 20
100.7380370841905
 10
176.6234998473372
 20
100.4534721971088
 10
176.8522541875578
 20
100.345985217969
 10
177.0975449861076
 20
100.345985217969
 10
177.3145860016783
 20
100.345985217969
 10
177.5206027116962
 20
100.5096272535184
 10
177.5206027116962
 20
100.7407931605787
 10
177.5206027116962
 20
100.9919406214534
 10
177.317686587615
 20
101.1500705042263
 10
177.0806640182298
 20
101.1500705042263
 97
        0
 97
        1
330
F0
 92
        1
 93
        1
 72
     4
 94
        3
 73
     0
 74
     0
 95
       35
 96
       31
 40
0.0
 40
0.0
 40
0.0
 40
0.0
 40
1.0
 40
1.0
 40
1.0
 40
2.0
 40
2.0
 40
2.0
 40
3.0
 40
3.0
 40
3.0
 40
4.0
 40
4.0
 40
4.0
 40
5.0
 40
5.0
 40
5.0
 40
6.0
 40
6.0
 40
6.0
 40
7.0
 40
7.0
 40
7.0
 40
8.0
 40
8.0
 40
8.0
 40
9.0
 40
9.0
 40
9.0
 40
10.0
 40
10.0
 40
10.0
 40
10.0
 10
177.9295355457954
 20
100.3742350009481
 10
178.124183440712
 20
100.3942165547625
 10
178.2340819866915
 20
100.5492458515988
 10
178.2340819866915
 20
100.7407931605787
 10
178.2340819866915
 20
101.034315295922
 10
177.9805229589771
 20
101.1783202872054
 10
177.4613470693499
 20
101.1921006691464
 10
177.4613470693499
 20
101.1921006691464
 10
177.4558349165735
 20
101.18658851637
 10
177.4558349165735
 20
101.18658851637
 10
177.6249891048993
 20
101.0963270146564
 10
177.7321315744906
 20
100.9185600876176
 10
177.7321315744906
 20
100.7242567022495
 10
177.7321315744906
 20
100.3149793586018
 10
177.4585909929617
 20
100.0924261902546
 10
177.0637830503521
 20
100.0924261902546
 10
176.6799994132953
 20
100.0924261902546
 10
176.4119709845428
 20
100.3632106953953
 10
176.4119709845428
 20
100.7494058992918
 10
176.4119709845428
 20
101.1218207212473
 10
176.6124755417844
 20
101.434635391308
 10
177.3683294912482
 20
101.434635391308
 10
178.0594156455893
 20
101.434635391308
 10
178.4459553590343
 20
101.2262071144504
 10
178.4459553590343
 20
100.7407931605787
 10
178.4459553590343
 20
100.4052408603153
 10
178.2737005847718
 20
100.1654622145419
 10
177.9295355457954
 20
100.1344563551747
 10
177.9295355457954
 20
100.1344563551747
 10
177.9295355457954
 20
100.3742350009481
 10
177.9295355457954
 20
100.3742350009481
 97
        0
 97
        1
330
F1
 75
     2
 76
     1
 98
        1
 10
0.0
 20
0.0
450
        0
451
        0
460
0.0
461
0.0
452
        0
462
0.0
453
        0
470

  0
ENDBLK
  5
E6
330
E3
100
AcDbEntity
  8
0
100
AcDbBlockEnd
  0
BLOCK
  5
F5
330
F3
100
AcDbEntity
  8
0
100
AcDbBlockBegin
  2
Block_18
 70
     0
 10
0.0
 20
0.0
 30
0.0
  3
Block_18
  1

  0
INSERT
  5
F8
330
F3
100
AcDbEntity
  8
0
100
AcDbBlockReference
  2
Block_19
 10
0.0
 20
0.0
 30
0.0
  0
ENDBLK
  5
F6
330
F3
100
AcDbEntity
  8
0
100
AcDbBlockEnd
  0
BLOCK
  5
F9
330
F7
100
AcDbEntity
  8
0
100
AcDbBlockBegin
  2
Block_19
 70
     0
 10
0.0
 20
0.0
 30
0.0
  3
Block_19
  1

  0
SPLINE
  5
FB
330
F7
100
AcDbEntity
  8
0
100
AcDbSpline
210
0.0
220
0.0
230
1.0
 70
    11
 71
     3
 72
    17
 73
    13
 74
     0
 42
0.0000000001
 43
0.0000000001
 40
0.0
 40
0.0
 40
0.0
 40
0.0
 40
1.0
 40
1.0
 40
1.0
 40
2.0
 40
2.0
 40
2.0
 40
3.0
 40
3.0
 40
3.0
 40
4.0
 40
4.0
 40
4.0
 40
4.0
 10
185.2228026880693
 20
95.87080618262952
 30
0.0
 10
185.2228026880693
 20
95.87080618262952
 30
0.0
 10
183.5612331355333
 20
95.87080618262952
 30
0.0
 10
183.5612331355333
 20
95.87080618262952
 30
0.0
 10
183.5612331355333
 20
95.87080618262952
 30
0.0
 10
183.5612331355333
 20
94.21233721603025
 30
0.0
 10
183.5612331355333
 20
94.21233721603025
 30
0.0
 10
183.5612331355333
 20
94.21233721603025
 30
0.0
 10
185.2228026880693
 20
94.21233721603025
 30
0.0
 10
185.2228026880693
 20
94.21233721603025
 30
0.0
 10
185.2228026880693
 20
94.21233721603025
 30
0.0
 10
185.2228026880693
 20
95.87080618262952
 30
0.0
 10
185.2228026880693
 20
95.87080618262952
 30
0.0
  0
SPLINE
  5
FC
330
F7
100
AcDbEntity
  8
0
100
AcDbSpline
210
0.0
220
0.0
230
1.0
 70
    11
 71
     3
 72
    17
 73
    13
 74
     0
 42
0.0000000001
 43
0.0000000001
 40
0.0
 40
0.0
 40
0.0
 40
0.0
 40
1.0
 40
1.0
 40
1.0
 40
2.0
 40
2.0
 40
2.0
 40
3.0
 40
3.0
 40
3.0
 40
4.0
 40
4.0
 40
4.0
 40
4.0
 10
183.3355793812494
 20
93.98358287580967
 30
0.0
 10
183.3355793812494
 20
93.98358287580967
 30
0.0
 10
183.3355793812494
 20
96.09645993691339
 30
0.0
 10
183.3355793812494
 20
96.09645993691339
 30
0.0
 10
183.3355793812494
 20
96.09645993691339
 30
0.0
 10
185.4512125187414
 20
96.09645993691339
 30
0.0
 10
185.4512125187414
 20
96.09645993691339
 30
0.0
 10
185.4512125187414
 20
96.09645993691339
 30
0.0
 10
185.4512125187414
 20
93.98358287580967
 30
0.0
 10
185.4512125187414
 20
93.98358287580967
 30
0.0
 10
185.4512125187414
 20
93.98358287580967
 30
0.0
 10
183.3355793812494
 20
93.98358287580967
 30
0.0
 10
183.3355793812494
 20
93.98358287580967
 30
0.0
  0
HATCH
  5
FD
330
F7
100
AcDbEntity
  8
0
 62
    18
420
        0
440
 33554687
100
AcDbHatch
 10
0.0
 20
0.0
 30
0.0
210
0.0
220
0.0
230
1.0
  2
SOLID
 70
     1
 71
     1
 91
        2
 92
        1
 93
        1
 72
     4
 94
        3
 73
     0
 74
     0
 95
       17
 96
       13
 40
0.0
 40
0.0
 40
0.0
 40
0.0
 40
1.0
 40
1.0
 40
1.0
 40
2.0
 40
2.0
 40
2.0
 40
3.0
 40
3.0
 40
3.0
 40
4.0
 40
4.0
 40
4.0
 40
4.0
 10
185.2228026880693
 20
95.87080618262952
 10
185.2228026880693
 20
95.87080618262952
 10
183.5612331355333
 20
95.87080618262952
 10
183.5612331355333
 20
95.87080618262952
 10
183.5612331355333
 20
95.87080618262952
 10
183.5612331355333
 20
94.21233721603025
 10
183.5612331355333
 20
94.21233721603025
 10
183.5612331355333
 20
94.21233721603025
 10
185.2228026880693
 20
94.21233721603025
 10
185.2228026880693
 20
94.21233721603025
 10
185.2228026880693
 20
94.21233721603025
 10
185.2228026880693
 20
95.87080618262952
 10
185.2228026880693
 20
95.87080618262952
 97
        0
 97
        1
330
FB
 92
        1
 93
        1
 72
     4
 94
        3
 73
     0
 74
     0
 95
       17
 96
       13
 40
0.0
 40
0.0
 40
0.0
 40
0.0
 40
1.0
 40
1.0
 40
1.0
 40
2.0
 40
2.0
 40
2.0
 40
3.0
 40
3.0
 40
3.0
 40
4.0
 40
4.0
 40
4.0
 40
4.0
 10
183.3355793812494
 20
93.98358287580967
 10
183.3355793812494
 20
93.98358287580967
 10
183.3355793812494
 20
96.09645993691339
 10
183.3355793812494
 20
96.09645993691339
 10
183.3355793812494
 20
96.09645993691339
 10
185.4512125187414
 20
96.09645993691339
 10
185.4512125187414
 20
96.09645993691339
 10
185.4512125187414
 20
96.09645993691339
 10
185.4512125187414
 20
93.98358287580967
 10
185.4512125187414
 20
93.98358287580967
 10
185.4512125187414
 20
93.98358287580967
 10
183.3355793812494
 20
93.98358287580967
 10
183.3355793812494
 20
93.98358287580967
 97
        0
 97
        1
330
FC
 75
     2
 76
     1
 98
        1
 10
0.0
 20
0.0
450
        0
451
        0
460
0.0
461
0.0
452
        0
462
0.0
453
        0
470

  0
SPLINE
  5
FE
330
F7
100
AcDbEntity
  8
0
100
AcDbSpline
210
0.0
220
0.0
230
1.0
 70
    11
 71
     3
 72
    26
 73
    22
 74
     0
 42
0.0000000001
 43
0.0000000001
 40
0.0
 40
0.0
 40
0.0
 40
0.0
 40
1.0
 40
1.0
 40
1.0
 40
2.0
 40
2.0
 40
2.0
 40
3.0
 40
3.0
 40
3.0
 40
4.0
 40
4.0
 40
4.0
 40
5.0
 40
5.0
 40
5.0
 40
6.0
 40
6.0
 40
6.0
 40
7.0
 40
7.0
 40
7.0
 40
7.0
 10
184.0180527968774
 20
97.64950898166402
 30
0.0
 10
184.0180527968774
 20
97.64950898166402
 30
0.0
 10
184.0180527968774
 20
97.13033309203687
 30
0.0
 10
184.0180527968774
 20
97.13033309203687
 30
0.0
 10
184.0180527968774
 20
97.13033309203687
 30
0.0
 10
183.8265054878975
 20
97.13033309203687
 30
0.0
 10
183.8265054878975
 20
97.13033309203687
 30
0.0
 10
183.8265054878975
 20
97.4038736735657
 30
0.0
 10
183.7558810304499
 20
97.65226505805223
 30
0.0
 10
183.4513345895538
 20
97.70566403807359
 30
0.0
 10
183.4513345895538
 20
97.70566403807359
 30
0.0
 10
183.4513345895538
 20
97.88928762743742
 30
0.0
 10
183.4513345895538
 20
97.88928762743742
 30
0.0
 10
183.4513345895538
 20
97.88928762743742
 30
0.0
 10
185.4512125187414
 20
97.88928762743742
 30
0.0
 10
185.4512125187414
 20
97.88928762743742
 30
0.0
 10
185.4512125187414
 20
97.88928762743742
 30
0.0
 10
185.4512125187414
 20
97.64950898166402
 30
0.0
 10
185.4512125187414
 20
97.64950898166402
 30
0.0
 10
185.4512125187414
 20
97.64950898166402
 30
0.0
 10
184.0180527968774
 20
97.64950898166402
 30
0.0
 10
184.0180527968774
 20
97.64950898166402
 30
0.0
  0
HATCH
  5
FF
330
F7
100
AcDbEntity
  8
0
 62
    18
420
        0
440
 33554687
100
AcDbHatch
 10
0.0
 20
0.0
 30
0.0
210
0.0
220
0.0
230
1.0
  2
SOLID
 70
     1
 71
     1
 91
        1
 92
        1
 93
        1
 72
     4
 94
        3
 73
     0
 74
     0
 95
       26
 96
       22
 40
0.0
 40
0.0
 40
0.0
 40
0.0
 40
1.0
 40
1.0
 40
1.0
 40
2.0
 40
2.0
 40
2.0
 40
3.0
 40
3.0
 40
3.0
 40
4.0
 40
4.0
 40
4.0
 40
5.0
 40
5.0
 40
5.0
 40
6.0
 40
6.0
 40
6.0
 40
7.0
 40
7.0
 40
7.0
 40
7.0
 10
184.0180527968774
 20
97.64950898166402
 10
184.0180527968774
 20
97.64950898166402
 10
184.0180527968774
 20
97.13033309203687
 10
184.0180527968774
 20
97.13033309203687
 10
184.0180527968774
 20
97.13033309203687
 10
183.8265054878975
 20
97.13033309203687
 10
183.8265054878975
 20
97.13033309203687
 10
183.8265054878975
 20
97.4038736735657
 10
183.7558810304499
 20
97.65226505805223
 10
183.4513345895538
 20
97.70566403807359
 10
183.4513345895538
 20
97.70566403807359
 10
183.4513345895538
 20
97.88928762743742
 10
183.4513345895538
 20
97.88928762743742
 10
183.4513345895538
 20
97.88928762743742
 10
185.4512125187414
 20
97.88928762743742
 10
185.4512125187414
 20
97.88928762743742
 10
185.4512125187414
 20
97.88928762743742
 10
185.4512125187414
 20
97.64950898166402
 10
185.4512125187414
 20
97.64950898166402
 10
185.4512125187414
 20
97.64950898166402
 10
184.0180527968774
 20
97.64950898166402
 10
184.0180527968774
 20
97.64950898166402
 97
        0
 97
        1
330
FE
 75
     2
 76
     1
 98
        1
 10
0.0
 20
0.0
450
        0
451
        0
460
0.0
461
0.0
452
        0
462
0.0
453
        0
470

  0
SPLINE
  5
100
330
F7
100
AcDbEntity
  8
0
100
AcDbSpline
210
0.0
220
0.0
230
1.0
 70
     9
 71
     3
 72
    17
 73
    13
 74
     0
 42
0.0000000001
 43
0.0000000001
 40
0.0
 40
0.0
 40
0.0
 40
0.0
 40
1.0
 40
1.0
 40
1.0
 40
2.0
 40
2.0
 40
2.0
 40
3.0
 40
3.0
 40
3.0
 40
4.0
 40
4.0
 40
4.0
 40
4.0
 10
184.1196831136923
 20
99.60804576502855
 30
0.0
 10
183.8743923151425
 20
99.60804576502855
 30
0.0
 10
183.6628634523482
 20
99.46404077374511
 30
0.0
 10
183.6628634523482
 20
99.19601234499268
 30
0.0
 10
183.6628634523482
 20
98.91144745791104
 30
0.0
 10
183.8912732830202
 20
98.80396047877123
 30
0.0
 10
184.13656408157
 20
98.80396047877123
 30
0.0
 10
184.3539496066893
 20
98.80396047877123
 30
0.0
 10
184.5596218071587
 20
98.96760251432061
 30
0.0
 10
184.5596218071587
 20
99.19876842138087
 30
0.0
 10
184.5596218071587
 20
99.44991588225558
 30
0.0
 10
184.3567056830775
 20
99.60804576502855
 30
0.0
 10
184.1196831136923
 20
99.60804576502855
 30
0.0
  0
SPLINE
  5
101
330
F7
100
AcDbEntity
  8
0
100
AcDbSpline
210
0.0
220
0.0
230
1.0
 70
     9
 71
     3
 72
    35
 73
    31
 74
     0
 42
0.0000000001
 43
0.0000000001
 40
0.0
 40
0.0
 40
0.0
 40
0.0
 40
1.0
 40
1.0
 40
1.0
 40
2.0
 40
2.0
 40
2.0
 40
3.0
 40
3.0
 40
3.0
 40
4.0
 40
4.0
 40
4.0
 40
5.0
 40
5.0
 40
5.0
 40
6.0
 40
6.0
 40
6.0
 40
7.0
 40
7.0
 40
7.0
 40
8.0
 40
8.0
 40
8.0
 40
9.0
 40
9.0
 40
9.0
 40
10.0
 40
10.0
 40
10.0
 40
10.0
 10
184.9688991508064
 20
98.83221026175029
 30
0.0
 10
185.163547045723
 20
98.85219181556474
 30
0.0
 10
185.2734455917025
 20
99.00722111240099
 30
0.0
 10
185.2734455917025
 20
99.19876842138087
 30
0.0
 10
185.2734455917025
 20
99.49229055672416
 30
0.0
 10
185.0195420544396
 20
99.6362955480076
 30
0.0
 10
184.5007106743609
 20
99.6500759299486
 30
0.0
 10
184.5007106743609
 20
99.6500759299486
 30
0.0
 10
184.494854012036
 20
99.64456377717219
 30
0.0
 10
184.494854012036
 20
99.64456377717219
 30
0.0
 10
184.6640082003618
 20
99.55430227545866
 30
0.0
 10
184.7714951795016
 20
99.37653534841977
 30
0.0
 10
184.7714951795016
 20
99.18223196305167
 30
0.0
 10
184.7714951795016
 20
98.77295461940398
 30
0.0
 10
184.4976100884242
 20
98.55040145105684
 30
0.0
 10
184.1028021458146
 20
98.55040145105684
 30
0.0
 10
183.7193630183062
 20
98.55040145105684
 30
0.0
 10
183.4513345895538
 20
98.82118595619749
 30
0.0
 10
183.4513345895538
 20
99.20738116009399
 30
0.0
 10
183.4513345895538
 20
99.5797959820495
 30
0.0
 10
183.6514946372468
 20
99.89261065211017
 30
0.0
 10
184.4073485867106
 20
99.89261065211017
 30
0.0
 10
185.0984347410518
 20
99.89261065211017
 30
0.0
 10
185.4849744544968
 20
99.68418237525257
 30
0.0
 10
185.4849744544968
 20
99.19876842138087
 30
0.0
 10
185.4849744544968
 20
98.86321612111753
 30
0.0
 10
185.3130641897828
 20
98.62343747534415
 30
0.0
 10
184.9688991508064
 20
98.59243161597689
 30
0.0
 10
184.9688991508064
 20
98.59243161597689
 30
0.0
 10
184.9688991508064
 20
98.83221026175029
 30
0.0
 10
184.9688991508064
 20
98.83221026175029
 30
0.0
  0
HATCH
  5
102
330
F7
100
AcDbEntity
  8
0
 62
    18
420
        0
440
 33554687
100
AcDbHatch
 10
0.0
 20
0.0
 30
0.0
210
0.0
220
0.0
230
1.0
  2
SOLID
 70
     1
 71
     1
 91
        2
 92
        1
 93
        1
 72
     4
 94
        3
 73
     0
 74
     0
 95
       17
 96
       13
 40
0.0
 40
0.0
 40
0.0
 40
0.0
 40
1.0
 40
1.0
 40
1.0
 40
2.0
 40
2.0
 40
2.0
 40
3.0
 40
3.0
 40
3.0
 40
4.0
 40
4.0
 40
4.0
 40
4.0
 10
184.1196831136923
 20
99.60804576502855
 10
183.8743923151425
 20
99.60804576502855
 10
183.6628634523482
 20
99.46404077374511
 10
183.6628634523482
 20
99.19601234499268
 10
183.6628634523482
 20
98.91144745791104
 10
183.8912732830202
 20
98.80396047877123
 10
184.13656408157
 20
98.80396047877123
 10
184.3539496066893
 20
98.80396047877123
 10
184.5596218071587
 20
98.96760251432061
 10
184.5596218071587
 20
99.19876842138087
 10
184.5596218071587
 20
99.44991588225558
 10
184.3567056830775
 20
99.60804576502855
 10
184.1196831136923
 20
99.60804576502855
 97
        0
 97
        1
330
100
 92
        1
 93
        1
 72
     4
 94
        3
 73
     0
 74
     0
 95
       35
 96
       31
 40
0.0
 40
0.0
 40
0.0
 40
0.0
 40
1.0
 40
1.0
 40
1.0
 40
2.0
 40
2.0
 40
2.0
 40
3.0
 40
3.0
 40
3.0
 40
4.0
 40
4.0
 40
4.0
 40
5.0
 40
5.0
 40
5.0
 40
6.0
 40
6.0
 40
6.0
 40
7.0
 40
7.0
 40
7.0
 40
8.0
 40
8.0
 40
8.0
 40
9.0
 40
9.0
 40
9.0
 40
10.0
 40
10.0
 40
10.0
 40
10.0
 10
184.9688991508064
 20
98.83221026175029
 10
185.163547045723
 20
98.85219181556474
 10
185.2734455917025
 20
99.00722111240099
 10
185.2734455917025
 20
99.19876842138087
 10
185.2734455917025
 20
99.49229055672416
 10
185.0195420544396
 20
99.6362955480076
 10
184.5007106743609
 20
99.6500759299486
 10
184.5007106743609
 20
99.6500759299486
 10
184.494854012036
 20
99.64456377717219
 10
184.494854012036
 20
99.64456377717219
 10
184.6640082003618
 20
99.55430227545866
 10
184.7714951795016
 20
99.37653534841977
 10
184.7714951795016
 20
99.18223196305167
 10
184.7714951795016
 20
98.77295461940398
 10
184.4976100884242
 20
98.55040145105684
 10
184.1028021458146
 20
98.55040145105684
 10
183.7193630183062
 20
98.55040145105684
 10
183.4513345895538
 20
98.82118595619749
 10
183.4513345895538
 20
99.20738116009399
 10
183.4513345895538
 20
99.5797959820495
 10
183.6514946372468
 20
99.89261065211017
 10
184.4073485867106
 20
99.89261065211017
 10
185.0984347410518
 20
99.89261065211017
 10
185.4849744544968
 20
99.68418237525257
 10
185.4849744544968
 20
99.19876842138087
 10
185.4849744544968
 20
98.86321612111753
 10
185.3130641897828
 20
98.62343747534415
 10
184.9688991508064
 20
98.59243161597689
 10
184.9688991508064
 20
98.59243161597689
 10
184.9688991508064
 20
98.83221026175029
 10
184.9688991508064
 20
98.83221026175029
 97
        0
 97
        1
330
101
 75
     2
 76
     1
 98
        1
 10
0.0
 20
0.0
450
        0
451
        0
460
0.0
461
0.0
452
        0
462
0.0
453
        0
470

  0
SPLINE
  5
103
330
F7
100
AcDbEntity
  8
0
100
AcDbSpline
210
0.0
220
0.0
230
1.0
 70
     9
 71
     3
 72
    17
 73
    13
 74
     0
 42
0.0000000001
 43
0.0000000001
 40
0.0
 40
0.0
 40
0.0
 40
0.0
 40
1.0
 40
1.0
 40
1.0
 40
2.0
 40
2.0
 40
2.0
 40
3.0
 40
3.0
 40
3.0
 40
4.0
 40
4.0
 40
4.0
 40
4.0
 10
184.1196831136923
 20
101.1769422490113
 30
0.0
 10
183.8743923151425
 20
101.1769422490113
 30
0.0
 10
183.6628634523482
 20
101.0332817672764
 30
0.0
 10
183.6628634523482
 20
100.7655978480725
 30
0.0
 10
183.6628634523482
 20
100.4803439418938
 30
0.0
 10
183.8912732830202
 20
100.3732014723025
 30
0.0
 10
184.13656408157
 20
100.3732014723025
 30
0.0
 10
184.3539496066893
 20
100.3732014723025
 30
0.0
 10
184.5596218071587
 20
100.5368435078519
 30
0.0
 10
184.5596218071587
 20
100.7683539244607
 30
0.0
 10
184.5596218071587
 20
101.0191568757869
 30
0.0
 10
184.3567056830775
 20
101.1769422490113
 30
0.0
 10
184.1196831136923
 20
101.1769422490113
 30
0.0
  0
SPLINE
  5
104
330
F7
100
AcDbEntity
  8
0
100
AcDbSpline
210
0.0
220
0.0
230
1.0
 70
     9
 71
     3
 72
    35
 73
    31
 74
     0
 42
0.0000000001
 43
0.0000000001
 40
0.0
 40
0.0
 40
0.0
 40
0.0
 40
1.0
 40
1.0
 40
1.0
 40
2.0
 40
2.0
 40
2.0
 40
3.0
 40
3.0
 40
3.0
 40
4.0
 40
4.0
 40
4.0
 40
5.0
 40
5.0
 40
5.0
 40
6.0
 40
6.0
 40
6.0
 40
7.0
 40
7.0
 40
7.0
 40
8.0
 40
8.0
 40
8.0
 40
9.0
 40
9.0
 40
9.0
 40
10.0
 40
10.0
 40
10.0
 40
10.0
 10
184.9688991508064
 20
100.4014512552816
 30
0.0
 10
185.163547045723
 20
100.4210882995475
 30
0.0
 10
185.2734455917025
 20
100.5764621059322
 30
0.0
 10
185.2734455917025
 20
100.7683539244607
 30
0.0
 10
185.2734455917025
 20
101.0615315502554
 30
0.0
 10
185.0195420544396
 20
101.2051920319904
 30
0.0
 10
184.5007106743609
 20
101.2196614330284
 30
0.0
 10
184.5007106743609
 20
101.2196614330284
 30
0.0
 10
184.494854012036
 20
101.2138047707035
 30
0.0
 10
184.494854012036
 20
101.2138047707035
 30
0.0
 10
184.6640082003618
 20
101.1235432689899
 30
0.0
 10
184.7714951795016
 20
100.9461208514996
 30
0.0
 10
184.7714951795016
 20
100.7511284470344
 30
0.0
 10
184.7714951795016
 20
100.3421956129353
 30
0.0
 10
184.4976100884242
 20
100.1192979350396
 30
0.0
 10
184.1028021458146
 20
100.1192979350396
 30
0.0
 10
183.7193630183062
 20
100.1192979350396
 30
0.0
 10
183.4513345895538
 20
100.3900824401802
 30
0.0
 10
183.4513345895538
 20
100.7766221536253
 30
0.0
 10
183.4513345895538
 20
101.1490369755808
 30
0.0
 10
183.6514946372468
 20
101.46219615519
 30
0.0
 10
184.4073485867106
 20
101.46219615519
 30
0.0
 10
185.0984347410518
 20
101.46219615519
 30
0.0
 10
185.4849744544968
 20
101.2534233687838
 30
0.0
 10
185.4849744544968
 20
100.7683539244607
 30
0.0
 10
185.4849744544968
 20
100.4324571146488
 30
0.0
 10
185.3130641897828
 20
100.1926784688754
 30
0.0
 10
184.9688991508064
 20
100.1616726095082
 30
0.0
 10
184.9688991508064
 20
100.1616726095082
 30
0.0
 10
184.9688991508064
 20
100.4014512552816
 30
0.0
 10
184.9688991508064
 20
100.4014512552816
 30
0.0
  0
HATCH
  5
105
330
F7
100
AcDbEntity
  8
0
 62
    18
420
        0
440
 33554687
100
AcDbHatch
 10
0.0
 20
0.0
 30
0.0
210
0.0
220
0.0
230
1.0
  2
SOLID
 70
     1
 71
     1
 91
        2
 92
        1
 93
        1
 72
     4
 94
        3
 73
     0
 74
     0
 95
       17
 96
       13
 40
0.0
 40
0.0
 40
0.0
 40
0.0
 40
1.0
 40
1.0
 40
1.0
 40
2.0
 40
2.0
 40
2.0
 40
3.0
 40
3.0
 40
3.0
 40
4.0
 40
4.0
 40
4.0
 40
4.0
 10
184.1196831136923
 20
101.1769422490113
 10
183.8743923151425
 20
101.1769422490113
 10
183.6628634523482
 20
101.0332817672764
 10
183.6628634523482
 20
100.7655978480725
 10
183.6628634523482
 20
100.4803439418938
 10
183.8912732830202
 20
100.3732014723025
 10
184.13656408157
 20
100.3732014723025
 10
184.3539496066893
 20
100.3732014723025
 10
184.5596218071587
 20
100.5368435078519
 10
184.5596218071587
 20
100.7683539244607
 10
184.5596218071587
 20
101.0191568757869
 10
184.3567056830775
 20
101.1769422490113
 10
184.1196831136923
 20
101.1769422490113
 97
        0
 97
        1
330
103
 92
        1
 93
        1
 72
     4
 94
        3
 73
     0
 74
     0
 95
       35
 96
       31
 40
0.0
 40
0.0
 40
0.0
 40
0.0
 40
1.0
 40
1.0
 40
1.0
 40
2.0
 40
2.0
 40
2.0
 40
3.0
 40
3.0
 40
3.0
 40
4.0
 40
4.0
 40
4.0
 40
5.0
 40
5.0
 40
5.0
 40
6.0
 40
6.0
 40
6.0
 40
7.0
 40
7.0
 40
7.0
 40
8.0
 40
8.0
 40
8.0
 40
9.0
 40
9.0
 40
9.0
 40
10.0
 40
10.0
 40
10.0
 40
10.0
 10
184.9688991508064
 20
100.4014512552816
 10
185.163547045723
 20
100.4210882995475
 10
185.2734455917025
 20
100.5764621059322
 10
185.2734455917025
 20
100.7683539244607
 10
185.2734455917025
 20
101.0615315502554
 10
185.0195420544396
 20
101.2051920319904
 10
184.5007106743609
 20
101.2196614330284
 10
184.5007106743609
 20
101.2196614330284
 10
184.494854012036
 20
101.2138047707035
 10
184.494854012036
 20
101.2138047707035
 10
184.6640082003618
 20
101.1235432689899
 10
184.7714951795016
 20
100.9461208514996
 10
184.7714951795016
 20
100.7511284470344
 10
184.7714951795016
 20
100.3421956129353
 10
184.4976100884242
 20
100.1192979350396
 10
184.1028021458146
 20
100.1192979350396
 10
183.7193630183062
 20
100.1192979350396
 10
183.4513345895538
 20
100.3900824401802
 10
183.4513345895538
 20
100.7766221536253
 10
183.4513345895538
 20
101.1490369755808
 10
183.6514946372468
 20
101.46219615519
 10
184.4073485867106
 20
101.46219615519
 10
185.0984347410518
 20
101.46219615519
 10
185.4849744544968
 20
101.2534233687838
 10
185.4849744544968
 20
100.7683539244607
 10
185.4849744544968
 20
100.4324571146488
 10
185.3130641897828
 20
100.1926784688754
 10
184.9688991508064
 20
100.1616726095082
 10
184.9688991508064
 20
100.1616726095082
 10
184.9688991508064
 20
100.4014512552816
 10
184.9688991508064
 20
100.4014512552816
 97
        0
 97
        1
330
104
 75
     2
 76
     1
 98
        1
 10
0.0
 20
0.0
450
        0
451
        0
460
0.0
461
0.0
452
        0
462
0.0
453
        0
470

  0
ENDBLK
  5
FA
330
F7
100
AcDbEntity
  8
0
100
AcDbBlockEnd
  0
BLOCK
  5
126
330
124
100
AcDbEntity
  8
0
100
AcDbBlockBegin
  2
Block_20
 70
     0
 10
0.0
 20
0.0
 30
0.0
  3
Block_20
  1

  0
LINE
  5
128
330
124
100
AcDbEntity
  8
0
 62
    18
420
        0
370
     5
100
AcDbLine
 10
128.72005380139
 20
76.31828638177724
 30
0.0
 11
128.72005380139
 21
83.64169453640256
 31
0.0
  0
LINE
  5
129
330
124
100
AcDbEntity
  8
0
 62
    18
420
        0
370
     5
100
AcDbLine
 10
128.72005380139
 20
75.67604858501272
 30
0.0
 11
128.72005380139
 21
76.31828638177724
 31
0.0
  0
ENDBLK
  5
127
330
124
100
AcDbEntity
  8
0
100
AcDbBlockEnd
  0
BLOCK
  5
138
330
136
100
AcDbEntity
  8
0
100
AcDbBlockBegin
  2
Block_21
 70
     0
 10
0.0
 20
0.0
 30
0.0
  3
Block_21
  1

  0
INSERT
  5
13B
330
136
100
AcDbEntity
  8
0
100
AcDbBlockReference
  2
Block_22
 10
0.0
 20
0.0
 30
0.0
  0
ENDBLK
  5
139
330
136
100
AcDbEntity
  8
0
100
AcDbBlockEnd
  0
BLOCK
  5
13C
330
13A
100
AcDbEntity
  8
0
100
AcDbBlockBegin
  2
Block_22
 70
     0
 10
0.0
 20
0.0
 30
0.0
  3
Block_22
  1

  0
LINE
  5
13E
330
13A
100
AcDbEntity
  8
0
 62
    18
420
        0
370
     5
100
AcDbLine
 10
142.0117451630648
 20
64.88931548297744
 30
0.0
 11
129.3380678489317
 21
64.88931548297744
 31
0.0
  0
INSERT
  5
140
330
13A
100
AcDbEntity
  8
0
100
AcDbBlockReference
  2
Block_23
 10
0.0
 20
0.0
 30
0.0
  0
INSERT
  5
146
330
13A
100
AcDbEntity
  8
0
100
AcDbBlockReference
  2
Block_24
 10
0.0
 20
0.0
 30
0.0
  0
ENDBLK
  5
13D
330
13A
100
AcDbEntity
  8
0
100
AcDbBlockEnd
  0
BLOCK
  5
141
330
13F
100
AcDbEntity
  8
0
100
AcDbBlockBegin
  2
Block_23
 70
     0
 10
0.0
 20
0.0
 30
0.0
  3
Block_23
  1

  0
LWPOLYLINE
  5
143
330
13F
100
AcDbEntity
  8
0
100
AcDbPolyline
 90
        3
 70
     1
 43
0.0
 10
141.3792902275132
 20
65.11062518717287
 10
143.0604752924687
 20
64.89000450207448
 10
141.3792902275132
 20
64.668005778782
  0
HATCH
  5
144
330
13F
100
AcDbEntity
  8
0
 62
    18
420
        0
440
 33554687
100
AcDbHatch
 10
0.0
 20
0.0
 30
0.0
210
0.0
220
0.0
230
1.0
  2
SOLID
 70
     1
 71
     1
 91
        1
 92
        1
 93
        3
 72
     1
 10
141.3792902275132
 20
65.11062518717287
 11
143.0604752924687
 21
64.89000450207448
 72
     1
 10
143.0604752924687
 20
64.89000450207448
 11
141.3792902275132
 21
64.668005778782
 72
     1
 10
141.3792902275132
 20
64.668005778782
 11
141.3792902275132
 21
65.11062518717287
 97
        1
330
143
 75
     2
 76
     1
 98
        1
 10
0.0
 20
0.0
450
        0
451
        0
460
0.0
461
0.0
452
        0
462
0.0
453
        0
470

  0
ENDBLK
  5
142
330
13F
100
AcDbEntity
  8
0
100
AcDbBlockEnd
  0
BLOCK
  5
147
330
145
100
AcDbEntity
  8
0
100
AcDbBlockBegin
  2
Block_24
 70
     0
 10
0.0
 20
0.0
 30
0.0
  3
Block_24
  1

  0
LWPOLYLINE
  5
149
330
145
100
AcDbEntity
  8
0
100
AcDbPolyline
 90
        3
 70
     1
 43
0.0
 10
129.9705227844833
 20
65.11062518717287
 10
128.2893484854515
 20
64.89000450207448
 10
129.9705227844833
 20
64.668005778782
  0
HATCH
  5
14A
330
145
100
AcDbEntity
  8
0
 62
    18
420
        0
440
 33554687
100
AcDbHatch
 10
0.0
 20
0.0
 30
0.0
210
0.0
220
0.0
230
1.0
  2
SOLID
 70
     1
 71
     1
 91
        1
 92
        1
 93
        3
 72
     1
 10
129.9705227844833
 20
65.11062518717287
 11
128.2893484854515
 21
64.89000450207448
 72
     1
 10
128.2893484854515
 20
64.89000450207448
 11
129.9705227844833
 21
64.668005778782
 72
     1
 10
129.9705227844833
 20
64.668005778782
 11
129.9705227844833
 21
65.11062518717287
 97
        1
330
149
 75
     2
 76
     1
 98
        1
 10
0.0
 20
0.0
450
        0
451
        0
460
0.0
461
0.0
452
        0
462
0.0
453
        0
470

  0
ENDBLK
  5
148
330
145
100
AcDbEntity
  8
0
100
AcDbBlockEnd
  0
BLOCK
  5
14D
330
14B
100
AcDbEntity
  8
0
100
AcDbBlockBegin
  2
Block_25
 70
     0
 10
0.0
 20
0.0
 30
0.0
  3
Block_25
  1

  0
INSERT
  5
150
330
14B
100
AcDbEntity
  8
0
100
AcDbBlockReference
  2
Block_26
 10
0.0
 20
0.0
 30
0.0
  0
ENDBLK
  5
14E
330
14B
100
AcDbEntity
  8
0
100
AcDbBlockEnd
  0
BLOCK
  5
151
330
14F
100
AcDbEntity
  8
0
100
AcDbBlockBegin
  2
Block_26
 70
     0
 10
0.0
 20
0.0
 30
0.0
  3
Block_26
  1

  0
SPLINE
  5
153
330
14F
100
AcDbEntity
  8
0
100
AcDbSpline
210
0.0
220
0.0
230
1.0
 70
     9
 71
     3
 72
    17
 73
    13
 74
     0
 42
0.0000000001
 43
0.0000000001
 40
0.0
 40
0.0
 40
0.0
 40
0.0
 40
1.0
 40
1.0
 40
1.0
 40
2.0
 40
2.0
 40
2.0
 40
3.0
 40
3.0
 40
3.0
 40
4.0
 40
4.0
 40
4.0
 40
4.0
 10
135.195020853788
 20
61.93006997149665
 30
0.0
 10
135.4546087986016
 20
61.93006997149665
 30
0.0
 10
135.5984415351108
 20
62.13608668151459
 30
0.0
 10
135.5984415351108
 20
62.37276474135125
 30
0.0
 10
135.5984415351108
 20
62.62115612583777
 30
0.0
 10
135.4687336900912
 20
62.82682832630719
 30
0.0
 10
135.195020853788
 20
62.82682832630719
 30
0.0
 10
134.9271646798099
 20
62.82682832630719
 30
0.0
 10
134.7804036121382
 20
62.62666827861417
 30
0.0
 10
134.7804036121382
 20
62.37552081773945
 30
0.0
 10
134.7804036121382
 20
62.12747394280146
 30
0.0
 10
134.9326768325862
 20
61.93006997149665
 30
0.0
 10
135.195020853788
 20
61.93006997149665
 30
0.0
  0
SPLINE
  5
154
330
14F
100
AcDbEntity
  8
0
100
AcDbSpline
210
0.0
220
0.0
230
1.0
 70
     9
 71
     3
 72
    35
 73
    31
 74
     0
 42
0.0000000001
 43
0.0000000001
 40
0.0
 40
0.0
 40
0.0
 40
0.0
 40
1.0
 40
1.0
 40
1.0
 40
2.0
 40
2.0
 40
2.0
 40
3.0
 40
3.0
 40
3.0
 40
4.0
 40
4.0
 40
4.0
 40
5.0
 40
5.0
 40
5.0
 40
6.0
 40
6.0
 40
6.0
 40
7.0
 40
7.0
 40
7.0
 40
8.0
 40
8.0
 40
8.0
 40
9.0
 40
9.0
 40
9.0
 40
10.0
 40
10.0
 40
10.0
 40
10.0
 10
134.4954942155081
 20
62.68041176818407
 30
0.0
 10
134.4954942155081
 20
63.23024900762995
 30
0.0
 10
134.6618923274456
 20
63.75218097364529
 30
0.0
 10
135.2317111207059
 20
63.75218097364529
 30
0.0
 10
135.5617512681929
 20
63.75218097364529
 30
0.0
 10
135.7648396470483
 20
63.56890189383
 30
0.0
 10
135.7958455064156
 20
63.24161782273126
 30
0.0
 10
135.7958455064156
 20
63.24161782273126
 30
0.0
 10
135.5560668606422
 20
63.24161782273126
 30
0.0
 10
135.5560668606422
 20
63.24161782273126
 30
0.0
 10
135.5335014852138
 20
63.42214082615836
 30
0.0
 10
135.412234124133
 20
63.54065211085095
 30
0.0
 10
135.2205145603789
 20
63.54065211085095
 30
0.0
 10
134.8143378026679
 20
63.54065211085095
 30
0.0
 10
134.7437133452203
 20
63.08934460228321
 30
0.0
 10
134.7352728612814
 20
62.78169757545041
 30
0.0
 10
134.7352728612814
 20
62.78169757545041
 30
0.0
 10
134.7409572688321
 20
62.77618542267401
 30
0.0
 10
134.7409572688321
 20
62.77618542267401
 30
0.0
 10
134.853784145974
 20
62.9594645024893
 30
0.0
 10
135.0229383342998
 20
63.03870169865005
 30
0.0
 10
135.2401516046448
 20
63.03870169865005
 30
0.0
 10
135.6237629869274
 20
63.03870169865005
 30
0.0
 10
135.8523450723737
 20
62.75930445479628
 30
0.0
 10
135.8523450723737
 20
62.38964570922898
 30
0.0
 10
135.8523450723737
 20
62.09646808343421
 30
0.0
 10
135.6887030368243
 20
61.71854110870231
 30
0.0
 10
135.183824293461
 20
61.71854110870231
 30
0.0
 10
134.5886840483841
 20
61.71854110870231
 30
0.0
 10
134.4954942155081
 20
62.26286619537178
 30
0.0
 10
134.4954942155081
 20
62.68041176818407
 30
0.0
  0
HATCH
  5
155
330
14F
100
AcDbEntity
  8
0
 62
    18
420
        0
440
 33554687
100
AcDbHatch
 10
0.0
 20
0.0
 30
0.0
210
0.0
220
0.0
230
1.0
  2
SOLID
 70
     1
 71
     1
 91
        2
 92
        1
 93
        1
 72
     4
 94
        3
 73
     0
 74
     0
 95
       17
 96
       13
 40
0.0
 40
0.0
 40
0.0
 40
0.0
 40
1.0
 40
1.0
 40
1.0
 40
2.0
 40
2.0
 40
2.0
 40
3.0
 40
3.0
 40
3.0
 40
4.0
 40
4.0
 40
4.0
 40
4.0
 10
135.195020853788
 20
61.93006997149665
 10
135.4546087986016
 20
61.93006997149665
 10
135.5984415351108
 20
62.13608668151459
 10
135.5984415351108
 20
62.37276474135125
 10
135.5984415351108
 20
62.62115612583777
 10
135.4687336900912
 20
62.82682832630719
 10
135.195020853788
 20
62.82682832630719
 10
134.9271646798099
 20
62.82682832630719
 10
134.7804036121382
 20
62.62666827861417
 10
134.7804036121382
 20
62.37552081773945
 10
134.7804036121382
 20
62.12747394280146
 10
134.9326768325862
 20
61.93006997149665
 10
135.195020853788
 20
61.93006997149665
 97
        0
 97
        1
330
153
 92
        1
 93
        1
 72
     4
 94
        3
 73
     0
 74
     0
 95
       35
 96
       31
 40
0.0
 40
0.0
 40
0.0
 40
0.0
 40
1.0
 40
1.0
 40
1.0
 40
2.0
 40
2.0
 40
2.0
 40
3.0
 40
3.0
 40
3.0
 40
4.0
 40
4.0
 40
4.0
 40
5.0
 40
5.0
 40
5.0
 40
6.0
 40
6.0
 40
6.0
 40
7.0
 40
7.0
 40
7.0
 40
8.0
 40
8.0
 40
8.0
 40
9.0
 40
9.0
 40
9.0
 40
10.0
 40
10.0
 40
10.0
 40
10.0
 10
134.4954942155081
 20
62.68041176818407
 10
134.4954942155081
 20
63.23024900762995
 10
134.6618923274456
 20
63.75218097364529
 10
135.2317111207059
 20
63.75218097364529
 10
135.5617512681929
 20
63.75218097364529
 10
135.7648396470483
 20
63.56890189383
 10
135.7958455064156
 20
63.24161782273126
 10
135.7958455064156
 20
63.24161782273126
 10
135.5560668606422
 20
63.24161782273126
 10
135.5560668606422
 20
63.24161782273126
 10
135.5335014852138
 20
63.42214082615836
 10
135.412234124133
 20
63.54065211085095
 10
135.2205145603789
 20
63.54065211085095
 10
134.8143378026679
 20
63.54065211085095
 10
134.7437133452203
 20
63.08934460228321
 10
134.7352728612814
 20
62.78169757545041
 10
134.7352728612814
 20
62.78169757545041
 10
134.7409572688321
 20
62.77618542267401
 10
134.7409572688321
 20
62.77618542267401
 10
134.853784145974
 20
62.9594645024893
 10
135.0229383342998
 20
63.03870169865005
 10
135.2401516046448
 20
63.03870169865005
 10
135.6237629869274
 20
63.03870169865005
 10
135.8523450723737
 20
62.75930445479628
 10
135.8523450723737
 20
62.38964570922898
 10
135.8523450723737
 20
62.09646808343421
 10
135.6887030368243
 20
61.71854110870231
 10
135.183824293461
 20
61.71854110870231
 10
134.5886840483841
 20
61.71854110870231
 10
134.4954942155081
 20
62.26286619537178
 10
134.4954942155081
 20
62.68041176818407
 97
        0
 97
        1
330
154
 75
     2
 76
     1
 98
        1
 10
0.0
 20
0.0
450
        0
451
        0
460
0.0
461
0.0
452
        0
462
0.0
453
        0
470

  0
SPLINE
  5
156
330
14F
100
AcDbEntity
  8
0
100
AcDbSpline
210
0.0
220
0.0
230
1.0
 70
    11
 71
     3
 72
    17
 73
    13
 74
     0
 42
0.0000000001
 43
0.0000000001
 40
0.0
 40
0.0
 40
0.0
 40
0.0
 40
1.0
 40
1.0
 40
1.0
 40
2.0
 40
2.0
 40
2.0
 40
3.0
 40
3.0
 40
3.0
 40
4.0
 40
4.0
 40
4.0
 40
4.0
 10
136.9137789913792
 20
62.43202038369755
 30
0.0
 10
136.9137789913792
 20
62.43202038369755
 30
0.0
 10
136.9137789913792
 20
63.41077201105703
 30
0.0
 10
136.9137789913792
 20
63.41077201105703
 30
0.0
 10
136.9137789913792
 20
63.41077201105703
 30
0.0
 10
136.9080945838285
 20
63.41077201105703
 30
0.0
 10
136.9080945838285
 20
63.41077201105703
 30
0.0
 10
136.9080945838285
 20
63.41077201105703
 30
0.0
 10
136.2425021360782
 20
62.43202038369755
 30
0.0
 10
136.2425021360782
 20
62.43202038369755
 30
0.0
 10
136.2425021360782
 20
62.43202038369755
 30
0.0
 10
136.9137789913792
 20
62.43202038369755
 30
0.0
 10
136.9137789913792
 20
62.43202038369755
 30
0.0
  0
SPLINE
  5
157
330
14F
100
AcDbEntity
  8
0
100
AcDbSpline
210
0.0
220
0.0
230
1.0
 70
    11
 71
     3
 72
    38
 73
    34
 74
     0
 42
0.0000000001
 43
0.0000000001
 40
0.0
 40
0.0
 40
0.0
 40
0.0
 40
1.0
 40
1.0
 40
1.0
 40
2.0
 40
2.0
 40
2.0
 40
3.0
 40
3.0
 40
3.0
 40
4.0
 40
4.0
 40
4.0
 40
5.0
 40
5.0
 40
5.0
 40
6.0
 40
6.0
 40
6.0
 40
7.0
 40
7.0
 40
7.0
 40
8.0
 40
8.0
 40
8.0
 40
9.0
 40
9.0
 40
9.0
 40
10.0
 40
10.0
 40
10.0
 40
11.0
 40
11.0
 40
11.0
 40
11.0
 10
136.0364854260603
 20
62.45165742796348
 30
0.0
 10
136.0364854260603
 20
62.45165742796348
 30
0.0
 10
136.9477131819089
 20
63.75218097364529
 30
0.0
 10
136.9477131819089
 20
63.75218097364529
 30
0.0
 10
136.9477131819089
 20
63.75218097364529
 30
0.0
 10
137.139432745663
 20
63.75218097364529
 30
0.0
 10
137.139432745663
 20
63.75218097364529
 30
0.0
 10
137.139432745663
 20
63.75218097364529
 30
0.0
 10
137.139432745663
 20
62.43202038369755
 30
0.0
 10
137.139432745663
 20
62.43202038369755
 30
0.0
 10
137.139432745663
 20
62.43202038369755
 30
0.0
 10
137.4102172508037
 20
62.43202038369755
 30
0.0
 10
137.4102172508037
 20
62.43202038369755
 30
0.0
 10
137.4102172508037
 20
62.43202038369755
 30
0.0
 10
137.4102172508037
 20
62.22049152090321
 30
0.0
 10
137.4102172508037
 20
62.22049152090321
 30
0.0
 10
137.4102172508037
 20
62.22049152090321
 30
0.0
 10
137.139432745663
 20
62.22049152090321
 30
0.0
 10
137.139432745663
 20
62.22049152090321
 30
0.0
 10
137.139432745663
 20
62.22049152090321
 30
0.0
 10
137.139432745663
 20
61.75230304445776
 30
0.0
 10
137.139432745663
 20
61.75230304445776
 30
0.0
 10
137.139432745663
 20
61.75230304445776
 30
0.0
 10
136.9137789913792
 20
61.75230304445776
 30
0.0
 10
136.9137789913792
 20
61.75230304445776
 30
0.0
 10
136.9137789913792
 20
61.75230304445776
 30
0.0
 10
136.9137789913792
 20
62.22049152090321
 30
0.0
 10
136.9137789913792
 20
62.22049152090321
 30
0.0
 10
136.9137789913792
 20
62.22049152090321
 30
0.0
 10
136.0364854260603
 20
62.22049152090321
 30
0.0
 10
136.0364854260603
 20
62.22049152090321
 30
0.0
 10
136.0364854260603
 20
62.22049152090321
 30
0.0
 10
136.0364854260603
 20
62.45165742796348
 30
0.0
 10
136.0364854260603
 20
62.45165742796348
 30
0.0
  0
HATCH
  5
158
330
14F
100
AcDbEntity
  8
0
 62
    18
420
        0
440
 33554687
100
AcDbHatch
 10
0.0
 20
0.0
 30
0.0
210
0.0
220
0.0
230
1.0
  2
SOLID
 70
     1
 71
     1
 91
        2
 92
        1
 93
        1
 72
     4
 94
        3
 73
     0
 74
     0
 95
       17
 96
       13
 40
0.0
 40
0.0
 40
0.0
 40
0.0
 40
1.0
 40
1.0
 40
1.0
 40
2.0
 40
2.0
 40
2.0
 40
3.0
 40
3.0
 40
3.0
 40
4.0
 40
4.0
 40
4.0
 40
4.0
 10
136.9137789913792
 20
62.43202038369755
 10
136.9137789913792
 20
62.43202038369755
 10
136.9137789913792
 20
63.41077201105703
 10
136.9137789913792
 20
63.41077201105703
 10
136.9137789913792
 20
63.41077201105703
 10
136.9080945838285
 20
63.41077201105703
 10
136.9080945838285
 20
63.41077201105703
 10
136.9080945838285
 20
63.41077201105703
 10
136.2425021360782
 20
62.43202038369755
 10
136.2425021360782
 20
62.43202038369755
 10
136.2425021360782
 20
62.43202038369755
 10
136.9137789913792
 20
62.43202038369755
 10
136.9137789913792
 20
62.43202038369755
 97
        0
 97
        1
330
156
 92
        1
 93
        1
 72
     4
 94
        3
 73
     0
 74
     0
 95
       38
 96
       34
 40
0.0
 40
0.0
 40
0.0
 40
0.0
 40
1.0
 40
1.0
 40
1.0
 40
2.0
 40
2.0
 40
2.0
 40
3.0
 40
3.0
 40
3.0
 40
4.0
 40
4.0
 40
4.0
 40
5.0
 40
5.0
 40
5.0
 40
6.0
 40
6.0
 40
6.0
 40
7.0
 40
7.0
 40
7.0
 40
8.0
 40
8.0
 40
8.0
 40
9.0
 40
9.0
 40
9.0
 40
10.0
 40
10.0
 40
10.0
 40
11.0
 40
11.0
 40
11.0
 40
11.0
 10
136.0364854260603
 20
62.45165742796348
 10
136.0364854260603
 20
62.45165742796348
 10
136.9477131819089
 20
63.75218097364529
 10
136.9477131819089
 20
63.75218097364529
 10
136.9477131819089
 20
63.75218097364529
 10
137.139432745663
 20
63.75218097364529
 10
137.139432745663
 20
63.75218097364529
 10
137.139432745663
 20
63.75218097364529
 10
137.139432745663
 20
62.43202038369755
 10
137.139432745663
 20
62.43202038369755
 10
137.139432745663
 20
62.43202038369755
 10
137.4102172508037
 20
62.43202038369755
 10
137.4102172508037
 20
62.43202038369755
 10
137.4102172508037
 20
62.43202038369755
 10
137.4102172508037
 20
62.22049152090321
 10
137.4102172508037
 20
62.22049152090321
 10
137.4102172508037
 20
62.22049152090321
 10
137.139432745663
 20
62.22049152090321
 10
137.139432745663
 20
62.22049152090321
 10
137.139432745663
 20
62.22049152090321
 10
137.139432745663
 20
61.75230304445776
 10
137.139432745663
 20
61.75230304445776
 10
137.139432745663
 20
61.75230304445776
 10
136.9137789913792
 20
61.75230304445776
 10
136.9137789913792
 20
61.75230304445776
 10
136.9137789913792
 20
61.75230304445776
 10
136.9137789913792
 20
62.22049152090321
 10
136.9137789913792
 20
62.22049152090321
 10
136.9137789913792
 20
62.22049152090321
 10
136.0364854260603
 20
62.22049152090321
 10
136.0364854260603
 20
62.22049152090321
 10
136.0364854260603
 20
62.22049152090321
 10
136.0364854260603
 20
62.45165742796348
 10
136.0364854260603
 20
62.45165742796348
 97
        0
 97
        1
330
157
 75
     2
 76
     1
 98
        1
 10
0.0
 20
0.0
450
        0
451
        0
460
0.0
461
0.0
452
        0
462
0.0
453
        0
470

  0
ENDBLK
  5
152
330
14F
100
AcDbEntity
  8
0
100
AcDbBlockEnd
  0
BLOCK
  5
15C
330
15A
100
AcDbEntity
  8
0
100
AcDbBlockBegin
  2
Block_27
 70
     0
 10
0.0
 20
0.0
 30
0.0
  3
Block_27
  1

  0
INSERT
  5
15F
330
15A
100
AcDbEntity
  8
0
100
AcDbBlockReference
  2
Block_28
 10
0.0
 20
0.0
 30
0.0
  0
ENDBLK
  5
15D
330
15A
100
AcDbEntity
  8
0
100
AcDbBlockEnd
  0
BLOCK
  5
160
330
15E
100
AcDbEntity
  8
0
100
AcDbBlockBegin
  2
Block_28
 70
     0
 10
0.0
 20
0.0
 30
0.0
  3
Block_28
  1

  0
LINE
  5
162
330
15E
100
AcDbEntity
  8
0
 62
    18
420
        0
370
     5
100
AcDbLine
 10
168.582259411522
 20
83.12704270721846
 30
0.0
 11
168.582259411522
 21
77.3670099276933
 31
0.0
  0
INSERT
  5
164
330
15E
100
AcDbEntity
  8
0
100
AcDbBlockReference
  2
Block_29
 10
0.0
 20
0.0
 30
0.0
  0
INSERT
  5
16A
330
15E
100
AcDbEntity
  8
0
100
AcDbBlockReference
  2
Block_30
 10
0.0
 20
0.0
 30
0.0
  0
ENDBLK
  5
161
330
15E
100
AcDbEntity
  8
0
100
AcDbBlockEnd
  0
BLOCK
  5
165
330
163
100
AcDbEntity
  8
0
100
AcDbBlockBegin
  2
Block_29
 70
     0
 10
0.0
 20
0.0
 30
0.0
  3
Block_29
  1

  0
LWPOLYLINE
  5
167
330
163
100
AcDbEntity
  8
0
100
AcDbPolyline
 90
        3
 70
     1
 43
0.0
 10
168.3609443243648
 20
82.49458777166694
 10
168.5815703924249
 20
84.17576207069869
 10
168.8035637327557
 20
82.49458777166694
  0
HATCH
  5
168
330
163
100
AcDbEntity
  8
0
 62
    18
420
        0
440
 33554687
100
AcDbHatch
 10
0.0
 20
0.0
 30
0.0
210
0.0
220
0.0
230
1.0
  2
SOLID
 70
     1
 71
     1
 91
        1
 92
        1
 93
        3
 72
     1
 10
168.3609443243648
 20
82.49458777166694
 11
168.5815703924249
 21
84.17576207069869
 72
     1
 10
168.5815703924249
 20
84.17576207069869
 11
168.8035637327557
 21
82.49458777166694
 72
     1
 10
168.8035637327557
 20
82.49458777166694
 11
168.3609443243648
 21
82.49458777166694
 97
        1
330
167
 75
     2
 76
     1
 98
        1
 10
0.0
 20
0.0
450
        0
451
        0
460
0.0
461
0.0
452
        0
462
0.0
453
        0
470

  0
ENDBLK
  5
166
330
163
100
AcDbEntity
  8
0
100
AcDbBlockEnd
  0
BLOCK
  5
16B
330
169
100
AcDbEntity
  8
0
100
AcDbBlockBegin
  2
Block_30
 70
     0
 10
0.0
 20
0.0
 30
0.0
  3
Block_30
  1

  0
LWPOLYLINE
  5
16D
330
169
100
AcDbEntity
  8
0
100
AcDbPolyline
 90
        3
 70
     1
 43
0.0
 10
168.3609443243648
 20
77.99946486324483
 10
168.5815703924249
 20
76.31828518125138
 10
168.8035637327557
 20
77.99946486324483
  0
HATCH
  5
16E
330
169
100
AcDbEntity
  8
0
 62
    18
420
        0
440
 33554687
100
AcDbHatch
 10
0.0
 20
0.0
 30
0.0
210
0.0
220
0.0
230
1.0
  2
SOLID
 70
     1
 71
     1
 91
        1
 92
        1
 93
        3
 72
     1
 10
168.3609443243648
 20
77.99946486324483
 11
168.5815703924249
 21
76.31828518125138
 72
     1
 10
168.5815703924249
 20
76.31828518125138
 11
168.8035637327557
 21
77.99946486324483
 72
     1
 10
168.8035637327557
 20
77.99946486324483
 11
168.3609443243648
 21
77.99946486324483
 97
        1
330
16D
 75
     2
 76
     1
 98
        1
 10
0.0
 20
0.0
450
        0
451
        0
460
0.0
461
0.0
452
        0
462
0.0
453
        0
470

  0
ENDBLK
  5
16C
330
169
100
AcDbEntity
  8
0
100
AcDbBlockEnd
  0
BLOCK
  5
171
330
16F
100
AcDbEntity
  8
0
100
AcDbBlockBegin
  2
Block_31
 70
     0
 10
0.0
 20
0.0
 30
0.0
  3
Block_31
  1

  0
INSERT
  5
174
330
16F
100
AcDbEntity
  8
0
100
AcDbBlockReference
  2
Block_32
 10
0.0
 20
0.0
 30
0.0
  0
ENDBLK
  5
172
330
16F
100
AcDbEntity
  8
0
100
AcDbBlockEnd
  0
BLOCK
  5
175
330
173
100
AcDbEntity
  8
0
100
AcDbBlockBegin
  2
Block_32
 70
     0
 10
0.0
 20
0.0
 30
0.0
  3
Block_32
  1

  0
SPLINE
  5
177
330
173
100
AcDbEntity
  8
0
100
AcDbSpline
210
0.0
220
0.0
230
1.0
 70
     9
 71
     3
 72
    62
 73
    58
 74
     0
 42
0.0000000001
 43
0.0000000001
 40
0.0
 40
0.0
 40
0.0
 40
0.0
 40
1.0
 40
1.0
 40
1.0
 40
2.0
 40
2.0
 40
2.0
 40
3.0
 40
3.0
 40
3.0
 40
4.0
 40
4.0
 40
4.0
 40
5.0
 40
5.0
 40
5.0
 40
6.0
 40
6.0
 40
6.0
 40
7.0
 40
7.0
 40
7.0
 40
8.0
 40
8.0
 40
8.0
 40
9.0
 40
9.0
 40
9.0
 40
10.0
 40
10.0
 40
10.0
 40
11.0
 40
11.0
 40
11.0
 40
12.0
 40
12.0
 40
12.0
 40
13.0
 40
13.0
 40
13.0
 40
14.0
 40
14.0
 40
14.0
 40
15.0
 40
15.0
 40
15.0
 40
16.0
 40
16.0
 40
16.0
 40
17.0
 40
17.0
 40
17.0
 40
18.0
 40
18.0
 40
18.0
 40
19.0
 40
19.0
 40
19.0
 40
19.0
 10
171.0421006516839
 20
79.00224064865222
 30
0.0
 10
171.3015163417232
 20
79.01050887781682
 30
0.0
 10
171.4820393451503
 20
79.15451386910027
 30
0.0
 10
171.4820393451503
 20
79.4280544506291
 30
0.0
 10
171.4820393451503
 20
79.66232094362609
 30
0.0
 10
171.3356227870272
 20
79.8624809913191
 30
0.0
 10
171.0958441412538
 20
79.8624809913191
 30
0.0
 10
170.8446966803791
 20
79.8624809913191
 30
0.0
 10
170.712060504197
 20
79.67334524917889
 30
0.0
 10
170.712060504197
 20
79.43632267979371
 30
0.0
 10
170.712060504197
 20
79.38567977616052
 30
0.0
 10
170.7148165805852
 20
79.33779294891555
 30
0.0
 10
170.7206732429101
 20
79.29266219805878
 30
0.0
 10
170.7206732429101
 20
79.29266219805878
 30
0.0
 10
170.5174126092803
 20
79.29266219805878
 30
0.0
 10
170.5174126092803
 20
79.29266219805878
 30
0.0
 10
170.5201686856686
 20
79.31229924232471
 30
0.0
 10
170.5201686856686
 20
79.32952471975095
 30
0.0
 10
170.5201686856686
 20
79.34606117808015
 30
0.0
 10
170.5201686856686
 20
79.34606117808015
 30
0.0
 10
170.5201686856686
 20
79.39704859126185
 30
0.0
 10
170.5201686856686
 20
79.39704859126185
 30
0.0
 10
170.5201686856686
 20
79.60030922489159
 30
0.0
 10
170.4075140633009
 20
79.77773164238197
 30
0.0
 10
170.1932291241184
 20
79.77773164238197
 30
0.0
 10
169.981700261324
 20
79.77773164238197
 30
0.0
 10
169.871457205796
 20
79.62545842193391
 30
0.0
 10
169.871457205796
 20
79.4225422978527
 30
0.0
 10
169.871457205796
 20
79.16278209826487
 30
0.0
 10
170.0719617630375
 20
79.04427081357226
 30
0.0
 10
170.305883746486
 20
79.04427081357226
 30
0.0
 10
170.305883746486
 20
79.04427081357226
 30
0.0
 10
170.305883746486
 20
78.80449216779888
 30
0.0
 10
170.305883746486
 20
78.80449216779888
 30
0.0
 10
169.9252006953659
 20
78.81896156883692
 30
0.0
 10
169.6599283430017
 20
79.02187769291813
 30
0.0
 10
169.6599283430017
 20
79.4225422978527
 30
0.0
 10
169.6599283430017
 20
79.76911890366884
 30
0.0
 10
169.8263264549392
 20
80.03163517964486
 30
0.0
 10
170.1959852005065
 20
80.03163517964486
 30
0.0
 10
170.3737521275454
 20
80.03163517964486
 30
0.0
 10
170.5232692716053
 20
79.91036781856408
 30
0.0
 10
170.5935492195044
 20
79.75533852172784
 30
0.0
 10
170.5935492195044
 20
79.75533852172784
 30
0.0
 10
170.5994058818293
 20
79.75533852172784
 30
0.0
 10
170.5994058818293
 20
79.75533852172784
 30
0.0
 10
170.6528048618507
 20
80.00062932027763
 30
0.0
 10
170.8446966803791
 20
80.11638452858202
 30
0.0
 10
171.0844753261525
 20
80.11638452858202
 30
0.0
 10
171.4820393451503
 20
80.11638452858202
 30
0.0
 10
171.6935682079447
 20
79.8032253489728
 30
0.0
 10
171.6935682079447
 20
79.4280544506291
 30
0.0
 10
171.6935682079447
 20
79.02187769291813
 30
0.0
 10
171.456890148108
 20
78.75384926416571
 30
0.0
 10
171.0421006516839
 20
78.76246200287884
 30
0.0
 10
171.0421006516839
 20
78.76246200287884
 30
0.0
 10
171.0421006516839
 20
79.00224064865222
 30
0.0
 10
171.0421006516839
 20
79.00224064865222
 30
0.0
  0
HATCH
  5
178
330
173
100
AcDbEntity
  8
0
 62
    18
420
        0
440
 33554687
100
AcDbHatch
 10
0.0
 20
0.0
 30
0.0
210
0.0
220
0.0
230
1.0
  2
SOLID
 70
     1
 71
     1
 91
        1
 92
        1
 93
        1
 72
     4
 94
        3
 73
     0
 74
     0
 95
       62
 96
       58
 40
0.0
 40
0.0
 40
0.0
 40
0.0
 40
1.0
 40
1.0
 40
1.0
 40
2.0
 40
2.0
 40
2.0
 40
3.0
 40
3.0
 40
3.0
 40
4.0
 40
4.0
 40
4.0
 40
5.0
 40
5.0
 40
5.0
 40
6.0
 40
6.0
 40
6.0
 40
7.0
 40
7.0
 40
7.0
 40
8.0
 40
8.0
 40
8.0
 40
9.0
 40
9.0
 40
9.0
 40
10.0
 40
10.0
 40
10.0
 40
11.0
 40
11.0
 40
11.0
 40
12.0
 40
12.0
 40
12.0
 40
13.0
 40
13.0
 40
13.0
 40
14.0
 40
14.0
 40
14.0
 40
15.0
 40
15.0
 40
15.0
 40
16.0
 40
16.0
 40
16.0
 40
17.0
 40
17.0
 40
17.0
 40
18.0
 40
18.0
 40
18.0
 40
19.0
 40
19.0
 40
19.0
 40
19.0
 10
171.0421006516839
 20
79.00224064865222
 10
171.3015163417232
 20
79.01050887781682
 10
171.4820393451503
 20
79.15451386910027
 10
171.4820393451503
 20
79.4280544506291
 10
171.4820393451503
 20
79.66232094362609
 10
171.3356227870272
 20
79.8624809913191
 10
171.0958441412538
 20
79.8624809913191
 10
170.8446966803791
 20
79.8624809913191
 10
170.712060504197
 20
79.67334524917889
 10
170.712060504197
 20
79.43632267979371
 10
170.712060504197
 20
79.38567977616052
 10
170.7148165805852
 20
79.33779294891555
 10
170.7206732429101
 20
79.29266219805878
 10
170.7206732429101
 20
79.29266219805878
 10
170.5174126092803
 20
79.29266219805878
 10
170.5174126092803
 20
79.29266219805878
 10
170.5201686856686
 20
79.31229924232471
 10
170.5201686856686
 20
79.32952471975095
 10
170.5201686856686
 20
79.34606117808015
 10
170.5201686856686
 20
79.34606117808015
 10
170.5201686856686
 20
79.39704859126185
 10
170.5201686856686
 20
79.39704859126185
 10
170.5201686856686
 20
79.60030922489159
 10
170.4075140633009
 20
79.77773164238197
 10
170.1932291241184
 20
79.77773164238197
 10
169.981700261324
 20
79.77773164238197
 10
169.871457205796
 20
79.62545842193391
 10
169.871457205796
 20
79.4225422978527
 10
169.871457205796
 20
79.16278209826487
 10
170.0719617630375
 20
79.04427081357226
 10
170.305883746486
 20
79.04427081357226
 10
170.305883746486
 20
79.04427081357226
 10
170.305883746486
 20
78.80449216779888
 10
170.305883746486
 20
78.80449216779888
 10
169.9252006953659
 20
78.81896156883692
 10
169.6599283430017
 20
79.02187769291813
 10
169.6599283430017
 20
79.4225422978527
 10
169.6599283430017
 20
79.76911890366884
 10
169.8263264549392
 20
80.03163517964486
 10
170.1959852005065
 20
80.03163517964486
 10
170.3737521275454
 20
80.03163517964486
 10
170.5232692716053
 20
79.91036781856408
 10
170.5935492195044
 20
79.75533852172784
 10
170.5935492195044
 20
79.75533852172784
 10
170.5994058818293
 20
79.75533852172784
 10
170.5994058818293
 20
79.75533852172784
 10
170.6528048618507
 20
80.00062932027763
 10
170.8446966803791
 20
80.11638452858202
 10
171.0844753261525
 20
80.11638452858202
 10
171.4820393451503
 20
80.11638452858202
 10
171.6935682079447
 20
79.8032253489728
 10
171.6935682079447
 20
79.4280544506291
 10
171.6935682079447
 20
79.02187769291813
 10
171.456890148108
 20
78.75384926416571
 10
171.0421006516839
 20
78.76246200287884
 10
171.0421006516839
 20
78.76246200287884
 10
171.0421006516839
 20
79.00224064865222
 10
171.0421006516839
 20
79.00224064865222
 97
        0
 97
        1
330
177
 75
     2
 76
     1
 98
        1
 10
0.0
 20
0.0
450
        0
451
        0
460
0.0
461
0.0
452
        0
462
0.0
453
        0
470

  0
SPLINE
  5
179
330
173
100
AcDbEntity
  8
0
100
AcDbSpline
210
0.0
220
0.0
230
1.0
 70
     9
 71
     3
 72
    53
 73
    49
 74
     0
 42
0.0000000001
 43
0.0000000001
 40
0.0
 40
0.0
 40
0.0
 40
0.0
 40
1.0
 40
1.0
 40
1.0
 40
2.0
 40
2.0
 40
2.0
 40
3.0
 40
3.0
 40
3.0
 40
4.0
 40
4.0
 40
4.0
 40
5.0
 40
5.0
 40
5.0
 40
6.0
 40
6.0
 40
6.0
 40
7.0
 40
7.0
 40
7.0
 40
8.0
 40
8.0
 40
8.0
 40
9.0
 40
9.0
 40
9.0
 40
10.0
 40
10.0
 40
10.0
 40
11.0
 40
11.0
 40
11.0
 40
12.0
 40
12.0
 40
12.0
 40
13.0
 40
13.0
 40
13.0
 40
14.0
 40
14.0
 40
14.0
 40
15.0
 40
15.0
 40
15.0
 40
16.0
 40
16.0
 40
16.0
 40
16.0
 10
171.1209933382961
 20
80.58560653367305
 30
0.0
 10
171.3270100483141
 20
80.59938691561404
 30
0.0
 10
171.4820393451503
 20
80.76612953710014
 30
0.0
 10
171.4820393451503
 20
81.00590818287352
 30
0.0
 10
171.4820393451503
 20
81.23397350399706
 30
0.0
 10
171.3242539719258
 20
81.4289659084622
 30
0.0
 10
171.0083387159285
 20
81.4289659084622
 30
0.0
 10
170.7458224399524
 20
81.4289659084622
 30
0.0
 10
170.5542751309725
 20
81.24844290503512
 30
0.0
 10
170.5542751309725
 20
80.97765839989447
 30
0.0
 10
170.5542751309725
 20
80.8222845935097
 30
0.0
 10
170.6304117411965
 20
80.69826115604071
 30
0.0
 10
170.7430663635642
 20
80.60524357793896
 30
0.0
 10
170.7430663635642
 20
80.60524357793896
 30
0.0
 10
170.7320420580114
 20
80.39922686792102
 30
0.0
 10
170.7320420580114
 20
80.39922686792102
 30
0.0
 10
170.7320420580114
 20
80.39922686792102
 30
0.0
 10
169.6940347883056
 20
80.58560653367305
 30
0.0
 10
169.6940347883056
 20
80.58560653367305
 30
0.0
 10
169.6940347883056
 20
80.58560653367305
 30
0.0
 10
169.6940347883056
 20
81.57262639019712
 30
0.0
 10
169.6940347883056
 20
81.57262639019712
 30
0.0
 10
169.6940347883056
 20
81.57262639019712
 30
0.0
 10
169.9055636511
 20
81.57262639019712
 30
0.0
 10
169.9055636511
 20
81.57262639019712
 30
0.0
 10
169.9055636511
 20
81.57262639019712
 30
0.0
 10
169.9055636511
 20
80.76612953710014
 30
0.0
 10
169.9055636511
 20
80.76612953710014
 30
0.0
 10
169.9055636511
 20
80.76612953710014
 30
0.0
 10
170.4808945971367
 20
80.65864255796034
 30
0.0
 10
170.4808945971367
 20
80.65864255796034
 30
0.0
 10
170.4808945971367
 20
80.65864255796034
 30
0.0
 10
170.4864067499131
 20
80.66449922028526
 30
0.0
 10
170.4864067499131
 20
80.66449922028526
 30
0.0
 10
170.387877019035
 20
80.75166013606208
 30
0.0
 10
170.3427462681782
 20
80.90117728012193
 30
0.0
 10
170.3427462681782
 20
81.03691404224077
 30
0.0
 10
170.3427462681782
 20
81.39210338677003
 30
0.0
 10
170.568400022462
 20
81.68252493617659
 30
0.0
 10
171.0279757601944
 20
81.68252493617659
 30
0.0
 10
171.3666286463944
 20
81.68252493617659
 30
0.0
 10
171.6935682079447
 20
81.44860295272813
 30
0.0
 10
171.6935682079447
 20
80.98317055267088
 30
0.0
 10
171.6935682079447
 20
80.63624943730621
 30
0.0
 10
171.4820393451503
 20
80.35409611706425
 30
0.0
 10
171.1209933382961
 20
80.34582788789967
 30
0.0
 10
171.1209933382961
 20
80.34582788789967
 30
0.0
 10
171.1209933382961
 20
80.58560653367305
 30
0.0
 10
171.1209933382961
 20
80.58560653367305
 30
0.0
  0
HATCH
  5
17A
330
173
100
AcDbEntity
  8
0
 62
    18
420
        0
440
 33554687
100
AcDbHatch
 10
0.0
 20
0.0
 30
0.0
210
0.0
220
0.0
230
1.0
  2
SOLID
 70
     1
 71
     1
 91
        1
 92
        1
 93
        1
 72
     4
 94
        3
 73
     0
 74
     0
 95
       53
 96
       49
 40
0.0
 40
0.0
 40
0.0
 40
0.0
 40
1.0
 40
1.0
 40
1.0
 40
2.0
 40
2.0
 40
2.0
 40
3.0
 40
3.0
 40
3.0
 40
4.0
 40
4.0
 40
4.0
 40
5.0
 40
5.0
 40
5.0
 40
6.0
 40
6.0
 40
6.0
 40
7.0
 40
7.0
 40
7.0
 40
8.0
 40
8.0
 40
8.0
 40
9.0
 40
9.0
 40
9.0
 40
10.0
 40
10.0
 40
10.0
 40
11.0
 40
11.0
 40
11.0
 40
12.0
 40
12.0
 40
12.0
 40
13.0
 40
13.0
 40
13.0
 40
14.0
 40
14.0
 40
14.0
 40
15.0
 40
15.0
 40
15.0
 40
16.0
 40
16.0
 40
16.0
 40
16.0
 10
171.1209933382961
 20
80.58560653367305
 10
171.3270100483141
 20
80.59938691561404
 10
171.4820393451503
 20
80.76612953710014
 10
171.4820393451503
 20
81.00590818287352
 10
171.4820393451503
 20
81.23397350399706
 10
171.3242539719258
 20
81.4289659084622
 10
171.0083387159285
 20
81.4289659084622
 10
170.7458224399524
 20
81.4289659084622
 10
170.5542751309725
 20
81.24844290503512
 10
170.5542751309725
 20
80.97765839989447
 10
170.5542751309725
 20
80.8222845935097
 10
170.6304117411965
 20
80.69826115604071
 10
170.7430663635642
 20
80.60524357793896
 10
170.7430663635642
 20
80.60524357793896
 10
170.7320420580114
 20
80.39922686792102
 10
170.7320420580114
 20
80.39922686792102
 10
170.7320420580114
 20
80.39922686792102
 10
169.6940347883056
 20
80.58560653367305
 10
169.6940347883056
 20
80.58560653367305
 10
169.6940347883056
 20
80.58560653367305
 10
169.6940347883056
 20
81.57262639019712
 10
169.6940347883056
 20
81.57262639019712
 10
169.6940347883056
 20
81.57262639019712
 10
169.9055636511
 20
81.57262639019712
 10
169.9055636511
 20
81.57262639019712
 10
169.9055636511
 20
81.57262639019712
 10
169.9055636511
 20
80.76612953710014
 10
169.9055636511
 20
80.76612953710014
 10
169.9055636511
 20
80.76612953710014
 10
170.4808945971367
 20
80.65864255796034
 10
170.4808945971367
 20
80.65864255796034
 10
170.4808945971367
 20
80.65864255796034
 10
170.4864067499131
 20
80.66449922028526
 10
170.4864067499131
 20
80.66449922028526
 10
170.387877019035
 20
80.75166013606208
 10
170.3427462681782
 20
80.90117728012193
 10
170.3427462681782
 20
81.03691404224077
 10
170.3427462681782
 20
81.39210338677003
 10
170.568400022462
 20
81.68252493617659
 10
171.0279757601944
 20
81.68252493617659
 10
171.3666286463944
 20
81.68252493617659
 10
171.6935682079447
 20
81.44860295272813
 10
171.6935682079447
 20
80.98317055267088
 10
171.6935682079447
 20
80.63624943730621
 10
171.4820393451503
 20
80.35409611706425
 10
171.1209933382961
 20
80.34582788789967
 10
171.1209933382961
 20
80.34582788789967
 10
171.1209933382961
 20
80.58560653367305
 10
171.1209933382961
 20
80.58560653367305
 97
        0
 97
        1
330
179
 75
     2
 76
     1
 98
        1
 10
0.0
 20
0.0
450
        0
451
        0
460
0.0
461
0.0
452
        0
462
0.0
453
        0
470

  0
ENDBLK
  5
176
330
173
100
AcDbEntity
  8
0
100
AcDbBlockEnd
  0
BLOCK
  5
296
330
294
100
AcDbEntity
  8
0
100
AcDbBlockBegin
  2
Block_33
 70
     0
 10
0.0
 20
0.0
 30
0.0
  3
Block_33
  1

  0
INSERT
  5
299
330
294
100
AcDbEntity
  8
0
100
AcDbBlockReference
  2
Block_34
 10
0.0
 20
0.0
 30
0.0
  0
ENDBLK
  5
297
330
294
100
AcDbEntity
  8
0
100
AcDbBlockEnd
  0
BLOCK
  5
29A
330
298
100
AcDbEntity
  8
0
100
AcDbBlockBegin
  2
Block_34
 70
     0
 10
0.0
 20
0.0
 30
0.0
  3
Block_34
  1

  0
LINE
  5
29C
330
298
100
AcDbEntity
  8
0
 62
    18
420
        0
370
     5
100
AcDbLine
 10
168.3338464951886
 20
142.7987664607467
 30
0.0
 11
168.3341048773501
 21
139.4161994585541
 31
0.0
  0
INSERT
  5
29E
330
298
100
AcDbEntity
  8
0
100
AcDbBlockReference
  2
Block_35
 10
0.0
 20
0.0
 30
0.0
  0
INSERT
  5
2A4
330
298
100
AcDbEntity
  8
0
100
AcDbBlockReference
  2
Block_36
 10
0.0
 20
0.0
 30
0.0
  0
ENDBLK
  5
29B
330
298
100
AcDbEntity
  8
0
100
AcDbBlockEnd
  0
BLOCK
  5
29F
330
29D
100
AcDbEntity
  8
0
100
AcDbBlockBegin
  2
Block_35
 70
     0
 10
0.0
 20
0.0
 30
0.0
  3
Block_35
  1

  0
LWPOLYLINE
  5
2A1
330
29D
100
AcDbEntity
  8
0
100
AcDbPolyline
 90
        3
 70
     1
 43
0.0
 10
168.1125852376485
 20
142.1662899933484
 10
168.3330821146279
 20
143.8474858242269
 10
168.5552046460394
 20
142.166333057042
  0
HATCH
  5
2A2
330
29D
100
AcDbEntity
  8
0
 62
    18
420
        0
440
 33554687
100
AcDbHatch
 10
0.0
 20
0.0
 30
0.0
210
0.0
220
0.0
230
1.0
  2
SOLID
 70
     1
 71
     1
 91
        1
 92
        1
 93
        3
 72
     1
 10
168.1125852376485
 20
142.1662899933484
 11
168.3330821146279
 21
143.8474858242269
 72
     1
 10
168.3330821146279
 20
143.8474858242269
 11
168.5552046460394
 21
142.166333057042
 72
     1
 10
168.5552046460394
 20
142.166333057042
 11
168.1125852376485
 21
142.1662899933484
 97
        1
330
2A1
 75
     2
 76
     1
 98
        1
 10
0.0
 20
0.0
450
        0
451
        0
460
0.0
461
0.0
452
        0
462
0.0
453
        0
470

  0
ENDBLK
  5
2A0
330
29D
100
AcDbEntity
  8
0
100
AcDbBlockEnd
  0
BLOCK
  5
2A5
330
2A3
100
AcDbEntity
  8
0
100
AcDbBlockBegin
  2
Block_36
 70
     0
 10
0.0
 20
0.0
 30
0.0
  3
Block_36
  1

  0
LWPOLYLINE
  5
2A7
330
2A3
100
AcDbEntity
  8
0
100
AcDbPolyline
 90
        3
 70
     1
 43
0.0
 10
168.1127467264994
 20
140.0486328622589
 10
168.3334912197167
 20
138.3674693291505
 10
168.5553661348902
 20
140.048665160029
  0
HATCH
  5
2A8
330
2A3
100
AcDbEntity
  8
0
 62
    18
420
        0
440
 33554687
100
AcDbHatch
 10
0.0
 20
0.0
 30
0.0
210
0.0
220
0.0
230
1.0
  2
SOLID
 70
     1
 71
     1
 91
        1
 92
        1
 93
        3
 72
     1
 10
168.1127467264994
 20
140.0486328622589
 11
168.3334912197167
 21
138.3674693291505
 72
     1
 10
168.3334912197167
 20
138.3674693291505
 11
168.5553661348902
 21
140.048665160029
 72
     1
 10
168.5553661348902
 20
140.048665160029
 11
168.1127467264994
 21
140.0486328622589
 97
        1
330
2A7
 75
     2
 76
     1
 98
        1
 10
0.0
 20
0.0
450
        0
451
        0
460
0.0
461
0.0
452
        0
462
0.0
453
        0
470

  0
ENDBLK
  5
2A6
330
2A3
100
AcDbEntity
  8
0
100
AcDbBlockEnd
  0
BLOCK
  5
2AC
330
2AA
100
AcDbEntity
  8
0
100
AcDbBlockBegin
  2
Block_37
 70
     0
 10
0.0
 20
0.0
 30
0.0
  3
Block_37
  1

  0
INSERT
  5
2AF
330
2AA
100
AcDbEntity
  8
0
100
AcDbBlockReference
  2
Block_38
 10
0.0
 20
0.0
 30
0.0
  0
ENDBLK
  5
2AD
330
2AA
100
AcDbEntity
  8
0
100
AcDbBlockEnd
  0
BLOCK
  5
2B0
330
2AE
100
AcDbEntity
  8
0
100
AcDbBlockBegin
  2
Block_38
 70
     0
 10
0.0
 20
0.0
 30
0.0
  3
Block_38
  1

  0
LINE
  5
2B2
330
2AE
100
AcDbEntity
  8
0
 62
    18
420
        0
370
     5
100
AcDbLine
 10
182.4043437077953
 20
125.0200664631627
 30
0.0
 11
182.3862838713062
 21
142.8325773941747
 31
0.0
  0
INSERT
  5
2B4
330
2AE
100
AcDbEntity
  8
0
100
AcDbBlockReference
  2
Block_39
 10
0.0
 20
0.0
 30
0.0
  0
INSERT
  5
2BA
330
2AE
100
AcDbEntity
  8
0
100
AcDbBlockReference
  2
Block_40
 10
0.0
 20
0.0
 30
0.0
  0
ENDBLK
  5
2B1
330
2AE
100
AcDbEntity
  8
0
100
AcDbBlockEnd
  0
BLOCK
  5
2B5
330
2B3
100
AcDbEntity
  8
0
100
AcDbBlockBegin
  2
Block_39
 70
     0
 10
0.0
 20
0.0
 30
0.0
  3
Block_39
  1

  0
LWPOLYLINE
  5
2B7
330
2B3
100
AcDbEntity
  8
0
100
AcDbPolyline
 90
        3
 70
     1
 43
0.0
 10
182.6250128395489
 20
125.6527421001434
 10
182.4060931703463
 20
123.9713417167205
 10
182.1823880481963
 20
125.6522953143227
  0
HATCH
  5
2B8
330
2B3
100
AcDbEntity
  8
0
 62
    18
420
        0
440
 33554687
100
AcDbHatch
 10
0.0
 20
0.0
 30
0.0
210
0.0
220
0.0
230
1.0
  2
SOLID
 70
     1
 71
     1
 91
        1
 92
        1
 93
        3
 72
     1
 10
182.6250128395489
 20
125.6527421001434
 11
182.4060931703463
 21
123.9713417167205
 72
     1
 10
182.4060931703463
 20
123.9713417167205
 11
182.1823880481963
 21
125.6522953143227
 72
     1
 10
182.1823880481963
 20
125.6522953143227
 11
182.6250128395489
 21
125.6527421001434
 97
        1
330
2B7
 75
     2
 76
     1
 98
        1
 10
0.0
 20
0.0
450
        0
451
        0
460
0.0
461
0.0
452
        0
462
0.0
453
        0
470

  0
ENDBLK
  5
2B6
330
2B3
100
AcDbEntity
  8
0
100
AcDbBlockEnd
  0
BLOCK
  5
2BB
330
2B9
100
AcDbEntity
  8
0
100
AcDbBlockBegin
  2
Block_40
 70
     0
 10
0.0
 20
0.0
 30
0.0
  3
Block_40
  1

  0
LWPOLYLINE
  5
2BD
330
2B9
100
AcDbEntity
  8
0
100
AcDbPolyline
 90
        3
 70
     1
 43
0.0
 10
182.6082395309051
 20
142.2003485430144
 10
182.3859124469492
 20
143.8813021406167
 10
182.1656147395525
 20
142.1999017571937
  0
HATCH
  5
2BE
330
2B9
100
AcDbEntity
  8
0
 62
    18
420
        0
440
 33554687
100
AcDbHatch
 10
0.0
 20
0.0
 30
0.0
210
0.0
220
0.0
230
1.0
  2
SOLID
 70
     1
 71
     1
 91
        1
 92
        1
 93
        3
 72
     1
 10
182.6082395309051
 20
142.2003485430144
 11
182.3859124469492
 21
143.8813021406167
 72
     1
 10
182.3859124469492
 20
143.8813021406167
 11
182.1656147395525
 21
142.1999017571937
 72
     1
 10
182.1656147395525
 20
142.1999017571937
 11
182.6082395309051
 21
142.2003485430144
 97
        1
330
2BD
 75
     2
 76
     1
 98
        1
 10
0.0
 20
0.0
450
        0
451
        0
460
0.0
461
0.0
452
        0
462
0.0
453
        0
470

  0
ENDBLK
  5
2BC
330
2B9
100
AcDbEntity
  8
0
100
AcDbBlockEnd
  0
BLOCK
  5
2C1
330
2BF
100
AcDbEntity
  8
0
100
AcDbBlockBegin
  2
Block_41
 70
     0
 10
0.0
 20
0.0
 30
0.0
  3
Block_41
  1

  0
INSERT
  5
2C4
330
2BF
100
AcDbEntity
  8
0
100
AcDbBlockReference
  2
Block_42
 10
0.0
 20
0.0
 30
0.0
  0
ENDBLK
  5
2C2
330
2BF
100
AcDbEntity
  8
0
100
AcDbBlockEnd
  0
BLOCK
  5
2C5
330
2C3
100
AcDbEntity
  8
0
100
AcDbBlockBegin
  2
Block_42
 70
     0
 10
0.0
 20
0.0
 30
0.0
  3
Block_42
  1

  0
SPLINE
  5
2C7
330
2C3
100
AcDbEntity
  8
0
100
AcDbSpline
210
0.0
220
0.0
230
1.0
 70
     9
 71
     3
 72
    41
 73
    37
 74
     0
 42
0.0000000001
 43
0.0000000001
 40
0.0
 40
0.0
 40
0.0
 40
0.0
 40
1.0
 40
1.0
 40
1.0
 40
2.0
 40
2.0
 40
2.0
 40
3.0
 40
3.0
 40
3.0
 40
4.0
 40
4.0
 40
4.0
 40
5.0
 40
5.0
 40
5.0
 40
6.0
 40
6.0
 40
6.0
 40
7.0
 40
7.0
 40
7.0
 40
8.0
 40
8.0
 40
8.0
 40
9.0
 40
9.0
 40
9.0
 40
10.0
 40
10.0
 40
10.0
 40
11.0
 40
11.0
 40
11.0
 40
12.0
 40
12.0
 40
12.0
 40
12.0
 10
170.3554931214736
 20
140.1604369766786
 30
0.0
 10
170.1439642586793
 20
140.4989176081044
 30
0.0
 10
170.0254529739867
 20
140.6708278728184
 30
0.0
 10
169.7460557301329
 20
140.6708278728184
 30
0.0
 10
169.5290147145622
 20
140.6708278728184
 30
0.0
 10
169.3850097232787
 20
140.495989276942
 30
0.0
 10
169.3850097232787
 20
140.2844604141476
 30
0.0
 10
169.3850097232787
 20
140.0052354250681
 30
0.0
 10
169.6416693369299
 20
139.8867241403755
 30
0.0
 10
169.8814479827032
 20
139.8951646243144
 30
0.0
 10
169.8814479827032
 20
139.8951646243144
 30
0.0
 10
169.8814479827032
 20
139.6555582333153
 30
0.0
 10
169.8814479827032
 20
139.6555582333153
 30
0.0
 10
169.4752712249923
 20
139.6328206031126
 30
0.0
 10
169.1734808604844
 20
139.8755275800485
 30
0.0
 10
169.1734808604844
 20
140.2985853056371
 30
0.0
 10
169.1734808604844
 20
140.6455064210018
 30
0.0
 10
169.3767414941141
 20
140.9247314100813
 30
0.0
 10
169.7491563160697
 20
140.9247314100813
 30
0.0
 10
170.1015895842107
 20
140.9247314100813
 30
0.0
 10
170.2766004348614
 20
140.6878810954704
 30
0.0
 10
170.4343858080858
 20
140.4396619657581
 30
0.0
 10
170.5839029521457
 20
140.1914428360459
 30
0.0
 10
170.7165391283278
 20
139.9234144072934
 30
0.0
 10
170.9618299268776
 20
139.8782836564367
 30
0.0
 10
170.9618299268776
 20
139.8782836564367
 30
0.0
 10
170.9618299268776
 20
140.9050943658154
 30
0.0
 10
170.9618299268776
 20
140.9050943658154
 30
0.0
 10
170.9618299268776
 20
140.9050943658154
 30
0.0
 10
171.1733587896719
 20
140.9050943658154
 30
0.0
 10
171.1733587896719
 20
140.9050943658154
 30
0.0
 10
171.1733587896719
 20
140.9050943658154
 30
0.0
 10
171.1733587896719
 20
139.5990586673572
 30
0.0
 10
171.1733587896719
 20
139.5990586673572
 30
0.0
 10
170.7024142368382
 20
139.6357489342751
 30
0.0
 10
170.5246473097994
 20
139.8782836564367
 30
0.0
 10
170.3554931214736
 20
140.1604369766786
 30
0.0
  0
HATCH
  5
2C8
330
2C3
100
AcDbEntity
  8
0
 62
    18
420
        0
440
 33554687
100
AcDbHatch
 10
0.0
 20
0.0
 30
0.0
210
0.0
220
0.0
230
1.0
  2
SOLID
 70
     1
 71
     1
 91
        1
 92
        1
 93
        1
 72
     4
 94
        3
 73
     0
 74
     0
 95
       41
 96
       37
 40
0.0
 40
0.0
 40
0.0
 40
0.0
 40
1.0
 40
1.0
 40
1.0
 40
2.0
 40
2.0
 40
2.0
 40
3.0
 40
3.0
 40
3.0
 40
4.0
 40
4.0
 40
4.0
 40
5.0
 40
5.0
 40
5.0
 40
6.0
 40
6.0
 40
6.0
 40
7.0
 40
7.0
 40
7.0
 40
8.0
 40
8.0
 40
8.0
 40
9.0
 40
9.0
 40
9.0
 40
10.0
 40
10.0
 40
10.0
 40
11.0
 40
11.0
 40
11.0
 40
12.0
 40
12.0
 40
12.0
 40
12.0
 10
170.3554931214736
 20
140.1604369766786
 10
170.1439642586793
 20
140.4989176081044
 10
170.0254529739867
 20
140.6708278728184
 10
169.7460557301329
 20
140.6708278728184
 10
169.5290147145622
 20
140.6708278728184
 10
169.3850097232787
 20
140.495989276942
 10
169.3850097232787
 20
140.2844604141476
 10
169.3850097232787
 20
140.0052354250681
 10
169.6416693369299
 20
139.8867241403755
 10
169.8814479827032
 20
139.8951646243144
 10
169.8814479827032
 20
139.8951646243144
 10
169.8814479827032
 20
139.6555582333153
 10
169.8814479827032
 20
139.6555582333153
 10
169.4752712249923
 20
139.6328206031126
 10
169.1734808604844
 20
139.8755275800485
 10
169.1734808604844
 20
140.2985853056371
 10
169.1734808604844
 20
140.6455064210018
 10
169.3767414941141
 20
140.9247314100813
 10
169.7491563160697
 20
140.9247314100813
 10
170.1015895842107
 20
140.9247314100813
 10
170.2766004348614
 20
140.6878810954704
 10
170.4343858080858
 20
140.4396619657581
 10
170.5839029521457
 20
140.1914428360459
 10
170.7165391283278
 20
139.9234144072934
 10
170.9618299268776
 20
139.8782836564367
 10
170.9618299268776
 20
139.8782836564367
 10
170.9618299268776
 20
140.9050943658154
 10
170.9618299268776
 20
140.9050943658154
 10
170.9618299268776
 20
140.9050943658154
 10
171.1733587896719
 20
140.9050943658154
 10
171.1733587896719
 20
140.9050943658154
 10
171.1733587896719
 20
140.9050943658154
 10
171.1733587896719
 20
139.5990586673572
 10
171.1733587896719
 20
139.5990586673572
 10
170.7024142368382
 20
139.6357489342751
 10
170.5246473097994
 20
139.8782836564367
 10
170.3554931214736
 20
140.1604369766786
 97
        0
 97
        1
330
2C7
 75
     2
 76
     1
 98
        1
 10
0.0
 20
0.0
450
        0
451
        0
460
0.0
461
0.0
452
        0
462
0.0
453
        0
470

  0
SPLINE
  5
2C9
330
2C3
100
AcDbEntity
  8
0
100
AcDbSpline
210
0.0
220
0.0
230
1.0
 70
     9
 71
     3
 72
    53
 73
    49
 74
     0
 42
0.0000000001
 43
0.0000000001
 40
0.0
 40
0.0
 40
0.0
 40
0.0
 40
1.0
 40
1.0
 40
1.0
 40
2.0
 40
2.0
 40
2.0
 40
3.0
 40
3.0
 40
3.0
 40
4.0
 40
4.0
 40
4.0
 40
5.0
 40
5.0
 40
5.0
 40
6.0
 40
6.0
 40
6.0
 40
7.0
 40
7.0
 40
7.0
 40
8.0
 40
8.0
 40
8.0
 40
9.0
 40
9.0
 40
9.0
 40
10.0
 40
10.0
 40
10.0
 40
11.0
 40
11.0
 40
11.0
 40
12.0
 40
12.0
 40
12.0
 40
13.0
 40
13.0
 40
13.0
 40
14.0
 40
14.0
 40
14.0
 40
15.0
 40
15.0
 40
15.0
 40
16.0
 40
16.0
 40
16.0
 40
16.0
 10
170.6345458557788
 20
141.4389119112548
 30
0.0
 10
170.8405625657968
 20
141.4530368027444
 30
0.0
 10
170.995591862633
 20
141.6194349146819
 30
0.0
 10
170.995591862633
 20
141.8592135604553
 30
0.0
 10
170.995591862633
 20
142.0876233911274
 30
0.0
 10
170.8378064894086
 20
142.282271286044
 30
0.0
 10
170.5218912334112
 20
142.282271286044
 30
0.0
 10
170.2597194669837
 20
142.282271286044
 30
0.0
 10
170.0678276484552
 20
142.1017482826169
 30
0.0
 10
170.0678276484552
 20
141.8309637774763
 30
0.0
 10
170.0678276484552
 20
141.6757622258657
 30
0.0
 10
170.1439642586793
 20
141.5517387883968
 30
0.0
 10
170.2566188810469
 20
141.458721210295
 30
0.0
 10
170.2566188810469
 20
141.458721210295
 30
0.0
 10
170.2455945754941
 20
141.2527045002771
 30
0.0
 10
170.2455945754941
 20
141.2527045002771
 30
0.0
 10
170.2455945754941
 20
141.2527045002771
 30
0.0
 10
169.2075873057884
 20
141.4389119112548
 30
0.0
 10
169.2075873057884
 20
141.4389119112548
 30
0.0
 10
169.2075873057884
 20
141.4389119112548
 30
0.0
 10
169.2075873057884
 20
142.4261040225532
 30
0.0
 10
169.2075873057884
 20
142.4261040225532
 30
0.0
 10
169.2075873057884
 20
142.4261040225532
 30
0.0
 10
169.4191161685827
 20
142.4261040225532
 30
0.0
 10
169.4191161685827
 20
142.4261040225532
 30
0.0
 10
169.4191161685827
 20
142.4261040225532
 30
0.0
 10
169.4191161685827
 20
141.6194349146819
 30
0.0
 10
169.4191161685827
 20
141.6194349146819
 30
0.0
 10
169.4191161685827
 20
141.6194349146819
 30
0.0
 10
169.9944471146194
 20
141.5122924450907
 30
0.0
 10
169.9944471146194
 20
141.5122924450907
 30
0.0
 10
169.9944471146194
 20
141.5122924450907
 30
0.0
 10
169.9999592673958
 20
141.5179768526413
 30
0.0
 10
169.9999592673958
 20
141.5179768526413
 30
0.0
 10
169.9014295365177
 20
141.6053100231924
 30
0.0
 10
169.8562987856609
 20
141.7548271672522
 30
0.0
 10
169.8562987856609
 20
141.8902194198226
 30
0.0
 10
169.8562987856609
 20
142.2455810191261
 30
0.0
 10
170.0819525399448
 20
142.5361748233069
 30
0.0
 10
170.5415282776771
 20
142.5361748233069
 30
0.0
 10
170.8801811638771
 20
142.5361748233069
 30
0.0
 10
171.2074652349759
 20
142.3020805850842
 30
0.0
 10
171.2074652349759
 20
141.8366481850269
 30
0.0
 10
171.2074652349759
 20
141.4897270696623
 30
0.0
 10
170.995591862633
 20
141.2075737494203
 30
0.0
 10
170.6345458557788
 20
141.1991332654814
 30
0.0
 10
170.6345458557788
 20
141.1991332654814
 30
0.0
 10
170.6345458557788
 20
141.4389119112548
 30
0.0
 10
170.6345458557788
 20
141.4389119112548
 30
0.0
  0
HATCH
  5
2CA
330
2C3
100
AcDbEntity
  8
0
 62
    18
420
        0
440
 33554687
100
AcDbHatch
 10
0.0
 20
0.0
 30
0.0
210
0.0
220
0.0
230
1.0
  2
SOLID
 70
     1
 71
     1
 91
        1
 92
        1
 93
        1
 72
     4
 94
        3
 73
     0
 74
     0
 95
       53
 96
       49
 40
0.0
 40
0.0
 40
0.0
 40
0.0
 40
1.0
 40
1.0
 40
1.0
 40
2.0
 40
2.0
 40
2.0
 40
3.0
 40
3.0
 40
3.0
 40
4.0
 40
4.0
 40
4.0
 40
5.0
 40
5.0
 40
5.0
 40
6.0
 40
6.0
 40
6.0
 40
7.0
 40
7.0
 40
7.0
 40
8.0
 40
8.0
 40
8.0
 40
9.0
 40
9.0
 40
9.0
 40
10.0
 40
10.0
 40
10.0
 40
11.0
 40
11.0
 40
11.0
 40
12.0
 40
12.0
 40
12.0
 40
13.0
 40
13.0
 40
13.0
 40
14.0
 40
14.0
 40
14.0
 40
15.0
 40
15.0
 40
15.0
 40
16.0
 40
16.0
 40
16.0
 40
16.0
 10
170.6345458557788
 20
141.4389119112548
 10
170.8405625657968
 20
141.4530368027444
 10
170.995591862633
 20
141.6194349146819
 10
170.995591862633
 20
141.8592135604553
 10
170.995591862633
 20
142.0876233911274
 10
170.8378064894086
 20
142.282271286044
 10
170.5218912334112
 20
142.282271286044
 10
170.2597194669837
 20
142.282271286044
 10
170.0678276484552
 20
142.1017482826169
 10
170.0678276484552
 20
141.8309637774763
 10
170.0678276484552
 20
141.6757622258657
 10
170.1439642586793
 20
141.5517387883968
 10
170.2566188810469
 20
141.458721210295
 10
170.2566188810469
 20
141.458721210295
 10
170.2455945754941
 20
141.2527045002771
 10
170.2455945754941
 20
141.2527045002771
 10
170.2455945754941
 20
141.2527045002771
 10
169.2075873057884
 20
141.4389119112548
 10
169.2075873057884
 20
141.4389119112548
 10
169.2075873057884
 20
141.4389119112548
 10
169.2075873057884
 20
142.4261040225532
 10
169.2075873057884
 20
142.4261040225532
 10
169.2075873057884
 20
142.4261040225532
 10
169.4191161685827
 20
142.4261040225532
 10
169.4191161685827
 20
142.4261040225532
 10
169.4191161685827
 20
142.4261040225532
 10
169.4191161685827
 20
141.6194349146819
 10
169.4191161685827
 20
141.6194349146819
 10
169.4191161685827
 20
141.6194349146819
 10
169.9944471146194
 20
141.5122924450907
 10
169.9944471146194
 20
141.5122924450907
 10
169.9944471146194
 20
141.5122924450907
 10
169.9999592673958
 20
141.5179768526413
 10
169.9999592673958
 20
141.5179768526413
 10
169.9014295365177
 20
141.6053100231924
 10
169.8562987856609
 20
141.7548271672522
 10
169.8562987856609
 20
141.8902194198226
 10
169.8562987856609
 20
142.2455810191261
 10
170.0819525399448
 20
142.5361748233069
 10
170.5415282776771
 20
142.5361748233069
 10
170.8801811638771
 20
142.5361748233069
 10
171.2074652349759
 20
142.3020805850842
 10
171.2074652349759
 20
141.8366481850269
 10
171.2074652349759
 20
141.4897270696623
 10
170.995591862633
 20
141.2075737494203
 10
170.6345458557788
 20
141.1991332654814
 10
170.6345458557788
 20
141.1991332654814
 10
170.6345458557788
 20
141.4389119112548
 10
170.6345458557788
 20
141.4389119112548
 97
        0
 97
        1
330
2C9
 75
     2
 76
     1
 98
        1
 10
0.0
 20
0.0
450
        0
451
        0
460
0.0
461
0.0
452
        0
462
0.0
453
        0
470

  0
ENDBLK
  5
2C6
330
2C3
100
AcDbEntity
  8
0
100
AcDbBlockEnd
  0
BLOCK
  5
2CF
330
2CD
100
AcDbEntity
  8
0
100
AcDbBlockBegin
  2
Block_43
 70
     0
 10
0.0
 20
0.0
 30
0.0
  3
Block_43
  1

  0
INSERT
  5
2D2
330
2CD
100
AcDbEntity
  8
0
100
AcDbBlockReference
  2
Block_44
 10
0.0
 20
0.0
 30
0.0
  0
ENDBLK
  5
2D0
330
2CD
100
AcDbEntity
  8
0
100
AcDbBlockEnd
  0
BLOCK
  5
2D3
330
2D1
100
AcDbEntity
  8
0
100
AcDbBlockBegin
  2
Block_44
 70
     0
 10
0.0
 20
0.0
 30
0.0
  3
Block_44
  1

  0
SPLINE
  5
2D5
330
2D1
100
AcDbEntity
  8
0
100
AcDbSpline
210
0.0
220
0.0
230
1.0
 70
     9
 71
     3
 72
    17
 73
    13
 74
     0
 42
0.0000000001
 43
0.0000000001
 40
0.0
 40
0.0
 40
0.0
 40
0.0
 40
1.0
 40
1.0
 40
1.0
 40
2.0
 40
2.0
 40
2.0
 40
3.0
 40
3.0
 40
3.0
 40
4.0
 40
4.0
 40
4.0
 40
4.0
 10
185.2155679875503
 20
133.1198675882478
 30
0.0
 10
185.2155679875503
 20
133.3596462340212
 30
0.0
 10
185.0491698756127
 20
133.5289726771212
 30
0.0
 10
184.826272197717
 20
133.5289726771212
 30
0.0
 10
184.6119872585345
 20
133.5289726771212
 30
0.0
 10
184.4455891465969
 20
133.3427652661435
 30
0.0
 10
184.4455891465969
 20
133.1171115118596
 30
0.0
 10
184.4455891465969
 20
132.8800889424744
 30
0.0
 10
184.5951062906568
 20
132.6940537862709
 30
0.0
 10
184.8290282741052
 20
132.6940537862709
 30
0.0
 10
185.0688069198786
 20
132.6940537862709
 30
0.0
 10
185.2155679875503
 20
132.8716484585355
 30
0.0
 10
185.2155679875503
 20
133.1198675882478
 30
0.0
  0
SPLINE
  5
2D6
330
2D1
100
AcDbEntity
  8
0
100
AcDbSpline
210
0.0
220
0.0
230
1.0
 70
     9
 71
     3
 72
    17
 73
    13
 74
     0
 42
0.0000000001
 43
0.0000000001
 40
0.0
 40
0.0
 40
0.0
 40
0.0
 40
1.0
 40
1.0
 40
1.0
 40
2.0
 40
2.0
 40
2.0
 40
3.0
 40
3.0
 40
3.0
 40
4.0
 40
4.0
 40
4.0
 40
4.0
 10
183.9122883654802
 20
133.4499077357347
 30
0.0
 10
183.709372241399
 20
133.4499077357347
 30
0.0
 10
183.604985848196
 20
133.309003330388
 30
0.0
 10
183.604985848196
 20
133.1143554354714
 30
0.0
 10
183.604985848196
 20
132.922463616943
 30
0.0
 10
183.7121283177872
 20
132.7645059889443
 30
0.0
 10
183.9122883654802
 20
132.7645059889443
 30
0.0
 10
184.1296738905995
 20
132.7645059889443
 30
0.0
 10
184.2340602838026
 20
132.9252196933312
 30
0.0
 10
184.2340602838026
 20
133.1198675882478
 30
0.0
 10
184.2340602838026
 20
133.3117594067762
 30
0.0
 10
184.11554899911
 20
133.4499077357347
 30
0.0
 10
183.9122883654802
 20
133.4499077357347
 30
0.0
  0
SPLINE
  5
2D7
330
2D1
100
AcDbEntity
  8
0
100
AcDbSpline
210
0.0
220
0.0
230
1.0
 70
     9
 71
     3
 72
    29
 73
    25
 74
     0
 42
0.0000000001
 43
0.0000000001
 40
0.0
 40
0.0
 40
0.0
 40
0.0
 40
1.0
 40
1.0
 40
1.0
 40
2.0
 40
2.0
 40
2.0
 40
3.0
 40
3.0
 40
3.0
 40
4.0
 40
4.0
 40
4.0
 40
5.0
 40
5.0
 40
5.0
 40
6.0
 40
6.0
 40
6.0
 40
7.0
 40
7.0
 40
7.0
 40
8.0
 40
8.0
 40
8.0
 40
8.0
 10
184.3184651231912
 20
132.7898274407609
 30
0.0
 10
184.2509412516803
 20
132.6206732524351
 30
0.0
 10
184.0845431397427
 20
132.5106024516814
 30
0.0
 10
183.9040201363156
 20
132.5106024516814
 30
0.0
 10
183.5767360652169
 20
132.5106024516814
 30
0.0
 10
183.3934569854016
 20
132.7898274407609
 30
0.0
 10
183.3934569854016
 20
133.0973022128194
 30
0.0
 10
183.3934569854016
 20
133.5346570846719
 30
0.0
 10
183.6473605226645
 20
133.7038112729976
 30
0.0
 10
183.9040201363156
 20
133.7038112729976
 30
0.0
 10
184.0845431397427
 20
133.7038112729976
 30
0.0
 10
184.2423285129672
 20
133.5937404722439
 30
0.0
 10
184.3184651231912
 20
133.4273423603064
 30
0.0
 10
184.3946017334152
 20
133.6671210060797
 30
0.0
 10
184.5696125840659
 20
133.7827039596098
 30
0.0
 10
184.8176594590039
 20
133.7827039596098
 30
0.0
 10
185.2041991724489
 20
133.7827039596098
 30
0.0
 10
185.4270968503446
 20
133.4895263338151
 30
0.0
 10
185.4270968503446
 20
133.1198675882478
 30
0.0
 10
185.4270968503446
 20
132.7362562059652
 30
0.0
 10
185.2238362167149
 20
132.440150249008
 30
0.0
 10
184.8176594590039
 20
132.440150249008
 30
0.0
 10
184.5809813991672
 20
132.440150249008
 30
0.0
 10
184.3977023193519
 20
132.564173686477
 30
0.0
 10
184.3184651231912
 20
132.7898274407609
 30
0.0
  0
HATCH
  5
2D8
330
2D1
100
AcDbEntity
  8
0
 62
    18
420
        0
440
 33554687
100
AcDbHatch
 10
0.0
 20
0.0
 30
0.0
210
0.0
220
0.0
230
1.0
  2
SOLID
 70
     1
 71
     1
 91
        3
 92
        1
 93
        1
 72
     4
 94
        3
 73
     0
 74
     0
 95
       17
 96
       13
 40
0.0
 40
0.0
 40
0.0
 40
0.0
 40
1.0
 40
1.0
 40
1.0
 40
2.0
 40
2.0
 40
2.0
 40
3.0
 40
3.0
 40
3.0
 40
4.0
 40
4.0
 40
4.0
 40
4.0
 10
185.2155679875503
 20
133.1198675882478
 10
185.2155679875503
 20
133.3596462340212
 10
185.0491698756127
 20
133.5289726771212
 10
184.826272197717
 20
133.5289726771212
 10
184.6119872585345
 20
133.5289726771212
 10
184.4455891465969
 20
133.3427652661435
 10
184.4455891465969
 20
133.1171115118596
 10
184.4455891465969
 20
132.8800889424744
 10
184.5951062906568
 20
132.6940537862709
 10
184.8290282741052
 20
132.6940537862709
 10
185.0688069198786
 20
132.6940537862709
 10
185.2155679875503
 20
132.8716484585355
 10
185.2155679875503
 20
133.1198675882478
 97
        0
 97
        1
330
2D5
 92
        1
 93
        1
 72
     4
 94
        3
 73
     0
 74
     0
 95
       17
 96
       13
 40
0.0
 40
0.0
 40
0.0
 40
0.0
 40
1.0
 40
1.0
 40
1.0
 40
2.0
 40
2.0
 40
2.0
 40
3.0
 40
3.0
 40
3.0
 40
4.0
 40
4.0
 40
4.0
 40
4.0
 10
183.9122883654802
 20
133.4499077357347
 10
183.709372241399
 20
133.4499077357347
 10
183.604985848196
 20
133.309003330388
 10
183.604985848196
 20
133.1143554354714
 10
183.604985848196
 20
132.922463616943
 10
183.7121283177872
 20
132.7645059889443
 10
183.9122883654802
 20
132.7645059889443
 10
184.1296738905995
 20
132.7645059889443
 10
184.2340602838026
 20
132.9252196933312
 10
184.2340602838026
 20
133.1198675882478
 10
184.2340602838026
 20
133.3117594067762
 10
184.11554899911
 20
133.4499077357347
 10
183.9122883654802
 20
133.4499077357347
 97
        0
 97
        1
330
2D6
 92
        1
 93
        1
 72
     4
 94
        3
 73
     0
 74
     0
 95
       29
 96
       25
 40
0.0
 40
0.0
 40
0.0
 40
0.0
 40
1.0
 40
1.0
 40
1.0
 40
2.0
 40
2.0
 40
2.0
 40
3.0
 40
3.0
 40
3.0
 40
4.0
 40
4.0
 40
4.0
 40
5.0
 40
5.0
 40
5.0
 40
6.0
 40
6.0
 40
6.0
 40
7.0
 40
7.0
 40
7.0
 40
8.0
 40
8.0
 40
8.0
 40
8.0
 10
184.3184651231912
 20
132.7898274407609
 10
184.2509412516803
 20
132.6206732524351
 10
184.0845431397427
 20
132.5106024516814
 10
183.9040201363156
 20
132.5106024516814
 10
183.5767360652169
 20
132.5106024516814
 10
183.3934569854016
 20
132.7898274407609
 10
183.3934569854016
 20
133.0973022128194
 10
183.3934569854016
 20
133.5346570846719
 10
183.6473605226645
 20
133.7038112729976
 10
183.9040201363156
 20
133.7038112729976
 10
184.0845431397427
 20
133.7038112729976
 10
184.2423285129672
 20
133.5937404722439
 10
184.3184651231912
 20
133.4273423603064
 10
184.3946017334152
 20
133.6671210060797
 10
184.5696125840659
 20
133.7827039596098
 10
184.8176594590039
 20
133.7827039596098
 10
185.2041991724489
 20
133.7827039596098
 10
185.4270968503446
 20
133.4895263338151
 10
185.4270968503446
 20
133.1198675882478
 10
185.4270968503446
 20
132.7362562059652
 10
185.2238362167149
 20
132.440150249008
 10
184.8176594590039
 20
132.440150249008
 10
184.5809813991672
 20
132.440150249008
 10
184.3977023193519
 20
132.564173686477
 10
184.3184651231912
 20
132.7898274407609
 97
        0
 97
        1
330
2D7
 75
     2
 76
     1
 98
        1
 10
0.0
 20
0.0
450
        0
451
        0
460
0.0
461
0.0
452
        0
462
0.0
453
        0
470

  0
SPLINE
  5
2D9
330
2D1
100
AcDbEntity
  8
0
100
AcDbSpline
210
0.0
220
0.0
230
1.0
 70
     9
 71
     3
 72
    26
 73
    22
 74
     0
 42
0.0000000001
 43
0.0000000001
 40
0.0
 40
0.0
 40
0.0
 40
0.0
 40
1.0
 40
1.0
 40
1.0
 40
2.0
 40
2.0
 40
2.0
 40
3.0
 40
3.0
 40
3.0
 40
4.0
 40
4.0
 40
4.0
 40
5.0
 40
5.0
 40
5.0
 40
6.0
 40
6.0
 40
6.0
 40
7.0
 40
7.0
 40
7.0
 40
7.0
 10
183.6528726754409
 20
135.0866726007769
 30
0.0
 10
183.6528726754409
 20
135.0866726007769
 30
0.0
 10
183.6528726754409
 20
134.0374687707441
 30
0.0
 10
183.6528726754409
 20
134.0374687707441
 30
0.0
 10
183.6528726754409
 20
134.0374687707441
 30
0.0
 10
183.4272189211571
 20
134.0374687707441
 30
0.0
 10
183.4272189211571
 20
134.0374687707441
 30
0.0
 10
183.4272189211571
 20
134.0374687707441
 30
0.0
 10
183.4272189211571
 20
135.332135654101
 30
0.0
 10
183.4272189211571
 20
135.332135654101
 30
0.0
 10
183.4272189211571
 20
135.332135654101
 30
0.0
 10
183.633235631175
 20
135.332135654101
 30
0.0
 10
183.633235631175
 20
135.332135654101
 30
0.0
 10
184.0307996501728
 20
134.9287149727782
 30
0.0
 10
184.769772631759
 20
134.6016031564537
 30
0.0
 10
185.3933349145891
 20
134.5649128895358
 30
0.0
 10
185.3933349145891
 20
134.5649128895358
 30
0.0
 10
185.3933349145891
 20
134.2968844607834
 30
0.0
 10
185.3933349145891
 20
134.2968844607834
 30
0.0
 10
184.7163736517375
 20
134.3420152116402
 30
0.0
 10
184.0955674452955
 20
134.6663709515764
 30
0.0
 10
183.6528726754409
 20
135.0866726007769
 30
0.0
  0
HATCH
  5
2DA
330
2D1
100
AcDbEntity
  8
0
 62
    18
420
        0
440
 33554687
100
AcDbHatch
 10
0.0
 20
0.0
 30
0.0
210
0.0
220
0.0
230
1.0
  2
SOLID
 70
     1
 71
     1
 91
        1
 92
        1
 93
        1
 72
     4
 94
        3
 73
     0
 74
     0
 95
       26
 96
       22
 40
0.0
 40
0.0
 40
0.0
 40
0.0
 40
1.0
 40
1.0
 40
1.0
 40
2.0
 40
2.0
 40
2.0
 40
3.0
 40
3.0
 40
3.0
 40
4.0
 40
4.0
 40
4.0
 40
5.0
 40
5.0
 40
5.0
 40
6.0
 40
6.0
 40
6.0
 40
7.0
 40
7.0
 40
7.0
 40
7.0
 10
183.6528726754409
 20
135.0866726007769
 10
183.6528726754409
 20
135.0866726007769
 10
183.6528726754409
 20
134.0374687707441
 10
183.6528726754409
 20
134.0374687707441
 10
183.6528726754409
 20
134.0374687707441
 10
183.4272189211571
 20
134.0374687707441
 10
183.4272189211571
 20
134.0374687707441
 10
183.4272189211571
 20
134.0374687707441
 10
183.4272189211571
 20
135.332135654101
 10
183.4272189211571
 20
135.332135654101
 10
183.4272189211571
 20
135.332135654101
 10
183.633235631175
 20
135.332135654101
 10
183.633235631175
 20
135.332135654101
 10
184.0307996501728
 20
134.9287149727782
 10
184.769772631759
 20
134.6016031564537
 10
185.3933349145891
 20
134.5649128895358
 10
185.3933349145891
 20
134.5649128895358
 10
185.3933349145891
 20
134.2968844607834
 10
185.3933349145891
 20
134.2968844607834
 10
184.7163736517375
 20
134.3420152116402
 10
184.0955674452955
 20
134.6663709515764
 10
183.6528726754409
 20
135.0866726007769
 97
        0
 97
        1
330
2D9
 75
     2
 76
     1
 98
        1
 10
0.0
 20
0.0
450
        0
451
        0
460
0.0
461
0.0
452
        0
462
0.0
453
        0
470

  0
ENDBLK
  5
2D4
330
2D1
100
AcDbEntity
  8
0
100
AcDbBlockEnd
  0
ENDSEC
  0
SECTION
  2
ENTITIES
  0
INSERT
  5
79
330
70
100
AcDbEntity
  8
0
100
AcDbBlockReference
  2
Block_0
 10
0.0
 20
0.0
 30
0.0
  0
INSERT
  5
7F
330
70
100
AcDbEntity
  8
0
100
AcDbBlockReference
  2
Block_1
 10
0.0
 20
0.0
 30
0.0
  0
INSERT
  5
83
330
70
100
AcDbEntity
  8
0
100
AcDbBlockReference
  2
Block_2
 10
0.0
 20
0.0
 30
0.0
  0
INSERT
  5
87
330
70
100
AcDbEntity
  8
0
100
AcDbBlockReference
  2
Block_3
 10
0.0
 20
0.0
 30
0.0
  0
INSERT
  5
8B
330
70
100
AcDbEntity
  8
0
100
AcDbBlockReference
  2
Block_4
 10
0.0
 20
0.0
 30
0.0
  0
INSERT
  5
8F
330
70
100
AcDbEntity
  8
0
100
AcDbBlockReference
  2
Block_5
 10
0.0
 20
0.0
 30
0.0
  0
INSERT
  5
93
330
70
100
AcDbEntity
  8
0
100
AcDbBlockReference
  2
Block_6
 10
0.0
 20
0.0
 30
0.0
  0
LINE
  5
96
330
70
100
AcDbEntity
  8
0
 62
    18
420
        0
370
     5
100
AcDbLine
 10
114.0310150723762
 20
75.62961215257359
 30
0.0
 11
114.0424929742412
 21
75.62961215257359
 31
0.0
  0
LINE
  5
97
330
70
100
AcDbEntity
  8
0
 62
    18
420
        0
370
     5
100
AcDbLine
 10
114.0310150723762
 20
119.9343133524379
 30
0.0
 11
114.0424929742412
 21
119.9343133524379
 31
0.0
  0
LINE
  5
98
330
70
100
AcDbEntity
  8
0
 62
    18
420
        0
370
     5
100
AcDbLine
 10
114.2605731096811
 20
119.2456392405228
 30
0.0
 11
114.2605731096811
 21
76.31828626448876
 31
0.0
  0
LINE
  5
99
330
70
100
AcDbEntity
  8
0
 62
    18
420
        0
370
     5
100
AcDbLine
 10
157.1879260857148
 20
76.31828626448876
 30
0.0
 11
157.1879260857148
 21
119.2456392405228
 31
0.0
  0
LINE
  5
9A
330
70
100
AcDbEntity
  8
0
 62
    18
420
        0
370
     5
100
AcDbLine
 10
157.1877495923322
 20
119.2456392405228
 30
0.0
 11
114.2607496030639
 21
119.2456392405228
 31
0.0
  0
INSERT
  5
9C
330
70
100
AcDbEntity
  8
0
100
AcDbBlockReference
  2
Block_7
 10
0.0
 20
0.0
 30
0.0
  0
LINE
  5
A1
330
70
100
AcDbEntity
  8
0
 62
    18
420
        0
370
     5
100
AcDbLine
 10
158.5652743095451
 20
120.1409155860121
 30
0.0
 11
158.5652743095451
 21
75.42300991899877
 31
0.0
  0
LINE
  5
A2
330
70
100
AcDbEntity
  8
0
 62
    18
420
        0
370
     5
100
AcDbLine
 10
112.8832248858514
 20
75.42300991899877
 30
0.0
 11
112.8832248858514
 21
120.1409155860121
 31
0.0
  0
LWPOLYLINE
  5
A3
330
70
100
AcDbEntity
  8
0
 62
    18
420
        0
370
     5
100
AcDbPolyline
 90
        1
 70
     0
 43
0.0
 10
112.8832248858514
 20
75.42300991899877
  0
LINE
  5
A4
330
70
100
AcDbEntity
  8
0
 62
    18
420
        0
370
     5
100
AcDbLine
 10
158.5652743095451
 20
120.6229874643528
 30
0.0
 11
112.8832248858514
 21
120.6229874643528
 31
0.0
  0
LINE
  5
A5
330
70
100
AcDbEntity
  8
0
 62
    18
420
        0
370
     5
100
AcDbLine
 10
158.5652743095451
 20
120.6229874643528
 30
0.0
 11
158.5652743095451
 21
120.1638713897428
 31
0.0
  0
LINE
  5
A6
330
70
100
AcDbEntity
  8
0
 62
    18
420
        0
370
     5
100
AcDbLine
 10
112.8832248858514
 20
120.6229874643528
 30
0.0
 11
112.8832248858514
 21
120.1638713897428
 31
0.0
  0
LINE
  5
A7
330
70
100
AcDbEntity
  8
0
 62
    18
420
        0
370
     5
100
AcDbLine
 10
158.5652743095451
 20
74.9409380406584
 30
0.0
 11
112.8832248858514
 21
74.9409380406584
 31
0.0
  0
LINE
  5
A8
330
70
100
AcDbEntity
  8
0
 62
    18
420
        0
370
     5
100
AcDbLine
 10
112.8832248858514
 20
74.9409380406584
 30
0.0
 11
112.8832248858514
 21
75.40005411526938
 31
0.0
  0
LINE
  5
A9
330
70
100
AcDbEntity
  8
0
 62
    18
420
        0
370
     5
100
AcDbLine
 10
158.5652743095451
 20
74.9409380406584
 30
0.0
 11
158.5652743095451
 21
75.40005411526938
 31
0.0
  0
LINE
  5
AA
330
70
100
AcDbEntity
  8
0
 62
    18
420
        0
370
     5
100
AcDbLine
 10
113.5718989977668
 20
75.62961215257359
 30
0.0
 11
113.5718989977668
 21
119.9343133524379
 31
0.0
  0
LINE
  5
AB
330
70
100
AcDbEntity
  8
0
 62
    18
420
        0
370
     5
100
AcDbLine
 10
113.5718989977668
 20
119.9343133524379
 30
0.0
 11
114.0310150723762
 21
119.9343133524379
 31
0.0
  0
LINE
  5
AC
330
70
100
AcDbEntity
  8
0
 62
    18
420
        0
370
     5
100
AcDbLine
 10
113.5718989977668
 20
75.62961215257359
 30
0.0
 11
114.0310150723762
 21
75.62961215257359
 31
0.0
  0
LINE
  5
AD
330
70
100
AcDbEntity
  8
0
 62
    18
420
        0
370
     5
100
AcDbLine
 10
157.8766001976306
 20
119.9343133524379
 30
0.0
 11
157.8766001976306
 21
75.62961215257359
 31
0.0
  0
LINE
  5
AE
330
70
100
AcDbEntity
  8
0
 62
    18
420
        0
370
     5
100
AcDbLine
 10
114.0424929742412
 20
75.62961215257359
 30
0.0
 11
157.8766001976306
 21
75.62961215257359
 31
0.0
  0
LINE
  5
AF
330
70
100
AcDbEntity
  8
0
 62
    18
420
        0
370
     5
100
AcDbLine
 10
114.0424929742412
 20
119.9343133524379
 30
0.0
 11
157.8766001976306
 21
119.9343133524379
 31
0.0
  0
INSERT
  5
B1
330
70
100
AcDbEntity
  8
0
100
AcDbBlockReference
  2
Block_8
 10
0.0
 20
0.0
 30
0.0
  0
LINE
  5
C5
330
70
100
AcDbEntity
  8
0
 62
    18
420
        0
370
     5
100
AcDbLine
 10
157.1879260857148
 20
76.31828626477112
 30
0.0
 11
177.507254479522
 21
76.31828626422953
 31
0.0
  0
LINE
  5
C6
330
70
100
AcDbEntity
  8
0
 62
    18
420
        0
370
     5
100
AcDbLine
 10
157.1879260857148
 20
119.2442163173167
 30
0.0
 11
177.5173746098066
 21
119.2488158140909
 31
0.0
  0
LINE
  5
C7
330
70
100
AcDbEntity
  8
0
 62
    18
420
        0
370
     5
100
AcDbLine
 10
158.5652743095451
 20
74.9409380406584
 30
0.0
 11
184.4348387783868
 21
74.94190313808205
 31
0.0
  0
INSERT
  5
C9
330
70
100
AcDbEntity
  8
0
100
AcDbBlockReference
  2
Block_12
 10
0.0
 20
0.0
 30
0.0
  0
LINE
  5
DD
330
70
100
AcDbEntity
  8
0
 62
    18
420
        0
370
     5
100
AcDbLine
 10
158.5484968047235
 20
120.6232692285092
 30
0.0
 11
184.4348387804389
 21
120.6232692276555
 31
0.0
  0
LWPOLYLINE
  5
DE
330
70
100
AcDbEntity
  8
0
 62
    18
420
        0
370
     5
100
AcDbPolyline
 90
        1
 70
     0
 43
0.0
 10
168.6129801998828
 20
102.2112199227112
  0
INSERT
  5
E0
330
70
100
AcDbEntity
  8
0
100
AcDbBlockReference
  2
Block_16
 10
0.0
 20
0.0
 30
0.0
  0
INSERT
  5
F4
330
70
100
AcDbEntity
  8
0
100
AcDbBlockReference
  2
Block_18
 10
0.0
 20
0.0
 30
0.0
  0
LINE
  5
106
330
70
100
AcDbEntity
  8
0
 62
    18
420
        0
370
     5
100
AcDbLine
 10
143.0604725094915
 20
75.67604858501272
 30
0.0
 11
143.0604725094915
 21
84.17576425411624
 31
0.0
  0
LINE
  5
107
330
70
100
AcDbEntity
  8
0
 62
    18
420
        0
370
     5
100
AcDbLine
 10
128.2893450088609
 20
76.31828638177724
 30
0.0
 11
128.2893450088609
 21
84.17576425411624
 31
0.0
  0
LINE
  5
108
330
70
100
AcDbEntity
  8
0
 62
    18
420
        0
370
     5
100
AcDbLine
 10
129.6561911772706
 20
84.17576425411624
 30
0.0
 11
128.2893450088609
 21
84.17576425411624
 31
0.0
  0
LINE
  5
109
330
70
100
AcDbEntity
  8
0
 62
    18
420
        0
370
     5
100
AcDbLine
 10
129.6561911772706
 20
84.68115275336057
 30
0.0
 11
129.6561911772706
 21
84.17576425411624
 31
0.0
  0
LINE
  5
10A
330
70
100
AcDbEntity
  8
0
 62
    18
420
        0
370
     5
100
AcDbLine
 10
132.504744536646
 20
84.68115275336057
 30
0.0
 11
129.6561911772706
 21
84.68115275336057
 31
0.0
  0
LINE
  5
10B
330
70
100
AcDbEntity
  8
0
 62
    18
420
        0
370
     5
100
AcDbLine
 10
132.504744536646
 20
84.17576425411624
 30
0.0
 11
132.504744536646
 21
84.68115275336057
 31
0.0
  0
LINE
  5
10C
330
70
100
AcDbEntity
  8
0
 62
    18
420
        0
370
     5
100
AcDbLine
 10
138.8450729817067
 20
84.17576425411624
 30
0.0
 11
138.4315733005072
 21
84.17576425411624
 31
0.0
  0
LINE
  5
10D
330
70
100
AcDbEntity
  8
0
 62
    18
420
        0
370
     5
100
AcDbLine
 10
132.9182442178459
 20
84.17576425411624
 30
0.0
 11
132.504744536646
 21
84.17576425411624
 31
0.0
  0
LINE
  5
10E
330
70
100
AcDbEntity
  8
0
 62
    18
420
        0
370
     5
100
AcDbLine
 10
138.8450729817067
 20
84.68115275336057
 30
0.0
 11
138.8450729817067
 21
84.17576425411624
 31
0.0
  0
LINE
  5
10F
330
70
100
AcDbEntity
  8
0
 62
    18
420
        0
370
     5
100
AcDbLine
 10
141.6936263410821
 20
84.68115275336057
 30
0.0
 11
138.8450729817067
 21
84.68115275336057
 31
0.0
  0
LINE
  5
110
330
70
100
AcDbEntity
  8
0
 62
    18
420
        0
370
     5
100
AcDbLine
 10
141.6936263410821
 20
84.17576425411624
 30
0.0
 11
141.6936263410821
 21
84.68115275336057
 31
0.0
  0
LINE
  5
111
330
70
100
AcDbEntity
  8
0
 62
    18
420
        0
370
     5
100
AcDbLine
 10
143.0604725094915
 20
84.17576425411624
 30
0.0
 11
129.6561911772706
 21
84.17576425411624
 31
0.0
  0
LWPOLYLINE
  5
112
330
70
100
AcDbEntity
  8
0
 62
    18
420
        0
370
     5
100
AcDbPolyline
 90
        1
 70
     0
 43
0.0
 10
157.8430861123782
 20
75.63010417599098
  0
LINE
  5
113
330
70
100
AcDbEntity
  8
0
 62
    18
420
        0
370
     5
100
AcDbLine
 10
132.9182442178459
 20
84.54331952629404
 30
0.0
 11
132.9182442178459
 21
84.17576425411624
 31
0.0
  0
SPLINE
  5
114
330
70
100
AcDbEntity
  8
0
 62
    18
420
        0
370
     5
100
AcDbSpline
210
0.0
220
0.0
230
1.0
 70
     8
 71
     3
 72
     8
 73
     4
 74
     0
 42
0.0000000001
 43
0.0000000001
 40
0.0
 40
0.0
 40
0.0
 40
0.0
 40
1.0
 40
1.0
 40
1.0
 40
1.0
 10
132.9641886268676
 20
84.58926393531578
 30
0.0
 10
132.9388142304246
 20
84.58926393531578
 30
0.0
 10
132.9182442178459
 20
84.56869392273606
 30
0.0
 10
132.9182442178459
 20
84.54331952629404
 30
0.0
  0
LINE
  5
115
330
70
100
AcDbEntity
  8
0
 62
    18
420
        0
370
     5
100
AcDbLine
 10
132.9641886268676
 20
84.58926393531578
 30
0.0
 11
138.3856288914848
 21
84.58926393531578
 31
0.0
  0
SPLINE
  5
116
330
70
100
AcDbEntity
  8
0
 62
    18
420
        0
370
     5
100
AcDbSpline
210
0.0
220
0.0
230
1.0
 70
     8
 71
     3
 72
     8
 73
     4
 74
     0
 42
0.0000000001
 43
0.0000000001
 40
0.0
 40
0.0
 40
0.0
 40
0.0
 40
1.0
 40
1.0
 40
1.0
 40
1.0
 10
138.4315733005072
 20
84.54331952629404
 30
0.0
 10
138.4315733005072
 20
84.56869392273606
 30
0.0
 10
138.4110032879277
 20
84.58926393531578
 30
0.0
 10
138.3856288914848
 20
84.58926393531578
 30
0.0
  0
LINE
  5
117
330
70
100
AcDbEntity
  8
0
 62
    18
420
        0
370
     5
100
AcDbLine
 10
138.4315733005072
 20
84.54331952629404
 30
0.0
 11
138.4315733005072
 21
84.17576425411624
 31
0.0
  0
LINE
  5
118
330
70
100
AcDbEntity
  8
0
 62
    18
420
        0
370
     5
100
AcDbLine
 10
143.4854582929465
 20
82.93165490399081
 30
0.0
 11
143.4854582929465
 21
82.90868357417862
 31
0.0
  0
LINE
  5
119
330
70
100
AcDbEntity
  8
0
 62
    18
420
        0
370
     5
100
AcDbLine
 10
143.4854582929468
 20
75.63388879662105
 30
0.0
 11
143.4854582929468
 21
82.90868357417862
 31
0.0
  0
SPLINE
  5
11A
330
70
100
AcDbEntity
  8
0
 62
    18
420
        0
370
     5
100
AcDbSpline
210
0.0
220
0.0
230
1.0
 70
     8
 71
     3
 72
     8
 73
     4
 74
     0
 42
0.0000000001
 43
0.0000000001
 40
0.0
 40
0.0
 40
0.0
 40
0.0
 40
1.0
 40
1.0
 40
1.0
 40
1.0
 10
143.4854582929468
 20
82.93165490397925
 30
0.0
 10
143.4854582929468
 20
82.95687286449473
 30
0.0
 10
143.4651318197342
 20
82.97737749815176
 30
0.0
 10
143.4399148194411
 20
82.97759756357924
 30
0.0
  0
LINE
  5
11B
330
70
100
AcDbEntity
  8
0
 62
    18
420
        0
370
     5
100
AcDbLine
 10
143.4399148194411
 20
82.97759756357796
 30
0.0
 11
143.0604725094915
 21
82.98090890645207
 31
0.0
  0
LINE
  5
11C
330
70
100
AcDbEntity
  8
0
 62
    18
420
        0
370
     5
100
AcDbLine
 10
128.72005380139
 20
75.63010417599098
 30
0.0
 11
128.730479045896
 21
75.63010419285868
 31
0.0
  0
LINE
  5
11D
330
70
100
AcDbEntity
  8
0
 62
    18
420
        0
370
     5
100
AcDbLine
 10
127.8643592254059
 20
75.67604858501272
 30
0.0
 11
127.8643592254059
 21
82.90868357417862
 31
0.0
  0
LINE
  5
11E
330
70
100
AcDbEntity
  8
0
 62
    18
420
        0
370
     5
100
AcDbLine
 10
127.8643592254062
 20
82.93165490399081
 30
0.0
 11
127.8643592254062
 21
82.90868357417862
 31
0.0
  0
LINE
  5
11F
330
70
100
AcDbEntity
  8
0
 62
    18
420
        0
370
     5
100
AcDbLine
 10
127.9099026989116
 20
82.97759756357796
 30
0.0
 11
128.2893450088609
 21
82.98090890645207
 31
0.0
  0
SPLINE
  5
120
330
70
100
AcDbEntity
  8
0
 62
    18
420
        0
370
     5
100
AcDbSpline
210
0.0
220
0.0
230
1.0
 70
     8
 71
     3
 72
     8
 73
     4
 74
     0
 42
0.0000000001
 43
0.0000000001
 40
0.0
 40
0.0
 40
0.0
 40
0.0
 40
1.0
 40
1.0
 40
1.0
 40
1.0
 10
127.9099026989116
 20
82.97759756357924
 30
0.0
 10
127.8846856986185
 20
82.97737749815176
 30
0.0
 10
127.8643592254059
 20
82.95687286449473
 30
0.0
 10
127.8643592254059
 20
82.93165490397925
 30
0.0
  0
CIRCLE
  5
121
330
70
100
AcDbEntity
  8
0
 62
    18
420
        0
370
     5
100
AcDbCircle
 10
140.2693496613943
 20
85.2784300706487
 30
0.0
 40
0.3330969654110139
  0
CIRCLE
  5
122
330
70
100
AcDbEntity
  8
0
 62
    18
420
        0
370
     5
100
AcDbCircle
 10
131.0804678569586
 20
85.2784300706487
 30
0.0
 40
0.3330969654109337
  0
SPLINE
  5
123
330
70
100
AcDbEntity
  8
0
 62
    18
420
        0
370
     5
100
AcDbSpline
210
0.0
220
0.0
230
1.0
 70
     8
 71
     3
 72
    11
 73
     7
 74
     0
 42
0.0000000001
 43
0.0000000001
 40
0.0
 40
0.0
 40
0.0
 40
0.0
 40
1.0
 40
1.0
 40
1.0
 40
2.0
 40
2.0
 40
2.0
 40
2.0
 10
128.8119286243217
 20
83.73356935933136
 30
0.0
 10
128.7611915135555
 20
83.73357331216409
 30
0.0
 10
128.7200577542224
 20
83.69244596163872
 30
0.0
 10
128.72005380139
 20
83.64170885087158
 30
0.0
 10
128.7200538010181
 20
83.64170407938233
 30
0.0
 10
128.7200538010181
 20
83.64169930789179
 30
0.0
 10
128.72005380139
 20
83.64169453640256
 30
0.0
  0
INSERT
  5
125
330
70
100
AcDbEntity
  8
0
100
AcDbBlockReference
  2
Block_20
 10
0.0
 20
0.0
 30
0.0
  0
LINE
  5
12A
330
70
100
AcDbEntity
  8
0
 62
    18
420
        0
370
     5
100
AcDbLine
 10
128.8119286243217
 20
83.73356935933136
 30
0.0
 11
142.537888894031
 21
83.73356935933136
 31
0.0
  0
SPLINE
  5
12B
330
70
100
AcDbEntity
  8
0
 62
    18
420
        0
370
     5
100
AcDbSpline
210
0.0
220
0.0
230
1.0
 70
     8
 71
     3
 72
    11
 73
     7
 74
     0
 42
0.0000000001
 43
0.0000000001
 40
0.0
 40
0.0
 40
0.0
 40
0.0
 40
1.0
 40
1.0
 40
1.0
 40
2.0
 40
2.0
 40
2.0
 40
2.0
 10
142.629763716963
 20
83.64169453640256
 30
0.0
 10
142.6297676697938
 20
83.6924316471684
 30
0.0
 10
142.5886403192672
 20
83.73356540649993
 30
0.0
 10
142.5379032085004
 20
83.73356935933136
 30
0.0
 10
142.5378984370104
 20
83.73356935970354
 30
0.0
 10
142.5378936655209
 20
83.73356935970354
 30
0.0
 10
142.537888894031
 20
83.73356935933136
 30
0.0
  0
LINE
  5
12C
330
70
100
AcDbEntity
  8
0
 62
    18
420
        0
370
     5
100
AcDbLine
 10
142.629763716963
 20
75.67604858501272
 30
0.0
 11
142.629763716963
 21
83.64169453640256
 31
0.0
  0
LINE
  5
12D
330
70
100
AcDbEntity
  8
0
 62
    18
420
        0
370
     5
100
AcDbLine
 10
128.72005380139
 20
75.63010417599098
 30
0.0
 11
128.72005380139
 21
75.67604858501272
 31
0.0
  0
LINE
  5
12E
330
70
100
AcDbEntity
  8
0
 62
    18
420
        0
370
     5
100
AcDbLine
 10
138.8960345238535
 20
76.52100651764373
 30
0.0
 11
132.4537829944989
 21
76.52100651764373
 31
0.0
  0
SPLINE
  5
12F
330
70
100
AcDbEntity
  8
0
 62
    18
420
        0
370
     5
100
AcDbSpline
210
0.0
220
0.0
230
1.0
 70
     8
 71
     3
 72
    11
 73
     7
 74
     0
 42
0.0000000001
 43
0.0000000001
 40
0.0
 40
0.0
 40
0.0
 40
0.0
 40
1.0
 40
1.0
 40
1.0
 40
2.0
 40
2.0
 40
2.0
 40
2.0
 10
132.3618976753005
 20
76.61289183684373
 30
0.0
 10
132.3618968749796
 20
76.56214577663764
 30
0.0
 10
132.4030340360752
 20
76.52100731796434
 30
0.0
 10
132.4537800962816
 20
76.52100651764373
 30
0.0
 10
132.4537800962816
 20
76.52100651764373
 30
0.0
 10
132.4537829944989
 20
76.52100651764373
 30
0.0
 10
132.4537829944989
 20
76.52100651764373
 30
0.0
  0
LINE
  5
130
330
70
100
AcDbEntity
  8
0
 62
    18
420
        0
370
     5
100
AcDbLine
 10
132.3618976753005
 20
81.40404222245237
 30
0.0
 11
132.3618976753005
 21
76.61289183684373
 31
0.0
  0
LINE
  5
131
330
70
100
AcDbEntity
  8
0
 62
    18
420
        0
370
     5
100
AcDbLine
 10
132.3618976753005
 20
81.40404222245237
 30
0.0
 11
138.9879198430518
 21
81.40404222245237
 31
0.0
  0
LINE
  5
132
330
70
100
AcDbEntity
  8
0
 62
    18
420
        0
370
     5
100
AcDbLine
 10
138.9879198430518
 20
81.40404222245237
 30
0.0
 11
138.9879198430518
 21
76.61289183684373
 31
0.0
  0
SPLINE
  5
133
330
70
100
AcDbEntity
  8
0
 62
    18
420
        0
370
     5
100
AcDbSpline
210
0.0
220
0.0
230
1.0
 70
     8
 71
     3
 72
    11
 73
     7
 74
     0
 42
0.0000000001
 43
0.0000000001
 40
0.0
 40
0.0
 40
0.0
 40
0.0
 40
1.0
 40
1.0
 40
1.0
 40
2.0
 40
2.0
 40
2.0
 40
2.0
 10
138.8960345238535
 20
76.52100651764373
 30
0.0
 10
138.9467805840596
 20
76.52100571732309
 30
0.0
 10
138.9879190427322
 20
76.56214287841932
 30
0.0
 10
138.9879198430518
 20
76.61288893862542
 30
0.0
 10
138.9879198430518
 20
76.61288893862542
 30
0.0
 10
138.9879198430518
 20
76.61289183684373
 30
0.0
 10
138.9879198430518
 20
76.61289183684373
 30
0.0
  0
LINE
  5
134
330
70
100
AcDbEntity
  8
0
 62
    18
420
        0
370
     5
100
AcDbLine
 10
128.2893450088609
 20
62.80136629540741
 30
0.0
 11
128.2893450088609
 21
76.31828638177724
 31
0.0
  0
LINE
  5
135
330
70
100
AcDbEntity
  8
0
 62
    18
420
        0
370
     5
100
AcDbLine
 10
143.0604725094915
 20
62.87619100506134
 30
0.0
 11
143.0604725094915
 21
75.67604858501272
 31
0.0
  0
INSERT
  5
137
330
70
100
AcDbEntity
  8
0
100
AcDbBlockReference
  2
Block_21
 10
0.0
 20
0.0
 30
0.0
  0
INSERT
  5
14C
330
70
100
AcDbEntity
  8
0
100
AcDbBlockReference
  2
Block_25
 10
0.0
 20
0.0
 30
0.0
  0
LINE
  5
159
330
70
100
AcDbEntity
  8
0
 62
    18
420
        0
370
     5
100
AcDbLine
 10
170.6636094954883
 20
84.17576425411624
 30
0.0
 11
143.0604725094915
 21
84.17576425411624
 31
0.0
  0
INSERT
  5
15B
330
70
100
AcDbEntity
  8
0
100
AcDbBlockReference
  2
Block_27
 10
0.0
 20
0.0
 30
0.0
  0
INSERT
  5
170
330
70
100
AcDbEntity
  8
0
100
AcDbBlockReference
  2
Block_31
 10
0.0
 20
0.0
 30
0.0
  0
LINE
  5
17B
330
70
100
AcDbEntity
  8
0
 62
    18
420
        0
370
     5
100
AcDbLine
 10
125.919512212744
 20
136.5688812822714
 30
0.0
 11
125.919512212744
 21
135.4210910957472
 31
0.0
  0
LINE
  5
17C
330
70
100
AcDbEntity
  8
0
 62
    18
420
        0
370
     5
100
AcDbLine
 10
157.8280793981374
 20
136.5688812822714
 30
0.0
 11
113.5233781982743
 21
136.5688812822714
 31
0.0
  0
LINE
  5
17D
330
70
100
AcDbEntity
  8
0
 62
    18
420
        0
370
     5
100
AcDbLine
 10
158.0346816317122
 20
143.8474886712206
 30
0.0
 11
113.3167759646998
 21
143.8474886712206
 31
0.0
  0
SPLINE
  5
17E
330
70
100
AcDbEntity
  8
0
 62
    18
420
        0
370
     5
100
AcDbSpline
210
0.0
220
0.0
230
1.0
 70
     8
 71
     3
 72
     8
 73
     4
 74
     0
 42
0.0000000001
 43
0.0000000001
 40
0.0
 40
0.0
 40
0.0
 40
0.0
 40
1.0
 40
1.0
 40
1.0
 40
1.0
 10
112.8347040863591
 20
137.2575553941869
 30
0.0
 10
112.8347040863591
 20
136.8772111845737
 30
0.0
 10
113.1430339886607
 20
136.5688812822714
 30
0.0
 10
113.5233781982743
 20
136.5688812822714
 30
0.0
  0
LINE
  5
17F
330
70
100
AcDbEntity
  8
0
 62
    18
420
        0
370
     5
100
AcDbLine
 10
112.8347040863591
 20
137.6551615780848
 30
0.0
 11
112.8347040863591
 21
137.2575553941869
 31
0.0
  0
LINE
  5
180
330
70
100
AcDbEntity
  8
0
 62
    18
420
        0
370
     5
100
AcDbLine
 10
112.8347040863591
 20
143.8474886712206
 30
0.0
 11
112.8347040863591
 21
137.6551615780848
 31
0.0
  0
LINE
  5
181
330
70
100
AcDbEntity
  8
0
 62
    18
420
        0
370
     5
100
AcDbLine
 10
112.8347040863591
 20
143.8474886712206
 30
0.0
 11
113.2938201609698
 21
143.8474886712206
 31
0.0
  0
SPLINE
  5
182
330
70
100
AcDbEntity
  8
0
 62
    18
420
        0
370
     5
100
AcDbSpline
210
0.0
220
0.0
230
1.0
 70
     8
 71
     3
 72
     8
 73
     4
 74
     0
 42
0.0000000001
 43
0.0000000001
 40
0.0
 40
0.0
 40
0.0
 40
0.0
 40
1.0
 40
1.0
 40
1.0
 40
1.0
 10
157.8280793981374
 20
136.5688812822714
 30
0.0
 10
158.2084236077519
 20
136.5688812822714
 30
0.0
 10
158.5167535100532
 20
136.8772111845737
 30
0.0
 10
158.5167535100532
 20
137.2575553941869
 30
0.0
  0
LINE
  5
183
330
70
100
AcDbEntity
  8
0
 62
    18
420
        0
370
     5
100
AcDbLine
 10
158.5167535100532
 20
143.8474886712206
 30
0.0
 11
158.5167535100532
 21
137.6551615780848
 31
0.0
  0
LINE
  5
184
330
70
100
AcDbEntity
  8
0
 62
    18
420
        0
370
     5
100
AcDbLine
 10
158.5167535100532
 20
137.6551615780848
 30
0.0
 11
158.5167535100532
 21
137.2575553941869
 31
0.0
  0
LINE
  5
185
330
70
100
AcDbEntity
  8
0
 62
    18
420
        0
370
     5
100
AcDbLine
 10
158.5167535100532
 20
143.8474886712206
 30
0.0
 11
158.0576374354429
 21
143.8474886712206
 31
0.0
  0
LINE
  5
186
330
70
100
AcDbEntity
  8
0
 62
    18
420
        0
370
     5
100
AcDbLine
 10
153.9255927639524
 20
123.9431892304968
 30
0.0
 11
156.6802892116125
 21
123.9431892304968
 31
0.0
  0
LINE
  5
187
330
70
100
AcDbEntity
  8
0
 62
    18
420
        0
370
     5
100
AcDbLine
 10
156.6802892116125
 20
136.5688812822714
 30
0.0
 11
156.6802892116125
 21
123.9431892304968
 31
0.0
  0
LINE
  5
188
330
70
100
AcDbEntity
  8
0
 62
    18
420
        0
370
     5
100
AcDbLine
 10
153.9255927639524
 20
136.5688812822714
 30
0.0
 11
153.9255927639524
 21
123.9431892304968
 31
0.0
  0
LINE
  5
189
330
70
100
AcDbEntity
  8
0
 62
    18
420
        0
370
     5
100
AcDbLine
 10
114.6711683847988
 20
123.9431892304968
 30
0.0
 11
117.4258648324592
 21
123.9431892304968
 31
0.0
  0
LINE
  5
18A
330
70
100
AcDbEntity
  8
0
 62
    18
420
        0
370
     5
100
AcDbLine
 10
117.4258648324592
 20
136.5688812822714
 30
0.0
 11
117.4258648324592
 21
123.9431892304968
 31
0.0
  0
LINE
  5
18B
330
70
100
AcDbEntity
  8
0
 62
    18
420
        0
370
     5
100
AcDbLine
 10
114.6711683847988
 20
136.5688812822714
 30
0.0
 11
114.6711683847988
 21
123.9431892304968
 31
0.0
  0
LINE
  5
18C
330
70
100
AcDbEntity
  8
0
 62
    18
420
        0
370
     5
100
AcDbLine
 10
126.27442289522
 20
134.2733009092216
 30
0.0
 11
126.27442289522
 21
134.9619750211368
 31
0.0
  0
LINE
  5
18D
330
70
100
AcDbEntity
  8
0
 62
    18
420
        0
370
     5
100
AcDbLine
 10
126.3786282873541
 20
134.2733009092216
 30
0.0
 11
126.3786282873541
 21
134.3880799278741
 31
0.0
  0
LINE
  5
18E
330
70
100
AcDbEntity
  8
0
 62
    18
420
        0
370
     5
100
AcDbLine
 10
126.3786282873531
 20
134.3880799278741
 30
0.0
 11
126.7123917167924
 21
134.3880799278741
 31
0.0
  0
LINE
  5
18F
330
70
100
AcDbEntity
  8
0
 62
    18
420
        0
370
     5
100
AcDbLine
 10
126.7123917167927
 20
134.3880799278741
 30
0.0
 11
126.7123917167927
 21
134.9619750211368
 31
0.0
  0
LINE
  5
190
330
70
100
AcDbEntity
  8
0
 62
    18
420
        0
370
     5
100
AcDbLine
 10
132.6914743132409
 20
134.9619750211368
 30
0.0
 11
131.5436841267163
 21
134.9619750211368
 31
0.0
  0
LINE
  5
191
330
70
100
AcDbEntity
  8
0
 62
    18
420
        0
370
     5
100
AcDbLine
 10
130.625451977496
 20
134.9619750211368
 30
0.0
 11
123.5917937144715
 21
134.9619750211368
 31
0.0
  0
LINE
  5
192
330
70
100
AcDbEntity
  8
0
 62
    18
420
        0
370
     5
100
AcDbLine
 10
123.5917937144715
 20
134.9619750211368
 30
0.0
 11
123.2474566585133
 21
134.9619750211368
 31
0.0
  0
LINE
  5
193
330
70
100
AcDbEntity
  8
0
 62
    18
420
        0
370
     5
100
AcDbLine
 10
134.3643050719904
 20
134.8271551442202
 30
0.0
 11
136.9871525244219
 21
134.8271551442202
 31
0.0
  0
SPLINE
  5
194
330
70
100
AcDbEntity
  8
0
 62
    18
420
        0
370
     5
100
AcDbSpline
210
0.0
220
0.0
230
1.0
 70
     8
 71
     3
 72
     8
 73
     4
 74
     0
 42
0.0000000001
 43
0.0000000001
 40
0.0
 40
0.0
 40
0.0
 40
0.0
 40
1.0
 40
1.0
 40
1.0
 40
1.0
 10
137.0330361637714
 20
134.7812715048694
 30
0.0
 10
137.0330361637714
 20
134.8066213741223
 30
0.0
 10
137.0125023936741
 20
134.8271551442199
 30
0.0
 10
136.9871525244219
 20
134.8271551442199
 30
0.0
  0
LINE
  5
195
330
70
100
AcDbEntity
  8
0
 62
    18
420
        0
370
     5
100
AcDbLine
 10
137.0330361637717
 20
133.8801093322253
 30
0.0
 11
137.0330361637717
 21
134.7812715048694
 31
0.0
  0
SPLINE
  5
196
330
70
100
AcDbEntity
  8
0
 62
    18
420
        0
370
     5
100
AcDbSpline
210
0.0
220
0.0
230
1.0
 70
     8
 71
     3
 72
     8
 73
     4
 74
     0
 42
0.0000000001
 43
0.0000000001
 40
0.0
 40
0.0
 40
0.0
 40
0.0
 40
1.0
 40
1.0
 40
1.0
 40
1.0
 10
136.9871525244219
 20
133.8342256928758
 30
0.0
 10
137.0125023936741
 20
133.8342256928765
 30
0.0
 10
137.033036163771
 20
133.8547594629727
 30
0.0
 10
137.0330361637714
 20
133.8801093322253
 30
0.0
  0
LINE
  5
197
330
70
100
AcDbEntity
  8
0
 62
    18
420
        0
370
     5
100
AcDbLine
 10
136.4476352005327
 20
133.8342256928758
 30
0.0
 11
136.9871525244219
 21
133.8342256928758
 31
0.0
  0
SPLINE
  5
198
330
70
100
AcDbEntity
  8
0
 62
    18
420
        0
370
     5
100
AcDbSpline
210
0.0
220
0.0
230
1.0
 70
     8
 71
     3
 72
     8
 73
     4
 74
     0
 42
0.0000000001
 43
0.0000000001
 40
0.0
 40
0.0
 40
0.0
 40
0.0
 40
1.0
 40
1.0
 40
1.0
 40
1.0
 10
136.4476352005327
 20
133.8342256928751
 30
0.0
 10
136.422285331281
 20
133.8342256928751
 30
0.0
 10
136.4017515611848
 20
133.8136919227792
 30
0.0
 10
136.4017515611838
 20
133.7883420535267
 30
0.0
  0
LINE
  5
199
330
70
100
AcDbEntity
  8
0
 62
    18
420
        0
370
     5
100
AcDbLine
 10
136.4017515611832
 20
132.8470981643538
 30
0.0
 11
136.4017515611832
 21
133.7883420535267
 31
0.0
  0
SPLINE
  5
19A
330
70
100
AcDbEntity
  8
0
 62
    18
420
        0
370
     5
100
AcDbSpline
210
0.0
220
0.0
230
1.0
 70
     8
 71
     3
 72
     8
 73
     4
 74
     0
 42
0.0000000001
 43
0.0000000001
 40
0.0
 40
0.0
 40
0.0
 40
0.0
 40
1.0
 40
1.0
 40
1.0
 40
1.0
 10
136.3558679218328
 20
132.8012145250037
 30
0.0
 10
136.381217791085
 20
132.8012145250037
 30
0.0
 10
136.4017515611825
 20
132.8217482951003
 30
0.0
 10
136.4017515611829
 20
132.8470981643538
 30
0.0
  0
LINE
  5
19B
330
70
100
AcDbEntity
  8
0
 62
    18
420
        0
370
     5
100
AcDbLine
 10
136.3558679218328
 20
132.8012145250037
 30
0.0
 11
134.9955896745792
 21
132.8012145250037
 31
0.0
  0
SPLINE
  5
19C
330
70
100
AcDbEntity
  8
0
 62
    18
420
        0
370
     5
100
AcDbSpline
210
0.0
220
0.0
230
1.0
 70
     8
 71
     3
 72
     8
 73
     4
 74
     0
 42
0.0000000001
 43
0.0000000001
 40
0.0
 40
0.0
 40
0.0
 40
0.0
 40
1.0
 40
1.0
 40
1.0
 40
1.0
 10
134.9497060352291
 20
132.8470981643538
 30
0.0
 10
134.9497060352294
 20
132.8217482951003
 30
0.0
 10
134.9702398053267
 20
132.8012145250037
 30
0.0
 10
134.9955896745792
 20
132.8012145250037
 30
0.0
  0
LINE
  5
19D
330
70
100
AcDbEntity
  8
0
 62
    18
420
        0
370
     5
100
AcDbLine
 10
134.9497060352288
 20
132.8470981643538
 30
0.0
 11
134.9497060352288
 21
133.7883420535267
 31
0.0
  0
SPLINE
  5
19E
330
70
100
AcDbEntity
  8
0
 62
    18
420
        0
370
     5
100
AcDbSpline
210
0.0
220
0.0
230
1.0
 70
     8
 71
     3
 72
     8
 73
     4
 74
     0
 42
0.0000000001
 43
0.0000000001
 40
0.0
 40
0.0
 40
0.0
 40
0.0
 40
1.0
 40
1.0
 40
1.0
 40
1.0
 10
134.9497060352288
 20
133.7883420535267
 30
0.0
 10
134.9497060352272
 20
133.8136919227792
 30
0.0
 10
134.9291722651312
 20
133.8342256928751
 30
0.0
 10
134.9038223958793
 20
133.8342256928751
 30
0.0
  0
LINE
  5
19F
330
70
100
AcDbEntity
  8
0
 62
    18
420
        0
370
     5
100
AcDbLine
 10
134.9038223958793
 20
133.8342256928758
 30
0.0
 11
134.3643050719904
 21
133.8342256928758
 31
0.0
  0
SPLINE
  5
1A0
330
70
100
AcDbEntity
  8
0
 62
    18
420
        0
370
     5
100
AcDbSpline
210
0.0
220
0.0
230
1.0
 70
     8
 71
     3
 72
     8
 73
     4
 74
     0
 42
0.0000000001
 43
0.0000000001
 40
0.0
 40
0.0
 40
0.0
 40
0.0
 40
1.0
 40
1.0
 40
1.0
 40
1.0
 10
134.3184214326406
 20
133.8801093322253
 30
0.0
 10
134.3184214326416
 20
133.8547594629727
 30
0.0
 10
134.3389552027382
 20
133.8342256928765
 30
0.0
 10
134.3643050719904
 20
133.8342256928758
 30
0.0
  0
LINE
  5
1A1
330
70
100
AcDbEntity
  8
0
 62
    18
420
        0
370
     5
100
AcDbLine
 10
134.3184214326406
 20
133.8801093322253
 30
0.0
 11
134.3184214326406
 21
134.7812715048694
 31
0.0
  0
SPLINE
  5
1A2
330
70
100
AcDbEntity
  8
0
 62
    18
420
        0
370
     5
100
AcDbSpline
210
0.0
220
0.0
230
1.0
 70
     8
 71
     3
 72
     8
 73
     4
 74
     0
 42
0.0000000001
 43
0.0000000001
 40
0.0
 40
0.0
 40
0.0
 40
0.0
 40
1.0
 40
1.0
 40
1.0
 40
1.0
 10
134.3643050719904
 20
134.8271551442199
 30
0.0
 10
134.3389552027378
 20
134.8271551442199
 30
0.0
 10
134.3184214326409
 20
134.8066213741223
 30
0.0
 10
134.3184214326406
 20
134.7812715048694
 30
0.0
  0
LINE
  5
1A3
330
70
100
AcDbEntity
  8
0
 62
    18
420
        0
370
     5
100
AcDbLine
 10
133.9081319109578
 20
132.2072785734774
 30
0.0
 11
133.9081319109578
 21
127.1570017527666
 31
0.0
  0
LINE
  5
1A4
330
70
100
AcDbEntity
  8
0
 62
    18
420
        0
370
     5
100
AcDbLine
 10
133.9081319109578
 20
127.1570017527666
 30
0.0
 11
133.6097064624609
 21
127.1570017527666
 31
0.0
  0
LINE
  5
1A5
330
70
100
AcDbEntity
  8
0
 62
    18
420
        0
370
     5
100
AcDbLine
 10
122.2006720084032
 20
134.9619750211368
 30
0.0
 11
122.2006720084032
 21
127.1570017527666
 31
0.0
  0
LINE
  5
1A6
330
70
100
AcDbEntity
  8
0
 62
    18
420
        0
370
     5
100
AcDbLine
 10
122.820478709126
 20
134.9619750211368
 30
0.0
 11
122.820478709126
 21
127.1570017527666
 31
0.0
  0
LINE
  5
1A7
330
70
100
AcDbEntity
  8
0
 62
    18
420
        0
370
     5
100
AcDbLine
 10
130.625451977496
 20
127.1570017527666
 30
0.0
 11
122.820478709126
 21
127.1570017527666
 31
0.0
  0
LINE
  5
1A8
330
70
100
AcDbEntity
  8
0
 62
    18
420
        0
370
     5
100
AcDbLine
 10
127.7559765111838
 20
134.3880799278741
 30
0.0
 11
126.7123917167927
 21
134.3880799278741
 31
0.0
  0
LINE
  5
1A9
330
70
100
AcDbEntity
  8
0
 62
    18
420
        0
370
     5
100
AcDbLine
 10
127.7559765111838
 20
134.1585218905692
 30
0.0
 11
127.7559765111838
 21
134.3880799278741
 31
0.0
  0
LINE
  5
1AA
330
70
100
AcDbEntity
  8
0
 62
    18
420
        0
370
     5
100
AcDbLine
 10
130.281114921539
 20
134.1585218905692
 30
0.0
 11
127.7559765111838
 21
134.1585218905692
 31
0.0
  0
SPLINE
  5
1AB
330
70
100
AcDbEntity
  8
0
 62
    18
420
        0
370
     5
100
AcDbSpline
210
0.0
220
0.0
230
1.0
 70
     8
 71
     3
 72
     8
 73
     4
 74
     0
 42
0.0000000001
 43
0.0000000001
 40
0.0
 40
0.0
 40
0.0
 40
0.0
 40
1.0
 40
1.0
 40
1.0
 40
1.0
 10
130.5106729588439
 20
133.9289638532634
 30
0.0
 10
130.5106729588439
 20
134.0557452564686
 30
0.0
 10
130.4078963247436
 20
134.1585218905692
 30
0.0
 10
130.281114921539
 20
134.1585218905692
 30
0.0
  0
LINE
  5
1AC
330
70
100
AcDbEntity
  8
0
 62
    18
420
        0
370
     5
100
AcDbLine
 10
130.5106729588439
 20
133.7338395215552
 30
0.0
 11
130.5106729588439
 21
133.9289638532634
 31
0.0
  0
SPLINE
  5
1AD
330
70
100
AcDbEntity
  8
0
 62
    18
420
        0
370
     5
100
AcDbSpline
210
0.0
220
0.0
230
1.0
 70
     8
 71
     3
 72
     8
 73
     4
 74
     0
 42
0.0000000001
 43
0.0000000001
 40
0.0
 40
0.0
 40
0.0
 40
0.0
 40
1.0
 40
1.0
 40
1.0
 40
1.0
 10
130.281114921539
 20
133.5042814842507
 30
0.0
 10
130.4078963247436
 20
133.5042814842507
 30
0.0
 10
130.5106729588439
 20
133.6070581183503
 30
0.0
 10
130.5106729588439
 20
133.7338395215552
 30
0.0
  0
LINE
  5
1AE
330
70
100
AcDbEntity
  8
0
 62
    18
420
        0
370
     5
100
AcDbLine
 10
127.7674544130488
 20
133.5042814842507
 30
0.0
 11
130.281114921539
 21
133.5042814842507
 31
0.0
  0
LINE
  5
1AF
330
70
100
AcDbEntity
  8
0
 62
    18
420
        0
370
     5
100
AcDbLine
 10
127.7674544130488
 20
133.7338395215552
 30
0.0
 11
127.7674544130488
 21
133.5042814842507
 31
0.0
  0
LINE
  5
1B0
330
70
100
AcDbEntity
  8
0
 62
    18
420
        0
370
     5
100
AcDbLine
 10
126.3671503854884
 20
133.7338395215552
 30
0.0
 11
127.7674544130488
 21
133.7338395215552
 31
0.0
  0
LINE
  5
1B1
330
70
100
AcDbEntity
  8
0
 62
    18
420
        0
370
     5
100
AcDbLine
 10
126.3671503854884
 20
133.5042814842507
 30
0.0
 11
126.3671503854884
 21
133.7338395215552
 31
0.0
  0
LINE
  5
1B2
330
70
100
AcDbEntity
  8
0
 62
    18
420
        0
370
     5
100
AcDbLine
 10
123.8534898769988
 20
133.5042814842507
 30
0.0
 11
126.3671503854884
 21
133.5042814842507
 31
0.0
  0
SPLINE
  5
1B3
330
70
100
AcDbEntity
  8
0
 62
    18
420
        0
370
     5
100
AcDbSpline
210
0.0
220
0.0
230
1.0
 70
     8
 71
     3
 72
     8
 73
     4
 74
     0
 42
0.0000000001
 43
0.0000000001
 40
0.0
 40
0.0
 40
0.0
 40
0.0
 40
1.0
 40
1.0
 40
1.0
 40
1.0
 10
123.623931839694
 20
133.7338395215552
 30
0.0
 10
123.623931839694
 20
133.6070581183503
 30
0.0
 10
123.7267084737942
 20
133.5042814842507
 30
0.0
 10
123.8534898769988
 20
133.5042814842507
 30
0.0
  0
LINE
  5
1B4
330
70
100
AcDbEntity
  8
0
 62
    18
420
        0
370
     5
100
AcDbLine
 10
123.623931839694
 20
133.9289638532634
 30
0.0
 11
123.623931839694
 21
133.7338395215552
 31
0.0
  0
SPLINE
  5
1B5
330
70
100
AcDbEntity
  8
0
 62
    18
420
        0
370
     5
100
AcDbSpline
210
0.0
220
0.0
230
1.0
 70
     8
 71
     3
 72
     8
 73
     4
 74
     0
 42
0.0000000001
 43
0.0000000001
 40
0.0
 40
0.0
 40
0.0
 40
0.0
 40
1.0
 40
1.0
 40
1.0
 40
1.0
 10
123.8534898769988
 20
134.1585218905692
 30
0.0
 10
123.7267084737942
 20
134.1585218905692
 30
0.0
 10
123.623931839694
 20
134.0557452564686
 30
0.0
 10
123.623931839694
 20
133.9289638532634
 30
0.0
  0
LINE
  5
1B6
330
70
100
AcDbEntity
  8
0
 62
    18
420
        0
370
     5
100
AcDbLine
 10
126.3786282873541
 20
134.1585218905692
 30
0.0
 11
123.8534898769988
 21
134.1585218905692
 31
0.0
  0
LINE
  5
1B7
330
70
100
AcDbEntity
  8
0
 62
    18
420
        0
370
     5
100
AcDbLine
 10
126.3786282873541
 20
134.2733009092216
 30
0.0
 11
126.3786282873541
 21
134.1585218905692
 31
0.0
  0
LINE
  5
1B8
330
70
100
AcDbEntity
  8
0
 62
    18
420
        0
370
     5
100
AcDbLine
 10
126.27442289522
 20
134.2733009092216
 30
0.0
 11
126.3786282873541
 21
134.2733009092216
 31
0.0
  0
LINE
  5
1B9
330
70
100
AcDbEntity
  8
0
 62
    18
420
        0
370
     5
100
AcDbLine
 10
121.8702412690385
 20
136.454102263619
 30
0.0
 11
121.8702412690385
 21
136.5688812822714
 31
0.0
  0
LINE
  5
1BA
330
70
100
AcDbEntity
  8
0
 62
    18
420
        0
370
     5
100
AcDbLine
 10
121.8702412690385
 20
136.454102263619
 30
0.0
 11
121.8702412690385
 21
127.1570017527666
 31
0.0
  0
LINE
  5
1BB
330
70
100
AcDbEntity
  8
0
 62
    18
420
        0
370
     5
100
AcDbLine
 10
122.2006720084032
 20
127.1570017527666
 30
0.0
 11
121.8702412690385
 21
127.1570017527666
 31
0.0
  0
LINE
  5
1BC
330
70
100
AcDbEntity
  8
0
 62
    18
420
        0
370
     5
100
AcDbLine
 10
127.7674544130488
 20
128.2244466262353
 30
0.0
 11
127.7674544130488
 21
127.9948885889305
 31
0.0
  0
LINE
  5
1BD
330
70
100
AcDbEntity
  8
0
 62
    18
420
        0
370
     5
100
AcDbLine
 10
126.3671503854884
 20
128.2244466262353
 30
0.0
 11
127.7674544130488
 21
128.2244466262353
 31
0.0
  0
LINE
  5
1BE
330
70
100
AcDbEntity
  8
0
 62
    18
420
        0
370
     5
100
AcDbLine
 10
126.3671503854884
 20
127.9948885889305
 30
0.0
 11
126.3671503854884
 21
128.2244466262353
 31
0.0
  0
LINE
  5
1BF
330
70
100
AcDbEntity
  8
0
 62
    18
420
        0
370
     5
100
AcDbLine
 10
123.8534898769988
 20
127.9948885889305
 30
0.0
 11
126.3671503854884
 21
127.9948885889305
 31
0.0
  0
SPLINE
  5
1C0
330
70
100
AcDbEntity
  8
0
 62
    18
420
        0
370
     5
100
AcDbSpline
210
0.0
220
0.0
230
1.0
 70
     8
 71
     3
 72
     8
 73
     4
 74
     0
 42
0.0000000001
 43
0.0000000001
 40
0.0
 40
0.0
 40
0.0
 40
0.0
 40
1.0
 40
1.0
 40
1.0
 40
1.0
 10
123.623931839694
 20
128.2244466262353
 30
0.0
 10
123.623931839694
 20
128.0976652230304
 30
0.0
 10
123.7267084737942
 20
127.9948885889305
 30
0.0
 10
123.8534898769988
 20
127.9948885889305
 30
0.0
  0
LINE
  5
1C1
330
70
100
AcDbEntity
  8
0
 62
    18
420
        0
370
     5
100
AcDbLine
 10
123.623931839694
 20
128.4195709579448
 30
0.0
 11
123.623931839694
 21
128.2244466262353
 31
0.0
  0
SPLINE
  5
1C2
330
70
100
AcDbEntity
  8
0
 62
    18
420
        0
370
     5
100
AcDbSpline
210
0.0
220
0.0
230
1.0
 70
     8
 71
     3
 72
     8
 73
     4
 74
     0
 42
0.0000000001
 43
0.0000000001
 40
0.0
 40
0.0
 40
0.0
 40
0.0
 40
1.0
 40
1.0
 40
1.0
 40
1.0
 10
123.8534898769988
 20
128.6491289952497
 30
0.0
 10
123.7267084737942
 20
128.6491289952497
 30
0.0
 10
123.623931839694
 20
128.5463523611491
 30
0.0
 10
123.623931839694
 20
128.4195709579448
 30
0.0
  0
LINE
  5
1C3
330
70
100
AcDbEntity
  8
0
 62
    18
420
        0
370
     5
100
AcDbLine
 10
126.3786282873541
 20
128.6491289952497
 30
0.0
 11
123.8534898769988
 21
128.6491289952497
 31
0.0
  0
LINE
  5
1C4
330
70
100
AcDbEntity
  8
0
 62
    18
420
        0
370
     5
100
AcDbLine
 10
126.3786282873541
 20
128.8786870325542
 30
0.0
 11
126.3786282873541
 21
128.6491289952497
 31
0.0
  0
LINE
  5
1C5
330
70
100
AcDbEntity
  8
0
 62
    18
420
        0
370
     5
100
AcDbLine
 10
127.7559765111838
 20
128.8786870325542
 30
0.0
 11
126.3786282873541
 21
128.8786870325542
 31
0.0
  0
LINE
  5
1C6
330
70
100
AcDbEntity
  8
0
 62
    18
420
        0
370
     5
100
AcDbLine
 10
127.7559765111838
 20
128.6491289952497
 30
0.0
 11
127.7559765111838
 21
128.8786870325542
 31
0.0
  0
LINE
  5
1C7
330
70
100
AcDbEntity
  8
0
 62
    18
420
        0
370
     5
100
AcDbLine
 10
130.281114921539
 20
128.6491289952497
 30
0.0
 11
127.7559765111838
 21
128.6491289952497
 31
0.0
  0
SPLINE
  5
1C8
330
70
100
AcDbEntity
  8
0
 62
    18
420
        0
370
     5
100
AcDbSpline
210
0.0
220
0.0
230
1.0
 70
     8
 71
     3
 72
     8
 73
     4
 74
     0
 42
0.0000000001
 43
0.0000000001
 40
0.0
 40
0.0
 40
0.0
 40
0.0
 40
1.0
 40
1.0
 40
1.0
 40
1.0
 10
130.5106729588439
 20
128.4195709579448
 30
0.0
 10
130.5106729588439
 20
128.5463523611491
 30
0.0
 10
130.4078963247436
 20
128.6491289952497
 30
0.0
 10
130.281114921539
 20
128.6491289952497
 30
0.0
  0
LINE
  5
1C9
330
70
100
AcDbEntity
  8
0
 62
    18
420
        0
370
     5
100
AcDbLine
 10
130.5106729588439
 20
128.2244466262353
 30
0.0
 11
130.5106729588439
 21
128.4195709579448
 31
0.0
  0
SPLINE
  5
1CA
330
70
100
AcDbEntity
  8
0
 62
    18
420
        0
370
     5
100
AcDbSpline
210
0.0
220
0.0
230
1.0
 70
     8
 71
     3
 72
     8
 73
     4
 74
     0
 42
0.0000000001
 43
0.0000000001
 40
0.0
 40
0.0
 40
0.0
 40
0.0
 40
1.0
 40
1.0
 40
1.0
 40
1.0
 10
130.281114921539
 20
127.9948885889305
 30
0.0
 10
130.4078963247436
 20
127.9948885889305
 30
0.0
 10
130.5106729588439
 20
128.0976652230304
 30
0.0
 10
130.5106729588439
 20
128.2244466262353
 30
0.0
  0
LINE
  5
1CB
330
70
100
AcDbEntity
  8
0
 62
    18
420
        0
370
     5
100
AcDbLine
 10
127.7674544130488
 20
127.9948885889305
 30
0.0
 11
130.281114921539
 21
127.9948885889305
 31
0.0
  0
LINE
  5
1CC
330
70
100
AcDbEntity
  8
0
 62
    18
420
        0
370
     5
100
AcDbLine
 10
127.7674544130488
 20
129.6017948500651
 30
0.0
 11
127.7674544130488
 21
129.3722368127599
 31
0.0
  0
LINE
  5
1CD
330
70
100
AcDbEntity
  8
0
 62
    18
420
        0
370
     5
100
AcDbLine
 10
126.3671503854884
 20
129.6017948500651
 30
0.0
 11
127.7674544130488
 21
129.6017948500651
 31
0.0
  0
LINE
  5
1CE
330
70
100
AcDbEntity
  8
0
 62
    18
420
        0
370
     5
100
AcDbLine
 10
126.3671503854884
 20
129.3722368127599
 30
0.0
 11
126.3671503854884
 21
129.6017948500651
 31
0.0
  0
LINE
  5
1CF
330
70
100
AcDbEntity
  8
0
 62
    18
420
        0
370
     5
100
AcDbLine
 10
123.8534898769988
 20
129.3722368127599
 30
0.0
 11
126.3671503854884
 21
129.3722368127599
 31
0.0
  0
SPLINE
  5
1D0
330
70
100
AcDbEntity
  8
0
 62
    18
420
        0
370
     5
100
AcDbSpline
210
0.0
220
0.0
230
1.0
 70
     8
 71
     3
 72
     8
 73
     4
 74
     0
 42
0.0000000001
 43
0.0000000001
 40
0.0
 40
0.0
 40
0.0
 40
0.0
 40
1.0
 40
1.0
 40
1.0
 40
1.0
 10
123.623931839694
 20
129.6017948500651
 30
0.0
 10
123.623931839694
 20
129.4750134468601
 30
0.0
 10
123.7267084737942
 20
129.3722368127599
 30
0.0
 10
123.8534898769988
 20
129.3722368127599
 30
0.0
  0
LINE
  5
1D1
330
70
100
AcDbEntity
  8
0
 62
    18
420
        0
370
     5
100
AcDbLine
 10
123.623931839694
 20
129.7969191817745
 30
0.0
 11
123.623931839694
 21
129.6017948500651
 31
0.0
  0
SPLINE
  5
1D2
330
70
100
AcDbEntity
  8
0
 62
    18
420
        0
370
     5
100
AcDbSpline
210
0.0
220
0.0
230
1.0
 70
     8
 71
     3
 72
     8
 73
     4
 74
     0
 42
0.0000000001
 43
0.0000000001
 40
0.0
 40
0.0
 40
0.0
 40
0.0
 40
1.0
 40
1.0
 40
1.0
 40
1.0
 10
123.8534898769988
 20
130.0264772190794
 30
0.0
 10
123.7267084737942
 20
130.0264772190794
 30
0.0
 10
123.623931839694
 20
129.9237005849788
 30
0.0
 10
123.623931839694
 20
129.7969191817745
 30
0.0
  0
LINE
  5
1D3
330
70
100
AcDbEntity
  8
0
 62
    18
420
        0
370
     5
100
AcDbLine
 10
126.3786282873541
 20
130.0264772190794
 30
0.0
 11
123.8534898769988
 21
130.0264772190794
 31
0.0
  0
LINE
  5
1D4
330
70
100
AcDbEntity
  8
0
 62
    18
420
        0
370
     5
100
AcDbLine
 10
126.3786282873541
 20
130.2560352563846
 30
0.0
 11
126.3786282873541
 21
130.0264772190794
 31
0.0
  0
LINE
  5
1D5
330
70
100
AcDbEntity
  8
0
 62
    18
420
        0
370
     5
100
AcDbLine
 10
127.7559765111838
 20
130.2560352563846
 30
0.0
 11
126.3786282873541
 21
130.2560352563846
 31
0.0
  0
LINE
  5
1D6
330
70
100
AcDbEntity
  8
0
 62
    18
420
        0
370
     5
100
AcDbLine
 10
127.7559765111838
 20
130.0264772190794
 30
0.0
 11
127.7559765111838
 21
130.2560352563846
 31
0.0
  0
LINE
  5
1D7
330
70
100
AcDbEntity
  8
0
 62
    18
420
        0
370
     5
100
AcDbLine
 10
130.281114921539
 20
130.0264772190794
 30
0.0
 11
127.7559765111838
 21
130.0264772190794
 31
0.0
  0
SPLINE
  5
1D8
330
70
100
AcDbEntity
  8
0
 62
    18
420
        0
370
     5
100
AcDbSpline
210
0.0
220
0.0
230
1.0
 70
     8
 71
     3
 72
     8
 73
     4
 74
     0
 42
0.0000000001
 43
0.0000000001
 40
0.0
 40
0.0
 40
0.0
 40
0.0
 40
1.0
 40
1.0
 40
1.0
 40
1.0
 10
130.5106729588439
 20
129.7969191817745
 30
0.0
 10
130.5106729588439
 20
129.9237005849788
 30
0.0
 10
130.4078963247436
 20
130.0264772190794
 30
0.0
 10
130.281114921539
 20
130.0264772190794
 30
0.0
  0
LINE
  5
1D9
330
70
100
AcDbEntity
  8
0
 62
    18
420
        0
370
     5
100
AcDbLine
 10
130.5106729588439
 20
129.6017948500651
 30
0.0
 11
130.5106729588439
 21
129.7969191817745
 31
0.0
  0
SPLINE
  5
1DA
330
70
100
AcDbEntity
  8
0
 62
    18
420
        0
370
     5
100
AcDbSpline
210
0.0
220
0.0
230
1.0
 70
     8
 71
     3
 72
     8
 73
     4
 74
     0
 42
0.0000000001
 43
0.0000000001
 40
0.0
 40
0.0
 40
0.0
 40
0.0
 40
1.0
 40
1.0
 40
1.0
 40
1.0
 10
130.281114921539
 20
129.3722368127599
 30
0.0
 10
130.4078963247436
 20
129.3722368127599
 30
0.0
 10
130.5106729588439
 20
129.4750134468601
 30
0.0
 10
130.5106729588439
 20
129.6017948500651
 30
0.0
  0
LINE
  5
1DB
330
70
100
AcDbEntity
  8
0
 62
    18
420
        0
370
     5
100
AcDbLine
 10
127.7674544130488
 20
129.3722368127599
 30
0.0
 11
130.281114921539
 21
129.3722368127599
 31
0.0
  0
LINE
  5
1DC
330
70
100
AcDbEntity
  8
0
 62
    18
420
        0
370
     5
100
AcDbLine
 10
127.7674544130488
 20
130.9791430738954
 30
0.0
 11
127.7674544130488
 21
130.7495850365896
 31
0.0
  0
LINE
  5
1DD
330
70
100
AcDbEntity
  8
0
 62
    18
420
        0
370
     5
100
AcDbLine
 10
126.3671503854884
 20
130.9791430738954
 30
0.0
 11
127.7674544130488
 21
130.9791430738954
 31
0.0
  0
LINE
  5
1DE
330
70
100
AcDbEntity
  8
0
 62
    18
420
        0
370
     5
100
AcDbLine
 10
126.3671503854884
 20
130.7495850365896
 30
0.0
 11
126.3671503854884
 21
130.9791430738954
 31
0.0
  0
LINE
  5
1DF
330
70
100
AcDbEntity
  8
0
 62
    18
420
        0
370
     5
100
AcDbLine
 10
123.8534898769988
 20
130.7495850365896
 30
0.0
 11
126.3671503854884
 21
130.7495850365896
 31
0.0
  0
SPLINE
  5
1E0
330
70
100
AcDbEntity
  8
0
 62
    18
420
        0
370
     5
100
AcDbSpline
210
0.0
220
0.0
230
1.0
 70
     8
 71
     3
 72
     8
 73
     4
 74
     0
 42
0.0000000001
 43
0.0000000001
 40
0.0
 40
0.0
 40
0.0
 40
0.0
 40
1.0
 40
1.0
 40
1.0
 40
1.0
 10
123.623931839694
 20
130.9791430738954
 30
0.0
 10
123.623931839694
 20
130.8523616706905
 30
0.0
 10
123.7267084737942
 20
130.7495850365896
 30
0.0
 10
123.8534898769988
 20
130.7495850365896
 30
0.0
  0
LINE
  5
1E1
330
70
100
AcDbEntity
  8
0
 62
    18
420
        0
370
     5
100
AcDbLine
 10
123.623931839694
 20
131.1742674056046
 30
0.0
 11
123.623931839694
 21
130.9791430738954
 31
0.0
  0
SPLINE
  5
1E2
330
70
100
AcDbEntity
  8
0
 62
    18
420
        0
370
     5
100
AcDbSpline
210
0.0
220
0.0
230
1.0
 70
     8
 71
     3
 72
     8
 73
     4
 74
     0
 42
0.0000000001
 43
0.0000000001
 40
0.0
 40
0.0
 40
0.0
 40
0.0
 40
1.0
 40
1.0
 40
1.0
 40
1.0
 10
123.8534898769988
 20
131.4038254429094
 30
0.0
 10
123.7267084737942
 20
131.4038254429094
 30
0.0
 10
123.623931839694
 20
131.3010488088089
 30
0.0
 10
123.623931839694
 20
131.1742674056046
 30
0.0
  0
LINE
  5
1E3
330
70
100
AcDbEntity
  8
0
 62
    18
420
        0
370
     5
100
AcDbLine
 10
126.3786282873541
 20
131.4038254429094
 30
0.0
 11
123.8534898769988
 21
131.4038254429094
 31
0.0
  0
LINE
  5
1E4
330
70
100
AcDbEntity
  8
0
 62
    18
420
        0
370
     5
100
AcDbLine
 10
126.3786282873541
 20
131.6333834802146
 30
0.0
 11
126.3786282873541
 21
131.4038254429094
 31
0.0
  0
LINE
  5
1E5
330
70
100
AcDbEntity
  8
0
 62
    18
420
        0
370
     5
100
AcDbLine
 10
127.7559765111838
 20
131.6333834802146
 30
0.0
 11
126.3786282873541
 21
131.6333834802146
 31
0.0
  0
LINE
  5
1E6
330
70
100
AcDbEntity
  8
0
 62
    18
420
        0
370
     5
100
AcDbLine
 10
127.7559765111838
 20
131.4038254429094
 30
0.0
 11
127.7559765111838
 21
131.6333834802146
 31
0.0
  0
LINE
  5
1E7
330
70
100
AcDbEntity
  8
0
 62
    18
420
        0
370
     5
100
AcDbLine
 10
130.281114921539
 20
131.4038254429094
 30
0.0
 11
127.7559765111838
 21
131.4038254429094
 31
0.0
  0
SPLINE
  5
1E8
330
70
100
AcDbEntity
  8
0
 62
    18
420
        0
370
     5
100
AcDbSpline
210
0.0
220
0.0
230
1.0
 70
     8
 71
     3
 72
     8
 73
     4
 74
     0
 42
0.0000000001
 43
0.0000000001
 40
0.0
 40
0.0
 40
0.0
 40
0.0
 40
1.0
 40
1.0
 40
1.0
 40
1.0
 10
130.5106729588439
 20
131.1742674056046
 30
0.0
 10
130.5106729588439
 20
131.3010488088089
 30
0.0
 10
130.4078963247436
 20
131.4038254429094
 30
0.0
 10
130.281114921539
 20
131.4038254429094
 30
0.0
  0
LINE
  5
1E9
330
70
100
AcDbEntity
  8
0
 62
    18
420
        0
370
     5
100
AcDbLine
 10
130.5106729588439
 20
130.9791430738954
 30
0.0
 11
130.5106729588439
 21
131.1742674056046
 31
0.0
  0
SPLINE
  5
1EA
330
70
100
AcDbEntity
  8
0
 62
    18
420
        0
370
     5
100
AcDbSpline
210
0.0
220
0.0
230
1.0
 70
     8
 71
     3
 72
     8
 73
     4
 74
     0
 42
0.0000000001
 43
0.0000000001
 40
0.0
 40
0.0
 40
0.0
 40
0.0
 40
1.0
 40
1.0
 40
1.0
 40
1.0
 10
130.281114921539
 20
130.7495850365896
 30
0.0
 10
130.4078963247436
 20
130.7495850365896
 30
0.0
 10
130.5106729588439
 20
130.8523616706905
 30
0.0
 10
130.5106729588439
 20
130.9791430738954
 30
0.0
  0
LINE
  5
1EB
330
70
100
AcDbEntity
  8
0
 62
    18
420
        0
370
     5
100
AcDbLine
 10
127.7674544130488
 20
130.7495850365896
 30
0.0
 11
130.281114921539
 21
130.7495850365896
 31
0.0
  0
LINE
  5
1EC
330
70
100
AcDbEntity
  8
0
 62
    18
420
        0
370
     5
100
AcDbLine
 10
127.7674544130488
 20
132.3564912977248
 30
0.0
 11
127.7674544130488
 21
132.1269332604206
 31
0.0
  0
LINE
  5
1ED
330
70
100
AcDbEntity
  8
0
 62
    18
420
        0
370
     5
100
AcDbLine
 10
126.3671503854884
 20
132.3564912977248
 30
0.0
 11
127.7674544130488
 21
132.3564912977248
 31
0.0
  0
LINE
  5
1EE
330
70
100
AcDbEntity
  8
0
 62
    18
420
        0
370
     5
100
AcDbLine
 10
126.3671503854884
 20
132.1269332604206
 30
0.0
 11
126.3671503854884
 21
132.3564912977248
 31
0.0
  0
LINE
  5
1EF
330
70
100
AcDbEntity
  8
0
 62
    18
420
        0
370
     5
100
AcDbLine
 10
123.8534898769988
 20
132.1269332604206
 30
0.0
 11
126.3671503854884
 21
132.1269332604206
 31
0.0
  0
SPLINE
  5
1F0
330
70
100
AcDbEntity
  8
0
 62
    18
420
        0
370
     5
100
AcDbSpline
210
0.0
220
0.0
230
1.0
 70
     8
 71
     3
 72
     8
 73
     4
 74
     0
 42
0.0000000001
 43
0.0000000001
 40
0.0
 40
0.0
 40
0.0
 40
0.0
 40
1.0
 40
1.0
 40
1.0
 40
1.0
 10
123.623931839694
 20
132.3564912977248
 30
0.0
 10
123.623931839694
 20
132.2297098945205
 30
0.0
 10
123.7267084737942
 20
132.1269332604206
 30
0.0
 10
123.8534898769988
 20
132.1269332604206
 30
0.0
  0
LINE
  5
1F1
330
70
100
AcDbEntity
  8
0
 62
    18
420
        0
370
     5
100
AcDbLine
 10
123.623931839694
 20
132.5516156294343
 30
0.0
 11
123.623931839694
 21
132.3564912977248
 31
0.0
  0
SPLINE
  5
1F2
330
70
100
AcDbEntity
  8
0
 62
    18
420
        0
370
     5
100
AcDbSpline
210
0.0
220
0.0
230
1.0
 70
     8
 71
     3
 72
     8
 73
     4
 74
     0
 42
0.0000000001
 43
0.0000000001
 40
0.0
 40
0.0
 40
0.0
 40
0.0
 40
1.0
 40
1.0
 40
1.0
 40
1.0
 10
123.8534898769988
 20
132.7811736667388
 30
0.0
 10
123.7267084737942
 20
132.7811736667388
 30
0.0
 10
123.623931839694
 20
132.6783970326386
 30
0.0
 10
123.623931839694
 20
132.5516156294343
 30
0.0
  0
LINE
  5
1F3
330
70
100
AcDbEntity
  8
0
 62
    18
420
        0
370
     5
100
AcDbLine
 10
126.3786282873541
 20
132.7811736667388
 30
0.0
 11
123.8534898769988
 21
132.7811736667388
 31
0.0
  0
LINE
  5
1F4
330
70
100
AcDbEntity
  8
0
 62
    18
420
        0
370
     5
100
AcDbLine
 10
126.3786282873541
 20
133.0107317040443
 30
0.0
 11
126.3786282873541
 21
132.7811736667388
 31
0.0
  0
LINE
  5
1F5
330
70
100
AcDbEntity
  8
0
 62
    18
420
        0
370
     5
100
AcDbLine
 10
127.7559765111838
 20
133.0107317040443
 30
0.0
 11
126.3786282873541
 21
133.0107317040443
 31
0.0
  0
LINE
  5
1F6
330
70
100
AcDbEntity
  8
0
 62
    18
420
        0
370
     5
100
AcDbLine
 10
127.7559765111838
 20
132.7811736667388
 30
0.0
 11
127.7559765111838
 21
133.0107317040443
 31
0.0
  0
LINE
  5
1F7
330
70
100
AcDbEntity
  8
0
 62
    18
420
        0
370
     5
100
AcDbLine
 10
130.281114921539
 20
132.7811736667388
 30
0.0
 11
127.7559765111838
 21
132.7811736667388
 31
0.0
  0
SPLINE
  5
1F8
330
70
100
AcDbEntity
  8
0
 62
    18
420
        0
370
     5
100
AcDbSpline
210
0.0
220
0.0
230
1.0
 70
     8
 71
     3
 72
     8
 73
     4
 74
     0
 42
0.0000000001
 43
0.0000000001
 40
0.0
 40
0.0
 40
0.0
 40
0.0
 40
1.0
 40
1.0
 40
1.0
 40
1.0
 10
130.5106729588439
 20
132.5516156294343
 30
0.0
 10
130.5106729588439
 20
132.6783970326386
 30
0.0
 10
130.4078963247436
 20
132.7811736667388
 30
0.0
 10
130.281114921539
 20
132.7811736667388
 30
0.0
  0
LINE
  5
1F9
330
70
100
AcDbEntity
  8
0
 62
    18
420
        0
370
     5
100
AcDbLine
 10
130.5106729588439
 20
132.3564912977248
 30
0.0
 11
130.5106729588439
 21
132.5516156294343
 31
0.0
  0
SPLINE
  5
1FA
330
70
100
AcDbEntity
  8
0
 62
    18
420
        0
370
     5
100
AcDbSpline
210
0.0
220
0.0
230
1.0
 70
     8
 71
     3
 72
     8
 73
     4
 74
     0
 42
0.0000000001
 43
0.0000000001
 40
0.0
 40
0.0
 40
0.0
 40
0.0
 40
1.0
 40
1.0
 40
1.0
 40
1.0
 10
130.281114921539
 20
132.1269332604206
 30
0.0
 10
130.4078963247436
 20
132.1269332604206
 30
0.0
 10
130.5106729588439
 20
132.2297098945205
 30
0.0
 10
130.5106729588439
 20
132.3564912977248
 30
0.0
  0
LINE
  5
1FB
330
70
100
AcDbEntity
  8
0
 62
    18
420
        0
370
     5
100
AcDbLine
 10
127.7674544130488
 20
132.1269332604206
 30
0.0
 11
130.281114921539
 21
132.1269332604206
 31
0.0
  0
LINE
  5
1FC
330
70
100
AcDbEntity
  8
0
 62
    18
420
        0
370
     5
100
AcDbLine
 10
132.6914743132409
 20
130.0953446302711
 30
0.0
 11
131.5436841267163
 21
130.0953446302711
 31
0.0
  0
LINE
  5
1FD
330
70
100
AcDbEntity
  8
0
 62
    18
420
        0
370
     5
100
AcDbLine
 10
131.5436841267163
 20
128.2588803318304
 30
0.0
 11
132.6914743132409
 21
128.2588803318304
 31
0.0
  0
LINE
  5
1FE
330
70
100
AcDbEntity
  8
0
 62
    18
420
        0
370
     5
100
AcDbLine
 10
132.6914743132409
 20
127.1570017527666
 30
0.0
 11
131.5436841267163
 21
127.1570017527666
 31
0.0
  0
LINE
  5
1FF
330
70
100
AcDbEntity
  8
0
 62
    18
420
        0
370
     5
100
AcDbLine
 10
139.8077734696956
 20
128.2588803318304
 30
0.0
 11
138.6599832831714
 21
128.2588803318304
 31
0.0
  0
LINE
  5
200
330
70
100
AcDbEntity
  8
0
 62
    18
420
        0
370
     5
100
AcDbLine
 10
138.6599832831714
 20
127.1570017527666
 30
0.0
 11
139.8077734696956
 21
127.1570017527666
 31
0.0
  0
LINE
  5
201
330
70
100
AcDbEntity
  8
0
 62
    18
420
        0
370
     5
100
AcDbLine
 10
138.6599832831714
 20
130.0953446302711
 30
0.0
 11
139.8077734696956
 21
130.0953446302711
 31
0.0
  0
LINE
  5
202
330
70
100
AcDbEntity
  8
0
 62
    18
420
        0
370
     5
100
AcDbLine
 10
149.1507855880094
 20
134.9619750211368
 30
0.0
 11
149.1507855880094
 21
127.1570017527666
 31
0.0
  0
LINE
  5
203
330
70
100
AcDbEntity
  8
0
 62
    18
420
        0
370
     5
100
AcDbLine
 10
149.1507855880094
 20
127.1570017527666
 30
0.0
 11
149.4812163273741
 21
127.1570017527666
 31
0.0
  0
LINE
  5
204
330
70
100
AcDbEntity
  8
0
 62
    18
420
        0
370
     5
100
AcDbLine
 10
149.4812163273741
 20
136.454102263619
 30
0.0
 11
149.4812163273741
 21
127.1570017527666
 31
0.0
  0
LINE
  5
205
330
70
100
AcDbEntity
  8
0
 62
    18
420
        0
370
     5
100
AcDbLine
 10
149.4812163273741
 20
136.454102263619
 30
0.0
 11
149.4812163273741
 21
136.5688812822714
 31
0.0
  0
LINE
  5
206
330
70
100
AcDbEntity
  8
0
 62
    18
420
        0
370
     5
100
AcDbLine
 10
145.0770347011923
 20
134.2733009092216
 30
0.0
 11
145.0770347011923
 21
134.9619750211368
 31
0.0
  0
LINE
  5
207
330
70
100
AcDbEntity
  8
0
 62
    18
420
        0
370
     5
100
AcDbLine
 10
145.0770347011923
 20
134.2733009092216
 30
0.0
 11
144.9728293090582
 21
134.2733009092216
 31
0.0
  0
LINE
  5
208
330
70
100
AcDbEntity
  8
0
 62
    18
420
        0
370
     5
100
AcDbLine
 10
144.9728293090582
 20
134.2733009092216
 30
0.0
 11
144.9728293090582
 21
134.1585218905692
 31
0.0
  0
LINE
  5
209
330
70
100
AcDbEntity
  8
0
 62
    18
420
        0
370
     5
100
AcDbLine
 10
144.9728293090582
 20
134.1585218905692
 30
0.0
 11
147.4979677194135
 21
134.1585218905692
 31
0.0
  0
SPLINE
  5
20A
330
70
100
AcDbEntity
  8
0
 62
    18
420
        0
370
     5
100
AcDbSpline
210
0.0
220
0.0
230
1.0
 70
     8
 71
     3
 72
     8
 73
     4
 74
     0
 42
0.0000000001
 43
0.0000000001
 40
0.0
 40
0.0
 40
0.0
 40
0.0
 40
1.0
 40
1.0
 40
1.0
 40
1.0
 10
147.7275257567186
 20
133.9289638532634
 30
0.0
 10
147.7275257567186
 20
134.0557452564686
 30
0.0
 10
147.6247491226181
 20
134.1585218905692
 30
0.0
 10
147.4979677194135
 20
134.1585218905692
 30
0.0
  0
LINE
  5
20B
330
70
100
AcDbEntity
  8
0
 62
    18
420
        0
370
     5
100
AcDbLine
 10
147.7275257567186
 20
133.9289638532634
 30
0.0
 11
147.7275257567186
 21
133.7338395215552
 31
0.0
  0
SPLINE
  5
20C
330
70
100
AcDbEntity
  8
0
 62
    18
420
        0
370
     5
100
AcDbSpline
210
0.0
220
0.0
230
1.0
 70
     8
 71
     3
 72
     8
 73
     4
 74
     0
 42
0.0000000001
 43
0.0000000001
 40
0.0
 40
0.0
 40
0.0
 40
0.0
 40
1.0
 40
1.0
 40
1.0
 40
1.0
 10
147.4979677194135
 20
133.5042814842507
 30
0.0
 10
147.6247491226181
 20
133.5042814842507
 30
0.0
 10
147.7275257567186
 20
133.6070581183503
 30
0.0
 10
147.7275257567186
 20
133.7338395215552
 30
0.0
  0
LINE
  5
20D
330
70
100
AcDbEntity
  8
0
 62
    18
420
        0
370
     5
100
AcDbLine
 10
147.4979677194135
 20
133.5042814842507
 30
0.0
 11
144.9843072109236
 21
133.5042814842507
 31
0.0
  0
LINE
  5
20E
330
70
100
AcDbEntity
  8
0
 62
    18
420
        0
370
     5
100
AcDbLine
 10
144.9843072109236
 20
133.5042814842507
 30
0.0
 11
144.9843072109236
 21
133.7338395215552
 31
0.0
  0
LINE
  5
20F
330
70
100
AcDbEntity
  8
0
 62
    18
420
        0
370
     5
100
AcDbLine
 10
144.9843072109236
 20
133.7338395215552
 30
0.0
 11
143.5840031833632
 21
133.7338395215552
 31
0.0
  0
LINE
  5
210
330
70
100
AcDbEntity
  8
0
 62
    18
420
        0
370
     5
100
AcDbLine
 10
143.5840031833632
 20
133.7338395215552
 30
0.0
 11
143.5840031833632
 21
133.5042814842507
 31
0.0
  0
LINE
  5
211
330
70
100
AcDbEntity
  8
0
 62
    18
420
        0
370
     5
100
AcDbLine
 10
143.5840031833632
 20
133.5042814842507
 30
0.0
 11
141.0703426748736
 21
133.5042814842507
 31
0.0
  0
SPLINE
  5
212
330
70
100
AcDbEntity
  8
0
 62
    18
420
        0
370
     5
100
AcDbSpline
210
0.0
220
0.0
230
1.0
 70
     8
 71
     3
 72
     8
 73
     4
 74
     0
 42
0.0000000001
 43
0.0000000001
 40
0.0
 40
0.0
 40
0.0
 40
0.0
 40
1.0
 40
1.0
 40
1.0
 40
1.0
 10
140.8407846375681
 20
133.7338395215552
 30
0.0
 10
140.8407846375681
 20
133.6070581183503
 30
0.0
 10
140.943561271669
 20
133.5042814842507
 30
0.0
 10
141.0703426748736
 20
133.5042814842507
 30
0.0
  0
LINE
  5
213
330
70
100
AcDbEntity
  8
0
 62
    18
420
        0
370
     5
100
AcDbLine
 10
140.8407846375681
 20
133.7338395215552
 30
0.0
 11
140.8407846375681
 21
133.9289638532634
 31
0.0
  0
SPLINE
  5
214
330
70
100
AcDbEntity
  8
0
 62
    18
420
        0
370
     5
100
AcDbSpline
210
0.0
220
0.0
230
1.0
 70
     8
 71
     3
 72
     8
 73
     4
 74
     0
 42
0.0000000001
 43
0.0000000001
 40
0.0
 40
0.0
 40
0.0
 40
0.0
 40
1.0
 40
1.0
 40
1.0
 40
1.0
 10
141.0703426748736
 20
134.1585218905692
 30
0.0
 10
140.943561271669
 20
134.1585218905692
 30
0.0
 10
140.8407846375681
 20
134.0557452564686
 30
0.0
 10
140.8407846375681
 20
133.9289638532634
 30
0.0
  0
LINE
  5
215
330
70
100
AcDbEntity
  8
0
 62
    18
420
        0
370
     5
100
AcDbLine
 10
141.0703426748736
 20
134.1585218905692
 30
0.0
 11
143.5954810852285
 21
134.1585218905692
 31
0.0
  0
LINE
  5
216
330
70
100
AcDbEntity
  8
0
 62
    18
420
        0
370
     5
100
AcDbLine
 10
143.5954810852285
 20
134.1585218905692
 30
0.0
 11
143.5954810852285
 21
134.3880799278741
 31
0.0
  0
LINE
  5
217
330
70
100
AcDbEntity
  8
0
 62
    18
420
        0
370
     5
100
AcDbLine
 10
143.5954810852285
 20
134.3880799278741
 30
0.0
 11
144.639065879619
 21
134.3880799278741
 31
0.0
  0
LINE
  5
218
330
70
100
AcDbEntity
  8
0
 62
    18
420
        0
370
     5
100
AcDbLine
 10
144.639065879619
 20
134.3880799278741
 30
0.0
 11
144.639065879619
 21
134.9619750211368
 31
0.0
  0
LINE
  5
219
330
70
100
AcDbEntity
  8
0
 62
    18
420
        0
370
     5
100
AcDbLine
 10
140.726005618916
 20
127.1570017527666
 30
0.0
 11
148.5309788872863
 21
127.1570017527666
 31
0.0
  0
LINE
  5
21A
330
70
100
AcDbEntity
  8
0
 62
    18
420
        0
370
     5
100
AcDbLine
 10
148.5309788872863
 20
134.9619750211368
 30
0.0
 11
148.5309788872863
 21
127.1570017527666
 31
0.0
  0
LINE
  5
21B
330
70
100
AcDbEntity
  8
0
 62
    18
420
        0
370
     5
100
AcDbLine
 10
143.5840031833632
 20
132.3564912977248
 30
0.0
 11
143.5840031833632
 21
132.1269332604206
 31
0.0
  0
LINE
  5
21C
330
70
100
AcDbEntity
  8
0
 62
    18
420
        0
370
     5
100
AcDbLine
 10
143.5840031833632
 20
132.1269332604206
 30
0.0
 11
141.0703426748736
 21
132.1269332604206
 31
0.0
  0
SPLINE
  5
21D
330
70
100
AcDbEntity
  8
0
 62
    18
420
        0
370
     5
100
AcDbSpline
210
0.0
220
0.0
230
1.0
 70
     8
 71
     3
 72
     8
 73
     4
 74
     0
 42
0.0000000001
 43
0.0000000001
 40
0.0
 40
0.0
 40
0.0
 40
0.0
 40
1.0
 40
1.0
 40
1.0
 40
1.0
 10
140.8407846375681
 20
132.3564912977248
 30
0.0
 10
140.8407846375681
 20
132.2297098945205
 30
0.0
 10
140.943561271669
 20
132.1269332604206
 30
0.0
 10
141.0703426748736
 20
132.1269332604206
 30
0.0
  0
LINE
  5
21E
330
70
100
AcDbEntity
  8
0
 62
    18
420
        0
370
     5
100
AcDbLine
 10
140.8407846375681
 20
132.3564912977248
 30
0.0
 11
140.8407846375681
 21
132.5516156294343
 31
0.0
  0
SPLINE
  5
21F
330
70
100
AcDbEntity
  8
0
 62
    18
420
        0
370
     5
100
AcDbSpline
210
0.0
220
0.0
230
1.0
 70
     8
 71
     3
 72
     8
 73
     4
 74
     0
 42
0.0000000001
 43
0.0000000001
 40
0.0
 40
0.0
 40
0.0
 40
0.0
 40
1.0
 40
1.0
 40
1.0
 40
1.0
 10
141.0703426748736
 20
132.7811736667388
 30
0.0
 10
140.943561271669
 20
132.7811736667388
 30
0.0
 10
140.8407846375681
 20
132.6783970326386
 30
0.0
 10
140.8407846375681
 20
132.5516156294343
 30
0.0
  0
LINE
  5
220
330
70
100
AcDbEntity
  8
0
 62
    18
420
        0
370
     5
100
AcDbLine
 10
141.0703426748736
 20
132.7811736667388
 30
0.0
 11
143.5954810852285
 21
132.7811736667388
 31
0.0
  0
LINE
  5
221
330
70
100
AcDbEntity
  8
0
 62
    18
420
        0
370
     5
100
AcDbLine
 10
143.5954810852285
 20
132.7811736667388
 30
0.0
 11
143.5954810852285
 21
133.0107317040443
 31
0.0
  0
LINE
  5
222
330
70
100
AcDbEntity
  8
0
 62
    18
420
        0
370
     5
100
AcDbLine
 10
143.5954810852285
 20
133.0107317040443
 30
0.0
 11
144.9728293090582
 21
133.0107317040443
 31
0.0
  0
LINE
  5
223
330
70
100
AcDbEntity
  8
0
 62
    18
420
        0
370
     5
100
AcDbLine
 10
144.9728293090582
 20
133.0107317040443
 30
0.0
 11
144.9728293090582
 21
132.7811736667388
 31
0.0
  0
LINE
  5
224
330
70
100
AcDbEntity
  8
0
 62
    18
420
        0
370
     5
100
AcDbLine
 10
144.9728293090582
 20
132.7811736667388
 30
0.0
 11
147.4979677194135
 21
132.7811736667388
 31
0.0
  0
SPLINE
  5
225
330
70
100
AcDbEntity
  8
0
 62
    18
420
        0
370
     5
100
AcDbSpline
210
0.0
220
0.0
230
1.0
 70
     8
 71
     3
 72
     8
 73
     4
 74
     0
 42
0.0000000001
 43
0.0000000001
 40
0.0
 40
0.0
 40
0.0
 40
0.0
 40
1.0
 40
1.0
 40
1.0
 40
1.0
 10
147.7275257567186
 20
132.5516156294343
 30
0.0
 10
147.7275257567186
 20
132.6783970326386
 30
0.0
 10
147.6247491226181
 20
132.7811736667388
 30
0.0
 10
147.4979677194135
 20
132.7811736667388
 30
0.0
  0
LINE
  5
226
330
70
100
AcDbEntity
  8
0
 62
    18
420
        0
370
     5
100
AcDbLine
 10
147.7275257567186
 20
132.5516156294343
 30
0.0
 11
147.7275257567186
 21
132.3564912977248
 31
0.0
  0
SPLINE
  5
227
330
70
100
AcDbEntity
  8
0
 62
    18
420
        0
370
     5
100
AcDbSpline
210
0.0
220
0.0
230
1.0
 70
     8
 71
     3
 72
     8
 73
     4
 74
     0
 42
0.0000000001
 43
0.0000000001
 40
0.0
 40
0.0
 40
0.0
 40
0.0
 40
1.0
 40
1.0
 40
1.0
 40
1.0
 10
147.4979677194135
 20
132.1269332604206
 30
0.0
 10
147.6247491226181
 20
132.1269332604206
 30
0.0
 10
147.7275257567186
 20
132.2297098945205
 30
0.0
 10
147.7275257567186
 20
132.3564912977248
 30
0.0
  0
LINE
  5
228
330
70
100
AcDbEntity
  8
0
 62
    18
420
        0
370
     5
100
AcDbLine
 10
147.4979677194135
 20
132.1269332604206
 30
0.0
 11
144.9843072109236
 21
132.1269332604206
 31
0.0
  0
LINE
  5
229
330
70
100
AcDbEntity
  8
0
 62
    18
420
        0
370
     5
100
AcDbLine
 10
144.9843072109236
 20
132.1269332604206
 30
0.0
 11
144.9843072109236
 21
132.3564912977248
 31
0.0
  0
LINE
  5
22A
330
70
100
AcDbEntity
  8
0
 62
    18
420
        0
370
     5
100
AcDbLine
 10
144.9843072109236
 20
132.3564912977248
 30
0.0
 11
143.5840031833632
 21
132.3564912977248
 31
0.0
  0
LINE
  5
22B
330
70
100
AcDbEntity
  8
0
 62
    18
420
        0
370
     5
100
AcDbLine
 10
143.5840031833632
 20
130.9791430738954
 30
0.0
 11
143.5840031833632
 21
130.7495850365896
 31
0.0
  0
LINE
  5
22C
330
70
100
AcDbEntity
  8
0
 62
    18
420
        0
370
     5
100
AcDbLine
 10
143.5840031833632
 20
130.7495850365896
 30
0.0
 11
141.0703426748736
 21
130.7495850365896
 31
0.0
  0
SPLINE
  5
22D
330
70
100
AcDbEntity
  8
0
 62
    18
420
        0
370
     5
100
AcDbSpline
210
0.0
220
0.0
230
1.0
 70
     8
 71
     3
 72
     8
 73
     4
 74
     0
 42
0.0000000001
 43
0.0000000001
 40
0.0
 40
0.0
 40
0.0
 40
0.0
 40
1.0
 40
1.0
 40
1.0
 40
1.0
 10
140.8407846375681
 20
130.9791430738954
 30
0.0
 10
140.8407846375681
 20
130.8523616706905
 30
0.0
 10
140.943561271669
 20
130.7495850365896
 30
0.0
 10
141.0703426748736
 20
130.7495850365896
 30
0.0
  0
LINE
  5
22E
330
70
100
AcDbEntity
  8
0
 62
    18
420
        0
370
     5
100
AcDbLine
 10
140.8407846375681
 20
130.9791430738954
 30
0.0
 11
140.8407846375681
 21
131.1742674056046
 31
0.0
  0
SPLINE
  5
22F
330
70
100
AcDbEntity
  8
0
 62
    18
420
        0
370
     5
100
AcDbSpline
210
0.0
220
0.0
230
1.0
 70
     8
 71
     3
 72
     8
 73
     4
 74
     0
 42
0.0000000001
 43
0.0000000001
 40
0.0
 40
0.0
 40
0.0
 40
0.0
 40
1.0
 40
1.0
 40
1.0
 40
1.0
 10
141.0703426748736
 20
131.4038254429094
 30
0.0
 10
140.943561271669
 20
131.4038254429094
 30
0.0
 10
140.8407846375681
 20
131.3010488088089
 30
0.0
 10
140.8407846375681
 20
131.1742674056046
 30
0.0
  0
LINE
  5
230
330
70
100
AcDbEntity
  8
0
 62
    18
420
        0
370
     5
100
AcDbLine
 10
141.0703426748736
 20
131.4038254429094
 30
0.0
 11
143.5954810852285
 21
131.4038254429094
 31
0.0
  0
LINE
  5
231
330
70
100
AcDbEntity
  8
0
 62
    18
420
        0
370
     5
100
AcDbLine
 10
143.5954810852285
 20
131.4038254429094
 30
0.0
 11
143.5954810852285
 21
131.6333834802146
 31
0.0
  0
LINE
  5
232
330
70
100
AcDbEntity
  8
0
 62
    18
420
        0
370
     5
100
AcDbLine
 10
143.5954810852285
 20
131.6333834802146
 30
0.0
 11
144.9728293090582
 21
131.6333834802146
 31
0.0
  0
LINE
  5
233
330
70
100
AcDbEntity
  8
0
 62
    18
420
        0
370
     5
100
AcDbLine
 10
144.9728293090582
 20
131.6333834802146
 30
0.0
 11
144.9728293090582
 21
131.4038254429094
 31
0.0
  0
LINE
  5
234
330
70
100
AcDbEntity
  8
0
 62
    18
420
        0
370
     5
100
AcDbLine
 10
144.9728293090582
 20
131.4038254429094
 30
0.0
 11
147.4979677194135
 21
131.4038254429094
 31
0.0
  0
SPLINE
  5
235
330
70
100
AcDbEntity
  8
0
 62
    18
420
        0
370
     5
100
AcDbSpline
210
0.0
220
0.0
230
1.0
 70
     8
 71
     3
 72
     8
 73
     4
 74
     0
 42
0.0000000001
 43
0.0000000001
 40
0.0
 40
0.0
 40
0.0
 40
0.0
 40
1.0
 40
1.0
 40
1.0
 40
1.0
 10
147.7275257567186
 20
131.1742674056046
 30
0.0
 10
147.7275257567186
 20
131.3010488088089
 30
0.0
 10
147.6247491226181
 20
131.4038254429094
 30
0.0
 10
147.4979677194135
 20
131.4038254429094
 30
0.0
  0
LINE
  5
236
330
70
100
AcDbEntity
  8
0
 62
    18
420
        0
370
     5
100
AcDbLine
 10
147.7275257567186
 20
131.1742674056046
 30
0.0
 11
147.7275257567186
 21
130.9791430738954
 31
0.0
  0
SPLINE
  5
237
330
70
100
AcDbEntity
  8
0
 62
    18
420
        0
370
     5
100
AcDbSpline
210
0.0
220
0.0
230
1.0
 70
     8
 71
     3
 72
     8
 73
     4
 74
     0
 42
0.0000000001
 43
0.0000000001
 40
0.0
 40
0.0
 40
0.0
 40
0.0
 40
1.0
 40
1.0
 40
1.0
 40
1.0
 10
147.4979677194135
 20
130.7495850365896
 30
0.0
 10
147.6247491226181
 20
130.7495850365896
 30
0.0
 10
147.7275257567186
 20
130.8523616706905
 30
0.0
 10
147.7275257567186
 20
130.9791430738954
 30
0.0
  0
LINE
  5
238
330
70
100
AcDbEntity
  8
0
 62
    18
420
        0
370
     5
100
AcDbLine
 10
147.4979677194135
 20
130.7495850365896
 30
0.0
 11
144.9843072109236
 21
130.7495850365896
 31
0.0
  0
LINE
  5
239
330
70
100
AcDbEntity
  8
0
 62
    18
420
        0
370
     5
100
AcDbLine
 10
144.9843072109236
 20
130.7495850365896
 30
0.0
 11
144.9843072109236
 21
130.9791430738954
 31
0.0
  0
LINE
  5
23A
330
70
100
AcDbEntity
  8
0
 62
    18
420
        0
370
     5
100
AcDbLine
 10
144.9843072109236
 20
130.9791430738954
 30
0.0
 11
143.5840031833632
 21
130.9791430738954
 31
0.0
  0
LINE
  5
23B
330
70
100
AcDbEntity
  8
0
 62
    18
420
        0
370
     5
100
AcDbLine
 10
143.5840031833632
 20
129.6017948500651
 30
0.0
 11
143.5840031833632
 21
129.3722368127599
 31
0.0
  0
LINE
  5
23C
330
70
100
AcDbEntity
  8
0
 62
    18
420
        0
370
     5
100
AcDbLine
 10
143.5840031833632
 20
129.3722368127599
 30
0.0
 11
141.0703426748736
 21
129.3722368127599
 31
0.0
  0
SPLINE
  5
23D
330
70
100
AcDbEntity
  8
0
 62
    18
420
        0
370
     5
100
AcDbSpline
210
0.0
220
0.0
230
1.0
 70
     8
 71
     3
 72
     8
 73
     4
 74
     0
 42
0.0000000001
 43
0.0000000001
 40
0.0
 40
0.0
 40
0.0
 40
0.0
 40
1.0
 40
1.0
 40
1.0
 40
1.0
 10
140.8407846375681
 20
129.6017948500651
 30
0.0
 10
140.8407846375681
 20
129.4750134468601
 30
0.0
 10
140.943561271669
 20
129.3722368127599
 30
0.0
 10
141.0703426748736
 20
129.3722368127599
 30
0.0
  0
LINE
  5
23E
330
70
100
AcDbEntity
  8
0
 62
    18
420
        0
370
     5
100
AcDbLine
 10
140.8407846375681
 20
129.6017948500651
 30
0.0
 11
140.8407846375681
 21
129.7969191817745
 31
0.0
  0
SPLINE
  5
23F
330
70
100
AcDbEntity
  8
0
 62
    18
420
        0
370
     5
100
AcDbSpline
210
0.0
220
0.0
230
1.0
 70
     8
 71
     3
 72
     8
 73
     4
 74
     0
 42
0.0000000001
 43
0.0000000001
 40
0.0
 40
0.0
 40
0.0
 40
0.0
 40
1.0
 40
1.0
 40
1.0
 40
1.0
 10
141.0703426748736
 20
130.0264772190794
 30
0.0
 10
140.943561271669
 20
130.0264772190794
 30
0.0
 10
140.8407846375681
 20
129.9237005849788
 30
0.0
 10
140.8407846375681
 20
129.7969191817745
 30
0.0
  0
LINE
  5
240
330
70
100
AcDbEntity
  8
0
 62
    18
420
        0
370
     5
100
AcDbLine
 10
141.0703426748736
 20
130.0264772190794
 30
0.0
 11
143.5954810852285
 21
130.0264772190794
 31
0.0
  0
LINE
  5
241
330
70
100
AcDbEntity
  8
0
 62
    18
420
        0
370
     5
100
AcDbLine
 10
143.5954810852285
 20
130.0264772190794
 30
0.0
 11
143.5954810852285
 21
130.2560352563846
 31
0.0
  0
LINE
  5
242
330
70
100
AcDbEntity
  8
0
 62
    18
420
        0
370
     5
100
AcDbLine
 10
143.5954810852285
 20
130.2560352563846
 30
0.0
 11
144.9728293090582
 21
130.2560352563846
 31
0.0
  0
LINE
  5
243
330
70
100
AcDbEntity
  8
0
 62
    18
420
        0
370
     5
100
AcDbLine
 10
144.9728293090582
 20
130.2560352563846
 30
0.0
 11
144.9728293090582
 21
130.0264772190794
 31
0.0
  0
LINE
  5
244
330
70
100
AcDbEntity
  8
0
 62
    18
420
        0
370
     5
100
AcDbLine
 10
144.9728293090582
 20
130.0264772190794
 30
0.0
 11
147.4979677194135
 21
130.0264772190794
 31
0.0
  0
SPLINE
  5
245
330
70
100
AcDbEntity
  8
0
 62
    18
420
        0
370
     5
100
AcDbSpline
210
0.0
220
0.0
230
1.0
 70
     8
 71
     3
 72
     8
 73
     4
 74
     0
 42
0.0000000001
 43
0.0000000001
 40
0.0
 40
0.0
 40
0.0
 40
0.0
 40
1.0
 40
1.0
 40
1.0
 40
1.0
 10
147.7275257567186
 20
129.7969191817745
 30
0.0
 10
147.7275257567186
 20
129.9237005849788
 30
0.0
 10
147.6247491226181
 20
130.0264772190794
 30
0.0
 10
147.4979677194135
 20
130.0264772190794
 30
0.0
  0
LINE
  5
246
330
70
100
AcDbEntity
  8
0
 62
    18
420
        0
370
     5
100
AcDbLine
 10
147.7275257567186
 20
129.7969191817745
 30
0.0
 11
147.7275257567186
 21
129.6017948500651
 31
0.0
  0
SPLINE
  5
247
330
70
100
AcDbEntity
  8
0
 62
    18
420
        0
370
     5
100
AcDbSpline
210
0.0
220
0.0
230
1.0
 70
     8
 71
     3
 72
     8
 73
     4
 74
     0
 42
0.0000000001
 43
0.0000000001
 40
0.0
 40
0.0
 40
0.0
 40
0.0
 40
1.0
 40
1.0
 40
1.0
 40
1.0
 10
147.4979677194135
 20
129.3722368127599
 30
0.0
 10
147.6247491226181
 20
129.3722368127599
 30
0.0
 10
147.7275257567186
 20
129.4750134468601
 30
0.0
 10
147.7275257567186
 20
129.6017948500651
 30
0.0
  0
LINE
  5
248
330
70
100
AcDbEntity
  8
0
 62
    18
420
        0
370
     5
100
AcDbLine
 10
147.4979677194135
 20
129.3722368127599
 30
0.0
 11
144.9843072109236
 21
129.3722368127599
 31
0.0
  0
LINE
  5
249
330
70
100
AcDbEntity
  8
0
 62
    18
420
        0
370
     5
100
AcDbLine
 10
144.9843072109236
 20
129.3722368127599
 30
0.0
 11
144.9843072109236
 21
129.6017948500651
 31
0.0
  0
LINE
  5
24A
330
70
100
AcDbEntity
  8
0
 62
    18
420
        0
370
     5
100
AcDbLine
 10
144.9843072109236
 20
129.6017948500651
 30
0.0
 11
143.5840031833632
 21
129.6017948500651
 31
0.0
  0
LINE
  5
24B
330
70
100
AcDbEntity
  8
0
 62
    18
420
        0
370
     5
100
AcDbLine
 10
143.5840031833632
 20
128.2244466262353
 30
0.0
 11
143.5840031833632
 21
127.9948885889305
 31
0.0
  0
LINE
  5
24C
330
70
100
AcDbEntity
  8
0
 62
    18
420
        0
370
     5
100
AcDbLine
 10
143.5840031833632
 20
127.9948885889305
 30
0.0
 11
141.0703426748736
 21
127.9948885889305
 31
0.0
  0
SPLINE
  5
24D
330
70
100
AcDbEntity
  8
0
 62
    18
420
        0
370
     5
100
AcDbSpline
210
0.0
220
0.0
230
1.0
 70
     8
 71
     3
 72
     8
 73
     4
 74
     0
 42
0.0000000001
 43
0.0000000001
 40
0.0
 40
0.0
 40
0.0
 40
0.0
 40
1.0
 40
1.0
 40
1.0
 40
1.0
 10
140.8407846375681
 20
128.2244466262353
 30
0.0
 10
140.8407846375681
 20
128.0976652230304
 30
0.0
 10
140.943561271669
 20
127.9948885889305
 30
0.0
 10
141.0703426748736
 20
127.9948885889305
 30
0.0
  0
LINE
  5
24E
330
70
100
AcDbEntity
  8
0
 62
    18
420
        0
370
     5
100
AcDbLine
 10
140.8407846375681
 20
128.2244466262353
 30
0.0
 11
140.8407846375681
 21
128.4195709579448
 31
0.0
  0
SPLINE
  5
24F
330
70
100
AcDbEntity
  8
0
 62
    18
420
        0
370
     5
100
AcDbSpline
210
0.0
220
0.0
230
1.0
 70
     8
 71
     3
 72
     8
 73
     4
 74
     0
 42
0.0000000001
 43
0.0000000001
 40
0.0
 40
0.0
 40
0.0
 40
0.0
 40
1.0
 40
1.0
 40
1.0
 40
1.0
 10
141.0703426748736
 20
128.6491289952497
 30
0.0
 10
140.943561271669
 20
128.6491289952497
 30
0.0
 10
140.8407846375681
 20
128.5463523611491
 30
0.0
 10
140.8407846375681
 20
128.4195709579448
 30
0.0
  0
LINE
  5
250
330
70
100
AcDbEntity
  8
0
 62
    18
420
        0
370
     5
100
AcDbLine
 10
141.0703426748736
 20
128.6491289952497
 30
0.0
 11
143.5954810852285
 21
128.6491289952497
 31
0.0
  0
LINE
  5
251
330
70
100
AcDbEntity
  8
0
 62
    18
420
        0
370
     5
100
AcDbLine
 10
143.5954810852285
 20
128.6491289952497
 30
0.0
 11
143.5954810852285
 21
128.8786870325542
 31
0.0
  0
LINE
  5
252
330
70
100
AcDbEntity
  8
0
 62
    18
420
        0
370
     5
100
AcDbLine
 10
143.5954810852285
 20
128.8786870325542
 30
0.0
 11
144.9728293090582
 21
128.8786870325542
 31
0.0
  0
LINE
  5
253
330
70
100
AcDbEntity
  8
0
 62
    18
420
        0
370
     5
100
AcDbLine
 10
144.9728293090582
 20
128.8786870325542
 30
0.0
 11
144.9728293090582
 21
128.6491289952497
 31
0.0
  0
LINE
  5
254
330
70
100
AcDbEntity
  8
0
 62
    18
420
        0
370
     5
100
AcDbLine
 10
144.9728293090582
 20
128.6491289952497
 30
0.0
 11
147.4979677194135
 21
128.6491289952497
 31
0.0
  0
SPLINE
  5
255
330
70
100
AcDbEntity
  8
0
 62
    18
420
        0
370
     5
100
AcDbSpline
210
0.0
220
0.0
230
1.0
 70
     8
 71
     3
 72
     8
 73
     4
 74
     0
 42
0.0000000001
 43
0.0000000001
 40
0.0
 40
0.0
 40
0.0
 40
0.0
 40
1.0
 40
1.0
 40
1.0
 40
1.0
 10
147.7275257567186
 20
128.4195709579448
 30
0.0
 10
147.7275257567186
 20
128.5463523611491
 30
0.0
 10
147.6247491226181
 20
128.6491289952497
 30
0.0
 10
147.4979677194135
 20
128.6491289952497
 30
0.0
  0
LINE
  5
256
330
70
100
AcDbEntity
  8
0
 62
    18
420
        0
370
     5
100
AcDbLine
 10
147.7275257567186
 20
128.4195709579448
 30
0.0
 11
147.7275257567186
 21
128.2244466262353
 31
0.0
  0
SPLINE
  5
257
330
70
100
AcDbEntity
  8
0
 62
    18
420
        0
370
     5
100
AcDbSpline
210
0.0
220
0.0
230
1.0
 70
     8
 71
     3
 72
     8
 73
     4
 74
     0
 42
0.0000000001
 43
0.0000000001
 40
0.0
 40
0.0
 40
0.0
 40
0.0
 40
1.0
 40
1.0
 40
1.0
 40
1.0
 10
147.4979677194135
 20
127.9948885889305
 30
0.0
 10
147.6247491226181
 20
127.9948885889305
 30
0.0
 10
147.7275257567186
 20
128.0976652230304
 30
0.0
 10
147.7275257567186
 20
128.2244466262353
 30
0.0
  0
LINE
  5
258
330
70
100
AcDbEntity
  8
0
 62
    18
420
        0
370
     5
100
AcDbLine
 10
147.4979677194135
 20
127.9948885889305
 30
0.0
 11
144.9843072109236
 21
127.9948885889305
 31
0.0
  0
LINE
  5
259
330
70
100
AcDbEntity
  8
0
 62
    18
420
        0
370
     5
100
AcDbLine
 10
144.9843072109236
 20
127.9948885889305
 30
0.0
 11
144.9843072109236
 21
128.2244466262353
 31
0.0
  0
LINE
  5
25A
330
70
100
AcDbEntity
  8
0
 62
    18
420
        0
370
     5
100
AcDbLine
 10
144.9843072109236
 20
128.2244466262353
 30
0.0
 11
143.5840031833632
 21
128.2244466262353
 31
0.0
  0
LINE
  5
25B
330
70
100
AcDbEntity
  8
0
 62
    18
420
        0
370
     5
100
AcDbLine
 10
137.4433256854545
 20
132.2072785734774
 30
0.0
 11
137.4433256854545
 21
127.1570017527666
 31
0.0
  0
LINE
  5
25C
330
70
100
AcDbEntity
  8
0
 62
    18
420
        0
370
     5
100
AcDbLine
 10
137.4433256854545
 20
127.1570017527666
 30
0.0
 11
137.7417511339507
 21
127.1570017527666
 31
0.0
  0
LINE
  5
25D
330
70
100
AcDbEntity
  8
0
 62
    18
420
        0
370
     5
100
AcDbLine
 10
136.823518984731
 20
127.1570017527666
 30
0.0
 11
134.5279386116813
 21
127.1570017527666
 31
0.0
  0
LINE
  5
25E
330
70
100
AcDbEntity
  8
0
 62
    18
420
        0
370
     5
100
AcDbLine
 10
136.823518984731
 20
132.2072785734774
 30
0.0
 11
136.823518984731
 21
127.1570017527666
 31
0.0
  0
LINE
  5
25F
330
70
100
AcDbEntity
  8
0
 62
    18
420
        0
370
     5
100
AcDbLine
 10
134.5279386116813
 20
132.2072785734774
 30
0.0
 11
134.5279386116813
 21
127.1570017527666
 31
0.0
  0
LINE
  5
260
330
70
100
AcDbEntity
  8
0
 62
    18
420
        0
370
     5
100
AcDbLine
 10
137.7417511339507
 20
132.6663946480864
 30
0.0
 11
133.6097064624609
 21
132.6663946480864
 31
0.0
  0
LINE
  5
261
330
70
100
AcDbEntity
  8
0
 62
    18
420
        0
370
     5
100
AcDbLine
 10
137.7417511339507
 20
132.2072785734774
 30
0.0
 11
137.7417511339507
 21
127.1570017527666
 31
0.0
  0
LINE
  5
262
330
70
100
AcDbEntity
  8
0
 62
    18
420
        0
370
     5
100
AcDbLine
 10
137.7417511339507
 20
135.4210910957472
 30
0.0
 11
137.7417511339507
 21
132.6663946480864
 31
0.0
  0
LINE
  5
263
330
70
100
AcDbEntity
  8
0
 62
    18
420
        0
370
     5
100
AcDbLine
 10
133.6097064624609
 20
132.2072785734774
 30
0.0
 11
137.7417511339507
 21
132.2072785734774
 31
0.0
  0
LINE
  5
264
330
70
100
AcDbEntity
  8
0
 62
    18
420
        0
370
     5
100
AcDbLine
 10
138.6599832831714
 20
127.1570017527666
 30
0.0
 11
137.7417511339507
 21
127.1570017527666
 31
0.0
  0
LINE
  5
265
330
70
100
AcDbEntity
  8
0
 62
    18
420
        0
370
     5
100
AcDbLine
 10
138.6599832831714
 20
127.1570017527666
 30
0.0
 11
138.6599832831714
 21
134.9619750211368
 31
0.0
  0
LINE
  5
266
330
70
100
AcDbEntity
  8
0
 62
    18
420
        0
370
     5
100
AcDbLine
 10
138.6599832831714
 20
134.9619750211368
 30
0.0
 11
139.8077734696956
 21
134.9619750211368
 31
0.0
  0
LINE
  5
267
330
70
100
AcDbEntity
  8
0
 62
    18
420
        0
370
     5
100
AcDbLine
 10
139.8077734696956
 20
127.1570017527666
 30
0.0
 11
139.8077734696956
 21
134.9619750211368
 31
0.0
  0
LINE
  5
268
330
70
100
AcDbEntity
  8
0
 62
    18
420
        0
370
     5
100
AcDbLine
 10
140.726005618916
 20
127.1570017527666
 30
0.0
 11
139.8077734696956
 21
127.1570017527666
 31
0.0
  0
LINE
  5
269
330
70
100
AcDbEntity
  8
0
 62
    18
420
        0
370
     5
100
AcDbLine
 10
140.726005618916
 20
127.1570017527666
 30
0.0
 11
140.726005618916
 21
134.9619750211368
 31
0.0
  0
LINE
  5
26A
330
70
100
AcDbEntity
  8
0
 62
    18
420
        0
370
     5
100
AcDbLine
 10
140.726005618916
 20
134.9619750211368
 30
0.0
 11
147.759663881942
 21
134.9619750211368
 31
0.0
  0
LINE
  5
26B
330
70
100
AcDbEntity
  8
0
 62
    18
420
        0
370
     5
100
AcDbLine
 10
137.7417511339507
 20
135.4210910957472
 30
0.0
 11
147.759663881942
 21
135.4210910957472
 31
0.0
  0
LINE
  5
26C
330
70
100
AcDbEntity
  8
0
 62
    18
420
        0
370
     5
100
AcDbLine
 10
133.6097064624609
 20
135.4210910957472
 30
0.0
 11
133.6097064624609
 21
132.6663946480864
 31
0.0
  0
LINE
  5
26D
330
70
100
AcDbEntity
  8
0
 62
    18
420
        0
370
     5
100
AcDbLine
 10
133.6097064624609
 20
135.4210910957472
 30
0.0
 11
123.5917937144715
 21
135.4210910957472
 31
0.0
  0
LINE
  5
26E
330
70
100
AcDbEntity
  8
0
 62
    18
420
        0
370
     5
100
AcDbLine
 10
130.625451977496
 20
127.1570017527666
 30
0.0
 11
130.625451977496
 21
134.9619750211368
 31
0.0
  0
LINE
  5
26F
330
70
100
AcDbEntity
  8
0
 62
    18
420
        0
370
     5
100
AcDbLine
 10
130.625451977496
 20
127.1570017527666
 30
0.0
 11
131.5436841267163
 21
127.1570017527666
 31
0.0
  0
LINE
  5
270
330
70
100
AcDbEntity
  8
0
 62
    18
420
        0
370
     5
100
AcDbLine
 10
131.5436841267163
 20
127.1570017527666
 30
0.0
 11
131.5436841267163
 21
134.9619750211368
 31
0.0
  0
LINE
  5
271
330
70
100
AcDbEntity
  8
0
 62
    18
420
        0
370
     5
100
AcDbLine
 10
132.6914743132409
 20
127.1570017527666
 30
0.0
 11
132.6914743132409
 21
134.9619750211368
 31
0.0
  0
LINE
  5
272
330
70
100
AcDbEntity
  8
0
 62
    18
420
        0
370
     5
100
AcDbLine
 10
132.6914743132409
 20
127.1570017527666
 30
0.0
 11
133.6097064624609
 21
127.1570017527666
 31
0.0
  0
LINE
  5
273
330
70
100
AcDbEntity
  8
0
 62
    18
420
        0
370
     5
100
AcDbLine
 10
133.6097064624609
 20
132.2072785734774
 30
0.0
 11
133.6097064624609
 21
127.1570017527666
 31
0.0
  0
LINE
  5
274
330
70
100
AcDbEntity
  8
0
 62
    18
420
        0
370
     5
100
AcDbLine
 10
153.7419463341083
 20
127.1570017527666
 30
0.0
 11
153.9255927639524
 21
127.1570017527666
 31
0.0
  0
LINE
  5
275
330
70
100
AcDbEntity
  8
0
 62
    18
420
        0
370
     5
100
AcDbLine
 10
153.5812557079948
 20
127.1570017527666
 30
0.0
 11
153.7419463341083
 21
127.1570017527666
 31
0.0
  0
LINE
  5
276
330
70
100
AcDbEntity
  8
0
 62
    18
420
        0
370
     5
100
AcDbLine
 10
153.5812557079948
 20
127.1570017527666
 30
0.0
 11
149.4812163273728
 21
127.1570017527666
 31
0.0
  0
LINE
  5
277
330
70
100
AcDbEntity
  8
0
 62
    18
420
        0
370
     5
100
AcDbLine
 10
148.5309788872863
 20
127.1570017527666
 30
0.0
 11
149.1507855880094
 21
127.1570017527666
 31
0.0
  0
LINE
  5
278
330
70
100
AcDbEntity
  8
0
 62
    18
420
        0
370
     5
100
AcDbLine
 10
136.823518984731
 20
127.1570017527666
 30
0.0
 11
137.4433256854545
 21
127.1570017527666
 31
0.0
  0
LINE
  5
279
330
70
100
AcDbEntity
  8
0
 62
    18
420
        0
370
     5
100
AcDbLine
 10
134.5279386116813
 20
127.1570017527666
 30
0.0
 11
133.9081319109578
 21
127.1570017527666
 31
0.0
  0
LINE
  5
27A
330
70
100
AcDbEntity
  8
0
 62
    18
420
        0
370
     5
100
AcDbLine
 10
122.820478709126
 20
127.1570017527666
 30
0.0
 11
122.2006720084032
 21
127.1570017527666
 31
0.0
  0
LINE
  5
27B
330
70
100
AcDbEntity
  8
0
 62
    18
420
        0
370
     5
100
AcDbLine
 10
117.7702018884168
 20
127.1570017527666
 30
0.0
 11
121.8702412690385
 21
127.1570017527666
 31
0.0
  0
LINE
  5
27C
330
70
100
AcDbEntity
  8
0
 62
    18
420
        0
370
     5
100
AcDbLine
 10
117.609511262304
 20
127.1570017527666
 30
0.0
 11
117.7702018884168
 21
127.1570017527666
 31
0.0
  0
LINE
  5
27D
330
70
100
AcDbEntity
  8
0
 62
    18
420
        0
370
     5
100
AcDbLine
 10
117.4258648324592
 20
127.1570017527666
 30
0.0
 11
117.609511262304
 21
127.1570017527666
 31
0.0
  0
LWPOLYLINE
  5
27E
330
70
100
AcDbEntity
  8
0
 62
    18
420
        0
370
     5
100
AcDbPolyline
 90
        1
 70
     0
 43
0.0
 10
153.5812557079961
 20
127.1570017527666
  0
LINE
  5
27F
330
70
100
AcDbEntity
  8
0
 62
    18
420
        0
370
     5
100
AcDbLine
 10
144.9728293090589
 20
134.3880799278741
 30
0.0
 11
144.6390658796199
 21
134.3880799278741
 31
0.0
  0
LINE
  5
280
330
70
100
AcDbEntity
  8
0
 62
    18
420
        0
370
     5
100
AcDbLine
 10
144.9728293090582
 20
134.2733009092216
 30
0.0
 11
144.9728293090582
 21
134.3880799278741
 31
0.0
  0
LINE
  5
281
330
70
100
AcDbEntity
  8
0
 62
    18
420
        0
370
     5
100
AcDbLine
 10
147.759663881942
 20
134.9619750211368
 30
0.0
 11
148.1040009378983
 21
134.9619750211368
 31
0.0
  0
LINE
  5
282
330
70
100
AcDbEntity
  8
0
 62
    18
420
        0
370
     5
100
AcDbLine
 10
148.1040009378983
 20
135.4210910957472
 30
0.0
 11
148.1040009378983
 21
134.9619750211368
 31
0.0
  0
LINE
  5
283
330
70
100
AcDbEntity
  8
0
 62
    18
420
        0
370
     5
100
AcDbLine
 10
148.1040009378983
 20
135.4210910957472
 30
0.0
 11
147.759663881942
 21
135.4210910957472
 31
0.0
  0
LINE
  5
284
330
70
100
AcDbEntity
  8
0
 62
    18
420
        0
370
     5
100
AcDbLine
 10
144.1693761784909
 20
136.5688812822714
 30
0.0
 11
144.1693761784909
 21
135.4210910957472
 31
0.0
  0
LINE
  5
285
330
70
100
AcDbEntity
  8
0
 62
    18
420
        0
370
     5
100
AcDbLine
 10
145.5467244023207
 20
136.5688812822714
 30
0.0
 11
145.5467244023207
 21
135.4210910957472
 31
0.0
  0
LINE
  5
286
330
70
100
AcDbEntity
  8
0
 62
    18
420
        0
370
     5
100
AcDbLine
 10
122.820478709126
 20
134.9619750211368
 30
0.0
 11
122.2006720084032
 21
134.9619750211368
 31
0.0
  0
LINE
  5
287
330
70
100
AcDbEntity
  8
0
 62
    18
420
        0
370
     5
100
AcDbLine
 10
148.5309788872863
 20
134.9619750211368
 30
0.0
 11
149.1507855880094
 21
134.9619750211368
 31
0.0
  0
LINE
  5
288
330
70
100
AcDbEntity
  8
0
 62
    18
420
        0
370
     5
100
AcDbLine
 10
123.2474566585133
 20
135.4210910957472
 30
0.0
 11
123.5917937144715
 21
135.4210910957472
 31
0.0
  0
LINE
  5
289
330
70
100
AcDbEntity
  8
0
 62
    18
420
        0
370
     5
100
AcDbLine
 10
127.182081417921
 20
136.5688812822714
 30
0.0
 11
127.182081417921
 21
135.4210910957472
 31
0.0
  0
LINE
  5
28A
330
70
100
AcDbEntity
  8
0
 62
    18
420
        0
370
     5
100
AcDbLine
 10
123.2474566585133
 20
135.4210910957472
 30
0.0
 11
123.2474566585133
 21
134.9619750211368
 31
0.0
  0
LINE
  5
28B
330
70
100
AcDbEntity
  8
0
 62
    18
420
        0
370
     5
100
AcDbLine
 10
144.7064717978398
 20
134.9607843977502
 30
0.0
 11
144.7075984232558
 21
134.9615778098989
 31
0.0
  0
SPLINE
  5
28C
330
70
100
AcDbEntity
  8
0
 62
    18
420
        0
370
     5
100
AcDbSpline
210
0.0
220
0.0
230
1.0
 70
     8
 71
     3
 72
    14
 73
    10
 74
     0
 42
0.0000000001
 43
0.0000000001
 40
0.0
 40
0.0
 40
0.0
 40
0.0
 40
1.0
 40
1.0
 40
1.0
 40
2.0
 40
2.0
 40
2.0
 40
3.0
 40
3.0
 40
3.0
 40
3.0
 10
126.3435643237675
 20
134.9619750453815
 30
0.0
 10
126.3430369637092
 20
134.9616221043459
 30
0.0
 10
126.3425206489283
 20
134.9612688894591
 30
0.0
 10
126.3420155498198
 20
134.9609154402617
 30
0.0
 10
126.3321422892296
 20
134.9540065069948
 30
0.0
 10
126.3286454826836
 20
134.948482575796
 30
0.0
 10
126.3272308347511
 20
134.9443525861382
 30
0.0
 10
126.3266193694806
 20
134.9425674456894
 30
0.0
 10
126.3263118218051
 20
134.9407519781916
 30
0.0
 10
126.3263113214323
 20
134.9389124832671
 30
0.0
  0
LWPOLYLINE
  5
28D
330
70
100
AcDbEntity
  8
0
 62
    18
420
        0
370
     5
100
AcDbPolyline
 90
        1
 70
     0
 43
0.0
 10
126.5278464014705
 20
134.9304760656034
  0
LWPOLYLINE
  5
28E
330
70
100
AcDbEntity
  8
0
 62
    18
420
        0
370
     5
100
AcDbPolyline
 90
        1
 70
     0
 43
0.0
 10
126.5907004936066
 20
134.9619861703541
  0
LWPOLYLINE
  5
28F
330
70
100
AcDbEntity
  8
0
 62
    18
420
        0
370
     5
100
AcDbPolyline
 90
        1
 70
     0
 43
0.0
 10
187.5256905737907
 20
130.7358570743504
  0
LINE
  5
290
330
70
100
AcDbEntity
  8
0
 62
    18
420
        0
370
     5
100
AcDbLine
 10
156.680153777678
 20
123.9423567514867
 30
0.0
 11
184.4782507234803
 21
123.9760741623947
 31
0.0
  0
LWPOLYLINE
  5
291
330
70
100
AcDbEntity
  8
0
 62
    18
420
        0
370
     5
100
AcDbPolyline
 90
        1
 70
     0
 43
0.0
 10
179.7791871976387
 20
130.5352492570736
  0
LINE
  5
292
330
70
100
AcDbEntity
  8
0
  6
AI-Linetype-0
 62
    18
420
        0
370
     5
100
AcDbLine
 10
170.3443044862112
 20
138.3718643247684
 30
0.0
 11
156.5406088889754
 21
138.3383513100809
 31
0.0
  0
INSERT
  5
295
330
70
100
AcDbEntity
  8
0
100
AcDbBlockReference
  2
Block_33
 10
0.0
 20
0.0
 30
0.0
  0
LWPOLYLINE
  5
2A9
330
70
100
AcDbEntity
  8
0
 62
    18
420
        0
370
     5
100
AcDbPolyline
 90
        1
 70
     0
 43
0.0
 10
167.8316204480932
 20
135.9970913474501
  0
INSERT
  5
2AB
330
70
100
AcDbEntity
  8
0
100
AcDbBlockReference
  2
Block_37
 10
0.0
 20
0.0
 30
0.0
  0
INSERT
  5
2C0
330
70
100
AcDbEntity
  8
0
100
AcDbBlockReference
  2
Block_41
 10
0.0
 20
0.0
 30
0.0
  0
LINE
  5
2CB
330
70
100
AcDbEntity
  8
0
 62
    18
420
        0
370
     5
100
AcDbLine
 10
158.5167535100532
 20
143.8474886712206
 30
0.0
 11
184.5359618935967
 21
143.8805389483622
 31
0.0
  0
LWPOLYLINE
  5
2CC
330
70
100
AcDbEntity
  8
0
 62
    18
420
        0
370
     5
100
AcDbPolyline
 90
        1
 70
     0
 43
0.0
 10
174.7341568001271
 20
136.5598475961318
  0
INSERT
  5
2CE
330
70
100
AcDbEntity
  8
0
100
AcDbBlockReference
  2
Block_43
 10
0.0
 20
0.0
 30
0.0
  0
ENDSEC
  0
SECTION
  2
OBJECTS
  0
DICTIONARY
  5
C
330
0
100
AcDbDictionary
281
     1
  3
ACAD_COLOR
350
63
  3
ACAD_DETAILVIEWSTYLE
350
6A
  3
ACAD_GROUP
350
D
  3
ACAD_LAYOUT
350
62
  3
ACAD_MATERIAL
350
10
  3
ACAD_MLEADERSTYLE
350
66
  3
ACAD_MLINESTYLE
350
5F
  3
ACAD_PLOTSETTINGS
350
61
  3
ACAD_PLOTSTYLENAME
350
E
  3
ACAD_SCALELIST
350
42
  3
ACAD_SECTIONVIEWSTYLE
350
68
  3
ACAD_TABLESTYLE
350
64
  3
ACAD_VISUALSTYLE
350
29
  3
ACDB_RECOMPOSE_DATA
350
2E3
  3
AcDbVariableDictionary
350
2DB
  0
DICTIONARY
  5
63
102
{ACAD_REACTORS
330
C
102
}
330
C
100
AcDbDictionary
281
     1
  0
DICTIONARY
  5
6A
102
{ACAD_REACTORS
330
C
102
}
330
C
100
AcDbDictionary
281
     1
  3
Imperial24
350
6B
  0
DICTIONARY
  5
D
102
{ACAD_REACTORS
330
C
102
}
330
C
100
AcDbDictionary
281
     1
  0
DICTIONARY
  5
62
102
{ACAD_REACTORS
330
C
102
}
330
C
100
AcDbDictionary
281
     1
  3
Layout1
350
6F
  3
Layout2
350
77
  3
Model
350
73
  0
DICTIONARY
  5
10
102
{ACAD_REACTORS
330
C
102
}
330
C
100
AcDbDictionary
281
     1
  3
ByBlock
350
19
  3
ByLayer
350
11
  3
Global
350
21
  0
DICTIONARY
  5
66
102
{ACAD_REACTORS
330
C
102
}
330
C
100
AcDbDictionary
281
     1
  3
Standard
350
67
  0
DICTIONARY
  5
5F
102
{ACAD_REACTORS
330
C
102
}
330
C
100
AcDbDictionary
281
     1
  3
Standard
350
60
  0
DICTIONARY
  5
61
102
{ACAD_REACTORS
330
C
102
}
330
C
100
AcDbDictionary
281
     1
  0
ACDBDICTIONARYWDFLT
  5
E
102
{ACAD_REACTORS
330
C
102
}
330
C
100
AcDbDictionary
281
     1
  3
Normal
350
F
100
AcDbDictionaryWithDefault
340
F
  0
DICTIONARY
  5
42
102
{ACAD_REACTORS
330
C
102
}
330
C
100
AcDbDictionary
281
     1
  3
A0
350
43
  3
A1
350
44
  3
A2
350
45
  3
A3
350
46
  3
A4
350
47
  3
A5
350
48
  3
A6
350
49
  3
A7
350
4A
  3
A8
350
4B
  3
A9
350
4C
  3
B0
350
4D
  3
B1
350
4E
  3
B2
350
4F
  3
B3
350
50
  3
B4
350
51
  3
B5
350
52
  3
B6
350
53
  0
DICTIONARY
  5
68
102
{ACAD_REACTORS
330
C
102
}
330
C
100
AcDbDictionary
281
     1
  3
Imperial24
350
69
  0
DICTIONARY
  5
64
102
{ACAD_REACTORS
330
C
102
}
330
C
100
AcDbDictionary
281
     1
  3
Standard
350
65
  0
DICTIONARY
  5
29
102
{ACAD_REACTORS
330
C
102
}
330
C
100
AcDbDictionary
281
     1
  3
2dWireframe
350
2F
  3
Basic
350
2E
  3
Brighten
350
35
  3
ColorChange
350
39
  3
Conceptual
350
32
  3
Dim
350
34
  3
EdgeColorOff
350
41
  3
Facepattern
350
38
  3
Flat
350
2A
  3
FlatWithEdges
350
2B
  3
Gouraud
350
2C
  3
GouraudWithEdges
350
2D
  3
Hidden
350
31
  3
JitterOff
350
3F
  3
Linepattern
350
37
  3
OverhangOff
350
40
  3
Realistic
350
33
  3
Shaded
350
3E
  3
Shaded with edges
350
3D
  3
Shades of Gray
350
3A
  3
Sketchy
350
3B
  3
Thicken
350
36
  3
Wireframe
350
30
  3
X-Ray
350
3C
  0
XRECORD
  5
2E3
102
{ACAD_REACTORS
330
C
102
}
330
C
100
AcDbXrecord
280
     1
 90
        1
330
65
  0
DICTIONARY
  5
2DB
102
{ACAD_REACTORS
330
C
102
}
330
C
100
AcDbDictionary
281
     1
  3
CANNOSCALE
350
2E0
  3
CMLEADERSTYLE
350
2DD
  3
CTABLESTYLE
350
2DC
  3
CVIEWDETAILSTYLE
350
2DE
  3
CVIEWSECTIONSTYLE
350
2DF
  0
ACDBDETAILVIEWSTYLE
  5
6B
102
{ACAD_REACTORS
330
6A
102
}
330
6A
100
AcDbModelDocViewStyle
 70
     0
  3
Imperial24
290
     1
300
Imperial24
 90
        0
100
AcDbDetailViewStyle
 70
     0
 71
     0
 90
        3
 71
     1
340
55
 62
   256
 40
0.24
340
0
 62
   256
 40
0.24
300

 40
0.36
280
     3
 71
     2
340
5D
 90
       25
 62
   256
 71
     3
340
55
 62
   256
 40
0.24
 90
        1
 40
0.75
 90
        1
300
%<\AcVar ViewType \f "%tc1">% %<\AcVar ViewDetailId>%\PSCALE %<\AcVar ViewScale \f "%sn">%
 71
     4
340
5D
 90
       25
 62
   256
340
5D
 90
       25
 62
   256
280
     0
  0
LAYOUT
  5
6F
102
{ACAD_REACTORS
330
62
102
}
330
62
100
AcDbPlotSettings
  1

  2

  4

  6

 40
0.0
 41
0.0
 42
0.0
 43
0.0
 44
0.0
 45
0.0
 46
0.0
 47
0.0
 48
0.0
 49
0.0
140
0.0
141
0.0
142
1.0
143
1.0
 70
   688
 72
     0
 73
     0
 74
     5
  7

 75
    16
147
1.0
 76
     0
 77
     2
 78
   300
148
0.0
149
0.0
100
AcDbLayout
  1
Layout1
 70
     1
 71
     1
 10
0.0
 20
0.0
 11
12.0
 21
9.0
 12
0.0
 22
0.0
 32
0.0
 14
0.0
 24
0.0
 34
0.0
 15
0.0
 25
0.0
 35
0.0
146
0.0
 13
0.0
 23
0.0
 33
0.0
 16
1.0
 26
0.0
 36
0.0
 17
0.0
 27
1.0
 37
0.0
 76
     0
330
6C
  0
LAYOUT
  5
77
102
{ACAD_REACTORS
330
62
102
}
330
62
100
AcDbPlotSettings
  1

  2

  4

  6

 40
0.0
 41
0.0
 42
0.0
 43
0.0
 44
0.0
 45
0.0
 46
0.0
 47
0.0
 48
0.0
 49
0.0
140
0.0
141
0.0
142
1.0
143
1.0
 70
   688
 72
     0
 73
     0
 74
     5
  7

 75
    16
147
1.0
 76
     0
 77
     2
 78
   300
148
0.0
149
0.0
100
AcDbLayout
  1
Layout2
 70
     1
 71
     2
 10
0.0
 20
0.0
 11
12.0
 21
9.0
 12
0.0
 22
0.0
 32
0.0
 14
0.0
 24
0.0
 34
0.0
 15
0.0
 25
0.0
 35
0.0
146
0.0
 13
0.0
 23
0.0
 33
0.0
 16
1.0
 26
0.0
 36
0.0
 17
0.0
 27
1.0
 37
0.0
 76
     0
330
74
  0
LAYOUT
  5
73
102
{ACAD_REACTORS
330
62
102
}
330
62
100
AcDbPlotSettings
  1

  2

  4

  6

 40
0.0
 41
0.0
 42
0.0
 43
0.0
 44
0.0
 45
0.0
 46
0.0
 47
0.0
 48
0.0
 49
0.0
140
0.0
141
0.0
142
1.0
143
1.0
 70
  1712
 72
     0
 73
     0
 74
     0
  7

 75
     0
147
1.0
 76
     0
 77
     2
 78
   300
148
0.0
149
0.0
100
AcDbLayout
  1
Model
 70
     1
 71
     0
 10
0.0
 20
0.0
 11
12.0
 21
9.0
 12
0.0
 22
0.0
 32
0.0
 14
0.0
 24
0.0
 34
0.0
 15
0.0
 25
0.0
 35
0.0
146
0.0
 13
0.0
 23
0.0
 33
0.0
 16
1.0
 26
0.0
 36
0.0
 17
0.0
 27
1.0
 37
0.0
 76
     0
330
70
  0
MATERIAL
  5
19
102
{ACAD_XDICTIONARY
360
1A
102
}
102
{ACAD_REACTORS
330
10
102
}
330
10
100
AcDbMaterial
  1
ByBlock
 72
     0
 43
0.0208333333333333
 43
0.0
 43
0.0
 43
0.0
 43
0.0
 43
0.0208333333333333
 43
0.0
 43
0.0
 43
0.0
 43
0.0
 43
1.0
 43
0.0
 43
0.0
 43
0.0
 43
0.0
 43
1.0
 77
     0
 47
0.0208333333333333
 47
0.0
 47
0.0
 47
0.0
 47
0.0
 47
0.0208333333333333
 47
0.0
 47
0.0
 47
0.0
 47
0.0
 47
1.0
 47
0.0
 47
0.0
 47
0.0
 47
0.0
 47
1.0
171
     0
 49
0.0208333333333333
 49
0.0
 49
0.0
 49
0.0
 49
0.0
 49
0.0208333333333333
 49
0.0
 49
0.0
 49
0.0
 49
0.0
 49
1.0
 49
0.0
 49
0.0
 49
0.0
 49
0.0
 49
1.0
175
     0
142
0.0208333333333333
142
0.0
142
0.0
142
0.0
142
0.0
142
0.0208333333333333
142
0.0
142
0.0
142
0.0
142
0.0
142
1.0
142
0.0
142
0.0
142
0.0
142
0.0
142
1.0
179
     0
144
0.0208333333333333
144
0.0
144
0.0
144
0.0
144
0.0
144
0.0208333333333333
144
0.0
144
0.0
144
0.0
144
0.0
144
1.0
144
0.0
144
0.0
144
0.0
144
0.0
144
1.0
147
0.0208333333333333
147
0.0
147
0.0
147
0.0
147
0.0
147
0.0208333333333333
147
0.0
147
0.0
147
0.0
147
0.0
147
1.0
147
0.0
147
0.0
147
0.0
147
0.0
147
1.0
  0
MATERIAL
  5
11
102
{ACAD_XDICTIONARY
360
12
102
}
102
{ACAD_REACTORS
330
10
102
}
330
10
100
AcDbMaterial
  1
ByLayer
 72
     0
 43
0.0208333333333333
 43
0.0
 43
0.0
 43
0.0
 43
0.0
 43
0.0208333333333333
 43
0.0
 43
0.0
 43
0.0
 43
0.0
 43
1.0
 43
0.0
 43
0.0
 43
0.0
 43
0.0
 43
1.0
 77
     0
 47
0.0208333333333333
 47
0.0
 47
0.0
 47
0.0
 47
0.0
 47
0.0208333333333333
 47
0.0
 47
0.0
 47
0.0
 47
0.0
 47
1.0
 47
0.0
 47
0.0
 47
0.0
 47
0.0
 47
1.0
171
     0
 49
0.0208333333333333
 49
0.0
 49
0.0
 49
0.0
 49
0.0
 49
0.0208333333333333
 49
0.0
 49
0.0
 49
0.0
 49
0.0
 49
1.0
 49
0.0
 49
0.0
 49
0.0
 49
0.0
 49
1.0
175
     0
142
0.0208333333333333
142
0.0
142
0.0
142
0.0
142
0.0
142
0.0208333333333333
142
0.0
142
0.0
142
0.0
142
0.0
142
1.0
142
0.0
142
0.0
142
0.0
142
0.0
142
1.0
179
     0
144
0.0208333333333333
144
0.0
144
0.0
144
0.0
144
0.0
144
0.0208333333333333
144
0.0
144
0.0
144
0.0
144
0.0
144
1.0
144
0.0
144
0.0
144
0.0
144
0.0
144
1.0
147
0.0208333333333333
147
0.0
147
0.0
147
0.0
147
0.0
147
0.0208333333333333
147
0.0
147
0.0
147
0.0
147
0.0
147
1.0
147
0.0
147
0.0
147
0.0
147
0.0
147
1.0
  0
MATERIAL
  5
21
102
{ACAD_XDICTIONARY
360
22
102
}
102
{ACAD_REACTORS
330
10
102
}
330
10
100
AcDbMaterial
  1
Global
 72
     0
 43
0.0208333333333333
 43
0.0
 43
0.0
 43
0.0
 43
0.0
 43
0.0208333333333333
 43
0.0
 43
0.0
 43
0.0
 43
0.0
 43
1.0
 43
0.0
 43
0.0
 43
0.0
 43
0.0
 43
1.0
 77
     0
 47
0.0208333333333333
 47
0.0
 47
0.0
 47
0.0
 47
0.0
 47
0.0208333333333333
 47
0.0
 47
0.0
 47
0.0
 47
0.0
 47
1.0
 47
0.0
 47
0.0
 47
0.0
 47
0.0
 47
1.0
171
     0
 49
0.0208333333333333
 49
0.0
 49
0.0
 49
0.0
 49
0.0
 49
0.0208333333333333
 49
0.0
 49
0.0
 49
0.0
 49
0.0
 49
1.0
 49
0.0
 49
0.0
 49
0.0
 49
0.0
 49
1.0
175
     0
142
0.0208333333333333
142
0.0
142
0.0
142
0.0
142
0.0
142
0.0208333333333333
142
0.0
142
0.0
142
0.0
142
0.0
142
1.0
142
0.0
142
0.0
142
0.0
142
0.0
142
1.0
179
     0
144
0.0208333333333333
144
0.0
144
0.0
144
0.0
144
0.0
144
0.0208333333333333
144
0.0
144
0.0
144
0.0
144
0.0
144
1.0
144
0.0
144
0.0
144
0.0
144
0.0
144
1.0
147
0.0208333333333333
147
0.0
147
0.0
147
0.0
147
0.0
147
0.0208333333333333
147
0.0
147
0.0
147
0.0
147
0.0
147
1.0
147
0.0
147
0.0
147
0.0
147
0.0
147
1.0
  0
MLEADERSTYLE
  5
67
102
{ACAD_REACTORS
330
66
102
}
330
66
100
AcDbMLeaderStyle
179
     2
170
     2
171
     1
172
     0
 90
        2
 40
0.0
 41
0.0
173
     1
 91
-1056964608
340
5B
 92
       -2
290
     1
 42
0.09
291
     1
 43
0.36
  3
Standard
 44
0.18
300

342
55
174
     1
178
     6
175
     1
176
     0
 93
-1056964608
 45
0.18
292
     0
297
     0
 46
0.18
 94
-1056964608
 47
1.0
 49
1.0
140
1.0
293
     1
141
0.0
294
     1
177
     0
142
1.0
295
     1
296
     0
143
0.125
271
     0
272
     9
273
     9
298
     1
  0
MLINESTYLE
  5
60
102
{ACAD_REACTORS
330
5F
102
}
330
5F
100
AcDbMlineStyle
  2
STANDARD
 70
     0
  3

 62
   256
 51
90.0
 52
90.0
 71
     2
 49
0.5
 62
   256
  6
BYLAYER
 49
-0.5
 62
   256
  6
BYLAYER
  0
ACDBPLACEHOLDER
  5
F
102
{ACAD_REACTORS
330
E
102
}
330
E
  0
SCALE
  5
43
102
{ACAD_REACTORS
330
42
102
}
330
42
100
AcDbScale
 70
     0
300
1:1
140
1.0
141
1.0
290
     1
  0
SCALE
  5
44
102
{ACAD_REACTORS
330
42
102
}
330
42
100
AcDbScale
 70
     0
300
1/128" = 1'-0"
140
0.0078125
141
12.0
290
     0
  0
SCALE
  5
45
102
{ACAD_REACTORS
330
42
102
}
330
42
100
AcDbScale
 70
     0
300
1/64" = 1'-0"
140
0.015625
141
12.0
290
     0
  0
SCALE
  5
46
102
{ACAD_REACTORS
330
42
102
}
330
42
100
AcDbScale
 70
     0
300
1/32" = 1'-0"
140
0.03125
141
12.0
290
     0
  0
SCALE
  5
47
102
{ACAD_REACTORS
330
42
102
}
330
42
100
AcDbScale
 70
     0
300
1/16" = 1'-0"
140
0.0625
141
12.0
290
     0
  0
SCALE
  5
48
102
{ACAD_REACTORS
330
42
102
}
330
42
100
AcDbScale
 70
     0
300
3/32" = 1'-0"
140
0.09375
141
12.0
290
     0
  0
SCALE
  5
49
102
{ACAD_REACTORS
330
42
102
}
330
42
100
AcDbScale
 70
     0
300
1/8" = 1'-0"
140
0.125
141
12.0
290
     0
  0
SCALE
  5
4A
102
{ACAD_REACTORS
330
42
102
}
330
42
100
AcDbScale
 70
     0
300
3/16" = 1'-0"
140
0.1875
141
12.0
290
     0
  0
SCALE
  5
4B
102
{ACAD_REACTORS
330
42
102
}
330
42
100
AcDbScale
 70
     0
300
1/4" = 1'-0"
140
0.25
141
12.0
290
     0
  0
SCALE
  5
4C
102
{ACAD_REACTORS
330
42
102
}
330
42
100
AcDbScale
 70
     0
300
3/8" = 1'-0"
140
0.375
141
12.0
290
     0
  0
SCALE
  5
4D
102
{ACAD_REACTORS
330
42
102
}
330
42
100
AcDbScale
 70
     0
300
1/2" = 1'-0"
140
0.5
141
12.0
290
     0
  0
SCALE
  5
4E
102
{ACAD_REACTORS
330
42
102
}
330
42
100
AcDbScale
 70
     0
300
3/4" = 1'-0"
140
0.75
141
12.0
290
     0
  0
SCALE
  5
4F
102
{ACAD_REACTORS
330
42
102
}
330
42
100
AcDbScale
 70
     0
300
1" = 1'-0"
140
1.0
141
12.0
290
     0
  0
SCALE
  5
50
102
{ACAD_REACTORS
330
42
102
}
330
42
100
AcDbScale
 70
     0
300
1-1/2" = 1'-0"
140
1.5
141
12.0
290
     0
  0
SCALE
  5
51
102
{ACAD_REACTORS
330
42
102
}
330
42
100
AcDbScale
 70
     0
300
3" = 1'-0"
140
3.0
141
12.0
290
     0
  0
SCALE
  5
52
102
{ACAD_REACTORS
330
42
102
}
330
42
100
AcDbScale
 70
     0
300
6" = 1'-0"
140
6.0
141
12.0
290
     0
  0
SCALE
  5
53
102
{ACAD_REACTORS
330
42
102
}
330
42
100
AcDbScale
 70
     0
300
1'-0" = 1'-0"
140
12.0
141
12.0
290
     0
  0
ACDBSECTIONVIEWSTYLE
  5
69
102
{ACAD_REACTORS
330
68
102
}
330
68
100
AcDbModelDocViewStyle
 70
     0
  3
Imperial24
290
     1
300
Imperial24
 90
        0
100
AcDbSectionViewStyle
 70
     0
 71
     0
 90
       78
 71
     1
340
55
 62
   256
 40
0.24
340
0
340
0
 62
   256
 40
0.24
300
I, O, Q, S, X, Z
 40
0.48
 90
        3
 40
0.18
 90
        1
 71
     2
340
5D
 90
       25
 62
   256
340
5D
 90
       50
 62
   256
 40
0.24
 40
0.0
 40
0.24
 71
     3
340
55
 62
   256
 40
0.24
 90
        1
 40
0.75
 90
        1
300
%<\AcVar ViewType \f "%tc1">% %<\AcVar ViewSectionStartId>%-%<\AcVar ViewSectionEndId>%\PSCALE %<\AcVar ViewScale \f "%sn">%
 71
     4
 62
   256
 62
   257
300
ANSI31
 40
1.0
 90
        0
290
     0
290
     0
 90
        6
 40
0.0
 40
1.570796326794896
 40
0.2617993877991494
 40
1.308996938995747
 40
-0.2617993877991494
 40
1.832595714594046
  0
TABLESTYLE
  5
65
102
{ACAD_XDICTIONARY
360
2E1
102
}
102
{ACAD_REACTORS
330
64
102
}
330
64
100
AcDbTableStyle
280
     0
  3
Standard
 70
     0
 71
     0
 40
0.06
 41
0.06
280
     0
281
     0
  7
Standard
140
0.18
170
     2
 62
     0
 63
     7
283
     0
 90
      512
 91
        0
  1

274
    -2
284
     1
 64
     0
275
    -2
285
     1
 65
     0
276
    -2
286
     1
 66
     0
277
    -2
287
     1
 67
     0
278
    -2
288
     1
 68
     0
279
    -2
289
     1
 69
     0
  7
Standard
140
0.25
170
     5
 62
     0
 63
     7
283
     0
 90
      512
 91
        0
  1

274
    -2
284
     1
 64
     0
275
    -2
285
     1
 65
     0
276
    -2
286
     1
 66
     0
277
    -2
287
     1
 67
     0
278
    -2
288
     1
 68
     0
279
    -2
289
     1
 69
     0
  7
Standard
140
0.18
170
     5
 62
     0
 63
     7
283
     0
 90
      512
 91
        0
  1

274
    -2
284
     1
 64
     0
275
    -2
285
     1
 65
     0
276
    -2
286
     1
 66
     0
277
    -2
287
     1
 67
     0
278
    -2
288
     1
 68
     0
279
    -2
289
     1
 69
     0
  0
VISUALSTYLE
  5
2F
102
{ACAD_REACTORS
330
29
102
}
330
29
100
AcDbVisualStyle
  2
2dWireframe
 70
     4
177
     3
291
     0
 70
    58
 90
        0
176
     1
 90
        2
176
     1
 90
        0
176
     1
 90
        0
176
     1
 40
0.6
176
     1
 40
30.0
176
     1
 62
     7
420
 16777215
176
     1
 90
        1
176
     1
 90
        4
176
     1
 62
     7
176
     1
 62
   257
176
     1
 90
        1
176
     1
 90
        1
176
     1
 40
1.0
176
     1
 90
        0
176
     1
 62
   257
176
     1
 40
1.0
176
     1
 90
        1
176
     1
 90
        6
176
     1
 90
        2
176
     1
 62
     7
176
     1
 90
        5
176
     1
 90
        0
176
     1
 90
        0
176
     1
290
     0
176
     1
 90
        1
176
     1
 40
0.0
176
     1
 90
        0
176
     1
290
     1
176
     1
290
     1
176
     1
290
     0
176
     1
290
     0
176
     1
290
     0
176
     1
290
     0
176
     1
290
     0
176
     1
290
     0
176
     1
290
     0
176
     1
 90
       50
176
     1
 40
0.0
176
     1
 40
1.0
176
     1
 90
        0
176
     1
 62
    18
420
        0
176
     1
 90
       50
176
     1
 90
        3
176
     1
 62
     5
420
      255
176
     1
290
     0
176
     1
 90
       50
176
     1
 90
       50
176
     1
 90
       50
176
     1
290
     0
176
     1
 90
       50
176
     1
 62
   256
176
     0
 40
1.0
176
     0
 90
        2
176
     1
  1
strokes_ogs.tif
176
     1
290
     0
176
     1
 40
1.0
176
     1
 40
1.0
176
     1
  0
VISUALSTYLE
  5
2E
102
{ACAD_REACTORS
330
29
102
}
330
29
100
AcDbVisualStyle
  2
Basic
 70
     7
177
     3
291
     1
 70
    58
 90
        1
176
     1
 90
        0
176
     1
 90
        1
176
     1
 90
        0
176
     1
 40
0.6
176
     1
 40
30.0
176
     1
 62
     7
420
 16777215
176
     1
 90
        0
176
     1
 90
        4
176
     1
 62
     7
176
     1
 62
   257
176
     1
 90
        1
176
     1
 90
        1
176
     1
 40
1.0
176
     1
 90
        8
176
     1
 62
     7
176
     1
 40
1.0
176
     1
 90
        1
176
     1
 90
        6
176
     1
 90
        2
176
     1
 62
     7
176
     1
 90
        5
176
     1
 90
        0
176
     1
 90
        0
176
     1
290
     0
176
     1
 90
        1
176
     1
 40
0.0
176
     1
 90
        0
176
     1
290
     0
176
     1
290
     1
176
     1
290
     1
176
     1
290
     0
176
     1
290
     0
176
     1
290
     0
176
     1
290
     0
176
     1
290
     0
176
     1
290
     0
176
     1
 90
       50
176
     1
 40
0.0
176
     1
 40
1.0
176
     1
 90
        0
176
     1
 62
    18
420
        0
176
     1
 90
       50
176
     1
 90
        3
176
     1
 62
     5
420
      255
176
     1
290
     0
176
     1
 90
       50
176
     1
 90
       50
176
     1
 90
       50
176
     1
290
     0
176
     1
 90
       50
176
     1
 62
   256
176
     0
 40
1.0
176
     0
 90
        2
176
     1
  1
strokes_ogs.tif
176
     1
290
     0
176
     1
 40
1.0
176
     1
 40
1.0
176
     1
  0
VISUALSTYLE
  5
35
102
{ACAD_REACTORS
330
29
102
}
330
29
100
AcDbVisualStyle
  2
Brighten
 70
    12
177
     3
291
     1
 70
    58
 90
        2
176
     1
 90
        2
176
     1
 90
        0
176
     1
 90
        0
176
     1
 40
0.6
176
     1
 40
30.0
176
     1
 62
     7
420
 16777215
176
     1
 90
        1
176
     1
 90
        4
176
     1
 62
     7
176
     1
 62
   257
176
     1
 90
        1
176
     1
 90
        1
176
     1
 40
1.0
176
     1
 90
        8
176
     1
 62
     7
176
     1
 40
1.0
176
     1
 90
        1
176
     1
 90
        6
176
     1
 90
        2
176
     1
 62
     7
176
     1
 90
        5
176
     1
 90
        0
176
     1
 90
        0
176
     1
290
     0
176
     1
 90
        1
176
     1
 40
50.0
176
     1
 90
        0
176
     1
290
     0
176
     1
290
     1
176
     1
290
     1
176
     1
290
     0
176
     1
290
     0
176
     1
290
     0
176
     1
290
     0
176
     1
290
     0
176
     1
290
     0
176
     1
 90
       50
176
     1
 40
0.0
176
     1
 40
1.0
176
     1
 90
        0
176
     1
 62
    18
420
        0
176
     1
 90
       50
176
     1
 90
        3
176
     1
 62
     5
420
      255
176
     1
290
     0
176
     1
 90
       50
176
     1
 90
       50
176
     1
 90
       50
176
     1
290
     0
176
     1
 90
       50
176
     1
 62
   256
176
     0
 40
1.0
176
     0
 90
        2
176
     1
  1
strokes_ogs.tif
176
     1
290
     0
176
     1
 40
1.0
176
     1
 40
1.0
176
     1
  0
VISUALSTYLE
  5
39
102
{ACAD_REACTORS
330
29
102
}
330
29
100
AcDbVisualStyle
  2
ColorChange
 70
    16
177
     3
291
     1
 70
    58
 90
        2
176
     1
 90
        2
176
     1
 90
        3
176
     1
 90
        0
176
     1
 40
0.6
176
     1
 40
30.0
176
     1
 62
     8
420
  8421504
176
     1
 90
        1
176
     1
 90
        4
176
     1
 62
     7
176
     1
 62
   257
176
     1
 90
        1
176
     1
 90
        1
176
     1
 40
1.0
176
     1
 90
        8
176
     1
 62
     8
420
  8421504
176
     1
 40
1.0
176
     1
 90
        1
176
     1
 90
        6
176
     1
 90
        2
176
     1
 62
     7
176
     1
 90
        5
176
     1
 90
        0
176
     1
 90
        0
176
     1
290
     0
176
     1
 90
        1
176
     1
 40
0.0
176
     1
 90
        0
176
     1
290
     0
176
     1
290
     1
176
     1
290
     1
176
     1
290
     0
176
     1
290
     0
176
     1
290
     0
176
     1
290
     0
176
     1
290
     0
176
     1
290
     0
176
     1
 90
       50
176
     1
 40
0.0
176
     1
 40
1.0
176
     1
 90
        0
176
     1
 62
    18
420
        0
176
     1
 90
       50
176
     1
 90
        3
176
     1
 62
     5
420
      255
176
     1
290
     0
176
     1
 90
       50
176
     1
 90
       50
176
     1
 90
       50
176
     1
290
     0
176
     1
 90
       50
176
     1
 62
   256
176
     0
 40
1.0
176
     0
 90
        2
176
     1
  1
strokes_ogs.tif
176
     1
290
     0
176
     1
 40
1.0
176
     1
 40
1.0
176
     1
  0
VISUALSTYLE
  5
32
102
{ACAD_REACTORS
330
29
102
}
330
29
100
AcDbVisualStyle
  2
Conceptual
 70
     9
177
     3
291
     0
 70
    58
 90
        3
176
     1
 90
        2
176
     1
 90
        0
176
     1
 90
        0
176
     1
 40
0.6
176
     1
 40
30.0
176
     1
 62
     7
420
 16777215
176
     1
 90
        2
176
     1
 90
        2
176
     1
 62
     7
176
     1
 62
   257
176
     1
 90
        1
176
     1
 90
        1
176
     1
 40
179.0
176
     1
 90
        8
176
     1
 62
     7
176
     1
 40
1.0
176
     1
 90
        1
176
     1
 90
        6
176
     1
 90
        2
176
     1
 62
     7
176
     1
 90
        3
176
     1
 90
        0
176
     1
 90
        0
176
     1
290
     0
176
     1
 90
        1
176
     1
 40
0.0
176
     1
 90
        0
176
     1
290
     0
176
     1
290
     1
176
     1
290
     1
176
     1
290
     0
176
     1
290
     0
176
     1
290
     0
176
     1
290
     0
176
     1
290
     0
176
     1
290
     0
176
     1
 90
       50
176
     1
 40
0.0
176
     1
 40
1.0
176
     1
 90
        0
176
     1
 62
    18
420
        0
176
     1
 90
       50
176
     1
 90
        3
176
     1
 62
     5
420
      255
176
     1
290
     0
176
     1
 90
       50
176
     1
 90
       50
176
     1
 90
       50
176
     1
290
     0
176
     1
 90
       50
176
     1
 62
   256
176
     0
 40
1.0
176
     0
 90
        2
176
     1
  1
strokes_ogs.tif
176
     1
290
     0
176
     1
 40
1.0
176
     1
 40
1.0
176
     1
  0
VISUALSTYLE
  5
34
102
{ACAD_REACTORS
330
29
102
}
330
29
100
AcDbVisualStyle
  2
Dim
 70
    11
177
     3
291
     1
 70
    58
 90
        2
176
     1
 90
        2
176
     1
 90
        0
176
     1
 90
        0
176
     1
 40
0.6
176
     1
 40
30.0
176
     1
 62
     7
420
 16777215
176
     1
 90
        1
176
     1
 90
        4
176
     1
 62
     7
176
     1
 62
   257
176
     1
 90
        1
176
     1
 90
        1
176
     1
 40
1.0
176
     1
 90
        8
176
     1
 62
     7
176
     1
 40
1.0
176
     1
 90
        1
176
     1
 90
        6
176
     1
 90
        2
176
     1
 62
     7
176
     1
 90
        5
176
     1
 90
        0
176
     1
 90
        0
176
     1
290
     0
176
     1
 90
        1
176
     1
 40
-50.0
176
     1
 90
        0
176
     1
290
     0
176
     1
290
     1
176
     1
290
     1
176
     1
290
     0
176
     1
290
     0
176
     1
290
     0
176
     1
290
     0
176
     1
290
     0
176
     1
290
     0
176
     1
 90
       50
176
     1
 40
0.0
176
     1
 40
1.0
176
     1
 90
        0
176
     1
 62
    18
420
        0
176
     1
 90
       50
176
     1
 90
        3
176
     1
 62
     5
420
      255
176
     1
290
     0
176
     1
 90
       50
176
     1
 90
       50
176
     1
 90
       50
176
     1
290
     0
176
     1
 90
       50
176
     1
 62
   256
176
     0
 40
1.0
176
     0
 90
        2
176
     1
  1
strokes_ogs.tif
176
     1
290
     0
176
     1
 40
1.0
176
     1
 40
1.0
176
     1
  0
VISUALSTYLE
  5
41
102
{ACAD_REACTORS
330
29
102
}
330
29
100
AcDbVisualStyle
  2
EdgeColorOff
 70
    22
177
     3
291
     1
 70
    58
 90
        2
176
     0
 90
        2
176
     0
 90
        0
176
     0
 90
        0
176
     0
 40
0.6
176
     0
 40
30.0
176
     0
 62
     7
420
 16777215
176
     0
 90
        1
176
     0
 90
        4
176
     0
 62
     7
176
     0
 62
   257
176
     0
 90
        1
176
     0
 90
        1
176
     0
 40
1.0
176
     0
 90
        8
176
     2
 62
     7
176
     0
 40
1.0
176
     0
 90
        1
176
     0
 90
        6
176
     0
 90
        2
176
     0
 62
     7
176
     0
 90
        5
176
     0
 90
        0
176
     0
 90
        0
176
     0
290
     0
176
     0
 90
        1
176
     0
 40
0.0
176
     0
 90
        0
176
     0
290
     0
176
     0
290
     1
176
     0
290
     1
176
     0
290
     0
176
     0
290
     0
176
     0
290
     0
176
     0
290
     0
176
     0
290
     0
176
     0
290
     0
176
     0
 90
       50
176
     0
 40
0.0
176
     0
 40
1.0
176
     0
 90
        0
176
     0
 62
    18
420
        0
176
     0
 90
       50
176
     0
 90
        3
176
     0
 62
     5
420
      255
176
     0
290
     0
176
     0
 90
       50
176
     0
 90
       50
176
     0
 90
       50
176
     0
290
     0
176
     0
 90
       50
176
     0
 62
   256
176
     0
 40
1.0
176
     0
 90
        2
176
     0
  1
strokes_ogs.tif
176
     0
290
     0
176
     0
 40
1.0
176
     0
 40
1.0
176
     0
  0
VISUALSTYLE
  5
38
102
{ACAD_REACTORS
330
29
102
}
330
29
100
AcDbVisualStyle
  2
Facepattern
 70
    15
177
     3
291
     1
 70
    58
 90
        2
176
     1
 90
        2
176
     1
 90
        0
176
     1
 90
        0
176
     1
 40
0.6
176
     1
 40
30.0
176
     1
 62
     7
420
 16777215
176
     1
 90
        1
176
     1
 90
        4
176
     1
 62
     7
176
     1
 62
   257
176
     1
 90
        1
176
     1
 90
        1
176
     1
 40
1.0
176
     1
 90
        8
176
     1
 62
     7
176
     1
 40
1.0
176
     1
 90
        1
176
     1
 90
        6
176
     1
 90
        2
176
     1
 62
     7
176
     1
 90
        5
176
     1
 90
        0
176
     1
 90
        0
176
     1
290
     0
176
     1
 90
        1
176
     1
 40
0.0
176
     1
 90
        0
176
     1
290
     0
176
     1
290
     1
176
     1
290
     1
176
     1
290
     0
176
     1
290
     0
176
     1
290
     0
176
     1
290
     0
176
     1
290
     0
176
     1
290
     0
176
     1
 90
       50
176
     1
 40
0.0
176
     1
 40
1.0
176
     1
 90
        0
176
     1
 62
    18
420
        0
176
     1
 90
       50
176
     1
 90
        3
176
     1
 62
     5
420
      255
176
     1
290
     0
176
     1
 90
       50
176
     1
 90
       50
176
     1
 90
       50
176
     1
290
     0
176
     1
 90
       50
176
     1
 62
   256
176
     0
 40
1.0
176
     0
 90
        2
176
     1
  1
strokes_ogs.tif
176
     1
290
     0
176
     1
 40
1.0
176
     1
 40
1.0
176
     1
  0
VISUALSTYLE
  5
2A
102
{ACAD_REACTORS
330
29
102
}
330
29
100
AcDbVisualStyle
  2
Flat
 70
     0
177
     3
291
     1
 70
    58
 90
        2
176
     1
 90
        1
176
     1
 90
        1
176
     1
 90
        2
176
     1
 40
0.6
176
     1
 40
30.0
176
     1
 62
     7
420
 16777215
176
     1
 90
        0
176
     1
 90
        0
176
     1
 62
     7
176
     1
 62
   257
176
     1
 90
        1
176
     1
 90
        1
176
     1
 40
1.0
176
     1
 90
        8
176
     1
 62
     7
176
     1
 40
1.0
176
     1
 90
        1
176
     1
 90
        6
176
     1
 90
        2
176
     1
 62
     7
176
     1
 90
        5
176
     1
 90
        0
176
     1
 90
        0
176
     1
290
     0
176
     1
 90
       13
176
     1
 40
0.0
176
     1
 90
        0
176
     1
290
     0
176
     1
290
     1
176
     1
290
     1
176
     1
290
     0
176
     1
290
     0
176
     1
290
     0
176
     1
290
     0
176
     1
290
     0
176
     1
290
     0
176
     1
 90
       50
176
     1
 40
0.0
176
     1
 40
1.0
176
     1
 90
        0
176
     1
 62
    18
420
        0
176
     1
 90
       50
176
     1
 90
        3
176
     1
 62
     5
420
      255
176
     1
290
     0
176
     1
 90
       50
176
     1
 90
       50
176
     1
 90
       50
176
     1
290
     0
176
     1
 90
       50
176
     1
 62
   256
176
     0
 40
1.0
176
     0
 90
        2
176
     1
  1
strokes_ogs.tif
176
     1
290
     0
176
     1
 40
1.0
176
     1
 40
1.0
176
     1
  0
VISUALSTYLE
  5
2B
102
{ACAD_REACTORS
330
29
102
}
330
29
100
AcDbVisualStyle
  2
FlatWithEdges
 70
     1
177
     3
291
     1
 70
    58
 90
        2
176
     1
 90
        1
176
     1
 90
        1
176
     1
 90
        2
176
     1
 40
0.6
176
     1
 40
30.0
176
     1
 62
     7
420
 16777215
176
     1
 90
        1
176
     1
 90
        0
176
     1
 62
     7
176
     1
 62
   257
176
     1
 90
        1
176
     1
 90
        1
176
     1
 40
1.0
176
     1
 90
        0
176
     1
 62
   257
176
     1
 40
1.0
176
     1
 90
        1
176
     1
 90
        6
176
     1
 90
        2
176
     1
 62
     7
176
     1
 90
        5
176
     1
 90
        0
176
     1
 90
        0
176
     1
290
     0
176
     1
 90
       13
176
     1
 40
0.0
176
     1
 90
        0
176
     1
290
     0
176
     1
290
     1
176
     1
290
     1
176
     1
290
     0
176
     1
290
     0
176
     1
290
     0
176
     1
290
     0
176
     1
290
     0
176
     1
290
     0
176
     1
 90
       50
176
     1
 40
0.0
176
     1
 40
1.0
176
     1
 90
        0
176
     1
 62
    18
420
        0
176
     1
 90
       50
176
     1
 90
        3
176
     1
 62
     5
420
      255
176
     1
290
     0
176
     1
 90
       50
176
     1
 90
       50
176
     1
 90
       50
176
     1
290
     0
176
     1
 90
       50
176
     1
 62
   256
176
     0
 40
1.0
176
     0
 90
        2
176
     1
  1
strokes_ogs.tif
176
     1
290
     0
176
     1
 40
1.0
176
     1
 40
1.0
176
     1
  0
VISUALSTYLE
  5
2C
102
{ACAD_REACTORS
330
29
102
}
330
29
100
AcDbVisualStyle
  2
Gouraud
 70
     2
177
     3
291
     1
 70
    58
 90
        2
176
     1
 90
        2
176
     1
 90
        1
176
     1
 90
        2
176
     1
 40
0.6
176
     1
 40
30.0
176
     1
 62
     7
420
 16777215
176
     1
 90
        0
176
     1
 90
        0
176
     1
 62
     7
176
     1
 62
   257
176
     1
 90
        1
176
     1
 90
        1
176
     1
 40
1.0
176
     1
 90
        0
176
     1
 62
     7
176
     1
 40
1.0
176
     1
 90
        1
176
     1
 90
        6
176
     1
 90
        2
176
     1
 62
     7
176
     1
 90
        5
176
     1
 90
        0
176
     1
 90
        0
176
     1
290
     0
176
     1
 90
       13
176
     1
 40
0.0
176
     1
 90
        0
176
     1
290
     0
176
     1
290
     1
176
     1
290
     1
176
     1
290
     0
176
     1
290
     0
176
     1
290
     0
176
     1
290
     0
176
     1
290
     0
176
     1
290
     0
176
     1
 90
       50
176
     1
 40
0.0
176
     1
 40
1.0
176
     1
 90
        0
176
     1
 62
    18
420
        0
176
     1
 90
       50
176
     1
 90
        3
176
     1
 62
     5
420
      255
176
     1
290
     0
176
     1
 90
       50
176
     1
 90
       50
176
     1
 90
       50
176
     1
290
     0
176
     1
 90
       50
176
     1
 62
   256
176
     0
 40
1.0
176
     0
 90
        2
176
     1
  1
strokes_ogs.tif
176
     1
290
     0
176
     1
 40
1.0
176
     1
 40
1.0
176
     1
  0
VISUALSTYLE
  5
2D
102
{ACAD_REACTORS
330
29
102
}
330
29
100
AcDbVisualStyle
  2
GouraudWithEdges
 70
     3
177
     3
291
     1
 70
    58
 90
        2
176
     1
 90
        2
176
     1
 90
        1
176
     1
 90
        2
176
     1
 40
0.6
176
     1
 40
30.0
176
     1
 62
     7
420
 16777215
176
     1
 90
        1
176
     1
 90
        0
176
     1
 62
     7
176
     1
 62
   257
176
     1
 90
        1
176
     1
 90
        1
176
     1
 40
1.0
176
     1
 90
        0
176
     1
 62
   257
176
     1
 40
1.0
176
     1
 90
        1
176
     1
 90
        6
176
     1
 90
        2
176
     1
 62
     7
176
     1
 90
        5
176
     1
 90
        0
176
     1
 90
        0
176
     1
290
     0
176
     1
 90
       13
176
     1
 40
0.0
176
     1
 90
        0
176
     1
290
     0
176
     1
290
     1
176
     1
290
     1
176
     1
290
     0
176
     1
290
     0
176
     1
290
     0
176
     1
290
     0
176
     1
290
     0
176
     1
290
     0
176
     1
 90
       50
176
     1
 40
0.0
176
     1
 40
1.0
176
     1
 90
        0
176
     1
 62
    18
420
        0
176
     1
 90
       50
176
     1
 90
        3
176
     1
 62
     5
420
      255
176
     1
290
     0
176
     1
 90
       50
176
     1
 90
       50
176
     1
 90
       50
176
     1
290
     0
176
     1
 90
       50
176
     1
 62
   256
176
     0
 40
1.0
176
     0
 90
        2
176
     1
  1
strokes_ogs.tif
176
     1
290
     0
176
     1
 40
1.0
176
     1
 40
1.0
176
     1
  0
VISUALSTYLE
  5
31
102
{ACAD_REACTORS
330
29
102
}
330
29
100
AcDbVisualStyle
  2
Hidden
 70
     6
177
     3
291
     0
 70
    58
 90
        1
176
     1
 90
        2
176
     1
 90
        2
176
     1
 90
        0
176
     1
 40
0.6
176
     1
 40
30.0
176
     1
 62
     7
420
 16777215
176
     1
 90
        2
176
     1
 90
        2
176
     1
 62
     7
176
     1
 62
   257
176
     1
 90
        2
176
     1
 90
        1
176
     1
 40
40.0
176
     1
 90
        0
176
     1
 62
   257
176
     1
 40
1.0
176
     1
 90
        1
176
     1
 90
        6
176
     1
 90
        2
176
     1
 62
     7
176
     1
 90
        3
176
     1
 90
        0
176
     1
 90
        0
176
     1
290
     0
176
     1
 90
        1
176
     1
 40
0.0
176
     1
 90
        0
176
     1
290
     0
176
     1
290
     1
176
     1
290
     1
176
     1
290
     0
176
     1
290
     0
176
     1
290
     0
176
     1
290
     0
176
     1
290
     0
176
     1
290
     0
176
     1
 90
       50
176
     1
 40
0.0
176
     1
 40
1.0
176
     1
 90
        0
176
     1
 62
    18
420
        0
176
     1
 90
       50
176
     1
 90
        3
176
     1
 62
     5
420
      255
176
     1
290
     0
176
     1
 90
       50
176
     1
 90
       50
176
     1
 90
       50
176
     1
290
     0
176
     1
 90
       50
176
     1
 62
   256
176
     0
 40
1.0
176
     0
 90
        2
176
     1
  1
strokes_ogs.tif
176
     1
290
     0
176
     1
 40
1.0
176
     1
 40
1.0
176
     1
  0
VISUALSTYLE
  5
3F
102
{ACAD_REACTORS
330
29
102
}
330
29
100
AcDbVisualStyle
  2
JitterOff
 70
    20
177
     3
291
     1
 70
    58
 90
        2
176
     0
 90
        2
176
     0
 90
        0
176
     0
 90
        0
176
     0
 40
0.6
176
     0
 40
30.0
176
     0
 62
     7
420
 16777215
176
     0
 90
        1
176
     0
 90
        4
176
     0
 62
     7
176
     0
 62
   257
176
     0
 90
        1
176
     0
 90
        1
176
     0
 40
1.0
176
     0
 90
       10
176
     2
 62
     7
176
     0
 40
1.0
176
     0
 90
        1
176
     0
 90
        6
176
     0
 90
        2
176
     0
 62
     7
176
     0
 90
        5
176
     0
 90
        0
176
     0
 90
        0
176
     0
290
     0
176
     0
 90
        1
176
     0
 40
0.0
176
     0
 90
        0
176
     0
290
     0
176
     0
290
     1
176
     0
290
     1
176
     0
290
     0
176
     0
290
     0
176
     0
290
     0
176
     0
290
     0
176
     0
290
     0
176
     0
290
     0
176
     0
 90
       50
176
     0
 40
0.0
176
     0
 40
1.0
176
     0
 90
        0
176
     0
 62
    18
420
        0
176
     0
 90
       50
176
     0
 90
        3
176
     0
 62
     5
420
      255
176
     0
290
     0
176
     0
 90
       50
176
     0
 90
       50
176
     0
 90
       50
176
     0
290
     0
176
     0
 90
       50
176
     0
 62
   256
176
     0
 40
1.0
176
     0
 90
        2
176
     0
  1
strokes_ogs.tif
176
     0
290
     0
176
     0
 40
1.0
176
     0
 40
1.0
176
     0
  0
VISUALSTYLE
  5
37
102
{ACAD_REACTORS
330
29
102
}
330
29
100
AcDbVisualStyle
  2
Linepattern
 70
    14
177
     3
291
     1
 70
    58
 90
        2
176
     1
 90
        2
176
     1
 90
        0
176
     1
 90
        0
176
     1
 40
0.6
176
     1
 40
30.0
176
     1
 62
     7
420
 16777215
176
     1
 90
        1
176
     1
 90
        4
176
     1
 62
     7
176
     1
 62
   257
176
     1
 90
        7
176
     1
 90
        7
176
     1
 40
1.0
176
     1
 90
        8
176
     1
 62
     7
176
     1
 40
1.0
176
     1
 90
        1
176
     1
 90
        6
176
     1
 90
        2
176
     1
 62
     7
176
     1
 90
        5
176
     1
 90
        0
176
     1
 90
        0
176
     1
290
     0
176
     1
 90
        1
176
     1
 40
0.0
176
     1
 90
        0
176
     1
290
     0
176
     1
290
     1
176
     1
290
     1
176
     1
290
     0
176
     1
290
     0
176
     1
290
     0
176
     1
290
     0
176
     1
290
     0
176
     1
290
     0
176
     1
 90
       50
176
     1
 40
0.0
176
     1
 40
1.0
176
     1
 90
        0
176
     1
 62
    18
420
        0
176
     1
 90
       50
176
     1
 90
        3
176
     1
 62
     5
420
      255
176
     1
290
     0
176
     1
 90
       50
176
     1
 90
       50
176
     1
 90
       50
176
     1
290
     0
176
     1
 90
       50
176
     1
 62
   256
176
     0
 40
1.0
176
     0
 90
        2
176
     1
  1
strokes_ogs.tif
176
     1
290
     0
176
     1
 40
1.0
176
     1
 40
1.0
176
     1
  0
VISUALSTYLE
  5
40
102
{ACAD_REACTORS
330
29
102
}
330
29
100
AcDbVisualStyle
  2
OverhangOff
 70
    21
177
     3
291
     1
 70
    58
 90
        2
176
     0
 90
        2
176
     0
 90
        0
176
     0
 90
        0
176
     0
 40
0.6
176
     0
 40
30.0
176
     0
 62
     7
420
 16777215
176
     0
 90
        1
176
     0
 90
        4
176
     0
 62
     7
176
     0
 62
   257
176
     0
 90
        1
176
     0
 90
        1
176
     0
 40
1.0
176
     0
 90
        9
176
     2
 62
     7
176
     0
 40
1.0
176
     0
 90
        1
176
     0
 90
        6
176
     0
 90
        2
176
     0
 62
     7
176
     0
 90
        5
176
     0
 90
        0
176
     0
 90
        0
176
     0
290
     0
176
     0
 90
        1
176
     0
 40
0.0
176
     0
 90
        0
176
     0
290
     0
176
     0
290
     1
176
     0
290
     1
176
     0
290
     0
176
     0
290
     0
176
     0
290
     0
176
     0
290
     0
176
     0
290
     0
176
     0
290
     0
176
     0
 90
       50
176
     0
 40
0.0
176
     0
 40
1.0
176
     0
 90
        0
176
     0
 62
    18
420
        0
176
     0
 90
       50
176
     0
 90
        3
176
     0
 62
     5
420
      255
176
     0
290
     0
176
     0
 90
       50
176
     0
 90
       50
176
     0
 90
       50
176
     0
290
     0
176
     0
 90
       50
176
     0
 62
   256
176
     0
 40
1.0
176
     0
 90
        2
176
     0
  1
strokes_ogs.tif
176
     0
290
     0
176
     0
 40
1.0
176
     0
 40
1.0
176
     0
  0
VISUALSTYLE
  5
33
102
{ACAD_REACTORS
330
29
102
}
330
29
100
AcDbVisualStyle
  2
Realistic
 70
     8
177
     3
291
     0
 70
    58
 90
        2
176
     1
 90
        3
176
     1
 90
        0
176
     1
 90
        2
176
     1
 40
0.6
176
     1
 40
30.0
176
     1
 62
     7
420
 16777215
176
     1
 90
        0
176
     1
 90
        0
176
     1
 62
     7
176
     1
 62
   257
176
     1
 90
        1
176
     1
 90
        1
176
     1
 40
1.0
176
     1
 90
        8
176
     1
 62
   257
176
     1
 40
1.0
176
     1
 90
        1
176
     1
 90
        6
176
     1
 90
        2
176
     1
 62
     7
176
     1
 90
        3
176
     1
 90
        0
176
     1
 90
        0
176
     1
290
     0
176
     1
 90
       13
176
     1
 40
0.0
176
     1
 90
        0
176
     1
290
     0
176
     1
290
     1
176
     1
290
     1
176
     1
290
     0
176
     1
290
     0
176
     1
290
     0
176
     1
290
     0
176
     1
290
     0
176
     1
290
     0
176
     1
 90
       50
176
     1
 40
0.0
176
     1
 40
1.0
176
     1
 90
        0
176
     1
 62
    18
420
        0
176
     1
 90
       50
176
     1
 90
        3
176
     1
 62
     5
420
      255
176
     1
290
     0
176
     1
 90
       50
176
     1
 90
       50
176
     1
 90
       50
176
     1
290
     0
176
     1
 90
       50
176
     1
 62
   256
176
     0
 40
1.0
176
     0
 90
        2
176
     1
  1
strokes_ogs.tif
176
     1
290
     0
176
     1
 40
1.0
176
     1
 40
1.0
176
     1
  0
VISUALSTYLE
  5
3E
102
{ACAD_REACTORS
330
29
102
}
330
29
100
AcDbVisualStyle
  2
Shaded
 70
    27
177
     3
291
     0
 70
    58
 90
        2
176
     1
 90
        2
176
     1
 90
        1
176
     1
 90
        2
176
     1
 40
0.6
176
     1
 40
30.0
176
     1
 62
     7
420
 16777215
176
     1
 90
        0
176
     1
 90
        4
176
     1
 62
     7
176
     1
 62
   257
176
     1
 90
        1
176
     1
 90
        1
176
     1
 40
1.0
176
     1
 90
        8
176
     1
 62
   257
176
     1
 40
1.0
176
     1
 90
        1
176
     1
 90
        6
176
     1
 90
        2
176
     1
 62
     8
420
  7895160
176
     1
 90
        3
176
     1
 90
        0
176
     1
 90
        0
176
     1
290
     0
176
     1
 90
        5
176
     1
 40
0.0
176
     1
 90
        0
176
     1
290
     0
176
     1
290
     1
176
     1
290
     1
176
     1
290
     0
176
     1
290
     0
176
     1
290
     0
176
     1
290
     0
176
     1
290
     0
176
     1
290
     0
176
     1
 90
       50
176
     1
 40
0.0
176
     1
 40
1.0
176
     1
 90
        0
176
     1
 62
    18
420
        0
176
     1
 90
       50
176
     1
 90
        3
176
     1
 62
     5
420
      255
176
     1
290
     0
176
     1
 90
       50
176
     1
 90
       50
176
     1
 90
       50
176
     1
290
     0
176
     1
 90
       50
176
     1
 62
   256
176
     0
 40
1.0
176
     0
 90
        2
176
     1
  1
strokes_ogs.tif
176
     1
290
     0
176
     1
 40
1.0
176
     1
 40
1.0
176
     1
  0
VISUALSTYLE
  5
3D
102
{ACAD_REACTORS
330
29
102
}
330
29
100
AcDbVisualStyle
  2
Shaded with edges
 70
    26
177
     3
291
     0
 70
    58
 90
        2
176
     1
 90
        2
176
     1
 90
        1
176
     1
 90
        2
176
     1
 40
0.6
176
     1
 40
30.0
176
     1
 62
     7
420
 16777215
176
     1
 90
        1
176
     1
 90
        2
176
     1
 62
     7
176
     1
 62
   257
176
     1
 90
        2
176
     1
 90
        1
176
     1
 40
1.0
176
     1
 90
        8
176
     1
 62
   257
176
     1
 40
1.0
176
     1
 90
        1
176
     1
 90
        6
176
     1
 90
        2
176
     1
 62
     7
176
     1
 90
        3
176
     1
 90
        0
176
     1
 90
        0
176
     1
290
     0
176
     1
 90
        5
176
     1
 40
0.0
176
     1
 90
        0
176
     1
290
     0
176
     1
290
     1
176
     1
290
     1
176
     1
290
     0
176
     1
290
     0
176
     1
290
     0
176
     1
290
     0
176
     1
290
     0
176
     1
290
     0
176
     1
 90
       50
176
     1
 40
0.0
176
     1
 40
1.0
176
     1
 90
        0
176
     1
 62
    18
420
        0
176
     1
 90
       50
176
     1
 90
        3
176
     1
 62
     5
420
      255
176
     1
290
     0
176
     1
 90
       50
176
     1
 90
       50
176
     1
 90
       50
176
     1
290
     0
176
     1
 90
       50
176
     1
 62
   256
176
     0
 40
1.0
176
     0
 90
        2
176
     1
  1
strokes_ogs.tif
176
     1
290
     0
176
     1
 40
1.0
176
     1
 40
1.0
176
     1
  0
VISUALSTYLE
  5
3A
102
{ACAD_REACTORS
330
29
102
}
330
29
100
AcDbVisualStyle
  2
Shades of Gray
 70
    23
177
     3
291
     0
 70
    58
 90
        2
176
     1
 90
        2
176
     1
 90
        3
176
     1
 90
        0
176
     1
 40
0.6
176
     1
 40
30.0
176
     1
 62
     7
420
 16777215
176
     1
 90
        2
176
     1
 90
        2
176
     1
 62
     7
176
     1
 62
     7
176
     1
 90
        1
176
     1
 90
        1
176
     1
 40
40.0
176
     1
 90
        8
176
     1
 62
     7
176
     1
 40
1.0
176
     1
 90
        1
176
     1
 90
        6
176
     1
 90
        2
176
     1
 62
     7
176
     1
 90
        3
176
     1
 90
        0
176
     1
 90
        0
176
     1
290
     0
176
     1
 90
        1
176
     1
 40
0.0
176
     1
 90
        0
176
     1
290
     0
176
     1
290
     1
176
     1
290
     1
176
     1
290
     0
176
     1
290
     0
176
     1
290
     0
176
     1
290
     0
176
     1
290
     0
176
     1
290
     0
176
     1
 90
       50
176
     1
 40
0.0
176
     1
 40
1.0
176
     1
 90
        0
176
     1
 62
    18
420
        0
176
     1
 90
       50
176
     1
 90
        3
176
     1
 62
     5
420
      255
176
     1
290
     0
176
     1
 90
       50
176
     1
 90
       50
176
     1
 90
       50
176
     1
290
     0
176
     1
 90
       50
176
     1
 62
   256
176
     0
 40
1.0
176
     0
 90
        2
176
     1
  1
strokes_ogs.tif
176
     1
290
     0
176
     1
 40
1.0
176
     1
 40
1.0
176
     1
  0
VISUALSTYLE
  5
3B
102
{ACAD_REACTORS
330
29
102
}
330
29
100
AcDbVisualStyle
  2
Sketchy
 70
    24
177
     3
291
     0
 70
    58
 90
        1
176
     1
 90
        2
176
     1
 90
        2
176
     1
 90
        0
176
     1
 40
0.6
176
     1
 40
30.0
176
     1
 62
     7
420
 16777215
176
     1
 90
        2
176
     1
 90
        2
176
     1
 62
     7
176
     1
 62
     7
176
     1
 90
        1
176
     1
 90
        1
176
     1
 40
40.0
176
     1
 90
       11
176
     1
 62
     7
176
     1
 40
1.0
176
     1
 90
        1
176
     1
 90
        6
176
     1
 90
        2
176
     1
 62
     7
176
     1
 90
        6
176
     1
 90
        0
176
     1
 90
        0
176
     1
290
     0
176
     1
 90
        1
176
     1
 40
0.0
176
     1
 90
        0
176
     1
290
     0
176
     1
290
     1
176
     1
290
     1
176
     1
290
     0
176
     1
290
     0
176
     1
290
     0
176
     1
290
     0
176
     1
290
     0
176
     1
290
     0
176
     1
 90
       50
176
     1
 40
0.0
176
     1
 40
1.0
176
     1
 90
        0
176
     1
 62
    18
420
        0
176
     1
 90
       50
176
     1
 90
        3
176
     1
 62
     5
420
      255
176
     1
290
     0
176
     1
 90
       50
176
     1
 90
       50
176
     1
 90
       50
176
     1
290
     0
176
     1
 90
       50
176
     1
 62
   256
176
     0
 40
1.0
176
     0
 90
        2
176
     1
  1
strokes_ogs.tif
176
     1
290
     0
176
     1
 40
1.0
176
     1
 40
1.0
176
     1
  0
VISUALSTYLE
  5
36
102
{ACAD_REACTORS
330
29
102
}
330
29
100
AcDbVisualStyle
  2
Thicken
 70
    13
177
     3
291
     1
 70
    58
 90
        2
176
     1
 90
        2
176
     1
 90
        0
176
     1
 90
        0
176
     1
 40
0.6
176
     1
 40
30.0
176
     1
 62
     7
420
 16777215
176
     1
 90
        1
176
     1
 90
        4
176
     1
 62
     7
176
     1
 62
   257
176
     1
 90
        1
176
     1
 90
        1
176
     1
 40
1.0
176
     1
 90
       12
176
     1
 62
     7
176
     1
 40
1.0
176
     1
 90
        1
176
     1
 90
        6
176
     1
 90
        2
176
     1
 62
     7
176
     1
 90
        5
176
     1
 90
        0
176
     1
 90
        0
176
     1
290
     0
176
     1
 90
        1
176
     1
 40
0.0
176
     1
 90
        0
176
     1
290
     0
176
     1
290
     1
176
     1
290
     1
176
     1
290
     0
176
     1
290
     0
176
     1
290
     0
176
     1
290
     0
176
     1
290
     0
176
     1
290
     0
176
     1
 90
       50
176
     1
 40
0.0
176
     1
 40
1.0
176
     1
 90
        0
176
     1
 62
    18
420
        0
176
     1
 90
       50
176
     1
 90
        3
176
     1
 62
     5
420
      255
176
     1
290
     0
176
     1
 90
       50
176
     1
 90
       50
176
     1
 90
       50
176
     1
290
     0
176
     1
 90
       50
176
     1
 62
   256
176
     0
 40
1.0
176
     0
 90
        2
176
     1
  1
strokes_ogs.tif
176
     1
290
     0
176
     1
 40
1.0
176
     1
 40
1.0
176
     1
  0
VISUALSTYLE
  5
30
102
{ACAD_REACTORS
330
29
102
}
330
29
100
AcDbVisualStyle
  2
Wireframe
 70
     5
177
     3
291
     0
 70
    58
 90
        0
176
     1
 90
        2
176
     1
 90
        0
176
     1
 90
        0
176
     1
 40
0.6
176
     1
 40
30.0
176
     1
 62
     7
420
 16777215
176
     1
 90
        1
176
     1
 90
        4
176
     1
 62
     7
176
     1
 62
   257
176
     1
 90
        1
176
     1
 90
        1
176
     1
 40
1.0
176
     1
 90
        0
176
     1
 62
   257
176
     1
 40
1.0
176
     1
 90
        1
176
     1
 90
        6
176
     1
 90
        2
176
     1
 62
     7
176
     1
 90
        3
176
     1
 90
        0
176
     1
 90
        0
176
     1
290
     0
176
     1
 90
        1
176
     1
 40
0.0
176
     1
 90
        0
176
     1
290
     0
176
     1
290
     1
176
     1
290
     1
176
     1
290
     0
176
     1
290
     0
176
     1
290
     0
176
     1
290
     0
176
     1
290
     0
176
     1
290
     0
176
     1
 90
       50
176
     1
 40
0.0
176
     1
 40
1.0
176
     1
 90
        0
176
     1
 62
    18
420
        0
176
     1
 90
       50
176
     1
 90
        3
176
     1
 62
     5
420
      255
176
     1
290
     0
176
     1
 90
       50
176
     1
 90
       50
176
     1
 90
       50
176
     1
290
     0
176
     1
 90
       50
176
     1
 62
   256
176
     0
 40
1.0
176
     0
 90
        2
176
     1
  1
strokes_ogs.tif
176
     1
290
     0
176
     1
 40
1.0
176
     1
 40
1.0
176
     1
  0
VISUALSTYLE
  5
3C
102
{ACAD_REACTORS
330
29
102
}
330
29
100
AcDbVisualStyle
  2
X-Ray
 70
    25
177
     3
291
     0
 70
    58
 90
        2
176
     1
 90
        2
176
     1
 90
        1
176
     1
 90
        1
176
     1
 40
0.5
176
     1
 40
30.0
176
     1
 62
     7
420
 16777215
176
     1
 90
        1
176
     1
 90
        0
176
     1
 62
     7
176
     1
 62
   257
176
     1
 90
        1
176
     1
 90
        1
176
     1
 40
1.0
176
     1
 90
        8
176
     1
 62
     7
176
     1
 40
1.0
176
     1
 90
        1
176
     1
 90
        6
176
     1
 90
        2
176
     1
 62
     7
176
     1
 90
        3
176
     1
 90
        0
176
     1
 90
        0
176
     1
290
     0
176
     1
 90
       13
176
     1
 40
0.0
176
     1
 90
        0
176
     1
290
     0
176
     1
290
     1
176
     1
290
     1
176
     1
290
     0
176
     1
290
     0
176
     1
290
     0
176
     1
290
     0
176
     1
290
     0
176
     1
290
     0
176
     1
 90
       50
176
     1
 40
0.0
176
     1
 40
1.0
176
     1
 90
        0
176
     1
 62
    18
420
        0
176
     1
 90
       50
176
     1
 90
        3
176
     1
 62
     5
420
      255
176
     1
290
     0
176
     1
 90
       50
176
     1
 90
       50
176
     1
 90
       50
176
     1
290
     0
176
     1
 90
       50
176
     1
 62
   256
176
     0
 40
1.0
176
     0
 90
        2
176
     1
  1
strokes_ogs.tif
176
     1
290
     0
176
     1
 40
1.0
176
     1
 40
1.0
176
     1
  0
DICTIONARYVAR
  5
2E0
102
{ACAD_REACTORS
330
2DB
102
}
330
2DB
100
DictionaryVariables
280
     0
  1
1:1
  0
DICTIONARYVAR
  5
2DD
102
{ACAD_REACTORS
330
2DB
102
}
330
2DB
100
DictionaryVariables
280
     0
  1
STANDARD
  0
DICTIONARYVAR
  5
2DC
102
{ACAD_REACTORS
330
2DB
102
}
330
2DB
100
DictionaryVariables
280
     0
  1
STANDARD
  0
DICTIONARYVAR
  5
2DE
102
{ACAD_REACTORS
330
2DB
102
}
330
2DB
100
DictionaryVariables
280
     0
  1
Imperial24
  0
DICTIONARYVAR
  5
2DF
102
{ACAD_REACTORS
330
2DB
102
}
330
2DB
100
DictionaryVariables
280
     0
  1
Imperial24
  0
DICTIONARY
  5
1A
330
19
100
AcDbDictionary
280
     1
281
     1
  3
BUMPTILE
360
1C
  3
DIFFUSETILE
360
1B
  3
OPACITYTILE
360
1F
  3
REFLECTIONTILE
360
1E
  3
REFRACTIONTILE
360
20
  3
SPECULARTILE
360
1D
  0
DICTIONARY
  5
12
330
11
100
AcDbDictionary
280
     1
281
     1
  3
BUMPTILE
360
14
  3
DIFFUSETILE
360
13
  3
OPACITYTILE
360
17
  3
REFLECTIONTILE
360
16
  3
REFRACTIONTILE
360
18
  3
SPECULARTILE
360
15
  0
DICTIONARY
  5
22
330
21
100
AcDbDictionary
280
     1
281
     1
  3
BUMPTILE
360
24
  3
DIFFUSETILE
360
23
  3
OPACITYTILE
360
27
  3
REFLECTIONTILE
360
26
  3
REFRACTIONTILE
360
28
  3
SPECULARTILE
360
25
  0
DICTIONARY
  5
2E1
330
65
100
AcDbDictionary
280
     1
281
     1
  3
ACAD_ROUNDTRIP_2008_TABLESTYLE_CELLSTYLEMAP
360
2E2
  0
XRECORD
  5
1C
102
{ACAD_REACTORS
330
1A
102
}
330
1A
100
AcDbXrecord
280
     1
270
     1
271
     1
  0
XRECORD
  5
1B
102
{ACAD_REACTORS
330
1A
102
}
330
1A
100
AcDbXrecord
280
     1
270
     1
271
     1
  0
XRECORD
  5
1F
102
{ACAD_REACTORS
330
1A
102
}
330
1A
100
AcDbXrecord
280
     1
270
     1
271
     1
  0
XRECORD
  5
1E
102
{ACAD_REACTORS
330
1A
102
}
330
1A
100
AcDbXrecord
280
     1
270
     1
271
     1
  0
XRECORD
  5
20
102
{ACAD_REACTORS
330
1A
102
}
330
1A
100
AcDbXrecord
280
     1
270
     1
271
     1
  0
XRECORD
  5
1D
102
{ACAD_REACTORS
330
1A
102
}
330
1A
100
AcDbXrecord
280
     1
270
     1
271
     1
  0
XRECORD
  5
14
102
{ACAD_REACTORS
330
12
102
}
330
12
100
AcDbXrecord
280
     1
270
     1
271
     1
  0
XRECORD
  5
13
102
{ACAD_REACTORS
330
12
102
}
330
12
100
AcDbXrecord
280
     1
270
     1
271
     1
  0
XRECORD
  5
17
102
{ACAD_REACTORS
330
12
102
}
330
12
100
AcDbXrecord
280
     1
270
     1
271
     1
  0
XRECORD
  5
16
102
{ACAD_REACTORS
330
12
102
}
330
12
100
AcDbXrecord
280
     1
270
     1
271
     1
  0
XRECORD
  5
18
102
{ACAD_REACTORS
330
12
102
}
330
12
100
AcDbXrecord
280
     1
270
     1
271
     1
  0
XRECORD
  5
15
102
{ACAD_REACTORS
330
12
102
}
330
12
100
AcDbXrecord
280
     1
270
     1
271
     1
  0
XRECORD
  5
24
102
{ACAD_REACTORS
330
22
102
}
330
22
100
AcDbXrecord
280
     1
270
     1
271
     1
  0
XRECORD
  5
23
102
{ACAD_REACTORS
330
22
102
}
330
22
100
AcDbXrecord
280
     1
270
     1
271
     1
  0
XRECORD
  5
27
102
{ACAD_REACTORS
330
22
102
}
330
22
100
AcDbXrecord
280
     1
270
     1
271
     1
  0
XRECORD
  5
26
102
{ACAD_REACTORS
330
22
102
}
330
22
100
AcDbXrecord
280
     1
270
     1
271
     1
  0
XRECORD
  5
28
102
{ACAD_REACTORS
330
22
102
}
330
22
100
AcDbXrecord
280
     1
270
     1
271
     1
  0
XRECORD
  5
25
102
{ACAD_REACTORS
330
22
102
}
330
22
100
AcDbXrecord
280
     1
270
     1
271
     1
  0
CELLSTYLEMAP
  5
2E2
102
{ACAD_REACTORS
330
2E1
102
}
330
2E1
100
AcDbCellStyleMap
 90
        3
300
CELLSTYLE
  1
TABLEFORMAT_BEGIN
 90
        5
170
     1
 91
        0
 92
    32768
 62
   257
 93
        1
300
CONTENTFORMAT
  1
CONTENTFORMAT_BEGIN
 90
        0
 91
        0
 92
      512
 93
        0
300

 40
0.0
140
1.0
 94
        5
 62
     0
340
55
144
0.25
309
CONTENTFORMAT_END
171
     0
 94
        0
309
TABLEFORMAT_END
  1
CELLSTYLE_BEGIN
 90
        1
 91
        1
300
_TITLE
309
CELLSTYLE_END
300
CELLSTYLE
  1
TABLEFORMAT_BEGIN
 90
        5
170
     1
 91
        0
 92
        0
 62
   257
 93
        1
300
CONTENTFORMAT
  1
CONTENTFORMAT_BEGIN
 90
        0
 91
        0
 92
      512
 93
        0
300

 40
0.0
140
1.0
 94
        5
 62
     0
340
55
144
0.18
309
CONTENTFORMAT_END
171
     0
 94
        0
309
TABLEFORMAT_END
  1
CELLSTYLE_BEGIN
 90
        2
 91
        1
300
_HEADER
309
CELLSTYLE_END
300
CELLSTYLE
  1
TABLEFORMAT_BEGIN
 90
        5
170
     1
 91
        0
 92
        0
 62
   257
 93
        1
300
CONTENTFORMAT
  1
CONTENTFORMAT_BEGIN
 90
        0
 91
        0
 92
      512
 93
        0
300

 40
0.0
140
1.0
 94
        2
 62
     0
340
55
144
0.18
309
CONTENTFORMAT_END
171
     0
 94
        0
309
TABLEFORMAT_END
  1
CELLSTYLE_BEGIN
 90
        3
 91
        2
300
_DATA
309
CELLSTYLE_END
  0
ENDSEC
  0
EOF
