  0
SECTION
  2
HEADER
  9
$ACADVER
  1
AC1032
  9
$ACADMAINTVER
 90
      251
  9
$DWGCODEPAGE
  3
ANSI_1252
  9
$REQUIREDVERSIONS
160
                 0
  9
$INSBASE
 10
0.0
 20
0.0
 30
0.0
  9
$EXTMIN
 10
1.000000000000000E+20
 20
1.000000000000000E+20
 30
1.000000000000000E+20
  9
$EXTMAX
 10
-1.000000000000000E+20
 20
-1.000000000000000E+20
 30
-1.000000000000000E+20
  9
$LIMMIN
 10
0.0
 20
0.0
  9
$LIMMAX
 10
12.0
 20
9.0
  9
$ORTHOMODE
 70
     0
  9
$REGENMODE
 70
     1
  9
$FILLMODE
 70
     1
  9
$QTEXTMODE
 70
     0
  9
$MIRRTEXT
 70
     0
  9
$LTSCALE
 40
1.0
  9
$ATTMODE
 70
     1
  9
$TEXTSIZE
 40
0.2
  9
$TRACEWID
 40
0.05
  9
$TEXTSTYLE
  7
Standard
  9
$CLAYER
  8
0
  9
$CELTYPE
  6
ByLayer
  9
$CECOLOR
 62
   256
  9
$CELTSCALE
 40
1.0
  9
$DISPSILH
 70
     0
  9
$DIMSCALE
 40
1.0
  9
$DIMASZ
 40
0.18
  9
$DIMEXO
 40
0.0625
  9
$DIMDLI
 40
0.38
  9
$DIMRND
 40
0.0
  9
$DIMDLE
 40
0.0
  9
$DIMEXE
 40
0.18
  9
$DIMTP
 40
0.0
  9
$DIMTM
 40
0.0
  9
$DIMTXT
 40
0.18
  9
$DIMCEN
 40
0.09
  9
$DIMTSZ
 40
0.0
  9
$DIMTOL
 70
     0
  9
$DIMLIM
 70
     0
  9
$DIMTIH
 70
     1
  9
$DIMTOH
 70
     1
  9
$DIMSE1
 70
     0
  9
$DIMSE2
 70
     0
  9
$DIMTAD
 70
     0
  9
$DIMZIN
 70
     0
  9
$DIMBLK
  1

  9
$DIMASO
 70
     1
  9
$DIMSHO
 70
     1
  9
$DIMPOST
  1

  9
$DIMAPOST
  1

  9
$DIMALT
 70
     0
  9
$DIMALTD
 70
     2
  9
$DIMALTF
 40
25.4
  9
$DIMLFAC
 40
1.0
  9
$DIMTOFL
 70
     0
  9
$DIMTVP
 40
0.0
  9
$DIMTIX
 70
     0
  9
$DIMSOXD
 70
     0
  9
$DIMSAH
 70
     0
  9
$DIMBLK1
  1

  9
$DIMBLK2
  1

  9
$DIMSTYLE
  2
Standard
  9
$DIMCLRD
 70
     0
  9
$DIMCLRE
 70
     0
  9
$DIMCLRT
 70
     0
  9
$DIMTFAC
 40
1.0
  9
$DIMGAP
 40
0.09
  9
$DIMJUST
 70
     0
  9
$DIMSD1
 70
     0
  9
$DIMSD2
 70
     0
  9
$DIMTOLJ
 70
     1
  9
$DIMTZIN
 70
     0
  9
$DIMALTZ
 70
     0
  9
$DIMALTTZ
 70
     0
  9
$DIMUPT
 70
     0
  9
$DIMDEC
 70
     4
  9
$DIMTDEC
 70
     4
  9
$DIMALTU
 70
     2
  9
$DIMALTTD
 70
     2
  9
$DIMTXSTY
  7
Standard
  9
$DIMAUNIT
 70
     0
  9
$DIMADEC
 70
     0
  9
$DIMALTRND
 40
0.0
  9
$DIMAZIN
 70
     0
  9
$DIMDSEP
 70
    46
  9
$DIMATFIT
 70
     3
  9
$DIMFRAC
 70
     0
  9
$DIMLDRBLK
  1

  9
$DIMLUNIT
 70
     2
  9
$DIMLWD
 70
    -2
  9
$DIMLWE
 70
    -2
  9
$DIMTMOVE
 70
     0
  9
$DIMFXL
 40
1.0
  9
$DIMFXLON
 70
     0
  9
$DIMJOGANG
 40
0.7853981633974483
  9
$DIMTFILL
 70
     0
  9
$DIMTFILLCLR
 70
     0
  9
$DIMARCSYM
 70
     0
  9
$DIMLTYPE
  6

  9
$DIMLTEX1
  6

  9
$DIMLTEX2
  6

  9
$DIMTXTDIRECTION
 70
     0
  9
$LUNITS
 70
     2
  9
$LUPREC
 70
     4
  9
$SKETCHINC
 40
0.1
  9
$FILLETRAD
 40
0.0
  9
$AUNITS
 70
     0
  9
$AUPREC
 70
     0
  9
$MENU
  1
.
  9
$ELEVATION
 40
0.0
  9
$PELEVATION
 40
0.0
  9
$THICKNESS
 40
0.0
  9
$LIMCHECK
 70
     0
  9
$CHAMFERA
 40
0.0
  9
$CHAMFERB
 40
0.0
  9
$CHAMFERC
 40
0.0
  9
$CHAMFERD
 40
0.0
  9
$SKPOLY
 70
     0
  9
$TDCREATE
 40
2459963.382997685
  9
$TDUCREATE
 40
2459963.341331019
  9
$TDUPDATE
 40
2459963.382997685
  9
$TDUUPDATE
 40
2459963.341331019
  9
$TDINDWG
 40
0.0000000000
  9
$TDUSRTIMER
 40
0.0000000000
  9
$USRTIMER
 70
     1
  9
$ANGBASE
 50
0.0
  9
$ANGDIR
 70
     0
  9
$PDMODE
 70
     0
  9
$PDSIZE
 40
0.0
  9
$PLINEWID
 40
0.0
  9
$SPLFRAME
 70
     0
  9
$SPLINETYPE
 70
     6
  9
$SPLINESEGS
 70
     8
  9
$HANDSEED
  5
27C
  9
$SURFTAB1
 70
     6
  9
$SURFTAB2
 70
     6
  9
$SURFTYPE
 70
     6
  9
$SURFU
 70
     6
  9
$SURFV
 70
     6
  9
$UCSBASE
  2

  9
$UCSNAME
  2

  9
$UCSORG
 10
0.0
 20
0.0
 30
0.0
  9
$UCSXDIR
 10
1.0
 20
0.0
 30
0.0
  9
$UCSYDIR
 10
0.0
 20
1.0
 30
0.0
  9
$UCSORTHOREF
  2

  9
$UCSORTHOVIEW
 70
     0
  9
$UCSORGTOP
 10
0.0
 20
0.0
 30
0.0
  9
$UCSORGBOTTOM
 10
0.0
 20
0.0
 30
0.0
  9
$UCSORGLEFT
 10
0.0
 20
0.0
 30
0.0
  9
$UCSORGRIGHT
 10
0.0
 20
0.0
 30
0.0
  9
$UCSORGFRONT
 10
0.0
 20
0.0
 30
0.0
  9
$UCSORGBACK
 10
0.0
 20
0.0
 30
0.0
  9
$PUCSBASE
  2

  9
$PUCSNAME
  2

  9
$PUCSORG
 10
0.0
 20
0.0
 30
0.0
  9
$PUCSXDIR
 10
1.0
 20
0.0
 30
0.0
  9
$PUCSYDIR
 10
0.0
 20
1.0
 30
0.0
  9
$PUCSORTHOREF
  2

  9
$PUCSORTHOVIEW
 70
     0
  9
$PUCSORGTOP
 10
0.0
 20
0.0
 30
0.0
  9
$PUCSORGBOTTOM
 10
0.0
 20
0.0
 30
0.0
  9
$PUCSORGLEFT
 10
0.0
 20
0.0
 30
0.0
  9
$PUCSORGRIGHT
 10
0.0
 20
0.0
 30
0.0
  9
$PUCSORGFRONT
 10
0.0
 20
0.0
 30
0.0
  9
$PUCSORGBACK
 10
0.0
 20
0.0
 30
0.0
  9
$USERI1
 70
     0
  9
$USERI2
 70
     0
  9
$USERI3
 70
     0
  9
$USERI4
 70
     0
  9
$USERI5
 70
     0
  9
$USERR1
 40
0.0
  9
$USERR2
 40
0.0
  9
$USERR3
 40
0.0
  9
$USERR4
 40
0.0
  9
$USERR5
 40
0.0
  9
$WORLDVIEW
 70
     1
  9
$SHADEDGE
 70
     3
  9
$SHADEDIF
 70
    70
  9
$TILEMODE
 70
     1
  9
$MAXACTVP
 70
    64
  9
$PINSBASE
 10
0.0
 20
0.0
 30
0.0
  9
$PLIMCHECK
 70
     0
  9
$PEXTMIN
 10
1.000000000000000E+20
 20
1.000000000000000E+20
 30
1.000000000000000E+20
  9
$PEXTMAX
 10
-1.000000000000000E+20
 20
-1.000000000000000E+20
 30
-1.000000000000000E+20
  9
$PLIMMIN
 10
0.0
 20
0.0
  9
$PLIMMAX
 10
12.0
 20
9.0
  9
$UNITMODE
 70
     0
  9
$VISRETAIN
 70
     1
  9
$PLINEGEN
 70
     0
  9
$PSLTSCALE
 70
     1
  9
$TREEDEPTH
 70
  3020
  9
$CMLSTYLE
  2
Standard
  9
$CMLJUST
 70
     0
  9
$CMLSCALE
 40
1.0
  9
$PROXYGRAPHICS
 70
     1
  9
$MEASUREMENT
 70
     0
  9
$CELWEIGHT
370
    -1
  9
$ENDCAPS
280
     0
  9
$JOINSTYLE
280
     0
  9
$LWDISPLAY
290
     1
  9
$INSUNITS
 70
     4
  9
$HYPERLINKBASE
  1

  9
$STYLESHEET
  1

  9
$XEDIT
290
     1
  9
$CEPSNTYPE
380
     0
  9
$PSTYLEMODE
290
     1
  9
$FINGERPRINTGUID
  2
{B16F5933-B695-3547-B029-6A7D65B7F800}
  9
$VERSIONGUID
  2
{B8CD22F3-C55F-D545-B133-2CE0990B1FC4}
  9
$EXTNAMES
290
     1
  9
$PSVPSCALE
 40
0.0
  9
$OLESTARTUP
290
     0
  9
$SORTENTS
280
   127
  9
$INDEXCTL
280
     0
  9
$HIDETEXT
280
     1
  9
$XCLIPFRAME
280
     2
  9
$HALOGAP
280
     0
  9
$OBSCOLOR
 70
   257
  9
$OBSLTYPE
280
     0
  9
$INTERSECTIONDISPLAY
280
     0
  9
$INTERSECTIONCOLOR
 70
   257
  9
$DIMASSOC
280
     2
  9
$PROJECTNAME
  1

  9
$CAMERADISPLAY
290
     0
  9
$LENSLENGTH
 40
50.0
  9
$CAMERAHEIGHT
 40
0.0
  9
$STEPSPERSEC
 40
2.0
  9
$STEPSIZE
 40
6.0
  9
$3DDWFPREC
 40
2.0
  9
$PSOLWIDTH
 40
0.25
  9
$PSOLHEIGHT
 40
4.0
  9
$LOFTANG1
 40
1.570796326794896
  9
$LOFTANG2
 40
1.570796326794896
  9
$LOFTMAG1
 40
0.0
  9
$LOFTMAG2
 40
0.0
  9
$LOFTPARAM
 70
     7
  9
$LOFTNORMALS
280
     1
  9
$LATITUDE
 40
37.795
  9
$LONGITUDE
 40
-122.394
  9
$NORTHDIRECTION
 40
0.0
  9
$TIMEZONE
 70
 -8000
  9
$LIGHTGLYPHDISPLAY
280
     1
  9
$TILEMODELIGHTSYNCH
280
     1
  9
$CMATERIAL
347
11
  9
$SOLIDHIST
280
     0
  9
$SHOWHIST
280
     1
  9
$DWFFRAME
280
     2
  9
$DGNFRAME
280
     0
  9
$REALWORLDSCALE
290
     1
  9
$INTERFERECOLOR
 62
     1
  9
$INTERFEREOBJVS
345
33
  9
$INTERFEREVPVS
346
30
  9
$CSHADOW
280
     0
  9
$SHADOWPLANELOCATION
 40
0.0
  0
ENDSEC
  0
SECTION
  2
CLASSES
  0
CLASS
  1
ACDBDICTIONARYWDFLT
  2
AcDbDictionaryWithDefault
  3
ObjectDBX Classes
 90
        0
 91
        1
280
     0
281
     0
  0
CLASS
  1
MATERIAL
  2
AcDbMaterial
  3
ObjectDBX Classes
 90
     1153
 91
        3
280
     0
281
     0
  0
CLASS
  1
VISUALSTYLE
  2
AcDbVisualStyle
  3
ObjectDBX Classes
 90
     4095
 91
       24
280
     0
281
     0
  0
CLASS
  1
SCALE
  2
AcDbScale
  3
ObjectDBX Classes
 90
     1153
 91
       17
280
     0
281
     0
  0
CLASS
  1
TABLESTYLE
  2
AcDbTableStyle
  3
ObjectDBX Classes
 90
     4095
 91
        1
280
     0
281
     0
  0
CLASS
  1
MLEADERSTYLE
  2
AcDbMLeaderStyle
  3
ACDB_MLEADERSTYLE_CLASS
 90
     4095
 91
        1
280
     0
281
     0
  0
CLASS
  1
ACDBSECTIONVIEWSTYLE
  2
AcDbSectionViewStyle
  3
ObjectDBX Classes
 90
     1025
 91
        1
280
     0
281
     0
  0
CLASS
  1
ACDBDETAILVIEWSTYLE
  2
AcDbDetailViewStyle
  3
ObjectDBX Classes
 90
     1025
 91
        1
280
     0
281
     0
  0
CLASS
  1
DICTIONARYVAR
  2
AcDbDictionaryVar
  3
ObjectDBX Classes
 90
        0
 91
        5
280
     0
281
     0
  0
CLASS
  1
CELLSTYLEMAP
  2
AcDbCellStyleMap
  3
ObjectDBX Classes
 90
     1152
 91
        1
280
     0
281
     0
  0
ENDSEC
  0
SECTION
  2
TABLES
  0
TABLE
  2
VPORT
  5
8
330
0
100
AcDbSymbolTable
 70
     1
  0
VPORT
  5
57
330
8
100
AcDbSymbolTableRecord
100
AcDbViewportTableRecord
  2
*Active
 70
     0
 10
0.0
 20
0.0
 11
1.0
 21
1.0
 12
0.0
 22
0.0
 13
0.0
 23
0.0
 14
1.0
 24
1.0
 15
0.0
 25
0.0
 16
0.0
 26
0.0
 36
1.0
 17
43.99999998899994
 27
43.99999998899994
 37
0.0
 40
89.75999997755989
 41
1.0
 42
50.0
 43
0.0
 44
0.0
 50
0.0
 51
0.0
 71
     0
 72
   100
 73
     1
 74
     1
 75
     0
 76
     0
 77
     0
 78
     0
281
     0
 65
     1
110
0.0
120
0.0
130
0.0
111
1.0
121
0.0
131
0.0
112
0.0
122
1.0
132
0.0
 79
     0
146
0.0
 60
     3
 61
     5
292
     1
282
     1
141
0.0
142
0.0
 63
   250
421
  3355443
  0
ENDTAB
  0
TABLE
  2
LTYPE
  5
5
330
0
100
AcDbSymbolTable
 70
     3
  0
LTYPE
  5
5B
330
5
100
AcDbSymbolTableRecord
100
AcDbLinetypeTableRecord
  2
ByBlock
 70
     0
  3

 72
    65
 73
     0
 40
0.0
  0
LTYPE
  5
5C
330
5
100
AcDbSymbolTableRecord
100
AcDbLinetypeTableRecord
  2
ByLayer
 70
     0
  3

 72
    65
 73
     0
 40
0.0
  0
LTYPE
  5
5D
330
5
100
AcDbSymbolTableRecord
100
AcDbLinetypeTableRecord
  2
Continuous
 70
     0
  3
Solid line
 72
    65
 73
     0
 40
0.0
  0
LTYPE
  5
1DB
330
5
100
AcDbSymbolTableRecord
100
AcDbLinetypeTableRecord
  2
AI-Linetype-0
 70
     0
  3
Adobe Illustrator Linetype No. 0
 72
    65
 73
     2
 40
1.411111110758333
 49
0.7055555553791667
 74
     0
 49
-0.7055555553791667
 74
     0
  0
LTYPE
  5
20F
330
5
100
AcDbSymbolTableRecord
100
AcDbLinetypeTableRecord
  2
AI-Linetype-1
 70
     0
  3
Adobe Illustrator Linetype No. 1
 72
    65
 73
     2
 40
1.411111110758333
 49
0.7055555553791667
 74
     0
 49
-0.7055555553791667
 74
     0
  0
ENDTAB
  0
TABLE
  2
LAYER
  5
2
330
0
100
AcDbSymbolTable
 70
     2
  0
LAYER
  5
54
330
2
100
AcDbSymbolTableRecord
100
AcDbLayerTableRecord
  2
0
 70
     0
 62
     7
  6
Continuous
370
    -3
390
F
347
21
348
0
  0
LAYER
  5
78
330
2
100
AcDbSymbolTableRecord
100
AcDbLayerTableRecord
  2
Rahmen (ISO)
 70
     0
 62
     7
  6
Continuous
370
     0
390
F
347
21
348
0
  0
ENDTAB
  0
TABLE
  2
STYLE
  5
3
330
0
100
AcDbSymbolTable
 70
     2
  0
STYLE
  5
55
330
3
100
AcDbSymbolTableRecord
100
AcDbTextStyleTableRecord
  2
Standard
 70
     0
 40
0.0
 41
1.0
 50
0.0
 71
     0
 42
0.2
  3
txt
  4

  0
STYLE
  5
5A
330
3
100
AcDbSymbolTableRecord
100
AcDbTextStyleTableRecord
  2
Annotative
 70
     0
 40
0.0
 41
1.0
 50
0.0
 71
     0
 42
0.2
  3
txt
  4

1001
AcadAnnotative
1000
AnnotativeData
1002
{
1070
     1
1070
     1
1002
}
  0
ENDTAB
  0
TABLE
  2
VIEW
  5
6
330
0
100
AcDbSymbolTable
 70
     0
  0
ENDTAB
  0
TABLE
  2
UCS
  5
7
330
0
100
AcDbSymbolTable
 70
     0
  0
ENDTAB
  0
TABLE
  2
APPID
  5
9
330
0
100
AcDbSymbolTable
 70
     2
  0
APPID
  5
56
330
9
100
AcDbSymbolTableRecord
100
AcDbRegAppTableRecord
  2
ACAD
 70
     0
  0
APPID
  5
5E
330
9
100
AcDbSymbolTableRecord
100
AcDbRegAppTableRecord
  2
AcadAnnotative
 70
     0
  0
ENDTAB
  0
TABLE
  2
DIMSTYLE
  5
A
330
0
100
AcDbSymbolTable
 70
     2
100
AcDbDimStyleTable
 71
     0
  0
DIMSTYLE
105
58
330
A
100
AcDbSymbolTableRecord
100
AcDbDimStyleTableRecord
  2
Standard
 70
     0
340
55
  0
DIMSTYLE
105
59
330
A
100
AcDbSymbolTableRecord
100
AcDbDimStyleTableRecord
  2
Annotative
 70
     0
340
55
1001
AcadAnnotative
1000
AnnotativeData
1002
{
1070
     1
1070
     1
1002
}
  0
ENDTAB
  0
TABLE
  2
BLOCK_RECORD
  5
1
330
0
100
AcDbSymbolTable
 70
    29
  0
BLOCK_RECORD
  5
70
330
1
100
AcDbSymbolTableRecord
100
AcDbBlockTableRecord
  2
*Model_Space
340
73
 70
     0
280
     1
281
     0
  0
BLOCK_RECORD
  5
6C
330
1
100
AcDbSymbolTableRecord
100
AcDbBlockTableRecord
  2
*Paper_Space
340
6F
 70
     0
280
     1
281
     0
  0
BLOCK_RECORD
  5
74
330
1
100
AcDbSymbolTableRecord
100
AcDbBlockTableRecord
  2
*Paper_Space0
340
77
 70
     0
280
     1
281
     0
  0
BLOCK_RECORD
  5
79
330
1
100
AcDbSymbolTableRecord
100
AcDbBlockTableRecord
  2
Block_0
340
0
102
{BLKREFS
331
7A
102
}
 70
     0
280
     1
281
     0
  0
BLOCK_RECORD
  5
94
330
1
100
AcDbSymbolTableRecord
100
AcDbBlockTableRecord
  2
Block_1
340
0
102
{BLKREFS
331
95
102
}
 70
     0
280
     1
281
     0
  0
BLOCK_RECORD
  5
98
330
1
100
AcDbSymbolTableRecord
100
AcDbBlockTableRecord
  2
Block_2
340
0
102
{BLKREFS
331
99
102
}
 70
     0
280
     1
281
     0
  0
BLOCK_RECORD
  5
9D
330
1
100
AcDbSymbolTableRecord
100
AcDbBlockTableRecord
  2
Block_3
340
0
102
{BLKREFS
331
9E
102
}
 70
     0
280
     1
281
     0
  0
BLOCK_RECORD
  5
A3
330
1
100
AcDbSymbolTableRecord
100
AcDbBlockTableRecord
  2
Block_4
340
0
102
{BLKREFS
331
A4
102
}
 70
     0
280
     1
281
     0
  0
BLOCK_RECORD
  5
AC
330
1
100
AcDbSymbolTableRecord
100
AcDbBlockTableRecord
  2
Block_5
340
0
102
{BLKREFS
331
AD
102
}
 70
     0
280
     1
281
     0
  0
BLOCK_RECORD
  5
B0
330
1
100
AcDbSymbolTableRecord
100
AcDbBlockTableRecord
  2
Block_6
340
0
102
{BLKREFS
331
B1
102
}
 70
     0
280
     1
281
     0
  0
BLOCK_RECORD
  5
B5
330
1
100
AcDbSymbolTableRecord
100
AcDbBlockTableRecord
  2
Block_7
340
0
102
{BLKREFS
331
B6
102
}
 70
     0
280
     1
281
     0
  0
BLOCK_RECORD
  5
BB
330
1
100
AcDbSymbolTableRecord
100
AcDbBlockTableRecord
  2
Block_8
340
0
102
{BLKREFS
331
BC
102
}
 70
     0
280
     1
281
     0
  0
BLOCK_RECORD
  5
1DC
330
1
100
AcDbSymbolTableRecord
100
AcDbBlockTableRecord
  2
Block_9
340
0
102
{BLKREFS
331
1DD
102
}
 70
     0
280
     1
281
     0
  0
BLOCK_RECORD
  5
1E0
330
1
100
AcDbSymbolTableRecord
100
AcDbBlockTableRecord
  2
Block_10
340
0
102
{BLKREFS
331
1E1
102
}
 70
     0
280
     1
281
     0
  0
BLOCK_RECORD
  5
1E5
330
1
100
AcDbSymbolTableRecord
100
AcDbBlockTableRecord
  2
Block_11
340
0
102
{BLKREFS
331
1E6
102
}
 70
     0
280
     1
281
     0
  0
BLOCK_RECORD
  5
1EC
330
1
100
AcDbSymbolTableRecord
100
AcDbBlockTableRecord
  2
Block_12
340
0
102
{BLKREFS
331
1ED
102
}
 70
     0
280
     1
281
     0
  0
BLOCK_RECORD
  5
1F0
330
1
100
AcDbSymbolTableRecord
100
AcDbBlockTableRecord
  2
Block_13
340
0
102
{BLKREFS
331
1F1
102
}
 70
     0
280
     1
281
     0
  0
BLOCK_RECORD
  5
1F5
330
1
100
AcDbSymbolTableRecord
100
AcDbBlockTableRecord
  2
Block_14
340
0
102
{BLKREFS
331
1F6
102
}
 70
     0
280
     1
281
     0
  0
BLOCK_RECORD
  5
1FB
330
1
100
AcDbSymbolTableRecord
100
AcDbBlockTableRecord
  2
Block_15
340
0
102
{BLKREFS
331
1FC
102
}
 70
     0
280
     1
281
     0
  0
BLOCK_RECORD
  5
201
330
1
100
AcDbSymbolTableRecord
100
AcDbBlockTableRecord
  2
Block_16
340
0
102
{BLKREFS
331
202
102
}
 70
     0
280
     1
281
     0
  0
BLOCK_RECORD
  5
205
330
1
100
AcDbSymbolTableRecord
100
AcDbBlockTableRecord
  2
Block_17
340
0
102
{BLKREFS
331
206
102
}
 70
     0
280
     1
281
     0
  0
BLOCK_RECORD
  5
211
330
1
100
AcDbSymbolTableRecord
100
AcDbBlockTableRecord
  2
Block_18
340
0
102
{BLKREFS
331
212
102
}
 70
     0
280
     1
281
     0
  0
BLOCK_RECORD
  5
215
330
1
100
AcDbSymbolTableRecord
100
AcDbBlockTableRecord
  2
Block_19
340
0
102
{BLKREFS
331
216
102
}
 70
     0
280
     1
281
     0
  0
BLOCK_RECORD
  5
22D
330
1
100
AcDbSymbolTableRecord
100
AcDbBlockTableRecord
  2
Block_20
340
0
102
{BLKREFS
331
22E
102
}
 70
     0
280
     1
281
     0
  0
BLOCK_RECORD
  5
231
330
1
100
AcDbSymbolTableRecord
100
AcDbBlockTableRecord
  2
Block_21
340
0
102
{BLKREFS
331
232
102
}
 70
     0
280
     1
281
     0
  0
BLOCK_RECORD
  5
236
330
1
100
AcDbSymbolTableRecord
100
AcDbBlockTableRecord
  2
Block_22
340
0
102
{BLKREFS
331
237
102
}
 70
     0
280
     1
281
     0
  0
BLOCK_RECORD
  5
23C
330
1
100
AcDbSymbolTableRecord
100
AcDbBlockTableRecord
  2
Block_23
340
0
102
{BLKREFS
331
23D
102
}
 70
     0
280
     1
281
     0
  0
BLOCK_RECORD
  5
242
330
1
100
AcDbSymbolTableRecord
100
AcDbBlockTableRecord
  2
Block_24
340
0
102
{BLKREFS
331
243
102
}
 70
     0
280
     1
281
     0
  0
BLOCK_RECORD
  5
252
330
1
100
AcDbSymbolTableRecord
100
AcDbBlockTableRecord
  2
Block_25
340
0
102
{BLKREFS
331
253
102
}
 70
     0
280
     1
281
     0
  0
BLOCK_RECORD
  5
261
330
1
100
AcDbSymbolTableRecord
100
AcDbBlockTableRecord
  2
Block_26
340
0
102
{BLKREFS
331
262
102
}
 70
     0
280
     1
281
     0
  0
BLOCK_RECORD
  5
265
330
1
100
AcDbSymbolTableRecord
100
AcDbBlockTableRecord
  2
Block_27
340
0
102
{BLKREFS
331
266
102
}
 70
     0
280
     1
281
     0
  0
ENDTAB
  0
ENDSEC
  0
SECTION
  2
BLOCKS
  0
BLOCK
  5
71
330
70
100
AcDbEntity
  8
0
100
AcDbBlockBegin
  2
*Model_Space
 70
     0
 10
0.0
 20
0.0
 30
0.0
  3
*Model_Space
  1

  0
ENDBLK
  5
72
330
70
100
AcDbEntity
  8
0
100
AcDbBlockEnd
  0
BLOCK
  5
6D
330
6C
100
AcDbEntity
 67
     1
  8
0
100
AcDbBlockBegin
  2
*Paper_Space
 70
     0
 10
0.0
 20
0.0
 30
0.0
  3
*Paper_Space
  1

  0
ENDBLK
  5
6E
330
6C
100
AcDbEntity
 67
     1
  8
0
100
AcDbBlockEnd
  0
BLOCK
  5
75
330
74
100
AcDbEntity
 67
     1
  8
0
100
AcDbBlockBegin
  2
*Paper_Space0
 70
     0
 10
0.0
 20
0.0
 30
0.0
  3
*Paper_Space0
  1

  0
ENDBLK
  5
76
330
74
100
AcDbEntity
 67
     1
  8
0
100
AcDbBlockEnd
  0
BLOCK
  5
7B
330
79
100
AcDbEntity
  8
0
100
AcDbBlockBegin
  2
Block_0
 70
     0
 10
0.0
 20
0.0
 30
0.0
  3
Block_0
  1

  0
SPLINE
  5
7D
330
79
100
AcDbEntity
  8
Rahmen (ISO)
100
AcDbSpline
210
0.0
220
0.0
230
1.0
 70
     8
 71
     3
 72
    38
 73
    34
 74
     0
 42
0.0000000001
 43
0.0000000001
 40
0.0
 40
0.0
 40
0.0
 40
0.0
 40
1.0
 40
1.0
 40
1.0
 40
2.0
 40
2.0
 40
2.0
 40
3.0
 40
3.0
 40
3.0
 40
4.0
 40
4.0
 40
4.0
 40
5.0
 40
5.0
 40
5.0
 40
6.0
 40
6.0
 40
6.0
 40
7.0
 40
7.0
 40
7.0
 40
8.0
 40
8.0
 40
8.0
 40
9.0
 40
9.0
 40
9.0
 40
10.0
 40
10.0
 40
10.0
 40
11.0
 40
11.0
 40
11.0
 40
11.0
 10
52.25631053016286
 20
82.76072633088716
 30
0.0
 10
52.25631053016286
 20
82.76072633088716
 30
0.0
 10
52.68773766573366
 20
82.76072633088716
 30
0.0
 10
52.68773766573366
 20
82.76072633088716
 30
0.0
 10
52.68773766573366
 20
82.76072633088716
 30
0.0
 10
52.68773766573366
 20
80.01355259641391
 30
0.0
 10
52.68773766573366
 20
80.01355259641391
 30
0.0
 10
52.68773766573366
 20
80.01355259641391
 30
0.0
 10
52.68773766573366
 20
79.73799905891619
 30
0.0
 10
52.68773766573366
 20
79.73799905891619
 30
0.0
 10
52.68773766573366
 20
79.47440861019846
 30
0.0
 10
52.39800290383617
 20
79.260726331762
 30
0.0
 10
52.04059696237746
 20
79.260726331762
 30
0.0
 10
52.04059696237746
 20
79.260726331762
 30
0.0
 10
10.40787837982152
 20
79.260726331762
 30
0.0
 10
10.40787837982152
 20
79.260726331762
 30
0.0
 10
10.05047243836345
 20
79.260726331762
 30
0.0
 10
9.760737676465316
 20
79.47440861019846
 30
0.0
 10
9.760737676465316
 20
79.73799905891619
 30
0.0
 10
9.760737676465316
 20
79.73799905891619
 30
0.0
 10
9.760737676465316
 20
80.01355259641391
 30
0.0
 10
9.760737676465316
 20
80.01355259641391
 30
0.0
 10
9.760737676465316
 20
80.01355259641391
 30
0.0
 10
9.760737676465316
 20
82.76072633088716
 30
0.0
 10
9.760737676465316
 20
82.76072633088716
 30
0.0
 10
9.760737676465316
 20
82.76072633088716
 30
0.0
 10
10.19216481203676
 20
82.76072633088716
 30
0.0
 10
10.19216481203676
 20
82.76072633088716
 30
0.0
 10
10.19216481203676
 20
82.76072633088716
 30
0.0
 10
10.2137361688153
 20
82.76072633088716
 30
0.0
 10
10.2137361688153
 20
82.76072633088716
 30
0.0
 10
10.2137361688153
 20
82.76072633088716
 30
0.0
 10
52.23473917338496
 20
82.76072633088716
 30
0.0
 10
52.23473917338496
 20
82.76072633088716
 30
0.0
  0
HATCH
  5
7E
330
79
100
AcDbEntity
  8
Rahmen (ISO)
 62
   254
420
 14606046
440
 33554687
100
AcDbHatch
 10
0.0
 20
0.0
 30
0.0
210
0.0
220
0.0
230
1.0
  2
SOLID
 70
     1
 71
     1
 91
        1
 92
        1
 93
        2
 72
     4
 94
        3
 73
     0
 74
     0
 95
       38
 96
       34
 40
0.0
 40
0.0
 40
0.0
 40
0.0
 40
1.0
 40
1.0
 40
1.0
 40
2.0
 40
2.0
 40
2.0
 40
3.0
 40
3.0
 40
3.0
 40
4.0
 40
4.0
 40
4.0
 40
5.0
 40
5.0
 40
5.0
 40
6.0
 40
6.0
 40
6.0
 40
7.0
 40
7.0
 40
7.0
 40
8.0
 40
8.0
 40
8.0
 40
9.0
 40
9.0
 40
9.0
 40
10.0
 40
10.0
 40
10.0
 40
11.0
 40
11.0
 40
11.0
 40
11.0
 10
52.25631053016286
 20
82.76072633088716
 10
52.25631053016286
 20
82.76072633088716
 10
52.68773766573366
 20
82.76072633088716
 10
52.68773766573366
 20
82.76072633088716
 10
52.68773766573366
 20
82.76072633088716
 10
52.68773766573366
 20
80.01355259641391
 10
52.68773766573366
 20
80.01355259641391
 10
52.68773766573366
 20
80.01355259641391
 10
52.68773766573366
 20
79.73799905891619
 10
52.68773766573366
 20
79.73799905891619
 10
52.68773766573366
 20
79.47440861019846
 10
52.39800290383617
 20
79.260726331762
 10
52.04059696237746
 20
79.260726331762
 10
52.04059696237746
 20
79.260726331762
 10
10.40787837982152
 20
79.260726331762
 10
10.40787837982152
 20
79.260726331762
 10
10.05047243836345
 20
79.260726331762
 10
9.760737676465316
 20
79.47440861019846
 10
9.760737676465316
 20
79.73799905891619
 10
9.760737676465316
 20
79.73799905891619
 10
9.760737676465316
 20
80.01355259641391
 10
9.760737676465316
 20
80.01355259641391
 10
9.760737676465316
 20
80.01355259641391
 10
9.760737676465316
 20
82.76072633088716
 10
9.760737676465316
 20
82.76072633088716
 10
9.760737676465316
 20
82.76072633088716
 10
10.19216481203676
 20
82.76072633088716
 10
10.19216481203676
 20
82.76072633088716
 10
10.19216481203676
 20
82.76072633088716
 10
10.2137361688153
 20
82.76072633088716
 10
10.2137361688153
 20
82.76072633088716
 10
10.2137361688153
 20
82.76072633088716
 10
52.23473917338496
 20
82.76072633088716
 10
52.23473917338496
 20
82.76072633088716
 97
        0
 72
     1
 10
52.23473917338496
 20
82.76072633088716
 11
52.25631053016286
 21
82.76072633088716
 97
        0
 75
     2
 76
     1
 98
        1
 10
0.0
 20
0.0
450
        0
451
        0
460
0.0
461
0.0
452
        0
462
0.0
453
        0
470

  0
ENDBLK
  5
7C
330
79
100
AcDbEntity
  8
0
100
AcDbBlockEnd
  0
BLOCK
  5
96
330
94
100
AcDbEntity
  8
0
100
AcDbBlockBegin
  2
Block_1
 70
     0
 10
0.0
 20
0.0
 30
0.0
  3
Block_1
  1

  0
INSERT
  5
99
330
94
100
AcDbEntity
  8
Rahmen (ISO)
100
AcDbBlockReference
  2
Block_2
 10
0.0
 20
0.0
 30
0.0
  0
ENDBLK
  5
97
330
94
100
AcDbEntity
  8
0
100
AcDbBlockEnd
  0
BLOCK
  5
9A
330
98
100
AcDbEntity
  8
0
100
AcDbBlockBegin
  2
Block_2
 70
     0
 10
0.0
 20
0.0
 30
0.0
  3
Block_2
  1

  0
LINE
  5
9C
330
98
100
AcDbEntity
  8
Rahmen (ISO)
 62
    18
420
        0
370
     5
100
AcDbLine
 10
70.81732358221699
 20
57.1973485167879
 30
0.0
 11
70.82044031703881
 21
16.38827481389948
 31
0.0
  0
INSERT
  5
9E
330
98
100
AcDbEntity
  8
Rahmen (ISO)
100
AcDbBlockReference
  2
Block_3
 10
0.0
 20
0.0
 30
0.0
  0
INSERT
  5
A4
330
98
100
AcDbEntity
  8
Rahmen (ISO)
100
AcDbBlockReference
  2
Block_4
 10
0.0
 20
0.0
 30
0.0
  0
ENDBLK
  5
9B
330
98
100
AcDbEntity
  8
0
100
AcDbBlockEnd
  0
BLOCK
  5
9F
330
9D
100
AcDbEntity
  8
0
100
AcDbBlockBegin
  2
Block_3
 70
     0
 10
0.0
 20
0.0
 30
0.0
  3
Block_3
  1

  0
LWPOLYLINE
  5
A1
330
9D
100
AcDbEntity
  8
Rahmen (ISO)
100
AcDbPolyline
 90
        3
 70
     1
 43
0.0
 10
70.59605694171513
 20
56.56487743235129
 10
70.81655381869452
 20
58.24607326322983
 10
71.03868173306771
 20
56.56490973012147
  0
HATCH
  5
A2
330
9D
100
AcDbEntity
  8
Rahmen (ISO)
 62
    18
420
        0
440
 33554687
100
AcDbHatch
 10
0.0
 20
0.0
 30
0.0
210
0.0
220
0.0
230
1.0
  2
SOLID
 70
     1
 71
     1
 91
        1
 92
        1
 93
        3
 72
     1
 10
70.59605694171513
 20
56.56487743235129
 11
70.81655381869452
 21
58.24607326322983
 72
     1
 10
70.81655381869452
 20
58.24607326322983
 11
71.03868173306771
 21
56.56490973012147
 72
     1
 10
71.03868173306771
 20
56.56490973012147
 11
70.59605694171513
 21
56.56487743235129
 97
        1
330
A1
 75
     2
 76
     1
 98
        1
 10
0.0
 20
0.0
450
        0
451
        0
460
0.0
461
0.0
452
        0
462
0.0
453
        0
470

  0
ENDBLK
  5
A0
330
9D
100
AcDbEntity
  8
0
100
AcDbBlockEnd
  0
BLOCK
  5
A5
330
A3
100
AcDbEntity
  8
0
100
AcDbBlockBegin
  2
Block_4
 70
     0
 10
0.0
 20
0.0
 30
0.0
  3
Block_4
  1

  0
LWPOLYLINE
  5
A7
330
A3
100
AcDbEntity
  8
Rahmen (ISO)
100
AcDbPolyline
 90
        3
 70
     1
 43
0.0
 10
70.59907678322642
 20
17.0207122548255
 10
70.8198320423672
 20
15.33955141319799
 10
71.04170157457899
 20
17.02074589833609
  0
HATCH
  5
A8
330
A3
100
AcDbEntity
  8
Rahmen (ISO)
 62
    18
420
        0
440
 33554687
100
AcDbHatch
 10
0.0
 20
0.0
 30
0.0
210
0.0
220
0.0
230
1.0
  2
SOLID
 70
     1
 71
     1
 91
        1
 92
        1
 93
        3
 72
     1
 10
70.59907678322642
 20
17.0207122548255
 11
70.8198320423672
 21
15.33955141319799
 72
     1
 10
70.8198320423672
 20
15.33955141319799
 11
71.04170157457899
 21
17.02074589833609
 72
     1
 10
71.04170157457899
 20
17.02074589833609
 11
70.59907678322642
 21
17.0207122548255
 97
        1
330
A7
 75
     2
 76
     1
 98
        1
 10
0.0
 20
0.0
450
        0
451
        0
460
0.0
461
0.0
452
        0
462
0.0
453
        0
470

  0
ENDBLK
  5
A6
330
A3
100
AcDbEntity
  8
0
100
AcDbBlockEnd
  0
BLOCK
  5
AE
330
AC
100
AcDbEntity
  8
0
100
AcDbBlockBegin
  2
Block_5
 70
     0
 10
0.0
 20
0.0
 30
0.0
  3
Block_5
  1

  0
INSERT
  5
B1
330
AC
100
AcDbEntity
  8
Rahmen (ISO)
100
AcDbBlockReference
  2
Block_6
 10
0.0
 20
0.0
 30
0.0
  0
ENDBLK
  5
AF
330
AC
100
AcDbEntity
  8
0
100
AcDbBlockEnd
  0
BLOCK
  5
B2
330
B0
100
AcDbEntity
  8
0
100
AcDbBlockBegin
  2
Block_6
 70
     0
 10
0.0
 20
0.0
 30
0.0
  3
Block_6
  1

  0
LINE
  5
B4
330
B0
100
AcDbEntity
  8
Rahmen (ISO)
 62
    18
420
        0
370
     5
100
AcDbLine
 10
77.87366504841624
 20
58.61355729227207
 30
0.0
 11
77.86593511542121
 21
15.01312323300887
 31
0.0
  0
INSERT
  5
B6
330
B0
100
AcDbEntity
  8
Rahmen (ISO)
100
AcDbBlockReference
  2
Block_7
 10
0.0
 20
0.0
 30
0.0
  0
INSERT
  5
BC
330
B0
100
AcDbEntity
  8
Rahmen (ISO)
100
AcDbBlockReference
  2
Block_8
 10
0.0
 20
0.0
 30
0.0
  0
ENDBLK
  5
B3
330
B0
100
AcDbEntity
  8
0
100
AcDbBlockEnd
  0
BLOCK
  5
B7
330
B5
100
AcDbEntity
  8
0
100
AcDbBlockBegin
  2
Block_7
 70
     0
 10
0.0
 20
0.0
 30
0.0
  3
Block_7
  1

  0
LWPOLYLINE
  5
B9
330
B5
100
AcDbEntity
  8
Rahmen (ISO)
100
AcDbPolyline
 90
        3
 70
     1
 43
0.0
 10
77.65223691906351
 20
57.98114542041411
 10
77.87315905001685
 20
59.66228203871398
 10
78.09486171041607
 20
57.98106467598867
  0
HATCH
  5
BA
330
B5
100
AcDbEntity
  8
Rahmen (ISO)
 62
    18
420
        0
440
 33554687
100
AcDbHatch
 10
0.0
 20
0.0
 30
0.0
210
0.0
220
0.0
230
1.0
  2
SOLID
 70
     1
 71
     1
 91
        1
 92
        1
 93
        3
 72
     1
 10
77.65223691906351
 20
57.98114542041411
 11
77.87315905001685
 21
59.66228203871398
 72
     1
 10
77.87315905001685
 20
59.66228203871398
 11
78.09486171041607
 21
57.98106467598867
 72
     1
 10
78.09486171041607
 20
57.98106467598867
 11
77.65223691906351
 21
57.98114542041411
 97
        1
330
B9
 75
     2
 76
     1
 98
        1
 10
0.0
 20
0.0
450
        0
451
        0
460
0.0
461
0.0
452
        0
462
0.0
453
        0
470

  0
ENDBLK
  5
B8
330
B5
100
AcDbEntity
  8
0
100
AcDbBlockEnd
  0
BLOCK
  5
BD
330
BB
100
AcDbEntity
  8
0
100
AcDbBlockBegin
  2
Block_8
 70
     0
 10
0.0
 20
0.0
 30
0.0
  3
Block_8
  1

  0
LWPOLYLINE
  5
BF
330
BB
100
AcDbEntity
  8
Rahmen (ISO)
100
AcDbPolyline
 90
        3
 70
     1
 43
0.0
 10
77.64473307045969
 20
15.64561719503269
 10
77.86506307562651
 20
13.96439983230737
 10
78.08735786181225
 20
15.64553779634767
  0
HATCH
  5
C0
330
BB
100
AcDbEntity
  8
Rahmen (ISO)
 62
    18
420
        0
440
 33554687
100
AcDbHatch
 10
0.0
 20
0.0
 30
0.0
210
0.0
220
0.0
230
1.0
  2
SOLID
 70
     1
 71
     1
 91
        1
 92
        1
 93
        3
 72
     1
 10
77.64473307045969
 20
15.64561719503269
 11
77.86506307562651
 21
13.96439983230737
 72
     1
 10
77.86506307562651
 20
13.96439983230737
 11
78.08735786181225
 21
15.64553779634767
 72
     1
 10
78.08735786181225
 20
15.64553779634767
 11
77.64473307045969
 21
15.64561719503269
 97
        1
330
BF
 75
     2
 76
     1
 98
        1
 10
0.0
 20
0.0
450
        0
451
        0
460
0.0
461
0.0
452
        0
462
0.0
453
        0
470

  0
ENDBLK
  5
BE
330
BB
100
AcDbEntity
  8
0
100
AcDbBlockEnd
  0
BLOCK
  5
1DE
330
1DC
100
AcDbEntity
  8
0
100
AcDbBlockBegin
  2
Block_9
 70
     0
 10
0.0
 20
0.0
 30
0.0
  3
Block_9
  1

  0
INSERT
  5
1E1
330
1DC
100
AcDbEntity
  8
Rahmen (ISO)
100
AcDbBlockReference
  2
Block_10
 10
0.0
 20
0.0
 30
0.0
  0
ENDBLK
  5
1DF
330
1DC
100
AcDbEntity
  8
0
100
AcDbBlockEnd
  0
BLOCK
  5
1E2
330
1E0
100
AcDbEntity
  8
0
100
AcDbBlockBegin
  2
Block_10
 70
     0
 10
0.0
 20
0.0
 30
0.0
  3
Block_10
  1

  0
LINE
  5
1E4
330
1E0
100
AcDbEntity
  8
Rahmen (ISO)
 62
    18
420
        0
370
     5
100
AcDbLine
 10
63.84069839576943
 20
78.22299773062058
 30
0.0
 11
63.84102137347117
 21
74.61043830701742
 31
0.0
  0
INSERT
  5
1E6
330
1E0
100
AcDbEntity
  8
Rahmen (ISO)
100
AcDbBlockReference
  2
Block_11
 10
0.0
 20
0.0
 30
0.0
  0
ENDBLK
  5
1E3
330
1E0
100
AcDbEntity
  8
0
100
AcDbBlockEnd
  0
BLOCK
  5
1E7
330
1E5
100
AcDbEntity
  8
0
100
AcDbBlockBegin
  2
Block_11
 70
     0
 10
0.0
 20
0.0
 30
0.0
  3
Block_11
  1

  0
LWPOLYLINE
  5
1E9
330
1E5
100
AcDbEntity
  8
Rahmen (ISO)
100
AcDbPolyline
 90
        3
 70
     1
 43
0.0
 10
63.61944252119095
 20
77.59052126322227
 10
63.83991248336186
 20
79.27172247706249
 10
64.06206731254352
 20
77.59056432691584
  0
HATCH
  5
1EA
330
1E5
100
AcDbEntity
  8
Rahmen (ISO)
 62
    18
420
        0
440
 33554687
100
AcDbHatch
 10
0.0
 20
0.0
 30
0.0
210
0.0
220
0.0
230
1.0
  2
SOLID
 70
     1
 71
     1
 91
        1
 92
        1
 93
        3
 72
     1
 10
63.61944252119095
 20
77.59052126322227
 11
63.83991248336186
 21
79.27172247706249
 72
     1
 10
63.83991248336186
 20
79.27172247706249
 11
64.06206731254352
 21
77.59056432691584
 72
     1
 10
64.06206731254352
 20
77.59056432691584
 11
63.61944252119095
 21
77.59052126322227
 97
        1
330
1E9
 75
     2
 76
     1
 98
        1
 10
0.0
 20
0.0
450
        0
451
        0
460
0.0
461
0.0
452
        0
462
0.0
453
        0
470

  0
ENDBLK
  5
1E8
330
1E5
100
AcDbEntity
  8
0
100
AcDbBlockEnd
  0
BLOCK
  5
1EE
330
1EC
100
AcDbEntity
  8
0
100
AcDbBlockBegin
  2
Block_12
 70
     0
 10
0.0
 20
0.0
 30
0.0
  3
Block_12
  1

  0
INSERT
  5
1F1
330
1EC
100
AcDbEntity
  8
Rahmen (ISO)
100
AcDbBlockReference
  2
Block_13
 10
0.0
 20
0.0
 30
0.0
  0
ENDBLK
  5
1EF
330
1EC
100
AcDbEntity
  8
0
100
AcDbBlockEnd
  0
BLOCK
  5
1F2
330
1F0
100
AcDbEntity
  8
0
100
AcDbBlockBegin
  2
Block_13
 70
     0
 10
0.0
 20
0.0
 30
0.0
  3
Block_13
  1

  0
LINE
  5
1F4
330
1F0
100
AcDbEntity
  8
Rahmen (ISO)
 62
    18
420
        0
370
     5
100
AcDbLine
 10
77.82544986050783
 20
66.19497437411695
 30
0.0
 11
77.80765378914184
 21
81.77282950158403
 31
0.0
  0
INSERT
  5
1F6
330
1F0
100
AcDbEntity
  8
Rahmen (ISO)
100
AcDbBlockReference
  2
Block_14
 10
0.0
 20
0.0
 30
0.0
  0
INSERT
  5
1FC
330
1F0
100
AcDbEntity
  8
Rahmen (ISO)
100
AcDbBlockReference
  2
Block_15
 10
0.0
 20
0.0
 30
0.0
  0
ENDBLK
  5
1F3
330
1F0
100
AcDbEntity
  8
0
100
AcDbBlockEnd
  0
BLOCK
  5
1F7
330
1F5
100
AcDbEntity
  8
0
100
AcDbBlockBegin
  2
Block_14
 70
     0
 10
0.0
 20
0.0
 30
0.0
  3
Block_14
  1

  0
LWPOLYLINE
  5
1F9
330
1F5
100
AcDbEntity
  8
Rahmen (ISO)
100
AcDbPolyline
 90
        3
 70
     1
 43
0.0
 10
78.04603824783604
 20
66.82768230886816
 10
77.82733389710132
 20
65.14625501063672
 10
77.60341345648348
 20
66.82717631046877
  0
HATCH
  5
1FA
330
1F5
100
AcDbEntity
  8
Rahmen (ISO)
 62
    18
420
        0
440
 33554687
100
AcDbHatch
 10
0.0
 20
0.0
 30
0.0
210
0.0
220
0.0
230
1.0
  2
SOLID
 70
     1
 71
     1
 91
        1
 92
        1
 93
        3
 72
     1
 10
78.04603824783604
 20
66.82768230886816
 11
77.82733389710132
 21
65.14625501063672
 72
     1
 10
77.82733389710132
 20
65.14625501063672
 11
77.60341345648348
 21
66.82717631046877
 72
     1
 10
77.60341345648348
 20
66.82717631046877
 11
78.04603824783604
 21
66.82768230886816
 97
        1
330
1F9
 75
     2
 76
     1
 98
        1
 10
0.0
 20
0.0
450
        0
451
        0
460
0.0
461
0.0
452
        0
462
0.0
453
        0
470

  0
ENDBLK
  5
1F8
330
1F5
100
AcDbEntity
  8
0
100
AcDbBlockEnd
  0
BLOCK
  5
1FD
330
1FB
100
AcDbEntity
  8
0
100
AcDbBlockBegin
  2
Block_15
 70
     0
 10
0.0
 20
0.0
 30
0.0
  3
Block_15
  1

  0
LWPOLYLINE
  5
1FF
330
1FB
100
AcDbEntity
  8
Rahmen (ISO)
100
AcDbPolyline
 90
        3
 70
     1
 43
0.0
 10
78.0296848102045
 20
81.14063294819358
 10
77.80714240778074
 20
82.82155424802562
 10
77.58706540181363
 20
81.14012694979418
  0
HATCH
  5
200
330
1FB
100
AcDbEntity
  8
Rahmen (ISO)
 62
    18
420
        0
440
 33554687
100
AcDbHatch
 10
0.0
 20
0.0
 30
0.0
210
0.0
220
0.0
230
1.0
  2
SOLID
 70
     1
 71
     1
 91
        1
 92
        1
 93
        3
 72
     1
 10
78.0296848102045
 20
81.14063294819358
 11
77.80714240778074
 21
82.82155424802562
 72
     1
 10
77.80714240778074
 20
82.82155424802562
 11
77.58706540181363
 21
81.14012694979418
 72
     1
 10
77.58706540181363
 20
81.14012694979418
 11
78.0296848102045
 21
81.14063294819358
 97
        1
330
1FF
 75
     2
 76
     1
 98
        1
 10
0.0
 20
0.0
450
        0
451
        0
460
0.0
461
0.0
452
        0
462
0.0
453
        0
470

  0
ENDBLK
  5
1FE
330
1FB
100
AcDbEntity
  8
0
100
AcDbBlockEnd
  0
BLOCK
  5
203
330
201
100
AcDbEntity
  8
0
100
AcDbBlockBegin
  2
Block_16
 70
     0
 10
0.0
 20
0.0
 30
0.0
  3
Block_16
  1

  0
INSERT
  5
206
330
201
100
AcDbEntity
  8
Rahmen (ISO)
100
AcDbBlockReference
  2
Block_17
 10
0.0
 20
0.0
 30
0.0
  0
ENDBLK
  5
204
330
201
100
AcDbEntity
  8
0
100
AcDbBlockEnd
  0
BLOCK
  5
207
330
205
100
AcDbEntity
  8
0
100
AcDbBlockBegin
  2
Block_17
 70
     0
 10
0.0
 20
0.0
 30
0.0
  3
Block_17
  1

  0
SPLINE
  5
209
330
205
100
AcDbEntity
  8
Rahmen (ISO)
100
AcDbSpline
210
0.0
220
0.0
230
1.0
 70
    11
 71
     3
 72
    26
 73
    22
 74
     0
 42
0.0000000001
 43
0.0000000001
 40
0.0
 40
0.0
 40
0.0
 40
0.0
 40
1.0
 40
1.0
 40
1.0
 40
2.0
 40
2.0
 40
2.0
 40
3.0
 40
3.0
 40
3.0
 40
4.0
 40
4.0
 40
4.0
 40
5.0
 40
5.0
 40
5.0
 40
6.0
 40
6.0
 40
6.0
 40
7.0
 40
7.0
 40
7.0
 40
7.0
 10
65.24080673282175
 20
75.25604381799155
 30
0.0
 10
65.24080673282175
 20
75.25604381799155
 30
0.0
 10
65.24080673282175
 20
74.73704018313866
 30
0.0
 10
65.24080673282175
 20
74.73704018313866
 30
0.0
 10
65.24080673282175
 20
74.73704018313866
 30
0.0
 10
65.04891491429333
 20
74.73704018313866
 30
0.0
 10
65.04891491429333
 20
74.73704018313866
 30
0.0
 10
65.04891491429333
 20
75.01058076466749
 30
0.0
 10
64.97829045684571
 20
75.25879989437974
 30
0.0
 10
64.67374401594963
 20
75.31237112917539
 30
0.0
 10
64.67374401594963
 20
75.31237112917539
 30
0.0
 10
64.67374401594963
 20
75.49582246376494
 30
0.0
 10
64.67374401594963
 20
75.49582246376494
 30
0.0
 10
64.67374401594963
 20
75.49582246376494
 30
0.0
 10
66.67362194513716
 20
75.49582246376494
 30
0.0
 10
66.67362194513716
 20
75.49582246376494
 30
0.0
 10
66.67362194513716
 20
75.49582246376494
 30
0.0
 10
66.67362194513716
 20
75.25604381799155
 30
0.0
 10
66.67362194513716
 20
75.25604381799155
 30
0.0
 10
66.67362194513716
 20
75.25604381799155
 30
0.0
 10
65.24080673282175
 20
75.25604381799155
 30
0.0
 10
65.24080673282175
 20
75.25604381799155
 30
0.0
  0
HATCH
  5
20A
330
205
100
AcDbEntity
  8
Rahmen (ISO)
 62
    18
420
        0
440
 33554687
100
AcDbHatch
 10
0.0
 20
0.0
 30
0.0
210
0.0
220
0.0
230
1.0
  2
SOLID
 70
     1
 71
     1
 91
        1
 92
        1
 93
        1
 72
     4
 94
        3
 73
     0
 74
     0
 95
       26
 96
       22
 40
0.0
 40
0.0
 40
0.0
 40
0.0
 40
1.0
 40
1.0
 40
1.0
 40
2.0
 40
2.0
 40
2.0
 40
3.0
 40
3.0
 40
3.0
 40
4.0
 40
4.0
 40
4.0
 40
5.0
 40
5.0
 40
5.0
 40
6.0
 40
6.0
 40
6.0
 40
7.0
 40
7.0
 40
7.0
 40
7.0
 10
65.24080673282175
 20
75.25604381799155
 10
65.24080673282175
 20
75.25604381799155
 10
65.24080673282175
 20
74.73704018313866
 10
65.24080673282175
 20
74.73704018313866
 10
65.24080673282175
 20
74.73704018313866
 10
65.04891491429333
 20
74.73704018313866
 10
65.04891491429333
 20
74.73704018313866
 10
65.04891491429333
 20
75.01058076466749
 10
64.97829045684571
 20
75.25879989437974
 10
64.67374401594963
 20
75.31237112917539
 10
64.67374401594963
 20
75.31237112917539
 10
64.67374401594963
 20
75.49582246376494
 10
64.67374401594963
 20
75.49582246376494
 10
64.67374401594963
 20
75.49582246376494
 10
66.67362194513716
 20
75.49582246376494
 10
66.67362194513716
 20
75.49582246376494
 10
66.67362194513716
 20
75.49582246376494
 10
66.67362194513716
 20
75.25604381799155
 10
66.67362194513716
 20
75.25604381799155
 10
66.67362194513716
 20
75.25604381799155
 10
65.24080673282175
 20
75.25604381799155
 10
65.24080673282175
 20
75.25604381799155
 97
        0
 97
        1
330
209
 75
     2
 76
     1
 98
        1
 10
0.0
 20
0.0
450
        0
451
        0
460
0.0
461
0.0
452
        0
462
0.0
453
        0
470

  0
SPLINE
  5
20B
330
205
100
AcDbEntity
  8
Rahmen (ISO)
100
AcDbSpline
210
0.0
220
0.0
230
1.0
 70
     9
 71
     3
 72
    53
 73
    49
 74
     0
 42
0.0000000001
 43
0.0000000001
 40
0.0
 40
0.0
 40
0.0
 40
0.0
 40
1.0
 40
1.0
 40
1.0
 40
2.0
 40
2.0
 40
2.0
 40
3.0
 40
3.0
 40
3.0
 40
4.0
 40
4.0
 40
4.0
 40
5.0
 40
5.0
 40
5.0
 40
6.0
 40
6.0
 40
6.0
 40
7.0
 40
7.0
 40
7.0
 40
8.0
 40
8.0
 40
8.0
 40
9.0
 40
9.0
 40
9.0
 40
10.0
 40
10.0
 40
10.0
 40
11.0
 40
11.0
 40
11.0
 40
12.0
 40
12.0
 40
12.0
 40
13.0
 40
13.0
 40
13.0
 40
14.0
 40
14.0
 40
14.0
 40
15.0
 40
15.0
 40
15.0
 40
16.0
 40
16.0
 40
16.0
 40
16.0
 10
66.13480901124408
 20
76.39929875477171
 30
0.0
 10
66.34082572126202
 20
76.41342364626123
 30
0.0
 10
66.49585501809827
 20
76.5798217581988
 30
0.0
 10
66.49585501809827
 20
76.81960040397219
 30
0.0
 10
66.49585501809827
 20
77.04801023464425
 30
0.0
 10
66.3377251353253
 20
77.24265812956087
 30
0.0
 10
66.02180987932789
 20
77.24265812956087
 30
0.0
 10
65.75963811290037
 20
77.24265812956087
 30
0.0
 10
65.56774629437196
 20
77.06213512613378
 30
0.0
 10
65.56774629437196
 20
76.79135062099314
 30
0.0
 10
65.56774629437196
 20
76.63614906938263
 30
0.0
 10
65.64388290459598
 20
76.51212563191363
 30
0.0
 10
65.75688203651217
 20
76.4191080538119
 30
0.0
 10
65.75688203651217
 20
76.4191080538119
 30
0.0
 10
65.74551322141084
 20
76.21309134379394
 30
0.0
 10
65.74551322141084
 20
76.21309134379394
 30
0.0
 10
65.74551322141084
 20
76.21309134379394
 30
0.0
 10
64.70750595170507
 20
76.39929875477171
 30
0.0
 10
64.70750595170507
 20
76.39929875477171
 30
0.0
 10
64.70750595170507
 20
76.39929875477171
 30
0.0
 10
64.70750595170507
 20
77.38649086607004
 30
0.0
 10
64.70750595170507
 20
77.38649086607004
 30
0.0
 10
64.70750595170507
 20
77.38649086607004
 30
0.0
 10
64.91903481449941
 20
77.38649086607004
 30
0.0
 10
64.91903481449941
 20
77.38649086607004
 30
0.0
 10
64.91903481449941
 20
77.38649086607004
 30
0.0
 10
64.91903481449941
 20
76.5798217581988
 30
0.0
 10
64.91903481449941
 20
76.5798217581988
 30
0.0
 10
64.91903481449941
 20
76.5798217581988
 30
0.0
 10
65.49436576053612
 20
76.47267928860753
 30
0.0
 10
65.49436576053612
 20
76.47267928860753
 30
0.0
 10
65.49436576053612
 20
76.47267928860753
 30
0.0
 10
65.50022242286106
 20
76.47836369615818
 30
0.0
 10
65.50022242286106
 20
76.47836369615818
 30
0.0
 10
65.40134818243439
 20
76.56569686670927
 30
0.0
 10
65.35621743157761
 20
76.71521401076912
 30
0.0
 10
65.35621743157761
 20
76.85060626333942
 30
0.0
 10
65.35621743157761
 20
77.20596786264295
 30
0.0
 10
65.58187118586147
 20
77.49656166682378
 30
0.0
 10
66.04179143314233
 20
77.49656166682378
 30
0.0
 10
66.38009980979386
 20
77.49656166682378
 30
0.0
 10
66.70738388089261
 20
77.26246742860105
 30
0.0
 10
66.70738388089261
 20
76.7970350285438
 30
0.0
 10
66.70738388089261
 20
76.45011391317914
 30
0.0
 10
66.49585501809827
 20
76.16796059293718
 30
0.0
 10
66.13480901124408
 20
76.15952010899832
 30
0.0
 10
66.13480901124408
 20
76.15952010899832
 30
0.0
 10
66.13480901124408
 20
76.39929875477171
 30
0.0
 10
66.13480901124408
 20
76.39929875477171
 30
0.0
  0
HATCH
  5
20C
330
205
100
AcDbEntity
  8
Rahmen (ISO)
 62
    18
420
        0
440
 33554687
100
AcDbHatch
 10
0.0
 20
0.0
 30
0.0
210
0.0
220
0.0
230
1.0
  2
SOLID
 70
     1
 71
     1
 91
        1
 92
        1
 93
        1
 72
     4
 94
        3
 73
     0
 74
     0
 95
       53
 96
       49
 40
0.0
 40
0.0
 40
0.0
 40
0.0
 40
1.0
 40
1.0
 40
1.0
 40
2.0
 40
2.0
 40
2.0
 40
3.0
 40
3.0
 40
3.0
 40
4.0
 40
4.0
 40
4.0
 40
5.0
 40
5.0
 40
5.0
 40
6.0
 40
6.0
 40
6.0
 40
7.0
 40
7.0
 40
7.0
 40
8.0
 40
8.0
 40
8.0
 40
9.0
 40
9.0
 40
9.0
 40
10.0
 40
10.0
 40
10.0
 40
11.0
 40
11.0
 40
11.0
 40
12.0
 40
12.0
 40
12.0
 40
13.0
 40
13.0
 40
13.0
 40
14.0
 40
14.0
 40
14.0
 40
15.0
 40
15.0
 40
15.0
 40
16.0
 40
16.0
 40
16.0
 40
16.0
 10
66.13480901124408
 20
76.39929875477171
 10
66.34082572126202
 20
76.41342364626123
 10
66.49585501809827
 20
76.5798217581988
 10
66.49585501809827
 20
76.81960040397219
 10
66.49585501809827
 20
77.04801023464425
 10
66.3377251353253
 20
77.24265812956087
 10
66.02180987932789
 20
77.24265812956087
 10
65.75963811290037
 20
77.24265812956087
 10
65.56774629437196
 20
77.06213512613378
 10
65.56774629437196
 20
76.79135062099314
 10
65.56774629437196
 20
76.63614906938263
 10
65.64388290459598
 20
76.51212563191363
 10
65.75688203651217
 20
76.4191080538119
 10
65.75688203651217
 20
76.4191080538119
 10
65.74551322141084
 20
76.21309134379394
 10
65.74551322141084
 20
76.21309134379394
 10
65.74551322141084
 20
76.21309134379394
 10
64.70750595170507
 20
76.39929875477171
 10
64.70750595170507
 20
76.39929875477171
 10
64.70750595170507
 20
76.39929875477171
 10
64.70750595170507
 20
77.38649086607004
 10
64.70750595170507
 20
77.38649086607004
 10
64.70750595170507
 20
77.38649086607004
 10
64.91903481449941
 20
77.38649086607004
 10
64.91903481449941
 20
77.38649086607004
 10
64.91903481449941
 20
77.38649086607004
 10
64.91903481449941
 20
76.5798217581988
 10
64.91903481449941
 20
76.5798217581988
 10
64.91903481449941
 20
76.5798217581988
 10
65.49436576053612
 20
76.47267928860753
 10
65.49436576053612
 20
76.47267928860753
 10
65.49436576053612
 20
76.47267928860753
 10
65.50022242286106
 20
76.47836369615818
 10
65.50022242286106
 20
76.47836369615818
 10
65.40134818243439
 20
76.56569686670927
 10
65.35621743157761
 20
76.71521401076912
 10
65.35621743157761
 20
76.85060626333942
 10
65.35621743157761
 20
77.20596786264295
 10
65.58187118586147
 20
77.49656166682378
 10
66.04179143314233
 20
77.49656166682378
 10
66.38009980979386
 20
77.49656166682378
 10
66.70738388089261
 20
77.26246742860105
 10
66.70738388089261
 20
76.7970350285438
 10
66.70738388089261
 20
76.45011391317914
 10
66.49585501809827
 20
76.16796059293718
 10
66.13480901124408
 20
76.15952010899832
 10
66.13480901124408
 20
76.15952010899832
 10
66.13480901124408
 20
76.39929875477171
 10
66.13480901124408
 20
76.39929875477171
 97
        0
 97
        1
330
20B
 75
     2
 76
     1
 98
        1
 10
0.0
 20
0.0
450
        0
451
        0
460
0.0
461
0.0
452
        0
462
0.0
453
        0
470

  0
ENDBLK
  5
208
330
205
100
AcDbEntity
  8
0
100
AcDbBlockEnd
  0
BLOCK
  5
213
330
211
100
AcDbEntity
  8
0
100
AcDbBlockBegin
  2
Block_18
 70
     0
 10
0.0
 20
0.0
 30
0.0
  3
Block_18
  1

  0
INSERT
  5
216
330
211
100
AcDbEntity
  8
Rahmen (ISO)
100
AcDbBlockReference
  2
Block_19
 10
0.0
 20
0.0
 30
0.0
  0
ENDBLK
  5
214
330
211
100
AcDbEntity
  8
0
100
AcDbBlockEnd
  0
BLOCK
  5
217
330
215
100
AcDbEntity
  8
0
100
AcDbBlockBegin
  2
Block_19
 70
     0
 10
0.0
 20
0.0
 30
0.0
  3
Block_19
  1

  0
SPLINE
  5
219
330
215
100
AcDbEntity
  8
Rahmen (ISO)
100
AcDbSpline
210
0.0
220
0.0
230
1.0
 70
     9
 71
     3
 72
    26
 73
    22
 74
     0
 42
0.0000000001
 43
0.0000000001
 40
0.0
 40
0.0
 40
0.0
 40
0.0
 40
1.0
 40
1.0
 40
1.0
 40
2.0
 40
2.0
 40
2.0
 40
3.0
 40
3.0
 40
3.0
 40
4.0
 40
4.0
 40
4.0
 40
5.0
 40
5.0
 40
5.0
 40
6.0
 40
6.0
 40
6.0
 40
7.0
 40
7.0
 40
7.0
 40
7.0
 10
79.07424314429395
 20
73.5129977572294
 30
0.0
 10
79.07424314429395
 20
73.5129977572294
 30
0.0
 10
79.07424314429395
 20
72.46379392719655
 30
0.0
 10
79.07424314429395
 20
72.46379392719655
 30
0.0
 10
79.07424314429395
 20
72.46379392719655
 30
0.0
 10
78.84858939001007
 20
72.46379392719655
 30
0.0
 10
78.84858939001007
 20
72.46379392719655
 30
0.0
 10
78.84858939001007
 20
72.46379392719655
 30
0.0
 10
78.84858939001007
 20
73.75846081055344
 30
0.0
 10
78.84858939001007
 20
73.75846081055344
 30
0.0
 10
78.84858939001007
 20
73.75846081055344
 30
0.0
 10
79.05460610002802
 20
73.75846081055344
 30
0.0
 10
79.05460610002802
 20
73.75846081055344
 30
0.0
 10
79.45217011902585
 20
73.35504012923069
 30
0.0
 10
80.19114310061194
 20
73.02792831290621
 30
0.0
 10
80.81470538344216
 20
72.99123804598831
 30
0.0
 10
80.81470538344216
 20
72.99123804598831
 30
0.0
 10
80.81470538344216
 20
72.72320961723586
 30
0.0
 10
80.81470538344216
 20
72.72320961723586
 30
0.0
 10
80.13774412059056
 20
72.76834036809264
 30
0.0
 10
79.51728242369707
 20
73.09269610802892
 30
0.0
 10
79.07424314429395
 20
73.5129977572294
 30
0.0
  0
HATCH
  5
21A
330
215
100
AcDbEntity
  8
Rahmen (ISO)
 62
    18
420
        0
440
 33554687
100
AcDbHatch
 10
0.0
 20
0.0
 30
0.0
210
0.0
220
0.0
230
1.0
  2
SOLID
 70
     1
 71
     1
 91
        1
 92
        1
 93
        1
 72
     4
 94
        3
 73
     0
 74
     0
 95
       26
 96
       22
 40
0.0
 40
0.0
 40
0.0
 40
0.0
 40
1.0
 40
1.0
 40
1.0
 40
2.0
 40
2.0
 40
2.0
 40
3.0
 40
3.0
 40
3.0
 40
4.0
 40
4.0
 40
4.0
 40
5.0
 40
5.0
 40
5.0
 40
6.0
 40
6.0
 40
6.0
 40
7.0
 40
7.0
 40
7.0
 40
7.0
 10
79.07424314429395
 20
73.5129977572294
 10
79.07424314429395
 20
73.5129977572294
 10
79.07424314429395
 20
72.46379392719655
 10
79.07424314429395
 20
72.46379392719655
 10
79.07424314429395
 20
72.46379392719655
 10
78.84858939001007
 20
72.46379392719655
 10
78.84858939001007
 20
72.46379392719655
 10
78.84858939001007
 20
72.46379392719655
 10
78.84858939001007
 20
73.75846081055344
 10
78.84858939001007
 20
73.75846081055344
 10
78.84858939001007
 20
73.75846081055344
 10
79.05460610002802
 20
73.75846081055344
 10
79.05460610002802
 20
73.75846081055344
 10
79.45217011902585
 20
73.35504012923069
 10
80.19114310061194
 20
73.02792831290621
 10
80.81470538344216
 20
72.99123804598831
 10
80.81470538344216
 20
72.99123804598831
 10
80.81470538344216
 20
72.72320961723586
 10
80.81470538344216
 20
72.72320961723586
 10
80.13774412059056
 20
72.76834036809264
 10
79.51728242369707
 20
73.09269610802892
 10
79.07424314429395
 20
73.5129977572294
 97
        0
 97
        1
330
219
 75
     2
 76
     1
 98
        1
 10
0.0
 20
0.0
450
        0
451
        0
460
0.0
461
0.0
452
        0
462
0.0
453
        0
470

  0
SPLINE
  5
21B
330
215
100
AcDbEntity
  8
Rahmen (ISO)
100
AcDbSpline
210
0.0
220
0.0
230
1.0
 70
     9
 71
     3
 72
    26
 73
    22
 74
     0
 42
0.0000000001
 43
0.0000000001
 40
0.0
 40
0.0
 40
0.0
 40
0.0
 40
1.0
 40
1.0
 40
1.0
 40
2.0
 40
2.0
 40
2.0
 40
3.0
 40
3.0
 40
3.0
 40
4.0
 40
4.0
 40
4.0
 40
5.0
 40
5.0
 40
5.0
 40
6.0
 40
6.0
 40
6.0
 40
7.0
 40
7.0
 40
7.0
 40
7.0
 10
79.07424314429395
 20
75.08206649598642
 30
0.0
 10
79.07424314429395
 20
75.08206649598642
 30
0.0
 10
79.07424314429395
 20
74.03286266595358
 30
0.0
 10
79.07424314429395
 20
74.03286266595358
 30
0.0
 10
79.07424314429395
 20
74.03286266595358
 30
0.0
 10
78.84858939001007
 20
74.03286266595358
 30
0.0
 10
78.84858939001007
 20
74.03286266595358
 30
0.0
 10
78.84858939001007
 20
74.03286266595358
 30
0.0
 10
78.84858939001007
 20
75.32752954931048
 30
0.0
 10
78.84858939001007
 20
75.32752954931048
 30
0.0
 10
78.84858939001007
 20
75.32752954931048
 30
0.0
 10
79.05460610002802
 20
75.32752954931048
 30
0.0
 10
79.05460610002802
 20
75.32752954931048
 30
0.0
 10
79.45217011902585
 20
74.92410886798772
 30
0.0
 10
80.19114310061194
 20
74.59699705166325
 30
0.0
 10
80.81470538344216
 20
74.56030678474535
 30
0.0
 10
80.81470538344216
 20
74.56030678474535
 30
0.0
 10
80.81470538344216
 20
74.29227835599291
 30
0.0
 10
80.81470538344216
 20
74.29227835599291
 30
0.0
 10
80.13774412059056
 20
74.33740910684967
 30
0.0
 10
79.51728242369707
 20
74.66176484678595
 30
0.0
 10
79.07424314429395
 20
75.08206649598642
 30
0.0
  0
HATCH
  5
21C
330
215
100
AcDbEntity
  8
Rahmen (ISO)
 62
    18
420
        0
440
 33554687
100
AcDbHatch
 10
0.0
 20
0.0
 30
0.0
210
0.0
220
0.0
230
1.0
  2
SOLID
 70
     1
 71
     1
 91
        1
 92
        1
 93
        1
 72
     4
 94
        3
 73
     0
 74
     0
 95
       26
 96
       22
 40
0.0
 40
0.0
 40
0.0
 40
0.0
 40
1.0
 40
1.0
 40
1.0
 40
2.0
 40
2.0
 40
2.0
 40
3.0
 40
3.0
 40
3.0
 40
4.0
 40
4.0
 40
4.0
 40
5.0
 40
5.0
 40
5.0
 40
6.0
 40
6.0
 40
6.0
 40
7.0
 40
7.0
 40
7.0
 40
7.0
 10
79.07424314429395
 20
75.08206649598642
 10
79.07424314429395
 20
75.08206649598642
 10
79.07424314429395
 20
74.03286266595358
 10
79.07424314429395
 20
74.03286266595358
 10
79.07424314429395
 20
74.03286266595358
 10
78.84858939001007
 20
74.03286266595358
 10
78.84858939001007
 20
74.03286266595358
 10
78.84858939001007
 20
74.03286266595358
 10
78.84858939001007
 20
75.32752954931048
 10
78.84858939001007
 20
75.32752954931048
 10
78.84858939001007
 20
75.32752954931048
 10
79.05460610002802
 20
75.32752954931048
 10
79.05460610002802
 20
75.32752954931048
 10
79.45217011902585
 20
74.92410886798772
 10
80.19114310061194
 20
74.59699705166325
 10
80.81470538344216
 20
74.56030678474535
 10
80.81470538344216
 20
74.56030678474535
 10
80.81470538344216
 20
74.29227835599291
 10
80.81470538344216
 20
74.29227835599291
 10
80.13774412059056
 20
74.33740910684967
 10
79.51728242369707
 20
74.66176484678595
 10
79.07424314429395
 20
75.08206649598642
 97
        0
 97
        1
330
21B
 75
     2
 76
     1
 98
        1
 10
0.0
 20
0.0
450
        0
451
        0
460
0.0
461
0.0
452
        0
462
0.0
453
        0
470

  0
ENDBLK
  5
218
330
215
100
AcDbEntity
  8
0
100
AcDbBlockEnd
  0
BLOCK
  5
22F
330
22D
100
AcDbEntity
  8
0
100
AcDbBlockBegin
  2
Block_20
 70
     0
 10
0.0
 20
0.0
 30
0.0
  3
Block_20
  1

  0
INSERT
  5
232
330
22D
100
AcDbEntity
  8
Rahmen (ISO)
100
AcDbBlockReference
  2
Block_21
 10
0.0
 20
0.0
 30
0.0
  0
ENDBLK
  5
230
330
22D
100
AcDbEntity
  8
0
100
AcDbBlockEnd
  0
BLOCK
  5
233
330
231
100
AcDbEntity
  8
0
100
AcDbBlockBegin
  2
Block_21
 70
     0
 10
0.0
 20
0.0
 30
0.0
  3
Block_21
  1

  0
LINE
  5
235
330
231
100
AcDbEntity
  8
Rahmen (ISO)
 62
    18
420
        0
370
     5
100
AcDbLine
 10
63.84080067204164
 20
48.92563119300948
 30
0.0
 11
63.84382051355293
 21
24.64057714058194
 31
0.0
  0
INSERT
  5
237
330
231
100
AcDbEntity
  8
Rahmen (ISO)
100
AcDbBlockReference
  2
Block_22
 10
0.0
 20
0.0
 30
0.0
  0
INSERT
  5
23D
330
231
100
AcDbEntity
  8
Rahmen (ISO)
100
AcDbBlockReference
  2
Block_23
 10
0.0
 20
0.0
 30
0.0
  0
ENDBLK
  5
234
330
231
100
AcDbEntity
  8
0
100
AcDbBlockEnd
  0
BLOCK
  5
238
330
236
100
AcDbEntity
  8
0
100
AcDbBlockBegin
  2
Block_22
 70
     0
 10
0.0
 20
0.0
 30
0.0
  3
Block_22
  1

  0
LWPOLYLINE
  5
23A
330
236
100
AcDbEntity
  8
Rahmen (ISO)
100
AcDbPolyline
 90
        3
 70
     1
 43
0.0
 10
63.61957171227165
 20
48.29314934264948
 10
63.8399824618639
 20
49.97435055648971
 10
64.06219112066252
 20
48.29320317226644
  0
HATCH
  5
23B
330
236
100
AcDbEntity
  8
Rahmen (ISO)
 62
    18
420
        0
440
 33554687
100
AcDbHatch
 10
0.0
 20
0.0
 30
0.0
210
0.0
220
0.0
230
1.0
  2
SOLID
 70
     1
 71
     1
 91
        1
 92
        1
 93
        3
 72
     1
 10
63.61957171227165
 20
48.29314934264948
 11
63.8399824618639
 21
49.97435055648971
 72
     1
 10
63.8399824618639
 20
49.97435055648971
 11
64.06219112066252
 21
48.29320317226644
 72
     1
 10
64.06219112066252
 20
48.29320317226644
 11
63.61957171227165
 21
48.29314934264948
 97
        1
330
23A
 75
     2
 76
     1
 98
        1
 10
0.0
 20
0.0
450
        0
451
        0
460
0.0
461
0.0
452
        0
462
0.0
453
        0
470

  0
ENDBLK
  5
239
330
236
100
AcDbEntity
  8
0
100
AcDbBlockEnd
  0
BLOCK
  5
23E
330
23C
100
AcDbEntity
  8
0
100
AcDbBlockBegin
  2
Block_23
 70
     0
 10
0.0
 20
0.0
 30
0.0
  3
Block_23
  1

  0
LWPOLYLINE
  5
240
330
23C
100
AcDbEntity
  8
Rahmen (ISO)
100
AcDbPolyline
 90
        3
 70
     1
 43
0.0
 10
63.62243006493207
 20
25.27300516132498
 10
63.84326068553658
 20
23.59185508562086
 10
64.06505485628463
 20
25.27305899094194
  0
HATCH
  5
241
330
23C
100
AcDbEntity
  8
Rahmen (ISO)
 62
    18
420
        0
440
 33554687
100
AcDbHatch
 10
0.0
 20
0.0
 30
0.0
210
0.0
220
0.0
230
1.0
  2
SOLID
 70
     1
 71
     1
 91
        1
 92
        1
 93
        3
 72
     1
 10
63.62243006493207
 20
25.27300516132498
 11
63.84326068553658
 21
23.59185508562086
 72
     1
 10
63.84326068553658
 20
23.59185508562086
 11
64.06505485628463
 21
25.27305899094194
 72
     1
 10
64.06505485628463
 20
25.27305899094194
 11
63.62243006493207
 21
25.27300516132498
 97
        1
330
240
 75
     2
 76
     1
 98
        1
 10
0.0
 20
0.0
450
        0
451
        0
460
0.0
461
0.0
452
        0
462
0.0
453
        0
470

  0
ENDBLK
  5
23F
330
23C
100
AcDbEntity
  8
0
100
AcDbBlockEnd
  0
BLOCK
  5
244
330
242
100
AcDbEntity
  8
0
100
AcDbBlockBegin
  2
Block_24
 70
     0
 10
0.0
 20
0.0
 30
0.0
  3
Block_24
  1

  0
SPLINE
  5
246
330
242
100
AcDbEntity
  8
Rahmen (ISO)
100
AcDbSpline
210
0.0
220
0.0
230
1.0
 70
    11
 71
     3
 72
    17
 73
    13
 74
     0
 42
0.0000000001
 43
0.0000000001
 40
0.0
 40
0.0
 40
0.0
 40
0.0
 40
1.0
 40
1.0
 40
1.0
 40
2.0
 40
2.0
 40
2.0
 40
3.0
 40
3.0
 40
3.0
 40
4.0
 40
4.0
 40
4.0
 40
4.0
 10
73.58930662222768
 20
34.83301594181258
 30
0.0
 10
73.58930662222768
 20
34.83301594181258
 30
0.0
 10
71.92773706969167
 20
34.83301594181258
 30
0.0
 10
71.92773706969167
 20
34.83301594181258
 30
0.0
 10
71.92773706969167
 20
34.83301594181258
 30
0.0
 10
71.92773706969167
 20
33.17420246566479
 30
0.0
 10
71.92773706969167
 20
33.17420246566479
 30
0.0
 10
71.92773706969167
 20
33.17420246566479
 30
0.0
 10
73.58930662222768
 20
33.17420246566479
 30
0.0
 10
73.58930662222768
 20
33.17420246566479
 30
0.0
 10
73.58930662222768
 20
33.17420246566479
 30
0.0
 10
73.58930662222768
 20
34.83301594181258
 30
0.0
 10
73.58930662222768
 20
34.83301594181258
 30
0.0
  0
SPLINE
  5
247
330
242
100
AcDbEntity
  8
Rahmen (ISO)
100
AcDbSpline
210
0.0
220
0.0
230
1.0
 70
    11
 71
     3
 72
    17
 73
    13
 74
     0
 42
0.0000000001
 43
0.0000000001
 40
0.0
 40
0.0
 40
0.0
 40
0.0
 40
1.0
 40
1.0
 40
1.0
 40
2.0
 40
2.0
 40
2.0
 40
3.0
 40
3.0
 40
3.0
 40
4.0
 40
4.0
 40
4.0
 40
4.0
 10
71.70208331540782
 20
32.94613714454125
 30
0.0
 10
71.70208331540782
 20
32.94613714454125
 30
0.0
 10
71.70208331540782
 20
35.05866969609645
 30
0.0
 10
71.70208331540782
 20
35.05866969609645
 30
0.0
 10
71.70208331540782
 20
35.05866969609645
 30
0.0
 10
73.81771645289974
 20
35.05866969609645
 30
0.0
 10
73.81771645289974
 20
35.05866969609645
 30
0.0
 10
73.81771645289974
 20
35.05866969609645
 30
0.0
 10
73.81771645289974
 20
32.94613714454125
 30
0.0
 10
73.81771645289974
 20
32.94613714454125
 30
0.0
 10
73.81771645289974
 20
32.94613714454125
 30
0.0
 10
71.70208331540782
 20
32.94613714454125
 30
0.0
 10
71.70208331540782
 20
32.94613714454125
 30
0.0
  0
HATCH
  5
248
330
242
100
AcDbEntity
  8
Rahmen (ISO)
 62
    18
420
        0
440
 33554687
100
AcDbHatch
 10
0.0
 20
0.0
 30
0.0
210
0.0
220
0.0
230
1.0
  2
SOLID
 70
     1
 71
     1
 91
        2
 92
        1
 93
        1
 72
     4
 94
        3
 73
     0
 74
     0
 95
       17
 96
       13
 40
0.0
 40
0.0
 40
0.0
 40
0.0
 40
1.0
 40
1.0
 40
1.0
 40
2.0
 40
2.0
 40
2.0
 40
3.0
 40
3.0
 40
3.0
 40
4.0
 40
4.0
 40
4.0
 40
4.0
 10
73.58930662222768
 20
34.83301594181258
 10
73.58930662222768
 20
34.83301594181258
 10
71.92773706969167
 20
34.83301594181258
 10
71.92773706969167
 20
34.83301594181258
 10
71.92773706969167
 20
34.83301594181258
 10
71.92773706969167
 20
33.17420246566479
 10
71.92773706969167
 20
33.17420246566479
 10
71.92773706969167
 20
33.17420246566479
 10
73.58930662222768
 20
33.17420246566479
 10
73.58930662222768
 20
33.17420246566479
 10
73.58930662222768
 20
33.17420246566479
 10
73.58930662222768
 20
34.83301594181258
 10
73.58930662222768
 20
34.83301594181258
 97
        0
 97
        1
330
246
 92
        1
 93
        1
 72
     4
 94
        3
 73
     0
 74
     0
 95
       17
 96
       13
 40
0.0
 40
0.0
 40
0.0
 40
0.0
 40
1.0
 40
1.0
 40
1.0
 40
2.0
 40
2.0
 40
2.0
 40
3.0
 40
3.0
 40
3.0
 40
4.0
 40
4.0
 40
4.0
 40
4.0
 10
71.70208331540782
 20
32.94613714454125
 10
71.70208331540782
 20
32.94613714454125
 10
71.70208331540782
 20
35.05866969609645
 10
71.70208331540782
 20
35.05866969609645
 10
71.70208331540782
 20
35.05866969609645
 10
73.81771645289974
 20
35.05866969609645
 10
73.81771645289974
 20
35.05866969609645
 10
73.81771645289974
 20
35.05866969609645
 10
73.81771645289974
 20
32.94613714454125
 10
73.81771645289974
 20
32.94613714454125
 10
73.81771645289974
 20
32.94613714454125
 10
71.70208331540782
 20
32.94613714454125
 10
71.70208331540782
 20
32.94613714454125
 97
        0
 97
        1
330
247
 75
     2
 76
     1
 98
        1
 10
0.0
 20
0.0
450
        0
451
        0
460
0.0
461
0.0
452
        0
462
0.0
453
        0
470

  0
SPLINE
  5
249
330
242
100
AcDbEntity
  8
Rahmen (ISO)
100
AcDbSpline
210
0.0
220
0.0
230
1.0
 70
    11
 71
     3
 72
    26
 73
    22
 74
     0
 42
0.0000000001
 43
0.0000000001
 40
0.0
 40
0.0
 40
0.0
 40
0.0
 40
1.0
 40
1.0
 40
1.0
 40
2.0
 40
2.0
 40
2.0
 40
3.0
 40
3.0
 40
3.0
 40
4.0
 40
4.0
 40
4.0
 40
5.0
 40
5.0
 40
5.0
 40
6.0
 40
6.0
 40
6.0
 40
7.0
 40
7.0
 40
7.0
 40
7.0
 10
72.38490124058433
 20
36.61171874084708
 30
0.0
 10
72.38490124058433
 20
36.61171874084708
 30
0.0
 10
72.38490124058433
 20
36.09288736076845
 30
0.0
 10
72.38490124058433
 20
36.09288736076845
 30
0.0
 10
72.38490124058433
 20
36.09288736076845
 30
0.0
 10
72.19300942205592
 20
36.09288736076845
 30
0.0
 10
72.19300942205592
 20
36.09288736076845
 30
0.0
 10
72.19300942205592
 20
36.36642794229729
 30
0.0
 10
72.1223849646083
 20
36.61447481723527
 30
0.0
 10
71.81783852371221
 20
36.66821830680517
 30
0.0
 10
71.81783852371221
 20
36.66821830680517
 30
0.0
 10
71.81783852371221
 20
36.85149738662046
 30
0.0
 10
71.81783852371221
 20
36.85149738662046
 30
0.0
 10
71.81783852371221
 20
36.85149738662046
 30
0.0
 10
73.81771645289974
 20
36.85149738662046
 30
0.0
 10
73.81771645289974
 20
36.85149738662046
 30
0.0
 10
73.81771645289974
 20
36.85149738662046
 30
0.0
 10
73.81771645289974
 20
36.61171874084708
 30
0.0
 10
73.81771645289974
 20
36.61171874084708
 30
0.0
 10
73.81771645289974
 20
36.61171874084708
 30
0.0
 10
72.38490124058433
 20
36.61171874084708
 30
0.0
 10
72.38490124058433
 20
36.61171874084708
 30
0.0
  0
HATCH
  5
24A
330
242
100
AcDbEntity
  8
Rahmen (ISO)
 62
    18
420
        0
440
 33554687
100
AcDbHatch
 10
0.0
 20
0.0
 30
0.0
210
0.0
220
0.0
230
1.0
  2
SOLID
 70
     1
 71
     1
 91
        1
 92
        1
 93
        1
 72
     4
 94
        3
 73
     0
 74
     0
 95
       26
 96
       22
 40
0.0
 40
0.0
 40
0.0
 40
0.0
 40
1.0
 40
1.0
 40
1.0
 40
2.0
 40
2.0
 40
2.0
 40
3.0
 40
3.0
 40
3.0
 40
4.0
 40
4.0
 40
4.0
 40
5.0
 40
5.0
 40
5.0
 40
6.0
 40
6.0
 40
6.0
 40
7.0
 40
7.0
 40
7.0
 40
7.0
 10
72.38490124058433
 20
36.61171874084708
 10
72.38490124058433
 20
36.61171874084708
 10
72.38490124058433
 20
36.09288736076845
 10
72.38490124058433
 20
36.09288736076845
 10
72.38490124058433
 20
36.09288736076845
 10
72.19300942205592
 20
36.09288736076845
 10
72.19300942205592
 20
36.09288736076845
 10
72.19300942205592
 20
36.36642794229729
 10
72.1223849646083
 20
36.61447481723527
 10
71.81783852371221
 20
36.66821830680517
 10
71.81783852371221
 20
36.66821830680517
 10
71.81783852371221
 20
36.85149738662046
 10
71.81783852371221
 20
36.85149738662046
 10
71.81783852371221
 20
36.85149738662046
 10
73.81771645289974
 20
36.85149738662046
 10
73.81771645289974
 20
36.85149738662046
 10
73.81771645289974
 20
36.85149738662046
 10
73.81771645289974
 20
36.61171874084708
 10
73.81771645289974
 20
36.61171874084708
 10
73.81771645289974
 20
36.61171874084708
 10
72.38490124058433
 20
36.61171874084708
 10
72.38490124058433
 20
36.61171874084708
 97
        0
 97
        1
330
249
 75
     2
 76
     1
 98
        1
 10
0.0
 20
0.0
450
        0
451
        0
460
0.0
461
0.0
452
        0
462
0.0
453
        0
470

  0
SPLINE
  5
24B
330
242
100
AcDbEntity
  8
Rahmen (ISO)
100
AcDbSpline
210
0.0
220
0.0
230
1.0
 70
     9
 71
     3
 72
    17
 73
    13
 74
     0
 42
0.0000000001
 43
0.0000000001
 40
0.0
 40
0.0
 40
0.0
 40
0.0
 40
1.0
 40
1.0
 40
1.0
 40
2.0
 40
2.0
 40
2.0
 40
3.0
 40
3.0
 40
3.0
 40
4.0
 40
4.0
 40
4.0
 40
4.0
 10
73.63994952586084
 20
38.2088650078089
 30
0.0
 10
73.63994952586084
 20
38.44864365358229
 30
0.0
 10
73.47355141392329
 20
38.61814235145658
 30
0.0
 10
73.25065373602761
 20
38.61814235145658
 30
0.0
 10
73.03636879684508
 20
38.61814235145658
 30
0.0
 10
72.86997068490752
 20
38.43210719525309
 30
0.0
 10
72.86997068490752
 20
38.20610893142069
 30
0.0
 10
72.86997068490752
 20
37.96943087158403
 30
0.0
 10
73.01948782896736
 20
37.78305120583202
 30
0.0
 10
73.25340981241581
 20
37.78305120583202
 30
0.0
 10
73.4931884581892
 20
37.78305120583202
 30
0.0
 10
73.63994952586084
 20
37.96081813287091
 30
0.0
 10
73.63994952586084
 20
38.2088650078089
 30
0.0
  0
SPLINE
  5
24C
330
242
100
AcDbEntity
  8
Rahmen (ISO)
100
AcDbSpline
210
0.0
220
0.0
230
1.0
 70
     9
 71
     3
 72
    17
 73
    13
 74
     0
 42
0.0000000001
 43
0.0000000001
 40
0.0
 40
0.0
 40
0.0
 40
0.0
 40
1.0
 40
1.0
 40
1.0
 40
2.0
 40
2.0
 40
2.0
 40
3.0
 40
3.0
 40
3.0
 40
4.0
 40
4.0
 40
4.0
 40
4.0
 10
72.33666990379084
 20
38.53890515529583
 30
0.0
 10
72.13375377970962
 20
38.53890515529583
 30
0.0
 10
72.02936738650655
 20
38.39800074994911
 30
0.0
 10
72.02936738650655
 20
38.2033528550325
 30
0.0
 10
72.02936738650655
 20
38.01180554605261
 30
0.0
 10
72.13650985609781
 20
37.85367566327964
 30
0.0
 10
72.33666990379084
 20
37.85367566327964
 30
0.0
 10
72.5540554289101
 20
37.85367566327964
 30
0.0
 10
72.65844182211317
 20
38.01456162244081
 30
0.0
 10
72.65844182211317
 20
38.2088650078089
 30
0.0
 10
72.65844182211317
 20
38.40110133588584
 30
0.0
 10
72.53993053742057
 20
38.53890515529583
 30
0.0
 10
72.33666990379084
 20
38.53890515529583
 30
0.0
  0
SPLINE
  5
24D
330
242
100
AcDbEntity
  8
Rahmen (ISO)
100
AcDbSpline
210
0.0
220
0.0
230
1.0
 70
     9
 71
     3
 72
    29
 73
    25
 74
     0
 42
0.0000000001
 43
0.0000000001
 40
0.0
 40
0.0
 40
0.0
 40
0.0
 40
1.0
 40
1.0
 40
1.0
 40
2.0
 40
2.0
 40
2.0
 40
3.0
 40
3.0
 40
3.0
 40
4.0
 40
4.0
 40
4.0
 40
5.0
 40
5.0
 40
5.0
 40
6.0
 40
6.0
 40
6.0
 40
7.0
 40
7.0
 40
7.0
 40
8.0
 40
8.0
 40
8.0
 40
8.0
 10
72.74284666150179
 20
37.87916936987049
 30
0.0
 10
72.6753227899909
 20
37.71001518154472
 30
0.0
 10
72.50892467805333
 20
37.59977212601672
 30
0.0
 10
72.32840167462623
 20
37.59977212601672
 30
0.0
 10
72.00111760352751
 20
37.59977212601672
 30
0.0
 10
71.81783852371221
 20
37.87916936987049
 30
0.0
 10
71.81783852371221
 20
38.18647188715477
 30
0.0
 10
71.81783852371221
 20
38.62365450423297
 30
0.0
 10
72.07174206097512
 20
38.79315320210727
 30
0.0
 10
72.32840167462623
 20
38.79315320210727
 30
0.0
 10
72.50892467805333
 20
38.79315320210727
 30
0.0
 10
72.66671005127777
 20
38.68291014657927
 30
0.0
 10
72.74284666150179
 20
38.51651203464171
 30
0.0
 10
72.81898327172581
 20
38.7562906804151
 30
0.0
 10
72.99399412237651
 20
38.87204588871949
 30
0.0
 10
73.24238550686302
 20
38.87204588871949
 30
0.0
 10
73.62858071075952
 20
38.87204588871949
 30
0.0
 10
73.8514783886552
 20
38.5785237533762
 30
0.0
 10
73.8514783886552
 20
38.2088650078089
 30
0.0
 10
73.8514783886552
 20
37.8254258803006
 30
0.0
 10
73.64856226457397
 20
37.52949217811763
 30
0.0
 10
73.24238550686302
 20
37.52949217811763
 30
0.0
 10
73.00536293747782
 20
37.52949217811763
 30
0.0
 10
72.82208385766253
 20
37.65351561558662
 30
0.0
 10
72.74284666150179
 20
37.87916936987049
 30
0.0
  0
HATCH
  5
24E
330
242
100
AcDbEntity
  8
Rahmen (ISO)
 62
    18
420
        0
440
 33554687
100
AcDbHatch
 10
0.0
 20
0.0
 30
0.0
210
0.0
220
0.0
230
1.0
  2
SOLID
 70
     1
 71
     1
 91
        3
 92
        1
 93
        1
 72
     4
 94
        3
 73
     0
 74
     0
 95
       17
 96
       13
 40
0.0
 40
0.0
 40
0.0
 40
0.0
 40
1.0
 40
1.0
 40
1.0
 40
2.0
 40
2.0
 40
2.0
 40
3.0
 40
3.0
 40
3.0
 40
4.0
 40
4.0
 40
4.0
 40
4.0
 10
73.63994952586084
 20
38.2088650078089
 10
73.63994952586084
 20
38.44864365358229
 10
73.47355141392329
 20
38.61814235145658
 10
73.25065373602761
 20
38.61814235145658
 10
73.03636879684508
 20
38.61814235145658
 10
72.86997068490752
 20
38.43210719525309
 10
72.86997068490752
 20
38.20610893142069
 10
72.86997068490752
 20
37.96943087158403
 10
73.01948782896736
 20
37.78305120583202
 10
73.25340981241581
 20
37.78305120583202
 10
73.4931884581892
 20
37.78305120583202
 10
73.63994952586084
 20
37.96081813287091
 10
73.63994952586084
 20
38.2088650078089
 97
        0
 97
        1
330
24B
 92
        1
 93
        1
 72
     4
 94
        3
 73
     0
 74
     0
 95
       17
 96
       13
 40
0.0
 40
0.0
 40
0.0
 40
0.0
 40
1.0
 40
1.0
 40
1.0
 40
2.0
 40
2.0
 40
2.0
 40
3.0
 40
3.0
 40
3.0
 40
4.0
 40
4.0
 40
4.0
 40
4.0
 10
72.33666990379084
 20
38.53890515529583
 10
72.13375377970962
 20
38.53890515529583
 10
72.02936738650655
 20
38.39800074994911
 10
72.02936738650655
 20
38.2033528550325
 10
72.02936738650655
 20
38.01180554605261
 10
72.13650985609781
 20
37.85367566327964
 10
72.33666990379084
 20
37.85367566327964
 10
72.5540554289101
 20
37.85367566327964
 10
72.65844182211317
 20
38.01456162244081
 10
72.65844182211317
 20
38.2088650078089
 10
72.65844182211317
 20
38.40110133588584
 10
72.53993053742057
 20
38.53890515529583
 10
72.33666990379084
 20
38.53890515529583
 97
        0
 97
        1
330
24C
 92
        1
 93
        1
 72
     4
 94
        3
 73
     0
 74
     0
 95
       29
 96
       25
 40
0.0
 40
0.0
 40
0.0
 40
0.0
 40
1.0
 40
1.0
 40
1.0
 40
2.0
 40
2.0
 40
2.0
 40
3.0
 40
3.0
 40
3.0
 40
4.0
 40
4.0
 40
4.0
 40
5.0
 40
5.0
 40
5.0
 40
6.0
 40
6.0
 40
6.0
 40
7.0
 40
7.0
 40
7.0
 40
8.0
 40
8.0
 40
8.0
 40
8.0
 10
72.74284666150179
 20
37.87916936987049
 10
72.6753227899909
 20
37.71001518154472
 10
72.50892467805333
 20
37.59977212601672
 10
72.32840167462623
 20
37.59977212601672
 10
72.00111760352751
 20
37.59977212601672
 10
71.81783852371221
 20
37.87916936987049
 10
71.81783852371221
 20
38.18647188715477
 10
71.81783852371221
 20
38.62365450423297
 10
72.07174206097512
 20
38.79315320210727
 10
72.32840167462623
 20
38.79315320210727
 10
72.50892467805333
 20
38.79315320210727
 10
72.66671005127777
 20
38.68291014657927
 10
72.74284666150179
 20
38.51651203464171
 10
72.81898327172581
 20
38.7562906804151
 10
72.99399412237651
 20
38.87204588871949
 10
73.24238550686302
 20
38.87204588871949
 10
73.62858071075952
 20
38.87204588871949
 10
73.8514783886552
 20
38.5785237533762
 10
73.8514783886552
 20
38.2088650078089
 10
73.8514783886552
 20
37.8254258803006
 10
73.64856226457397
 20
37.52949217811763
 10
73.24238550686302
 20
37.52949217811763
 10
73.00536293747782
 20
37.52949217811763
 10
72.82208385766253
 20
37.65351561558662
 10
72.74284666150179
 20
37.87916936987049
 97
        0
 97
        1
330
24D
 75
     2
 76
     1
 98
        1
 10
0.0
 20
0.0
450
        0
451
        0
460
0.0
461
0.0
452
        0
462
0.0
453
        0
470

  0
SPLINE
  5
24F
330
242
100
AcDbEntity
  8
Rahmen (ISO)
100
AcDbSpline
210
0.0
220
0.0
230
1.0
 70
     9
 71
     3
 72
    17
 73
    13
 74
     0
 42
0.0000000001
 43
0.0000000001
 40
0.0
 40
0.0
 40
0.0
 40
0.0
 40
1.0
 40
1.0
 40
1.0
 40
2.0
 40
2.0
 40
2.0
 40
3.0
 40
3.0
 40
3.0
 40
4.0
 40
4.0
 40
4.0
 40
4.0
 10
72.48618704785068
 20
40.1394965177429
 30
0.0
 10
72.24089624930089
 20
40.1394965177429
 30
0.0
 10
72.02936738650655
 20
39.99549152645946
 30
0.0
 10
72.02936738650655
 20
39.72746309770702
 30
0.0
 10
72.02936738650655
 20
39.44289821062539
 30
0.0
 10
72.25777721717861
 20
39.3354112314856
 30
0.0
 10
72.5030680157284
 20
39.3354112314856
 30
0.0
 10
72.72045354084767
 20
39.3354112314856
 30
0.0
 10
72.9264702508656
 20
39.49905326703496
 30
0.0
 10
72.9264702508656
 20
39.73021917409523
 30
0.0
 10
72.9264702508656
 20
39.98136663496994
 30
0.0
 10
72.72320961723586
 20
40.1394965177429
 30
0.0
 10
72.48618704785068
 20
40.1394965177429
 30
0.0
  0
SPLINE
  5
250
330
242
100
AcDbEntity
  8
Rahmen (ISO)
100
AcDbSpline
210
0.0
220
0.0
230
1.0
 70
     9
 71
     3
 72
    35
 73
    31
 74
     0
 42
0.0000000001
 43
0.0000000001
 40
0.0
 40
0.0
 40
0.0
 40
0.0
 40
1.0
 40
1.0
 40
1.0
 40
2.0
 40
2.0
 40
2.0
 40
3.0
 40
3.0
 40
3.0
 40
4.0
 40
4.0
 40
4.0
 40
5.0
 40
5.0
 40
5.0
 40
6.0
 40
6.0
 40
6.0
 40
7.0
 40
7.0
 40
7.0
 40
8.0
 40
8.0
 40
8.0
 40
9.0
 40
9.0
 40
9.0
 40
10.0
 40
10.0
 40
10.0
 40
10.0
 10
73.33540308496477
 20
39.36366101446464
 30
0.0
 10
73.53005097988138
 20
39.3836425682791
 30
0.0
 10
73.63994952586084
 20
39.53867186511534
 30
0.0
 10
73.63994952586084
 20
39.73021917409523
 30
0.0
 10
73.63994952586084
 20
40.02374130943851
 30
0.0
 10
73.38604598859794
 20
40.16774630072195
 30
0.0
 10
72.8672146085193
 20
40.18152668266295
 30
0.0
 10
72.8672146085193
 20
40.18152668266295
 30
0.0
 10
72.86135794619439
 20
40.17601452988655
 30
0.0
 10
72.86135794619439
 20
40.17601452988655
 30
0.0
 10
73.03051213452015
 20
40.08575302817301
 30
0.0
 10
73.13799911365994
 20
39.90798610113412
 30
0.0
 10
73.13799911365994
 20
39.71368271576603
 30
0.0
 10
73.13799911365994
 20
39.30440537211835
 30
0.0
 10
72.86411402258258
 20
39.0818522037712
 30
0.0
 10
72.46930607997295
 20
39.0818522037712
 30
0.0
 10
72.08586695246464
 20
39.0818522037712
 30
0.0
 10
71.81783852371221
 20
39.35263670891185
 30
0.0
 10
71.81783852371221
 20
39.73883191280835
 30
0.0
 10
71.81783852371221
 20
40.11124673476386
 30
0.0
 10
72.01799857140523
 20
40.42406140482454
 30
0.0
 10
72.77385252086904
 20
40.42406140482454
 30
0.0
 10
73.46493867521016
 20
40.42406140482454
 30
0.0
 10
73.8514783886552
 20
40.21563312796692
 30
0.0
 10
73.8514783886552
 20
39.73021917409523
 30
0.0
 10
73.8514783886552
 20
39.39466687383189
 30
0.0
 10
73.67956812394123
 20
39.1548882280585
 30
0.0
 10
73.33540308496477
 20
39.12388236869126
 30
0.0
 10
73.33540308496477
 20
39.12388236869126
 30
0.0
 10
73.33540308496477
 20
39.36366101446464
 30
0.0
 10
73.33540308496477
 20
39.36366101446464
 30
0.0
  0
HATCH
  5
251
330
242
100
AcDbEntity
  8
Rahmen (ISO)
 62
    18
420
        0
440
 33554687
100
AcDbHatch
 10
0.0
 20
0.0
 30
0.0
210
0.0
220
0.0
230
1.0
  2
SOLID
 70
     1
 71
     1
 91
        2
 92
        1
 93
        1
 72
     4
 94
        3
 73
     0
 74
     0
 95
       17
 96
       13
 40
0.0
 40
0.0
 40
0.0
 40
0.0
 40
1.0
 40
1.0
 40
1.0
 40
2.0
 40
2.0
 40
2.0
 40
3.0
 40
3.0
 40
3.0
 40
4.0
 40
4.0
 40
4.0
 40
4.0
 10
72.48618704785068
 20
40.1394965177429
 10
72.24089624930089
 20
40.1394965177429
 10
72.02936738650655
 20
39.99549152645946
 10
72.02936738650655
 20
39.72746309770702
 10
72.02936738650655
 20
39.44289821062539
 10
72.25777721717861
 20
39.3354112314856
 10
72.5030680157284
 20
39.3354112314856
 10
72.72045354084767
 20
39.3354112314856
 10
72.9264702508656
 20
39.49905326703496
 10
72.9264702508656
 20
39.73021917409523
 10
72.9264702508656
 20
39.98136663496994
 10
72.72320961723586
 20
40.1394965177429
 10
72.48618704785068
 20
40.1394965177429
 97
        0
 97
        1
330
24F
 92
        1
 93
        1
 72
     4
 94
        3
 73
     0
 74
     0
 95
       35
 96
       31
 40
0.0
 40
0.0
 40
0.0
 40
0.0
 40
1.0
 40
1.0
 40
1.0
 40
2.0
 40
2.0
 40
2.0
 40
3.0
 40
3.0
 40
3.0
 40
4.0
 40
4.0
 40
4.0
 40
5.0
 40
5.0
 40
5.0
 40
6.0
 40
6.0
 40
6.0
 40
7.0
 40
7.0
 40
7.0
 40
8.0
 40
8.0
 40
8.0
 40
9.0
 40
9.0
 40
9.0
 40
10.0
 40
10.0
 40
10.0
 40
10.0
 10
73.33540308496477
 20
39.36366101446464
 10
73.53005097988138
 20
39.3836425682791
 10
73.63994952586084
 20
39.53867186511534
 10
73.63994952586084
 20
39.73021917409523
 10
73.63994952586084
 20
40.02374130943851
 10
73.38604598859794
 20
40.16774630072195
 10
72.8672146085193
 20
40.18152668266295
 10
72.8672146085193
 20
40.18152668266295
 10
72.86135794619439
 20
40.17601452988655
 10
72.86135794619439
 20
40.17601452988655
 10
73.03051213452015
 20
40.08575302817301
 10
73.13799911365994
 20
39.90798610113412
 10
73.13799911365994
 20
39.71368271576603
 10
73.13799911365994
 20
39.30440537211835
 10
72.86411402258258
 20
39.0818522037712
 10
72.46930607997295
 20
39.0818522037712
 10
72.08586695246464
 20
39.0818522037712
 10
71.81783852371221
 20
39.35263670891185
 10
71.81783852371221
 20
39.73883191280835
 10
71.81783852371221
 20
40.11124673476386
 10
72.01799857140523
 20
40.42406140482454
 10
72.77385252086904
 20
40.42406140482454
 10
73.46493867521016
 20
40.42406140482454
 10
73.8514783886552
 20
40.21563312796692
 10
73.8514783886552
 20
39.73021917409523
 10
73.8514783886552
 20
39.39466687383189
 10
73.67956812394123
 20
39.1548882280585
 10
73.33540308496477
 20
39.12388236869126
 10
73.33540308496477
 20
39.12388236869126
 10
73.33540308496477
 20
39.36366101446464
 10
73.33540308496477
 20
39.36366101446464
 97
        0
 97
        1
330
250
 75
     2
 76
     1
 98
        1
 10
0.0
 20
0.0
450
        0
451
        0
460
0.0
461
0.0
452
        0
462
0.0
453
        0
470

  0
ENDBLK
  5
245
330
242
100
AcDbEntity
  8
0
100
AcDbBlockEnd
  0
BLOCK
  5
254
330
252
100
AcDbEntity
  8
0
100
AcDbBlockBegin
  2
Block_25
 70
     0
 10
0.0
 20
0.0
 30
0.0
  3
Block_25
  1

  0
SPLINE
  5
256
330
252
100
AcDbEntity
  8
Rahmen (ISO)
100
AcDbSpline
210
0.0
220
0.0
230
1.0
 70
    11
 71
     3
 72
    17
 73
    13
 74
     0
 42
0.0000000001
 43
0.0000000001
 40
0.0
 40
0.0
 40
0.0
 40
0.0
 40
1.0
 40
1.0
 40
1.0
 40
2.0
 40
2.0
 40
2.0
 40
3.0
 40
3.0
 40
3.0
 40
4.0
 40
4.0
 40
4.0
 40
4.0
 10
80.62832571769014
 20
34.86023219614606
 30
0.0
 10
80.62832571769014
 20
34.86023219614606
 30
0.0
 10
78.96675616515415
 20
34.86023219614606
 30
0.0
 10
78.96675616515415
 20
34.86023219614606
 30
0.0
 10
78.96675616515415
 20
34.86023219614606
 30
0.0
 10
78.96675616515415
 20
33.20176322954679
 30
0.0
 10
78.96675616515415
 20
33.20176322954679
 30
0.0
 10
78.96675616515415
 20
33.20176322954679
 30
0.0
 10
80.62832571769014
 20
33.20176322954679
 30
0.0
 10
80.62832571769014
 20
33.20176322954679
 30
0.0
 10
80.62832571769014
 20
33.20176322954679
 30
0.0
 10
80.62832571769014
 20
34.86023219614606
 30
0.0
 10
80.62832571769014
 20
34.86023219614606
 30
0.0
  0
SPLINE
  5
257
330
252
100
AcDbEntity
  8
Rahmen (ISO)
100
AcDbSpline
210
0.0
220
0.0
230
1.0
 70
    11
 71
     3
 72
    17
 73
    13
 74
     0
 42
0.0000000001
 43
0.0000000001
 40
0.0
 40
0.0
 40
0.0
 40
0.0
 40
1.0
 40
1.0
 40
1.0
 40
2.0
 40
2.0
 40
2.0
 40
3.0
 40
3.0
 40
3.0
 40
4.0
 40
4.0
 40
4.0
 40
4.0
 10
78.74110241087028
 20
32.9730088893262
 30
0.0
 10
78.74110241087028
 20
32.9730088893262
 30
0.0
 10
78.74110241087028
 20
35.08588595042992
 30
0.0
 10
78.74110241087028
 20
35.08588595042992
 30
0.0
 10
78.74110241087028
 20
35.08588595042992
 30
0.0
 10
80.85673554836221
 20
35.08588595042992
 30
0.0
 10
80.85673554836221
 20
35.08588595042992
 30
0.0
 10
80.85673554836221
 20
35.08588595042992
 30
0.0
 10
80.85673554836221
 20
32.9730088893262
 30
0.0
 10
80.85673554836221
 20
32.9730088893262
 30
0.0
 10
80.85673554836221
 20
32.9730088893262
 30
0.0
 10
78.74110241087028
 20
32.9730088893262
 30
0.0
 10
78.74110241087028
 20
32.9730088893262
 30
0.0
  0
HATCH
  5
258
330
252
100
AcDbEntity
  8
Rahmen (ISO)
 62
    18
420
        0
440
 33554687
100
AcDbHatch
 10
0.0
 20
0.0
 30
0.0
210
0.0
220
0.0
230
1.0
  2
SOLID
 70
     1
 71
     1
 91
        2
 92
        1
 93
        1
 72
     4
 94
        3
 73
     0
 74
     0
 95
       17
 96
       13
 40
0.0
 40
0.0
 40
0.0
 40
0.0
 40
1.0
 40
1.0
 40
1.0
 40
2.0
 40
2.0
 40
2.0
 40
3.0
 40
3.0
 40
3.0
 40
4.0
 40
4.0
 40
4.0
 40
4.0
 10
80.62832571769014
 20
34.86023219614606
 10
80.62832571769014
 20
34.86023219614606
 10
78.96675616515415
 20
34.86023219614606
 10
78.96675616515415
 20
34.86023219614606
 10
78.96675616515415
 20
34.86023219614606
 10
78.96675616515415
 20
33.20176322954679
 10
78.96675616515415
 20
33.20176322954679
 10
78.96675616515415
 20
33.20176322954679
 10
80.62832571769014
 20
33.20176322954679
 10
80.62832571769014
 20
33.20176322954679
 10
80.62832571769014
 20
33.20176322954679
 10
80.62832571769014
 20
34.86023219614606
 10
80.62832571769014
 20
34.86023219614606
 97
        0
 97
        1
330
256
 92
        1
 93
        1
 72
     4
 94
        3
 73
     0
 74
     0
 95
       17
 96
       13
 40
0.0
 40
0.0
 40
0.0
 40
0.0
 40
1.0
 40
1.0
 40
1.0
 40
2.0
 40
2.0
 40
2.0
 40
3.0
 40
3.0
 40
3.0
 40
4.0
 40
4.0
 40
4.0
 40
4.0
 10
78.74110241087028
 20
32.9730088893262
 10
78.74110241087028
 20
32.9730088893262
 10
78.74110241087028
 20
35.08588595042992
 10
78.74110241087028
 20
35.08588595042992
 10
78.74110241087028
 20
35.08588595042992
 10
80.85673554836221
 20
35.08588595042992
 10
80.85673554836221
 20
35.08588595042992
 10
80.85673554836221
 20
35.08588595042992
 10
80.85673554836221
 20
32.9730088893262
 10
80.85673554836221
 20
32.9730088893262
 10
80.85673554836221
 20
32.9730088893262
 10
78.74110241087028
 20
32.9730088893262
 10
78.74110241087028
 20
32.9730088893262
 97
        0
 97
        1
330
257
 75
     2
 76
     1
 98
        1
 10
0.0
 20
0.0
450
        0
451
        0
460
0.0
461
0.0
452
        0
462
0.0
453
        0
470

  0
SPLINE
  5
259
330
252
100
AcDbEntity
  8
Rahmen (ISO)
100
AcDbSpline
210
0.0
220
0.0
230
1.0
 70
    11
 71
     3
 72
    26
 73
    22
 74
     0
 42
0.0000000001
 43
0.0000000001
 40
0.0
 40
0.0
 40
0.0
 40
0.0
 40
1.0
 40
1.0
 40
1.0
 40
2.0
 40
2.0
 40
2.0
 40
3.0
 40
3.0
 40
3.0
 40
4.0
 40
4.0
 40
4.0
 40
5.0
 40
5.0
 40
5.0
 40
6.0
 40
6.0
 40
6.0
 40
7.0
 40
7.0
 40
7.0
 40
7.0
 10
79.4239203360468
 20
36.63893499518055
 30
0.0
 10
79.4239203360468
 20
36.63893499518055
 30
0.0
 10
79.4239203360468
 20
36.11975910555339
 30
0.0
 10
79.4239203360468
 20
36.11975910555339
 30
0.0
 10
79.4239203360468
 20
36.11975910555339
 30
0.0
 10
79.23202851751838
 20
36.11975910555339
 30
0.0
 10
79.23202851751838
 20
36.11975910555339
 30
0.0
 10
79.23202851751838
 20
36.39329968708223
 30
0.0
 10
79.16140406007077
 20
36.64169107156875
 30
0.0
 10
78.85685761917468
 20
36.69509005159012
 30
0.0
 10
78.85685761917468
 20
36.69509005159012
 30
0.0
 10
78.85685761917468
 20
36.87871364095393
 30
0.0
 10
78.85685761917468
 20
36.87871364095393
 30
0.0
 10
78.85685761917468
 20
36.87871364095393
 30
0.0
 10
80.85673554836221
 20
36.87871364095393
 30
0.0
 10
80.85673554836221
 20
36.87871364095393
 30
0.0
 10
80.85673554836221
 20
36.87871364095393
 30
0.0
 10
80.85673554836221
 20
36.63893499518055
 30
0.0
 10
80.85673554836221
 20
36.63893499518055
 30
0.0
 10
80.85673554836221
 20
36.63893499518055
 30
0.0
 10
79.4239203360468
 20
36.63893499518055
 30
0.0
 10
79.4239203360468
 20
36.63893499518055
 30
0.0
  0
HATCH
  5
25A
330
252
100
AcDbEntity
  8
Rahmen (ISO)
 62
    18
420
        0
440
 33554687
100
AcDbHatch
 10
0.0
 20
0.0
 30
0.0
210
0.0
220
0.0
230
1.0
  2
SOLID
 70
     1
 71
     1
 91
        1
 92
        1
 93
        1
 72
     4
 94
        3
 73
     0
 74
     0
 95
       26
 96
       22
 40
0.0
 40
0.0
 40
0.0
 40
0.0
 40
1.0
 40
1.0
 40
1.0
 40
2.0
 40
2.0
 40
2.0
 40
3.0
 40
3.0
 40
3.0
 40
4.0
 40
4.0
 40
4.0
 40
5.0
 40
5.0
 40
5.0
 40
6.0
 40
6.0
 40
6.0
 40
7.0
 40
7.0
 40
7.0
 40
7.0
 10
79.4239203360468
 20
36.63893499518055
 10
79.4239203360468
 20
36.63893499518055
 10
79.4239203360468
 20
36.11975910555339
 10
79.4239203360468
 20
36.11975910555339
 10
79.4239203360468
 20
36.11975910555339
 10
79.23202851751838
 20
36.11975910555339
 10
79.23202851751838
 20
36.11975910555339
 10
79.23202851751838
 20
36.39329968708223
 10
79.16140406007077
 20
36.64169107156875
 10
78.85685761917468
 20
36.69509005159012
 10
78.85685761917468
 20
36.69509005159012
 10
78.85685761917468
 20
36.87871364095393
 10
78.85685761917468
 20
36.87871364095393
 10
78.85685761917468
 20
36.87871364095393
 10
80.85673554836221
 20
36.87871364095393
 10
80.85673554836221
 20
36.87871364095393
 10
80.85673554836221
 20
36.87871364095393
 10
80.85673554836221
 20
36.63893499518055
 10
80.85673554836221
 20
36.63893499518055
 10
80.85673554836221
 20
36.63893499518055
 10
79.4239203360468
 20
36.63893499518055
 10
79.4239203360468
 20
36.63893499518055
 97
        0
 97
        1
330
259
 75
     2
 76
     1
 98
        1
 10
0.0
 20
0.0
450
        0
451
        0
460
0.0
461
0.0
452
        0
462
0.0
453
        0
470

  0
SPLINE
  5
25B
330
252
100
AcDbEntity
  8
Rahmen (ISO)
100
AcDbSpline
210
0.0
220
0.0
230
1.0
 70
     9
 71
     3
 72
    17
 73
    13
 74
     0
 42
0.0000000001
 43
0.0000000001
 40
0.0
 40
0.0
 40
0.0
 40
0.0
 40
1.0
 40
1.0
 40
1.0
 40
2.0
 40
2.0
 40
2.0
 40
3.0
 40
3.0
 40
3.0
 40
4.0
 40
4.0
 40
4.0
 40
4.0
 10
79.52520614331314
 20
38.59747177854508
 30
0.0
 10
79.27991534476335
 20
38.59747177854508
 30
0.0
 10
79.06838648196901
 20
38.45346678726163
 30
0.0
 10
79.06838648196901
 20
38.1854383585092
 30
0.0
 10
79.06838648196901
 20
37.90087347142756
 30
0.0
 10
79.29679631264107
 20
37.79338649228777
 30
0.0
 10
79.54208711119086
 20
37.79338649228777
 30
0.0
 10
79.75947263631013
 20
37.79338649228777
 30
0.0
 10
79.96548934632807
 20
37.95702852783713
 30
0.0
 10
79.96548934632807
 20
38.1881944348974
 30
0.0
 10
79.96548934632807
 20
38.43934189577211
 30
0.0
 10
79.76222871269833
 20
38.59747177854508
 30
0.0
 10
79.52520614331314
 20
38.59747177854508
 30
0.0
  0
SPLINE
  5
25C
330
252
100
AcDbEntity
  8
Rahmen (ISO)
100
AcDbSpline
210
0.0
220
0.0
230
1.0
 70
     9
 71
     3
 72
    35
 73
    31
 74
     0
 42
0.0000000001
 43
0.0000000001
 40
0.0
 40
0.0
 40
0.0
 40
0.0
 40
1.0
 40
1.0
 40
1.0
 40
2.0
 40
2.0
 40
2.0
 40
3.0
 40
3.0
 40
3.0
 40
4.0
 40
4.0
 40
4.0
 40
5.0
 40
5.0
 40
5.0
 40
6.0
 40
6.0
 40
6.0
 40
7.0
 40
7.0
 40
7.0
 40
8.0
 40
8.0
 40
8.0
 40
9.0
 40
9.0
 40
9.0
 40
10.0
 40
10.0
 40
10.0
 40
10.0
 10
80.37442218042723
 20
37.82163627526681
 30
0.0
 10
80.56907007534384
 20
37.84161782908127
 30
0.0
 10
80.67896862132332
 20
37.99664712591751
 30
0.0
 10
80.67896862132332
 20
38.1881944348974
 30
0.0
 10
80.67896862132332
 20
38.48171657024069
 30
0.0
 10
80.4250650840604
 20
38.62572156152412
 30
0.0
 10
79.90623370398179
 20
38.63950194346513
 30
0.0
 10
79.90623370398179
 20
38.63950194346513
 30
0.0
 10
79.90037704165685
 20
38.63398979068872
 30
0.0
 10
79.90037704165685
 20
38.63398979068872
 30
0.0
 10
80.06953122998261
 20
38.54372828897518
 30
0.0
 10
80.17701820912241
 20
38.36596136193629
 30
0.0
 10
80.17701820912241
 20
38.1716579765682
 30
0.0
 10
80.17701820912241
 20
37.76238063292052
 30
0.0
 10
79.90313311804505
 20
37.53982746457338
 30
0.0
 10
79.50832517543542
 20
37.53982746457338
 30
0.0
 10
79.12488604792712
 20
37.53982746457338
 30
0.0
 10
78.85685761917468
 20
37.81061196971402
 30
0.0
 10
78.85685761917468
 20
38.19680717361052
 30
0.0
 10
78.85685761917468
 20
38.56922199556603
 30
0.0
 10
79.05701766686769
 20
38.88203666562672
 30
0.0
 10
79.81287161633151
 20
38.88203666562672
 30
0.0
 10
80.50395777067263
 20
38.88203666562672
 30
0.0
 10
80.89049748411765
 20
38.6736083887691
 30
0.0
 10
80.89049748411765
 20
38.1881944348974
 30
0.0
 10
80.89049748411765
 20
37.85264213463407
 30
0.0
 10
80.71858721940369
 20
37.61286348886068
 30
0.0
 10
80.37442218042723
 20
37.58185762949343
 30
0.0
 10
80.37442218042723
 20
37.58185762949343
 30
0.0
 10
80.37442218042723
 20
37.82163627526681
 30
0.0
 10
80.37442218042723
 20
37.82163627526681
 30
0.0
  0
HATCH
  5
25D
330
252
100
AcDbEntity
  8
Rahmen (ISO)
 62
    18
420
        0
440
 33554687
100
AcDbHatch
 10
0.0
 20
0.0
 30
0.0
210
0.0
220
0.0
230
1.0
  2
SOLID
 70
     1
 71
     1
 91
        2
 92
        1
 93
        1
 72
     4
 94
        3
 73
     0
 74
     0
 95
       17
 96
       13
 40
0.0
 40
0.0
 40
0.0
 40
0.0
 40
1.0
 40
1.0
 40
1.0
 40
2.0
 40
2.0
 40
2.0
 40
3.0
 40
3.0
 40
3.0
 40
4.0
 40
4.0
 40
4.0
 40
4.0
 10
79.52520614331314
 20
38.59747177854508
 10
79.27991534476335
 20
38.59747177854508
 10
79.06838648196901
 20
38.45346678726163
 10
79.06838648196901
 20
38.1854383585092
 10
79.06838648196901
 20
37.90087347142756
 10
79.29679631264107
 20
37.79338649228777
 10
79.54208711119086
 20
37.79338649228777
 10
79.75947263631013
 20
37.79338649228777
 10
79.96548934632807
 20
37.95702852783713
 10
79.96548934632807
 20
38.1881944348974
 10
79.96548934632807
 20
38.43934189577211
 10
79.76222871269833
 20
38.59747177854508
 10
79.52520614331314
 20
38.59747177854508
 97
        0
 97
        1
330
25B
 92
        1
 93
        1
 72
     4
 94
        3
 73
     0
 74
     0
 95
       35
 96
       31
 40
0.0
 40
0.0
 40
0.0
 40
0.0
 40
1.0
 40
1.0
 40
1.0
 40
2.0
 40
2.0
 40
2.0
 40
3.0
 40
3.0
 40
3.0
 40
4.0
 40
4.0
 40
4.0
 40
5.0
 40
5.0
 40
5.0
 40
6.0
 40
6.0
 40
6.0
 40
7.0
 40
7.0
 40
7.0
 40
8.0
 40
8.0
 40
8.0
 40
9.0
 40
9.0
 40
9.0
 40
10.0
 40
10.0
 40
10.0
 40
10.0
 10
80.37442218042723
 20
37.82163627526681
 10
80.56907007534384
 20
37.84161782908127
 10
80.67896862132332
 20
37.99664712591751
 10
80.67896862132332
 20
38.1881944348974
 10
80.67896862132332
 20
38.48171657024069
 10
80.4250650840604
 20
38.62572156152412
 10
79.90623370398179
 20
38.63950194346513
 10
79.90623370398179
 20
38.63950194346513
 10
79.90037704165685
 20
38.63398979068872
 10
79.90037704165685
 20
38.63398979068872
 10
80.06953122998261
 20
38.54372828897518
 10
80.17701820912241
 20
38.36596136193629
 10
80.17701820912241
 20
38.1716579765682
 10
80.17701820912241
 20
37.76238063292052
 10
79.90313311804505
 20
37.53982746457338
 10
79.50832517543542
 20
37.53982746457338
 10
79.12488604792712
 20
37.53982746457338
 10
78.85685761917468
 20
37.81061196971402
 10
78.85685761917468
 20
38.19680717361052
 10
78.85685761917468
 20
38.56922199556603
 10
79.05701766686769
 20
38.88203666562672
 10
79.81287161633151
 20
38.88203666562672
 10
80.50395777067263
 20
38.88203666562672
 10
80.89049748411765
 20
38.6736083887691
 10
80.89049748411765
 20
38.1881944348974
 10
80.89049748411765
 20
37.85264213463407
 10
80.71858721940369
 20
37.61286348886068
 10
80.37442218042723
 20
37.58185762949343
 10
80.37442218042723
 20
37.58185762949343
 10
80.37442218042723
 20
37.82163627526681
 10
80.37442218042723
 20
37.82163627526681
 97
        0
 97
        1
330
25C
 75
     2
 76
     1
 98
        1
 10
0.0
 20
0.0
450
        0
451
        0
460
0.0
461
0.0
452
        0
462
0.0
453
        0
470

  0
SPLINE
  5
25E
330
252
100
AcDbEntity
  8
Rahmen (ISO)
100
AcDbSpline
210
0.0
220
0.0
230
1.0
 70
     9
 71
     3
 72
    17
 73
    13
 74
     0
 42
0.0000000001
 43
0.0000000001
 40
0.0
 40
0.0
 40
0.0
 40
0.0
 40
1.0
 40
1.0
 40
1.0
 40
2.0
 40
2.0
 40
2.0
 40
3.0
 40
3.0
 40
3.0
 40
4.0
 40
4.0
 40
4.0
 40
4.0
 10
79.52520614331314
 20
40.16636826252785
 30
0.0
 10
79.27991534476335
 20
40.16636826252785
 30
0.0
 10
79.06838648196901
 20
40.02270778079293
 30
0.0
 10
79.06838648196901
 20
39.75502386158903
 30
0.0
 10
79.06838648196901
 20
39.46976995541034
 30
0.0
 10
79.29679631264107
 20
39.36262748581907
 30
0.0
 10
79.54208711119086
 20
39.36262748581907
 30
0.0
 10
79.75947263631013
 20
39.36262748581907
 30
0.0
 10
79.96548934632807
 20
39.52626952136844
 30
0.0
 10
79.96548934632807
 20
39.75777993797723
 30
0.0
 10
79.96548934632807
 20
40.00858288930341
 30
0.0
 10
79.76222871269833
 20
40.16636826252785
 30
0.0
 10
79.52520614331314
 20
40.16636826252785
 30
0.0
  0
SPLINE
  5
25F
330
252
100
AcDbEntity
  8
Rahmen (ISO)
100
AcDbSpline
210
0.0
220
0.0
230
1.0
 70
     9
 71
     3
 72
    35
 73
    31
 74
     0
 42
0.0000000001
 43
0.0000000001
 40
0.0
 40
0.0
 40
0.0
 40
0.0
 40
1.0
 40
1.0
 40
1.0
 40
2.0
 40
2.0
 40
2.0
 40
3.0
 40
3.0
 40
3.0
 40
4.0
 40
4.0
 40
4.0
 40
5.0
 40
5.0
 40
5.0
 40
6.0
 40
6.0
 40
6.0
 40
7.0
 40
7.0
 40
7.0
 40
8.0
 40
8.0
 40
8.0
 40
9.0
 40
9.0
 40
9.0
 40
10.0
 40
10.0
 40
10.0
 40
10.0
 10
80.37442218042723
 20
39.39087726879812
 30
0.0
 10
80.56907007534384
 20
39.41051431306404
 30
0.0
 10
80.67896862132332
 20
39.56588811944881
 30
0.0
 10
80.67896862132332
 20
39.75777993797723
 30
0.0
 10
80.67896862132332
 20
40.05095756377198
 30
0.0
 10
80.4250650840604
 20
40.19461703010544
 30
0.0
 10
79.90623370398179
 20
40.20908744654494
 30
0.0
 10
79.90623370398179
 20
40.20908744654494
 30
0.0
 10
79.90037704165685
 20
40.20323078422002
 30
0.0
 10
79.90037704165685
 20
40.20323078422002
 30
0.0
 10
80.06953122998261
 20
40.11296928250648
 30
0.0
 10
80.17701820912241
 20
39.93554686501612
 30
0.0
 10
80.17701820912241
 20
39.74055446055098
 30
0.0
 10
80.17701820912241
 20
39.33162162645182
 30
0.0
 10
79.90313311804505
 20
39.10872394855616
 30
0.0
 10
79.50832517543542
 20
39.10872394855616
 30
0.0
 10
79.12488604792712
 20
39.10872394855616
 30
0.0
 10
78.85685761917468
 20
39.37950845369679
 30
0.0
 10
78.85685761917468
 20
39.76604816714182
 30
0.0
 10
78.85685761917468
 20
40.13846298909732
 30
0.0
 10
79.05701766686769
 20
40.45162216870654
 30
0.0
 10
79.81287161633151
 20
40.45162216870654
 30
0.0
 10
80.50395777067263
 20
40.45162216870654
 30
0.0
 10
80.89049748411765
 20
40.2428493823004
 30
0.0
 10
80.89049748411765
 20
39.75777993797723
 30
0.0
 10
80.89049748411765
 20
39.42188312816536
 30
0.0
 10
80.71858721940369
 20
39.18210448239198
 30
0.0
 10
80.37442218042723
 20
39.15109862302473
 30
0.0
 10
80.37442218042723
 20
39.15109862302473
 30
0.0
 10
80.37442218042723
 20
39.39087726879812
 30
0.0
 10
80.37442218042723
 20
39.39087726879812
 30
0.0
  0
HATCH
  5
260
330
252
100
AcDbEntity
  8
Rahmen (ISO)
 62
    18
420
        0
440
 33554687
100
AcDbHatch
 10
0.0
 20
0.0
 30
0.0
210
0.0
220
0.0
230
1.0
  2
SOLID
 70
     1
 71
     1
 91
        2
 92
        1
 93
        1
 72
     4
 94
        3
 73
     0
 74
     0
 95
       17
 96
       13
 40
0.0
 40
0.0
 40
0.0
 40
0.0
 40
1.0
 40
1.0
 40
1.0
 40
2.0
 40
2.0
 40
2.0
 40
3.0
 40
3.0
 40
3.0
 40
4.0
 40
4.0
 40
4.0
 40
4.0
 10
79.52520614331314
 20
40.16636826252785
 10
79.27991534476335
 20
40.16636826252785
 10
79.06838648196901
 20
40.02270778079293
 10
79.06838648196901
 20
39.75502386158903
 10
79.06838648196901
 20
39.46976995541034
 10
79.29679631264107
 20
39.36262748581907
 10
79.54208711119086
 20
39.36262748581907
 10
79.75947263631013
 20
39.36262748581907
 10
79.96548934632807
 20
39.52626952136844
 10
79.96548934632807
 20
39.75777993797723
 10
79.96548934632807
 20
40.00858288930341
 10
79.76222871269833
 20
40.16636826252785
 10
79.52520614331314
 20
40.16636826252785
 97
        0
 97
        1
330
25E
 92
        1
 93
        1
 72
     4
 94
        3
 73
     0
 74
     0
 95
       35
 96
       31
 40
0.0
 40
0.0
 40
0.0
 40
0.0
 40
1.0
 40
1.0
 40
1.0
 40
2.0
 40
2.0
 40
2.0
 40
3.0
 40
3.0
 40
3.0
 40
4.0
 40
4.0
 40
4.0
 40
5.0
 40
5.0
 40
5.0
 40
6.0
 40
6.0
 40
6.0
 40
7.0
 40
7.0
 40
7.0
 40
8.0
 40
8.0
 40
8.0
 40
9.0
 40
9.0
 40
9.0
 40
10.0
 40
10.0
 40
10.0
 40
10.0
 10
80.37442218042723
 20
39.39087726879812
 10
80.56907007534384
 20
39.41051431306404
 10
80.67896862132332
 20
39.56588811944881
 10
80.67896862132332
 20
39.75777993797723
 10
80.67896862132332
 20
40.05095756377198
 10
80.4250650840604
 20
40.19461703010544
 10
79.90623370398179
 20
40.20908744654494
 10
79.90623370398179
 20
40.20908744654494
 10
79.90037704165685
 20
40.20323078422002
 10
79.90037704165685
 20
40.20323078422002
 10
80.06953122998261
 20
40.11296928250648
 10
80.17701820912241
 20
39.93554686501612
 10
80.17701820912241
 20
39.74055446055098
 10
80.17701820912241
 20
39.33162162645182
 10
79.90313311804505
 20
39.10872394855616
 10
79.50832517543542
 20
39.10872394855616
 10
79.12488604792712
 20
39.10872394855616
 10
78.85685761917468
 20
39.37950845369679
 10
78.85685761917468
 20
39.76604816714182
 10
78.85685761917468
 20
40.13846298909732
 10
79.05701766686769
 20
40.45162216870654
 10
79.81287161633151
 20
40.45162216870654
 10
80.50395777067263
 20
40.45162216870654
 10
80.89049748411765
 20
40.2428493823004
 10
80.89049748411765
 20
39.75777993797723
 10
80.89049748411765
 20
39.42188312816536
 10
80.71858721940369
 20
39.18210448239198
 10
80.37442218042723
 20
39.15109862302473
 10
80.37442218042723
 20
39.15109862302473
 10
80.37442218042723
 20
39.39087726879812
 10
80.37442218042723
 20
39.39087726879812
 97
        0
 97
        1
330
25F
 75
     2
 76
     1
 98
        1
 10
0.0
 20
0.0
450
        0
451
        0
460
0.0
461
0.0
452
        0
462
0.0
453
        0
470

  0
ENDBLK
  5
255
330
252
100
AcDbEntity
  8
0
100
AcDbBlockEnd
  0
BLOCK
  5
263
330
261
100
AcDbEntity
  8
0
100
AcDbBlockBegin
  2
Block_26
 70
     0
 10
0.0
 20
0.0
 30
0.0
  3
Block_26
  1

  0
INSERT
  5
266
330
261
100
AcDbEntity
  8
Rahmen (ISO)
100
AcDbBlockReference
  2
Block_27
 10
0.0
 20
0.0
 30
0.0
  0
ENDBLK
  5
264
330
261
100
AcDbEntity
  8
0
100
AcDbBlockEnd
  0
BLOCK
  5
267
330
265
100
AcDbEntity
  8
0
100
AcDbBlockBegin
  2
Block_27
 70
     0
 10
0.0
 20
0.0
 30
0.0
  3
Block_27
  1

  0
SPLINE
  5
269
330
265
100
AcDbEntity
  8
Rahmen (ISO)
100
AcDbSpline
210
0.0
220
0.0
230
1.0
 70
     9
 71
     3
 72
    26
 73
    22
 74
     0
 42
0.0000000001
 43
0.0000000001
 40
0.0
 40
0.0
 40
0.0
 40
0.0
 40
1.0
 40
1.0
 40
1.0
 40
2.0
 40
2.0
 40
2.0
 40
3.0
 40
3.0
 40
3.0
 40
4.0
 40
4.0
 40
4.0
 40
5.0
 40
5.0
 40
5.0
 40
6.0
 40
6.0
 40
6.0
 40
7.0
 40
7.0
 40
7.0
 40
7.0
 10
66.84759926714227
 20
33.81395669727568
 30
0.0
 10
66.86585827321408
 20
33.86701116774853
 30
0.0
 10
66.87481552147573
 20
33.92109916686695
 30
0.0
 10
66.87481552147573
 20
33.9755316755339
 30
0.0
 10
66.87481552147573
 20
34.15123154528164
 30
0.0
 10
66.79316675847532
 20
34.27594400184768
 30
0.0
 10
66.62952472292595
 20
34.3493245356835
 30
0.0
 10
66.53133950159634
 20
34.39376626744323
 30
0.0
 10
66.41834036968013
 20
34.41615938809735
 30
0.0
 10
66.29052732717737
 20
34.41615938809735
 30
0.0
 10
66.20784503553138
 20
34.41615938809735
 30
0.0
 10
66.13687606853523
 20
34.40892468757833
 30
0.0
 10
66.07693140709187
 20
34.39514430563733
 30
0.0
 10
66.04489201907906
 20
34.38756509556978
 30
0.0
 10
66.00734047828983
 20
34.37481824227435
 30
0.0
 10
65.9639322751757
 20
34.35724825529958
 30
0.0
 10
65.9639322751757
 20
34.35724825529958
 30
0.0
 10
66.74217934529362
 20
33.66616210095846
 30
0.0
 10
66.74217934529362
 20
33.66616210095846
 30
0.0
 10
66.7942002871209
 20
33.71163736136376
 30
0.0
 10
66.82934026107044
 20
33.76124673635136
 30
0.0
 10
66.84759926714227
 20
33.81395669727568
 30
0.0
  0
SPLINE
  5
26A
330
265
100
AcDbEntity
  8
Rahmen (ISO)
100
AcDbSpline
210
0.0
220
0.0
230
1.0
 70
     9
 71
     3
 72
    26
 73
    22
 74
     0
 42
0.0000000001
 43
0.0000000001
 40
0.0
 40
0.0
 40
0.0
 40
0.0
 40
1.0
 40
1.0
 40
1.0
 40
2.0
 40
2.0
 40
2.0
 40
3.0
 40
3.0
 40
3.0
 40
4.0
 40
4.0
 40
4.0
 40
5.0
 40
5.0
 40
5.0
 40
6.0
 40
6.0
 40
6.0
 40
7.0
 40
7.0
 40
7.0
 40
7.0
 10
65.77341849484136
 20
34.17775878051806
 30
0.0
 10
65.74723576915348
 20
34.12022568591439
 30
0.0
 10
65.733799896761
 20
34.05614690988875
 30
0.0
 10
65.733799896761
 20
33.98552245244113
 30
0.0
 10
65.733799896761
 20
33.85081921896785
 30
0.0
 10
65.78961044362204
 20
33.74298773027953
 30
0.0
 10
65.90157604689267
 20
33.66168347682763
 30
0.0
 10
66.01319714061476
 20
33.58037922337575
 30
0.0
 10
66.1572021318982
 20
33.53972709664979
 30
0.0
 10
66.33290200164594
 20
33.53972709664979
 30
0.0
 10
66.39904783496274
 20
33.53972709664979
 30
0.0
 10
66.46243759189134
 20
33.54696179716882
 30
0.0
 10
66.52341578198026
 20
33.56108668865835
 30
0.0
 10
66.55717771773571
 20
33.56969942737147
 30
0.0
 10
66.60058592084985
 20
33.58347980931247
 30
0.0
 10
66.65295137222566
 20
33.60346136312691
 30
0.0
 10
66.65295137222566
 20
33.60346136312691
 30
0.0
 10
65.87125920662247
 20
34.30316025618116
 30
0.0
 10
65.87125920662247
 20
34.30316025618116
 30
0.0
 10
65.83267413718767
 20
34.27732204004178
 30
0.0
 10
65.7999457300778
 20
34.23529187512173
 30
0.0
 10
65.77341849484136
 20
34.17775878051806
 30
0.0
  0
SPLINE
  5
26B
330
265
100
AcDbEntity
  8
Rahmen (ISO)
100
AcDbSpline
210
0.0
220
0.0
230
1.0
 70
    11
 71
     3
 72
    59
 73
    55
 74
     0
 42
0.0000000001
 43
0.0000000001
 40
0.0
 40
0.0
 40
0.0
 40
0.0
 40
1.0
 40
1.0
 40
1.0
 40
2.0
 40
2.0
 40
2.0
 40
3.0
 40
3.0
 40
3.0
 40
4.0
 40
4.0
 40
4.0
 40
5.0
 40
5.0
 40
5.0
 40
6.0
 40
6.0
 40
6.0
 40
7.0
 40
7.0
 40
7.0
 40
8.0
 40
8.0
 40
8.0
 40
9.0
 40
9.0
 40
9.0
 40
10.0
 40
10.0
 40
10.0
 40
11.0
 40
11.0
 40
11.0
 40
12.0
 40
12.0
 40
12.0
 40
13.0
 40
13.0
 40
13.0
 40
14.0
 40
14.0
 40
14.0
 40
15.0
 40
15.0
 40
15.0
 40
16.0
 40
16.0
 40
16.0
 40
17.0
 40
17.0
 40
17.0
 40
18.0
 40
18.0
 40
18.0
 40
18.0
 10
67.02915579921493
 20
33.25585122866521
 30
0.0
 10
67.02915579921493
 20
33.25585122866521
 30
0.0
 10
66.84380966210849
 20
33.43258462705853
 30
0.0
 10
66.84380966210849
 20
33.43258462705853
 30
0.0
 10
66.77594128104907
 20
33.38642034755618
 30
0.0
 10
66.69980467082504
 20
33.35128037360663
 30
0.0
 10
66.61539983143644
 20
33.32647568611283
 30
0.0
 10
66.53065048249928
 20
33.30132648907051
 30
0.0
 10
66.43074271342704
 20
33.28892414532361
 30
0.0
 10
66.31498750512264
 20
33.28892414532361
 30
0.0
 10
66.10655922826502
 20
33.28892414532361
 30
0.0
 10
65.92121309115859
 20
33.34749076857285
 30
0.0
 10
65.75929360335185
 20
33.46427950552282
 30
0.0
 10
65.59702960599658
 20
33.58141275202132
 30
0.0
 10
65.5160698620932
 20
33.75194497854118
 30
0.0
 10
65.5160698620932
 20
33.97587618508242
 30
0.0
 10
65.5160698620932
 20
34.09232041248387
 30
0.0
 10
65.53708494455323
 20
34.19463974839579
 30
0.0
 10
65.57842609037622
 20
34.28248968326966
 30
0.0
 10
65.6028862683215
 20
34.33416611554841
 30
0.0
 10
65.64250486640188
 20
34.3934217578947
 30
0.0
 10
65.69762639416588
 20
34.45991210076002
 30
0.0
 10
65.69762639416588
 20
34.45991210076002
 30
0.0
 10
65.50401202789483
 20
34.63561197050777
 30
0.0
 10
65.50401202789483
 20
34.63561197050777
 30
0.0
 10
65.50401202789483
 20
34.63561197050777
 30
0.0
 10
65.5739474662454
 20
34.70692544705244
 30
0.0
 10
65.5739474662454
 20
34.70692544705244
 30
0.0
 10
65.5739474662454
 20
34.70692544705244
 30
0.0
 10
65.77135143755022
 20
34.5298475391106
 30
0.0
 10
65.77135143755022
 20
34.5298475391106
 30
0.0
 10
65.85610078648736
 20
34.58806965281132
 30
0.0
 10
65.95290796962288
 20
34.62941079863432
 30
0.0
 10
66.06211749650531
 20
34.65421548612812
 30
0.0
 10
66.13274195395293
 20
34.67006292536026
 30
0.0
 10
66.20371092094908
 20
34.67798664497634
 30
0.0
 10
66.2743353783967
 20
34.67798664497634
 30
0.0
 10
66.51135794778189
 20
34.67798664497634
 30
0.0
 10
66.70669486179555
 20
34.61356335940216
 30
0.0
 10
66.86034612043769
 20
34.48471678825382
 30
0.0
 10
67.01434188862837
 20
34.35587021710548
 30
0.0
 10
67.09116751794943
 20
34.18430446194004
 30
0.0
 10
67.09116751794943
 20
33.9700195227575
 30
0.0
 10
67.09116751794943
 20
33.8680446963941
 30
0.0
 10
67.07635360736286
 20
33.77709417558351
 30
0.0
 10
67.04672578618971
 20
33.69751246987423
 30
0.0
 10
67.01675345546803
 20
33.61793076416496
 30
0.0
 10
66.97644583829061
 20
33.55316296904227
 30
0.0
 10
66.92511391556038
 20
33.50424261315172
 30
0.0
 10
66.92511391556038
 20
33.50424261315172
 30
0.0
 10
67.10081378530813
 20
33.3371554821171
 30
0.0
 10
67.10081378530813
 20
33.3371554821171
 30
0.0
 10
67.10081378530813
 20
33.3371554821171
 30
0.0
 10
67.02915579921493
 20
33.25585122866521
 30
0.0
 10
67.02915579921493
 20
33.25585122866521
 30
0.0
  0
HATCH
  5
26C
330
265
100
AcDbEntity
  8
Rahmen (ISO)
 62
   250
420
  2039067
440
 33554687
100
AcDbHatch
 10
0.0
 20
0.0
 30
0.0
210
0.0
220
0.0
230
1.0
  2
SOLID
 70
     1
 71
     1
 91
        3
 92
        1
 93
        1
 72
     4
 94
        3
 73
     0
 74
     0
 95
       26
 96
       22
 40
0.0
 40
0.0
 40
0.0
 40
0.0
 40
1.0
 40
1.0
 40
1.0
 40
2.0
 40
2.0
 40
2.0
 40
3.0
 40
3.0
 40
3.0
 40
4.0
 40
4.0
 40
4.0
 40
5.0
 40
5.0
 40
5.0
 40
6.0
 40
6.0
 40
6.0
 40
7.0
 40
7.0
 40
7.0
 40
7.0
 10
66.84759926714227
 20
33.81395669727568
 10
66.86585827321408
 20
33.86701116774853
 10
66.87481552147573
 20
33.92109916686695
 10
66.87481552147573
 20
33.9755316755339
 10
66.87481552147573
 20
34.15123154528164
 10
66.79316675847532
 20
34.27594400184768
 10
66.62952472292595
 20
34.3493245356835
 10
66.53133950159634
 20
34.39376626744323
 10
66.41834036968013
 20
34.41615938809735
 10
66.29052732717737
 20
34.41615938809735
 10
66.20784503553138
 20
34.41615938809735
 10
66.13687606853523
 20
34.40892468757833
 10
66.07693140709187
 20
34.39514430563733
 10
66.04489201907906
 20
34.38756509556978
 10
66.00734047828983
 20
34.37481824227435
 10
65.9639322751757
 20
34.35724825529958
 10
65.9639322751757
 20
34.35724825529958
 10
66.74217934529362
 20
33.66616210095846
 10
66.74217934529362
 20
33.66616210095846
 10
66.7942002871209
 20
33.71163736136376
 10
66.82934026107044
 20
33.76124673635136
 10
66.84759926714227
 20
33.81395669727568
 97
        0
 97
        1
330
269
 92
        1
 93
        1
 72
     4
 94
        3
 73
     0
 74
     0
 95
       26
 96
       22
 40
0.0
 40
0.0
 40
0.0
 40
0.0
 40
1.0
 40
1.0
 40
1.0
 40
2.0
 40
2.0
 40
2.0
 40
3.0
 40
3.0
 40
3.0
 40
4.0
 40
4.0
 40
4.0
 40
5.0
 40
5.0
 40
5.0
 40
6.0
 40
6.0
 40
6.0
 40
7.0
 40
7.0
 40
7.0
 40
7.0
 10
65.77341849484136
 20
34.17775878051806
 10
65.74723576915348
 20
34.12022568591439
 10
65.733799896761
 20
34.05614690988875
 10
65.733799896761
 20
33.98552245244113
 10
65.733799896761
 20
33.85081921896785
 10
65.78961044362204
 20
33.74298773027953
 10
65.90157604689267
 20
33.66168347682763
 10
66.01319714061476
 20
33.58037922337575
 10
66.1572021318982
 20
33.53972709664979
 10
66.33290200164594
 20
33.53972709664979
 10
66.39904783496274
 20
33.53972709664979
 10
66.46243759189134
 20
33.54696179716882
 10
66.52341578198026
 20
33.56108668865835
 10
66.55717771773571
 20
33.56969942737147
 10
66.60058592084985
 20
33.58347980931247
 10
66.65295137222566
 20
33.60346136312691
 10
66.65295137222566
 20
33.60346136312691
 10
65.87125920662247
 20
34.30316025618116
 10
65.87125920662247
 20
34.30316025618116
 10
65.83267413718767
 20
34.27732204004178
 10
65.7999457300778
 20
34.23529187512173
 10
65.77341849484136
 20
34.17775878051806
 97
        0
 97
        1
330
26A
 92
        1
 93
        1
 72
     4
 94
        3
 73
     0
 74
     0
 95
       59
 96
       55
 40
0.0
 40
0.0
 40
0.0
 40
0.0
 40
1.0
 40
1.0
 40
1.0
 40
2.0
 40
2.0
 40
2.0
 40
3.0
 40
3.0
 40
3.0
 40
4.0
 40
4.0
 40
4.0
 40
5.0
 40
5.0
 40
5.0
 40
6.0
 40
6.0
 40
6.0
 40
7.0
 40
7.0
 40
7.0
 40
8.0
 40
8.0
 40
8.0
 40
9.0
 40
9.0
 40
9.0
 40
10.0
 40
10.0
 40
10.0
 40
11.0
 40
11.0
 40
11.0
 40
12.0
 40
12.0
 40
12.0
 40
13.0
 40
13.0
 40
13.0
 40
14.0
 40
14.0
 40
14.0
 40
15.0
 40
15.0
 40
15.0
 40
16.0
 40
16.0
 40
16.0
 40
17.0
 40
17.0
 40
17.0
 40
18.0
 40
18.0
 40
18.0
 40
18.0
 10
67.02915579921493
 20
33.25585122866521
 10
67.02915579921493
 20
33.25585122866521
 10
66.84380966210849
 20
33.43258462705853
 10
66.84380966210849
 20
33.43258462705853
 10
66.77594128104907
 20
33.38642034755618
 10
66.69980467082504
 20
33.35128037360663
 10
66.61539983143644
 20
33.32647568611283
 10
66.53065048249928
 20
33.30132648907051
 10
66.43074271342704
 20
33.28892414532361
 10
66.31498750512264
 20
33.28892414532361
 10
66.10655922826502
 20
33.28892414532361
 10
65.92121309115859
 20
33.34749076857285
 10
65.75929360335185
 20
33.46427950552282
 10
65.59702960599658
 20
33.58141275202132
 10
65.5160698620932
 20
33.75194497854118
 10
65.5160698620932
 20
33.97587618508242
 10
65.5160698620932
 20
34.09232041248387
 10
65.53708494455323
 20
34.19463974839579
 10
65.57842609037622
 20
34.28248968326966
 10
65.6028862683215
 20
34.33416611554841
 10
65.64250486640188
 20
34.3934217578947
 10
65.69762639416588
 20
34.45991210076002
 10
65.69762639416588
 20
34.45991210076002
 10
65.50401202789483
 20
34.63561197050777
 10
65.50401202789483
 20
34.63561197050777
 10
65.50401202789483
 20
34.63561197050777
 10
65.5739474662454
 20
34.70692544705244
 10
65.5739474662454
 20
34.70692544705244
 10
65.5739474662454
 20
34.70692544705244
 10
65.77135143755022
 20
34.5298475391106
 10
65.77135143755022
 20
34.5298475391106
 10
65.85610078648736
 20
34.58806965281132
 10
65.95290796962288
 20
34.62941079863432
 10
66.06211749650531
 20
34.65421548612812
 10
66.13274195395293
 20
34.67006292536026
 10
66.20371092094908
 20
34.67798664497634
 10
66.2743353783967
 20
34.67798664497634
 10
66.51135794778189
 20
34.67798664497634
 10
66.70669486179555
 20
34.61356335940216
 10
66.86034612043769
 20
34.48471678825382
 10
67.01434188862837
 20
34.35587021710548
 10
67.09116751794943
 20
34.18430446194004
 10
67.09116751794943
 20
33.9700195227575
 10
67.09116751794943
 20
33.8680446963941
 10
67.07635360736286
 20
33.77709417558351
 10
67.04672578618971
 20
33.69751246987423
 10
67.01675345546803
 20
33.61793076416496
 10
66.97644583829061
 20
33.55316296904227
 10
66.92511391556038
 20
33.50424261315172
 10
66.92511391556038
 20
33.50424261315172
 10
67.10081378530813
 20
33.3371554821171
 10
67.10081378530813
 20
33.3371554821171
 10
67.10081378530813
 20
33.3371554821171
 10
67.02915579921493
 20
33.25585122866521
 10
67.02915579921493
 20
33.25585122866521
 97
        0
 97
        1
330
26B
 75
     2
 76
     1
 98
        1
 10
0.0
 20
0.0
450
        0
451
        0
460
0.0
461
0.0
452
        0
462
0.0
453
        0
470

  0
SPLINE
  5
26D
330
265
100
AcDbEntity
  8
Rahmen (ISO)
100
AcDbSpline
210
0.0
220
0.0
230
1.0
 70
    11
 71
     3
 72
    26
 73
    22
 74
     0
 42
0.0000000001
 43
0.0000000001
 40
0.0
 40
0.0
 40
0.0
 40
0.0
 40
1.0
 40
1.0
 40
1.0
 40
2.0
 40
2.0
 40
2.0
 40
3.0
 40
3.0
 40
3.0
 40
4.0
 40
4.0
 40
4.0
 40
5.0
 40
5.0
 40
5.0
 40
6.0
 40
6.0
 40
6.0
 40
7.0
 40
7.0
 40
7.0
 40
7.0
 10
65.60185273967594
 20
35.61746418380397
 30
0.0
 10
65.60185273967594
 20
35.61746418380397
 30
0.0
 10
65.60185273967594
 20
35.09863280372535
 30
0.0
 10
65.60185273967594
 20
35.09863280372535
 30
0.0
 10
65.60185273967594
 20
35.09863280372535
 30
0.0
 10
65.40996092114752
 20
35.09863280372535
 30
0.0
 10
65.40996092114752
 20
35.09863280372535
 30
0.0
 10
65.40996092114752
 20
35.37217338525418
 30
0.0
 10
65.33968097324842
 20
35.62022026019217
 30
0.0
 10
65.0347900228038
 20
35.67396374976207
 30
0.0
 10
65.0347900228038
 20
35.67396374976207
 30
0.0
 10
65.0347900228038
 20
35.85724282957736
 30
0.0
 10
65.0347900228038
 20
35.85724282957736
 30
0.0
 10
65.0347900228038
 20
35.85724282957736
 30
0.0
 10
67.03466795199133
 20
35.85724282957736
 30
0.0
 10
67.03466795199133
 20
35.85724282957736
 30
0.0
 10
67.03466795199133
 20
35.85724282957736
 30
0.0
 10
67.03466795199133
 20
35.61746418380397
 30
0.0
 10
67.03466795199133
 20
35.61746418380397
 30
0.0
 10
67.03466795199133
 20
35.61746418380397
 30
0.0
 10
65.60185273967594
 20
35.61746418380397
 30
0.0
 10
65.60185273967594
 20
35.61746418380397
 30
0.0
  0
HATCH
  5
26E
330
265
100
AcDbEntity
  8
Rahmen (ISO)
 62
    18
420
        0
440
 33554687
100
AcDbHatch
 10
0.0
 20
0.0
 30
0.0
210
0.0
220
0.0
230
1.0
  2
SOLID
 70
     1
 71
     1
 91
        1
 92
        1
 93
        1
 72
     4
 94
        3
 73
     0
 74
     0
 95
       26
 96
       22
 40
0.0
 40
0.0
 40
0.0
 40
0.0
 40
1.0
 40
1.0
 40
1.0
 40
2.0
 40
2.0
 40
2.0
 40
3.0
 40
3.0
 40
3.0
 40
4.0
 40
4.0
 40
4.0
 40
5.0
 40
5.0
 40
5.0
 40
6.0
 40
6.0
 40
6.0
 40
7.0
 40
7.0
 40
7.0
 40
7.0
 10
65.60185273967594
 20
35.61746418380397
 10
65.60185273967594
 20
35.61746418380397
 10
65.60185273967594
 20
35.09863280372535
 10
65.60185273967594
 20
35.09863280372535
 10
65.60185273967594
 20
35.09863280372535
 10
65.40996092114752
 20
35.09863280372535
 10
65.40996092114752
 20
35.09863280372535
 10
65.40996092114752
 20
35.37217338525418
 10
65.33968097324842
 20
35.62022026019217
 10
65.0347900228038
 20
35.67396374976207
 10
65.0347900228038
 20
35.67396374976207
 10
65.0347900228038
 20
35.85724282957736
 10
65.0347900228038
 20
35.85724282957736
 10
65.0347900228038
 20
35.85724282957736
 10
67.03466795199133
 20
35.85724282957736
 10
67.03466795199133
 20
35.85724282957736
 10
67.03466795199133
 20
35.85724282957736
 10
67.03466795199133
 20
35.61746418380397
 10
67.03466795199133
 20
35.61746418380397
 10
67.03466795199133
 20
35.61746418380397
 10
65.60185273967594
 20
35.61746418380397
 10
65.60185273967594
 20
35.61746418380397
 97
        0
 97
        1
330
26D
 75
     2
 76
     1
 98
        1
 10
0.0
 20
0.0
450
        0
451
        0
460
0.0
461
0.0
452
        0
462
0.0
453
        0
470

  0
SPLINE
  5
26F
330
265
100
AcDbEntity
  8
Rahmen (ISO)
100
AcDbSpline
210
0.0
220
0.0
230
1.0
 70
    11
 71
     3
 72
    26
 73
    22
 74
     0
 42
0.0000000001
 43
0.0000000001
 40
0.0
 40
0.0
 40
0.0
 40
0.0
 40
1.0
 40
1.0
 40
1.0
 40
2.0
 40
2.0
 40
2.0
 40
3.0
 40
3.0
 40
3.0
 40
4.0
 40
4.0
 40
4.0
 40
5.0
 40
5.0
 40
5.0
 40
6.0
 40
6.0
 40
6.0
 40
7.0
 40
7.0
 40
7.0
 40
7.0
 10
65.60185273967594
 20
37.18670517733527
 30
0.0
 10
65.60185273967594
 20
37.18670517733527
 30
0.0
 10
65.60185273967594
 20
36.66752928770812
 30
0.0
 10
65.60185273967594
 20
36.66752928770812
 30
0.0
 10
65.60185273967594
 20
36.66752928770812
 30
0.0
 10
65.40996092114752
 20
36.66752928770812
 30
0.0
 10
65.40996092114752
 20
36.66752928770812
 30
0.0
 10
65.40996092114752
 20
36.94106986923696
 30
0.0
 10
65.33968097324842
 20
37.18946125372347
 30
0.0
 10
65.0347900228038
 20
37.24286023374484
 30
0.0
 10
65.0347900228038
 20
37.24286023374484
 30
0.0
 10
65.0347900228038
 20
37.42648382310866
 30
0.0
 10
65.0347900228038
 20
37.42648382310866
 30
0.0
 10
65.0347900228038
 20
37.42648382310866
 30
0.0
 10
67.03466795199133
 20
37.42648382310866
 30
0.0
 10
67.03466795199133
 20
37.42648382310866
 30
0.0
 10
67.03466795199133
 20
37.42648382310866
 30
0.0
 10
67.03466795199133
 20
37.18670517733527
 30
0.0
 10
67.03466795199133
 20
37.18670517733527
 30
0.0
 10
67.03466795199133
 20
37.18670517733527
 30
0.0
 10
65.60185273967594
 20
37.18670517733527
 30
0.0
 10
65.60185273967594
 20
37.18670517733527
 30
0.0
  0
HATCH
  5
270
330
265
100
AcDbEntity
  8
Rahmen (ISO)
 62
    18
420
        0
440
 33554687
100
AcDbHatch
 10
0.0
 20
0.0
 30
0.0
210
0.0
220
0.0
230
1.0
  2
SOLID
 70
     1
 71
     1
 91
        1
 92
        1
 93
        1
 72
     4
 94
        3
 73
     0
 74
     0
 95
       26
 96
       22
 40
0.0
 40
0.0
 40
0.0
 40
0.0
 40
1.0
 40
1.0
 40
1.0
 40
2.0
 40
2.0
 40
2.0
 40
3.0
 40
3.0
 40
3.0
 40
4.0
 40
4.0
 40
4.0
 40
5.0
 40
5.0
 40
5.0
 40
6.0
 40
6.0
 40
6.0
 40
7.0
 40
7.0
 40
7.0
 40
7.0
 10
65.60185273967594
 20
37.18670517733527
 10
65.60185273967594
 20
37.18670517733527
 10
65.60185273967594
 20
36.66752928770812
 10
65.60185273967594
 20
36.66752928770812
 10
65.60185273967594
 20
36.66752928770812
 10
65.40996092114752
 20
36.66752928770812
 10
65.40996092114752
 20
36.66752928770812
 10
65.40996092114752
 20
36.94106986923696
 10
65.33968097324842
 20
37.18946125372347
 10
65.0347900228038
 20
37.24286023374484
 10
65.0347900228038
 20
37.24286023374484
 10
65.0347900228038
 20
37.42648382310866
 10
65.0347900228038
 20
37.42648382310866
 10
65.0347900228038
 20
37.42648382310866
 10
67.03466795199133
 20
37.42648382310866
 10
67.03466795199133
 20
37.42648382310866
 10
67.03466795199133
 20
37.42648382310866
 10
67.03466795199133
 20
37.18670517733527
 10
67.03466795199133
 20
37.18670517733527
 10
67.03466795199133
 20
37.18670517733527
 10
65.60185273967594
 20
37.18670517733527
 10
65.60185273967594
 20
37.18670517733527
 97
        0
 97
        1
330
26F
 75
     2
 76
     1
 98
        1
 10
0.0
 20
0.0
450
        0
451
        0
460
0.0
461
0.0
452
        0
462
0.0
453
        0
470

  0
SPLINE
  5
271
330
265
100
AcDbEntity
  8
Rahmen (ISO)
100
AcDbSpline
210
0.0
220
0.0
230
1.0
 70
     9
 71
     3
 72
    53
 73
    49
 74
     0
 42
0.0000000001
 43
0.0000000001
 40
0.0
 40
0.0
 40
0.0
 40
0.0
 40
1.0
 40
1.0
 40
1.0
 40
2.0
 40
2.0
 40
2.0
 40
3.0
 40
3.0
 40
3.0
 40
4.0
 40
4.0
 40
4.0
 40
5.0
 40
5.0
 40
5.0
 40
6.0
 40
6.0
 40
6.0
 40
7.0
 40
7.0
 40
7.0
 40
8.0
 40
8.0
 40
8.0
 40
9.0
 40
9.0
 40
9.0
 40
10.0
 40
10.0
 40
10.0
 40
11.0
 40
11.0
 40
11.0
 40
12.0
 40
12.0
 40
12.0
 40
13.0
 40
13.0
 40
13.0
 40
14.0
 40
14.0
 40
14.0
 40
15.0
 40
15.0
 40
15.0
 40
16.0
 40
16.0
 40
16.0
 40
16.0
 10
66.49585501809827
 20
38.33013236888969
 30
0.0
 10
66.7018717281162
 20
38.34391275083069
 30
0.0
 10
66.85690102495245
 20
38.51065537231678
 30
0.0
 10
66.85690102495245
 20
38.75043401809017
 30
0.0
 10
66.85690102495245
 20
38.97849933921371
 30
0.0
 10
66.699115651728
 20
39.17349174367885
 30
0.0
 10
66.38320039573059
 20
39.17349174367885
 30
0.0
 10
66.12068411975456
 20
39.17349174367885
 30
0.0
 10
65.92913681077466
 20
38.99296874025176
 30
0.0
 10
65.92913681077466
 20
38.72218423511112
 30
0.0
 10
65.92913681077466
 20
38.56681042872636
 30
0.0
 10
66.00527342099869
 20
38.44278699125736
 30
0.0
 10
66.11792804336634
 20
38.34976941315562
 30
0.0
 10
66.11792804336634
 20
38.34976941315562
 30
0.0
 10
66.10690373781356
 20
38.14375270313767
 30
0.0
 10
66.10690373781356
 20
38.14375270313767
 30
0.0
 10
66.10690373781356
 20
38.14375270313767
 30
0.0
 10
65.06889646810778
 20
38.33013236888969
 30
0.0
 10
65.06889646810778
 20
38.33013236888969
 30
0.0
 10
65.06889646810778
 20
38.33013236888969
 30
0.0
 10
65.06889646810778
 20
39.31715222541377
 30
0.0
 10
65.06889646810778
 20
39.31715222541377
 30
0.0
 10
65.06889646810778
 20
39.31715222541377
 30
0.0
 10
65.28042533090212
 20
39.31715222541377
 30
0.0
 10
65.28042533090212
 20
39.31715222541377
 30
0.0
 10
65.28042533090212
 20
39.31715222541377
 30
0.0
 10
65.28042533090212
 20
38.51065537231678
 30
0.0
 10
65.28042533090212
 20
38.51065537231678
 30
0.0
 10
65.28042533090212
 20
38.51065537231678
 30
0.0
 10
65.85575627693884
 20
38.40316839317699
 30
0.0
 10
65.85575627693884
 20
38.40316839317699
 30
0.0
 10
65.85575627693884
 20
38.40316839317699
 30
0.0
 10
65.86126842971523
 20
38.40902505550192
 30
0.0
 10
65.86126842971523
 20
38.40902505550192
 30
0.0
 10
65.7627386988371
 20
38.49618597127874
 30
0.0
 10
65.71760794798032
 20
38.64570311533858
 30
0.0
 10
65.71760794798032
 20
38.78143987745743
 30
0.0
 10
65.71760794798032
 20
39.13662922198668
 30
0.0
 10
65.94326170226418
 20
39.42705077139324
 30
0.0
 10
66.40283743999652
 20
39.42705077139324
 30
0.0
 10
66.74149032619657
 20
39.42705077139324
 30
0.0
 10
67.06842988774678
 20
39.19312878794477
 30
0.0
 10
67.06842988774678
 20
38.72769638788752
 30
0.0
 10
67.06842988774678
 20
38.38077527252286
 30
0.0
 10
66.85690102495245
 20
38.0986219522809
 30
0.0
 10
66.49585501809827
 20
38.0903537231163
 30
0.0
 10
66.49585501809827
 20
38.0903537231163
 30
0.0
 10
66.49585501809827
 20
38.33013236888969
 30
0.0
 10
66.49585501809827
 20
38.33013236888969
 30
0.0
  0
HATCH
  5
272
330
265
100
AcDbEntity
  8
Rahmen (ISO)
 62
    18
420
        0
440
 33554687
100
AcDbHatch
 10
0.0
 20
0.0
 30
0.0
210
0.0
220
0.0
230
1.0
  2
SOLID
 70
     1
 71
     1
 91
        1
 92
        1
 93
        1
 72
     4
 94
        3
 73
     0
 74
     0
 95
       53
 96
       49
 40
0.0
 40
0.0
 40
0.0
 40
0.0
 40
1.0
 40
1.0
 40
1.0
 40
2.0
 40
2.0
 40
2.0
 40
3.0
 40
3.0
 40
3.0
 40
4.0
 40
4.0
 40
4.0
 40
5.0
 40
5.0
 40
5.0
 40
6.0
 40
6.0
 40
6.0
 40
7.0
 40
7.0
 40
7.0
 40
8.0
 40
8.0
 40
8.0
 40
9.0
 40
9.0
 40
9.0
 40
10.0
 40
10.0
 40
10.0
 40
11.0
 40
11.0
 40
11.0
 40
12.0
 40
12.0
 40
12.0
 40
13.0
 40
13.0
 40
13.0
 40
14.0
 40
14.0
 40
14.0
 40
15.0
 40
15.0
 40
15.0
 40
16.0
 40
16.0
 40
16.0
 40
16.0
 10
66.49585501809827
 20
38.33013236888969
 10
66.7018717281162
 20
38.34391275083069
 10
66.85690102495245
 20
38.51065537231678
 10
66.85690102495245
 20
38.75043401809017
 10
66.85690102495245
 20
38.97849933921371
 10
66.699115651728
 20
39.17349174367885
 10
66.38320039573059
 20
39.17349174367885
 10
66.12068411975456
 20
39.17349174367885
 10
65.92913681077466
 20
38.99296874025176
 10
65.92913681077466
 20
38.72218423511112
 10
65.92913681077466
 20
38.56681042872636
 10
66.00527342099869
 20
38.44278699125736
 10
66.11792804336634
 20
38.34976941315562
 10
66.11792804336634
 20
38.34976941315562
 10
66.10690373781356
 20
38.14375270313767
 10
66.10690373781356
 20
38.14375270313767
 10
66.10690373781356
 20
38.14375270313767
 10
65.06889646810778
 20
38.33013236888969
 10
65.06889646810778
 20
38.33013236888969
 10
65.06889646810778
 20
38.33013236888969
 10
65.06889646810778
 20
39.31715222541377
 10
65.06889646810778
 20
39.31715222541377
 10
65.06889646810778
 20
39.31715222541377
 10
65.28042533090212
 20
39.31715222541377
 10
65.28042533090212
 20
39.31715222541377
 10
65.28042533090212
 20
39.31715222541377
 10
65.28042533090212
 20
38.51065537231678
 10
65.28042533090212
 20
38.51065537231678
 10
65.28042533090212
 20
38.51065537231678
 10
65.85575627693884
 20
38.40316839317699
 10
65.85575627693884
 20
38.40316839317699
 10
65.85575627693884
 20
38.40316839317699
 10
65.86126842971523
 20
38.40902505550192
 10
65.86126842971523
 20
38.40902505550192
 10
65.7627386988371
 20
38.49618597127874
 10
65.71760794798032
 20
38.64570311533858
 10
65.71760794798032
 20
38.78143987745743
 10
65.71760794798032
 20
39.13662922198668
 10
65.94326170226418
 20
39.42705077139324
 10
66.40283743999652
 20
39.42705077139324
 10
66.74149032619657
 20
39.42705077139324
 10
67.06842988774678
 20
39.19312878794477
 10
67.06842988774678
 20
38.72769638788752
 10
67.06842988774678
 20
38.38077527252286
 10
66.85690102495245
 20
38.0986219522809
 10
66.49585501809827
 20
38.0903537231163
 10
66.49585501809827
 20
38.0903537231163
 10
66.49585501809827
 20
38.33013236888969
 10
66.49585501809827
 20
38.33013236888969
 97
        0
 97
        1
330
271
 75
     2
 76
     1
 98
        1
 10
0.0
 20
0.0
450
        0
451
        0
460
0.0
461
0.0
452
        0
462
0.0
453
        0
470

  0
ENDBLK
  5
268
330
265
100
AcDbEntity
  8
0
100
AcDbBlockEnd
  0
ENDSEC
  0
SECTION
  2
ENTITIES
  0
INSERT
  5
7A
330
70
100
AcDbEntity
  8
Rahmen (ISO)
100
AcDbBlockReference
  2
Block_0
 10
0.0
 20
0.0
 30
0.0
  0
LINE
  5
7F
330
70
100
AcDbEntity
  8
Rahmen (ISO)
 62
    18
420
        0
370
     5
100
AcDbLine
 10
9.531003145777637
 20
14.64151042386887
 30
0.0
 11
9.542481047642334
 21
14.64151042386887
 31
0.0
  0
LINE
  5
80
330
70
100
AcDbEntity
  8
Rahmen (ISO)
 62
    18
420
        0
370
     5
100
AcDbLine
 10
9.531003145777637
 20
58.94621162373261
 30
0.0
 11
9.542481047642334
 21
58.94621162373261
 31
0.0
  0
LINE
  5
81
330
70
100
AcDbEntity
  8
Rahmen (ISO)
 62
    18
420
        0
370
     5
100
AcDbLine
 10
9.760561183082485
 20
58.25753751181775
 30
0.0
 11
9.760561183082485
 21
15.33018453578405
 31
0.0
  0
LINE
  5
82
330
70
100
AcDbEntity
  8
Rahmen (ISO)
 62
    18
420
        0
370
     5
100
AcDbLine
 10
52.68791415911618
 20
15.33018453578405
 30
0.0
 11
52.68791415911618
 21
58.25753751181775
 31
0.0
  0
LINE
  5
83
330
70
100
AcDbEntity
  8
Rahmen (ISO)
 62
    18
420
        0
370
     5
100
AcDbLine
 10
52.68773766573366
 20
58.25753751181775
 30
0.0
 11
9.760737676465316
 21
58.25753751181775
 31
0.0
  0
LINE
  5
84
330
70
100
AcDbEntity
  8
Rahmen (ISO)
 62
    18
420
        0
370
     5
100
AcDbLine
 10
52.68791415911618
 20
15.33018453578405
 30
0.0
 11
9.760561183082485
 21
15.33018453578405
 31
0.0
  0
LINE
  5
85
330
70
100
AcDbEntity
  8
Rahmen (ISO)
 62
    18
420
        0
370
     5
100
AcDbLine
 10
54.06526238294654
 20
59.1528138573071
 30
0.0
 11
54.06526238294654
 21
14.43490819029406
 31
0.0
  0
LINE
  5
86
330
70
100
AcDbEntity
  8
Rahmen (ISO)
 62
    18
420
        0
370
     5
100
AcDbLine
 10
8.383212959252759
 20
14.43490819029406
 30
0.0
 11
8.383212959252759
 21
59.1528138573071
 31
0.0
  0
LWPOLYLINE
  5
87
330
70
100
AcDbEntity
  8
Rahmen (ISO)
 62
    18
420
        0
370
     5
100
AcDbPolyline
 90
        1
 70
     0
 43
0.0
 10
8.383212959252759
 20
14.43490819029406
  0
LINE
  5
88
330
70
100
AcDbEntity
  8
Rahmen (ISO)
 62
    18
420
        0
370
     5
100
AcDbLine
 10
54.06526238294654
 20
59.63488573564779
 30
0.0
 11
8.383212959252759
 21
59.63488573564779
 31
0.0
  0
LINE
  5
89
330
70
100
AcDbEntity
  8
Rahmen (ISO)
 62
    18
420
        0
370
     5
100
AcDbLine
 10
54.06526238294654
 20
59.63488573564779
 30
0.0
 11
54.06526238294654
 21
59.17576966103777
 31
0.0
  0
LINE
  5
8A
330
70
100
AcDbEntity
  8
Rahmen (ISO)
 62
    18
420
        0
370
     5
100
AcDbLine
 10
8.383212959252759
 20
59.63488573564779
 30
0.0
 11
8.383212959252759
 21
59.17576966103777
 31
0.0
  0
LINE
  5
8B
330
70
100
AcDbEntity
  8
Rahmen (ISO)
 62
    18
420
        0
370
     5
100
AcDbLine
 10
54.06526238294654
 20
13.95283631195369
 30
0.0
 11
8.383212959252759
 21
13.95283631195369
 31
0.0
  0
LINE
  5
8C
330
70
100
AcDbEntity
  8
Rahmen (ISO)
 62
    18
420
        0
370
     5
100
AcDbLine
 10
8.383212959252759
 20
13.95283631195369
 30
0.0
 11
8.383212959252759
 21
14.41195238656466
 31
0.0
  0
LINE
  5
8D
330
70
100
AcDbEntity
  8
Rahmen (ISO)
 62
    18
420
        0
370
     5
100
AcDbLine
 10
54.06526238294654
 20
13.95283631195369
 30
0.0
 11
54.06526238294654
 21
14.41195238656466
 31
0.0
  0
LINE
  5
8E
330
70
100
AcDbEntity
  8
Rahmen (ISO)
 62
    18
420
        0
370
     5
100
AcDbLine
 10
9.071887071168264
 20
14.64151042386887
 30
0.0
 11
9.071887071168264
 21
58.94621162373261
 31
0.0
  0
LINE
  5
8F
330
70
100
AcDbEntity
  8
Rahmen (ISO)
 62
    18
420
        0
370
     5
100
AcDbLine
 10
9.071887071168264
 20
58.94621162373261
 30
0.0
 11
9.531003145777637
 21
58.94621162373261
 31
0.0
  0
LINE
  5
90
330
70
100
AcDbEntity
  8
Rahmen (ISO)
 62
    18
420
        0
370
     5
100
AcDbLine
 10
9.071887071168264
 20
14.64151042386887
 30
0.0
 11
9.531003145777637
 21
14.64151042386887
 31
0.0
  0
LINE
  5
91
330
70
100
AcDbEntity
  8
Rahmen (ISO)
 62
    18
420
        0
370
     5
100
AcDbLine
 10
53.37658827103201
 20
58.94621162373261
 30
0.0
 11
53.37658827103201
 21
14.64151042386887
 31
0.0
  0
LINE
  5
92
330
70
100
AcDbEntity
  8
Rahmen (ISO)
 62
    18
420
        0
370
     5
100
AcDbLine
 10
9.542481047642334
 20
14.64151042386887
 30
0.0
 11
53.37658827103201
 21
14.64151042386887
 31
0.0
  0
LINE
  5
93
330
70
100
AcDbEntity
  8
Rahmen (ISO)
 62
    18
420
        0
370
     5
100
AcDbLine
 10
9.542481047642334
 20
58.94621162373261
 30
0.0
 11
53.37658827103201
 21
58.94621162373261
 31
0.0
  0
INSERT
  5
95
330
70
100
AcDbEntity
  8
Rahmen (ISO)
100
AcDbBlockReference
  2
Block_1
 10
0.0
 20
0.0
 30
0.0
  0
LINE
  5
A9
330
70
100
AcDbEntity
  8
Rahmen (ISO)
 62
    18
420
        0
370
     5
100
AcDbLine
 10
52.68791415911618
 20
15.33018453624993
 30
0.0
 11
72.91293111858987
 21
15.34105774976097
 31
0.0
  0
LINE
  5
AA
330
70
100
AcDbEntity
  8
Rahmen (ISO)
 62
    18
420
        0
370
     5
100
AcDbLine
 10
52.68791415911618
 20
58.2424812742729
 30
0.0
 11
72.88371663112901
 21
58.25795398510002
 31
0.0
  0
LINE
  5
AB
330
70
100
AcDbEntity
  8
Rahmen (ISO)
 62
    18
420
        0
370
     5
100
AcDbLine
 10
54.06526238294654
 20
13.95283631195369
 30
0.0
 11
79.84051541745528
 21
13.96467462342998
 31
0.0
  0
INSERT
  5
AD
330
70
100
AcDbEntity
  8
Rahmen (ISO)
100
AcDbBlockReference
  2
Block_5
 10
0.0
 20
0.0
 30
0.0
  0
LINE
  5
C1
330
70
100
AcDbEntity
  8
Rahmen (ISO)
 62
    18
420
        0
370
     5
100
AcDbLine
 10
54.04848487812491
 20
59.63516749980424
 30
0.0
 11
79.85140212263729
 21
59.60888118360246
 31
0.0
  0
LWPOLYLINE
  5
C2
330
70
100
AcDbEntity
  8
Rahmen (ISO)
 62
    18
420
        0
370
     5
100
AcDbPolyline
 90
        1
 70
     0
 43
0.0
 10
64.11296827328415
 20
41.22311819400588
  0
LINE
  5
C3
330
70
100
AcDbEntity
  8
Rahmen (ISO)
 62
    18
420
        0
370
     5
100
AcDbLine
 10
21.41950028614546
 20
77.75121485624119
 30
0.0
 11
21.41950028614546
 21
76.60342466971695
 31
0.0
  0
LINE
  5
C4
330
70
100
AcDbEntity
  8
Rahmen (ISO)
 62
    18
420
        0
370
     5
100
AcDbLine
 10
53.32806747153878
 20
77.75121485624119
 30
0.0
 11
9.023366271675689
 21
77.75121485624119
 31
0.0
  0
LINE
  5
C5
330
70
100
AcDbEntity
  8
Rahmen (ISO)
 62
    18
420
        0
370
     5
100
AcDbLine
 10
53.5346697051136
 20
82.80149167695135
 30
0.0
 11
8.816764038101197
 21
82.80149167695135
 31
0.0
  0
SPLINE
  5
C6
330
70
100
AcDbEntity
  8
Rahmen (ISO)
 62
    18
420
        0
370
     5
100
AcDbSpline
210
0.0
220
0.0
230
1.0
 70
     8
 71
     3
 72
     8
 73
     4
 74
     0
 42
0.0000000001
 43
0.0000000001
 40
0.0
 40
0.0
 40
0.0
 40
0.0
 40
1.0
 40
1.0
 40
1.0
 40
1.0
 10
8.334692159760505
 20
78.4398889681567
 30
0.0
 10
8.334692159760505
 20
78.05954475854284
 30
0.0
 10
8.643022062062158
 20
77.75121485624119
 30
0.0
 10
9.023366271675689
 20
77.75121485624119
 30
0.0
  0
LINE
  5
C7
330
70
100
AcDbEntity
  8
Rahmen (ISO)
 62
    18
420
        0
370
     5
100
AcDbLine
 10
8.334692159760505
 20
78.83749515205424
 30
0.0
 11
8.334692159760505
 21
78.4398889681567
 31
0.0
  0
LINE
  5
C8
330
70
100
AcDbEntity
  8
Rahmen (ISO)
 62
    18
420
        0
370
     5
100
AcDbLine
 10
8.334692159760505
 20
82.80149167695135
 30
0.0
 11
8.334692159760505
 21
78.83749515205424
 31
0.0
  0
LINE
  5
C9
330
70
100
AcDbEntity
  8
Rahmen (ISO)
 62
    18
420
        0
370
     5
100
AcDbLine
 10
8.334692159760505
 20
82.80149167695135
 30
0.0
 11
8.793808234371162
 21
82.80149167695135
 31
0.0
  0
SPLINE
  5
CA
330
70
100
AcDbEntity
  8
Rahmen (ISO)
 62
    18
420
        0
370
     5
100
AcDbSpline
210
0.0
220
0.0
230
1.0
 70
     8
 71
     3
 72
     8
 73
     4
 74
     0
 42
0.0000000001
 43
0.0000000001
 40
0.0
 40
0.0
 40
0.0
 40
0.0
 40
1.0
 40
1.0
 40
1.0
 40
1.0
 10
53.32806747153878
 20
77.75121485624119
 30
0.0
 10
53.70841168115328
 20
77.75121485624119
 30
0.0
 10
54.01674158345461
 20
78.05954475854284
 30
0.0
 10
54.01674158345461
 20
78.4398889681567
 30
0.0
  0
LINE
  5
CB
330
70
100
AcDbEntity
  8
Rahmen (ISO)
 62
    18
420
        0
370
     5
100
AcDbLine
 10
54.01674158345461
 20
82.80149167695135
 30
0.0
 11
54.01674158345461
 21
78.83749515205424
 31
0.0
  0
LINE
  5
CC
330
70
100
AcDbEntity
  8
Rahmen (ISO)
 62
    18
420
        0
370
     5
100
AcDbLine
 10
54.01674158345461
 20
78.83749515205424
 30
0.0
 11
54.01674158345461
 21
78.4398889681567
 31
0.0
  0
LINE
  5
CD
330
70
100
AcDbEntity
  8
Rahmen (ISO)
 62
    18
420
        0
370
     5
100
AcDbLine
 10
54.01674158345461
 20
82.80149167695135
 30
0.0
 11
53.55762550884428
 21
82.80149167695135
 31
0.0
  0
LINE
  5
CE
330
70
100
AcDbEntity
  8
Rahmen (ISO)
 62
    18
420
        0
370
     5
100
AcDbLine
 10
49.42558083735382
 20
65.12552280446657
 30
0.0
 11
52.1802772850139
 21
65.12552280446657
 31
0.0
  0
LINE
  5
CF
330
70
100
AcDbEntity
  8
Rahmen (ISO)
 62
    18
420
        0
370
     5
100
AcDbLine
 10
52.1802772850139
 20
77.75121485624119
 30
0.0
 11
52.1802772850139
 21
65.12552280446657
 31
0.0
  0
LINE
  5
D0
330
70
100
AcDbEntity
  8
Rahmen (ISO)
 62
    18
420
        0
370
     5
100
AcDbLine
 10
49.42558083735382
 20
77.75121485624119
 30
0.0
 11
49.42558083735382
 21
65.12552280446657
 31
0.0
  0
LINE
  5
D1
330
70
100
AcDbEntity
  8
Rahmen (ISO)
 62
    18
420
        0
370
     5
100
AcDbLine
 10
10.17115645820024
 20
65.12552280446657
 30
0.0
 11
12.92585290586066
 21
65.12552280446657
 31
0.0
  0
LINE
  5
D2
330
70
100
AcDbEntity
  8
Rahmen (ISO)
 62
    18
420
        0
370
     5
100
AcDbLine
 10
12.92585290586066
 20
77.75121485624119
 30
0.0
 11
12.92585290586066
 21
65.12552280446657
 31
0.0
  0
LINE
  5
D3
330
70
100
AcDbEntity
  8
Rahmen (ISO)
 62
    18
420
        0
370
     5
100
AcDbLine
 10
10.17115645820024
 20
77.75121485624119
 30
0.0
 11
10.17115645820024
 21
65.12552280446657
 31
0.0
  0
LINE
  5
D4
330
70
100
AcDbEntity
  8
Rahmen (ISO)
 62
    18
420
        0
370
     5
100
AcDbLine
 10
21.77441096862136
 20
75.45563448319143
 30
0.0
 11
21.77441096862136
 21
76.14430859510661
 31
0.0
  0
LINE
  5
D5
330
70
100
AcDbEntity
  8
Rahmen (ISO)
 62
    18
420
        0
370
     5
100
AcDbLine
 10
21.87861636075547
 20
75.45563448319143
 30
0.0
 11
21.87861636075547
 21
75.57041350184386
 31
0.0
  0
LINE
  5
D6
330
70
100
AcDbEntity
  8
Rahmen (ISO)
 62
    18
420
        0
370
     5
100
AcDbLine
 10
21.87861636075451
 20
75.57041350184386
 30
0.0
 11
22.21237979019347
 21
75.57041350184386
 31
0.0
  0
LINE
  5
D7
330
70
100
AcDbEntity
  8
Rahmen (ISO)
 62
    18
420
        0
370
     5
100
AcDbLine
 10
22.21237979019411
 20
75.57041350184386
 30
0.0
 11
22.21237979019411
 21
76.14430859510661
 31
0.0
  0
LINE
  5
D8
330
70
100
AcDbEntity
  8
Rahmen (ISO)
 62
    18
420
        0
370
     5
100
AcDbLine
 10
28.1914623866423
 20
76.14430859510661
 30
0.0
 11
27.04367220011774
 21
76.14430859510661
 31
0.0
  0
LINE
  5
D9
330
70
100
AcDbEntity
  8
Rahmen (ISO)
 62
    18
420
        0
370
     5
100
AcDbLine
 10
26.12544005089739
 20
76.14430859510661
 30
0.0
 11
19.09178178787295
 21
76.14430859510661
 31
0.0
  0
LINE
  5
DA
330
70
100
AcDbEntity
  8
Rahmen (ISO)
 62
    18
420
        0
370
     5
100
AcDbLine
 10
19.09178178787295
 20
76.14430859510661
 30
0.0
 11
18.74744473191471
 21
76.14430859510661
 31
0.0
  0
LINE
  5
DB
330
70
100
AcDbEntity
  8
Rahmen (ISO)
 62
    18
420
        0
370
     5
100
AcDbLine
 10
29.86429314539181
 20
76.00948871818999
 30
0.0
 11
32.48714059782331
 21
76.00948871818999
 31
0.0
  0
SPLINE
  5
DC
330
70
100
AcDbEntity
  8
Rahmen (ISO)
 62
    18
420
        0
370
     5
100
AcDbSpline
210
0.0
220
0.0
230
1.0
 70
     8
 71
     3
 72
     8
 73
     4
 74
     0
 42
0.0000000001
 43
0.0000000001
 40
0.0
 40
0.0
 40
0.0
 40
0.0
 40
1.0
 40
1.0
 40
1.0
 40
1.0
 10
32.53302423717278
 20
75.96360507883925
 30
0.0
 10
32.53302423717278
 20
75.98895494809212
 30
0.0
 10
32.51249046707555
 20
76.00948871818967
 30
0.0
 10
32.48714059782331
 20
76.00948871818967
 30
0.0
  0
LINE
  5
DD
330
70
100
AcDbEntity
  8
Rahmen (ISO)
 62
    18
420
        0
370
     5
100
AcDbLine
 10
32.5330242371731
 20
75.06244290619507
 30
0.0
 11
32.5330242371731
 21
75.96360507883925
 31
0.0
  0
SPLINE
  5
DE
330
70
100
AcDbEntity
  8
Rahmen (ISO)
 62
    18
420
        0
370
     5
100
AcDbSpline
210
0.0
220
0.0
230
1.0
 70
     8
 71
     3
 72
     8
 73
     4
 74
     0
 42
0.0000000001
 43
0.0000000001
 40
0.0
 40
0.0
 40
0.0
 40
0.0
 40
1.0
 40
1.0
 40
1.0
 40
1.0
 10
32.48714059782331
 20
75.0165592668456
 30
0.0
 10
32.51249046707555
 20
75.01655926684624
 30
0.0
 10
32.53302423717245
 20
75.0370930369425
 30
0.0
 10
32.53302423717278
 20
75.06244290619507
 30
0.0
  0
LINE
  5
DF
330
70
100
AcDbEntity
  8
Rahmen (ISO)
 62
    18
420
        0
370
     5
100
AcDbLine
 10
31.94762327393439
 20
75.0165592668456
 30
0.0
 11
32.48714059782331
 21
75.0165592668456
 31
0.0
  0
SPLINE
  5
E0
330
70
100
AcDbEntity
  8
Rahmen (ISO)
 62
    18
420
        0
370
     5
100
AcDbSpline
210
0.0
220
0.0
230
1.0
 70
     8
 71
     3
 72
     8
 73
     4
 74
     0
 42
0.0000000001
 43
0.0000000001
 40
0.0
 40
0.0
 40
0.0
 40
0.0
 40
1.0
 40
1.0
 40
1.0
 40
1.0
 10
31.94762327393439
 20
75.01655926684463
 30
0.0
 10
31.92227340468247
 20
75.01655926684463
 30
0.0
 10
31.90173963458621
 20
74.99602549674903
 30
0.0
 10
31.90173963458525
 20
74.97067562749646
 30
0.0
  0
LINE
  5
E1
330
70
100
AcDbEntity
  8
Rahmen (ISO)
 62
    18
420
        0
370
     5
100
AcDbLine
 10
31.9017396345846
 20
74.02943173832294
 30
0.0
 11
31.9017396345846
 21
74.97067562749646
 31
0.0
  0
SPLINE
  5
E2
330
70
100
AcDbEntity
  8
Rahmen (ISO)
 62
    18
420
        0
370
     5
100
AcDbSpline
210
0.0
220
0.0
230
1.0
 70
     8
 71
     3
 72
     8
 73
     4
 74
     0
 42
0.0000000001
 43
0.0000000001
 40
0.0
 40
0.0
 40
0.0
 40
0.0
 40
1.0
 40
1.0
 40
1.0
 40
1.0
 10
31.85585599523418
 20
73.98354809897347
 30
0.0
 10
31.88120586448642
 20
73.98354809897347
 30
0.0
 10
31.90173963458396
 20
74.00408186907005
 30
0.0
 10
31.90173963458428
 20
74.02943173832294
 30
0.0
  0
LINE
  5
E3
330
70
100
AcDbEntity
  8
Rahmen (ISO)
 62
    18
420
        0
370
     5
100
AcDbLine
 10
31.85585599523418
 20
73.98354809897347
 30
0.0
 11
30.49557774798062
 21
73.98354809897347
 31
0.0
  0
SPLINE
  5
E4
330
70
100
AcDbEntity
  8
Rahmen (ISO)
 62
    18
420
        0
370
     5
100
AcDbSpline
210
0.0
220
0.0
230
1.0
 70
     8
 71
     3
 72
     8
 73
     4
 74
     0
 42
0.0000000001
 43
0.0000000001
 40
0.0
 40
0.0
 40
0.0
 40
0.0
 40
1.0
 40
1.0
 40
1.0
 40
1.0
 10
30.44969410863052
 20
74.02943173832294
 30
0.0
 10
30.44969410863084
 20
74.00408186907005
 30
0.0
 10
30.47022787872806
 20
73.98354809897347
 30
0.0
 10
30.49557774798062
 20
73.98354809897347
 30
0.0
  0
LINE
  5
E5
330
70
100
AcDbEntity
  8
Rahmen (ISO)
 62
    18
420
        0
370
     5
100
AcDbLine
 10
30.4496941086302
 20
74.02943173832294
 30
0.0
 11
30.4496941086302
 21
74.97067562749646
 31
0.0
  0
SPLINE
  5
E6
330
70
100
AcDbEntity
  8
Rahmen (ISO)
 62
    18
420
        0
370
     5
100
AcDbSpline
210
0.0
220
0.0
230
1.0
 70
     8
 71
     3
 72
     8
 73
     4
 74
     0
 42
0.0000000001
 43
0.0000000001
 40
0.0
 40
0.0
 40
0.0
 40
0.0
 40
1.0
 40
1.0
 40
1.0
 40
1.0
 10
30.4496941086302
 20
74.97067562749646
 30
0.0
 10
30.44969410862859
 20
74.99602549674903
 30
0.0
 10
30.42916033853233
 20
75.01655926684463
 30
0.0
 10
30.40381046928041
 20
75.01655926684463
 30
0.0
  0
LINE
  5
E7
330
70
100
AcDbEntity
  8
Rahmen (ISO)
 62
    18
420
        0
370
     5
100
AcDbLine
 10
30.40381046928041
 20
75.0165592668456
 30
0.0
 11
29.86429314539181
 21
75.0165592668456
 31
0.0
  0
SPLINE
  5
E8
330
70
100
AcDbEntity
  8
Rahmen (ISO)
 62
    18
420
        0
370
     5
100
AcDbSpline
210
0.0
220
0.0
230
1.0
 70
     8
 71
     3
 72
     8
 73
     4
 74
     0
 42
0.0000000001
 43
0.0000000001
 40
0.0
 40
0.0
 40
0.0
 40
0.0
 40
1.0
 40
1.0
 40
1.0
 40
1.0
 10
29.81840950604203
 20
75.06244290619507
 30
0.0
 10
29.81840950604299
 20
75.0370930369425
 30
0.0
 10
29.83894327613957
 20
75.01655926684624
 30
0.0
 10
29.86429314539181
 20
75.0165592668456
 30
0.0
  0
LINE
  5
E9
330
70
100
AcDbEntity
  8
Rahmen (ISO)
 62
    18
420
        0
370
     5
100
AcDbLine
 10
29.81840950604203
 20
75.06244290619507
 30
0.0
 11
29.81840950604203
 21
75.96360507883925
 31
0.0
  0
SPLINE
  5
EA
330
70
100
AcDbEntity
  8
Rahmen (ISO)
 62
    18
420
        0
370
     5
100
AcDbSpline
210
0.0
220
0.0
230
1.0
 70
     8
 71
     3
 72
     8
 73
     4
 74
     0
 42
0.0000000001
 43
0.0000000001
 40
0.0
 40
0.0
 40
0.0
 40
0.0
 40
1.0
 40
1.0
 40
1.0
 40
1.0
 10
29.86429314539181
 20
76.00948871818967
 30
0.0
 10
29.83894327613925
 20
76.00948871818967
 30
0.0
 10
29.81840950604235
 20
75.98895494809212
 30
0.0
 10
29.81840950604203
 20
75.96360507883925
 30
0.0
  0
LINE
  5
EB
330
70
100
AcDbEntity
  8
Rahmen (ISO)
 62
    18
420
        0
370
     5
100
AcDbLine
 10
29.40811998435921
 20
73.38961214744653
 30
0.0
 11
29.40811998435921
 21
68.33933532673636
 31
0.0
  0
LINE
  5
EC
330
70
100
AcDbEntity
  8
Rahmen (ISO)
 62
    18
420
        0
370
     5
100
AcDbLine
 10
29.40811998435921
 20
68.33933532673636
 30
0.0
 11
29.10969453586233
 21
68.33933532673636
 31
0.0
  0
LINE
  5
ED
330
70
100
AcDbEntity
  8
Rahmen (ISO)
 62
    18
420
        0
370
     5
100
AcDbLine
 10
17.7006600818043
 20
76.14430859510661
 30
0.0
 11
17.7006600818043
 21
68.33933532673636
 31
0.0
  0
LINE
  5
EE
330
70
100
AcDbEntity
  8
Rahmen (ISO)
 62
    18
420
        0
370
     5
100
AcDbLine
 10
18.32046678252745
 20
76.14430859510661
 30
0.0
 11
18.32046678252745
 21
68.33933532673636
 31
0.0
  0
LINE
  5
EF
330
70
100
AcDbEntity
  8
Rahmen (ISO)
 62
    18
420
        0
370
     5
100
AcDbLine
 10
26.12544005089739
 20
68.33933532673636
 30
0.0
 11
18.32046678252745
 21
68.33933532673636
 31
0.0
  0
LINE
  5
F0
330
70
100
AcDbEntity
  8
Rahmen (ISO)
 62
    18
420
        0
370
     5
100
AcDbLine
 10
23.2559645845852
 20
75.57041350184386
 30
0.0
 11
22.21237979019411
 21
75.57041350184386
 31
0.0
  0
LINE
  5
F1
330
70
100
AcDbEntity
  8
Rahmen (ISO)
 62
    18
420
        0
370
     5
100
AcDbLine
 10
23.2559645845852
 20
75.340855464539
 30
0.0
 11
23.2559645845852
 21
75.57041350184386
 31
0.0
  0
LINE
  5
F2
330
70
100
AcDbEntity
  8
Rahmen (ISO)
 62
    18
420
        0
370
     5
100
AcDbLine
 10
25.78110299494044
 20
75.340855464539
 30
0.0
 11
23.2559645845852
 21
75.340855464539
 31
0.0
  0
SPLINE
  5
F3
330
70
100
AcDbEntity
  8
Rahmen (ISO)
 62
    18
420
        0
370
     5
100
AcDbSpline
210
0.0
220
0.0
230
1.0
 70
     8
 71
     3
 72
     8
 73
     4
 74
     0
 42
0.0000000001
 43
0.0000000001
 40
0.0
 40
0.0
 40
0.0
 40
0.0
 40
1.0
 40
1.0
 40
1.0
 40
1.0
 10
26.01066103224529
 20
75.11129742723352
 30
0.0
 10
26.01066103224529
 20
75.23807883043845
 30
0.0
 10
25.90788439814506
 20
75.340855464539
 30
0.0
 10
25.78110299494044
 20
75.340855464539
 30
0.0
  0
LINE
  5
F4
330
70
100
AcDbEntity
  8
Rahmen (ISO)
 62
    18
420
        0
370
     5
100
AcDbLine
 10
26.01066103224529
 20
74.91617309552468
 30
0.0
 11
26.01066103224529
 21
75.11129742723352
 31
0.0
  0
SPLINE
  5
F5
330
70
100
AcDbEntity
  8
Rahmen (ISO)
 62
    18
420
        0
370
     5
100
AcDbSpline
210
0.0
220
0.0
230
1.0
 70
     8
 71
     3
 72
     8
 73
     4
 74
     0
 42
0.0000000001
 43
0.0000000001
 40
0.0
 40
0.0
 40
0.0
 40
0.0
 40
1.0
 40
1.0
 40
1.0
 40
1.0
 10
25.78110299494044
 20
74.68661505821984
 30
0.0
 10
25.90788439814506
 20
74.68661505821984
 30
0.0
 10
26.01066103224529
 20
74.78939169232006
 30
0.0
 10
26.01066103224529
 20
74.91617309552468
 30
0.0
  0
LINE
  5
F6
330
70
100
AcDbEntity
  8
Rahmen (ISO)
 62
    18
420
        0
370
     5
100
AcDbLine
 10
23.26744248645022
 20
74.68661505821984
 30
0.0
 11
25.78110299494044
 21
74.68661505821984
 31
0.0
  0
LINE
  5
F7
330
70
100
AcDbEntity
  8
Rahmen (ISO)
 62
    18
420
        0
370
     5
100
AcDbLine
 10
23.26744248645022
 20
74.91617309552468
 30
0.0
 11
23.26744248645022
 21
74.68661505821984
 31
0.0
  0
LINE
  5
F8
330
70
100
AcDbEntity
  8
Rahmen (ISO)
 62
    18
420
        0
370
     5
100
AcDbLine
 10
21.86713845888981
 20
74.91617309552468
 30
0.0
 11
23.26744248645022
 21
74.91617309552468
 31
0.0
  0
LINE
  5
F9
330
70
100
AcDbEntity
  8
Rahmen (ISO)
 62
    18
420
        0
370
     5
100
AcDbLine
 10
21.86713845888981
 20
74.68661505821984
 30
0.0
 11
21.86713845888981
 21
74.91617309552468
 31
0.0
  0
LINE
  5
FA
330
70
100
AcDbEntity
  8
Rahmen (ISO)
 62
    18
420
        0
370
     5
100
AcDbLine
 10
19.35347795040023
 20
74.68661505821984
 30
0.0
 11
21.86713845888981
 21
74.68661505821984
 31
0.0
  0
SPLINE
  5
FB
330
70
100
AcDbEntity
  8
Rahmen (ISO)
 62
    18
420
        0
370
     5
100
AcDbSpline
210
0.0
220
0.0
230
1.0
 70
     8
 71
     3
 72
     8
 73
     4
 74
     0
 42
0.0000000001
 43
0.0000000001
 40
0.0
 40
0.0
 40
0.0
 40
0.0
 40
1.0
 40
1.0
 40
1.0
 40
1.0
 10
19.12391991309538
 20
74.91617309552468
 30
0.0
 10
19.12391991309538
 20
74.78939169232006
 30
0.0
 10
19.22669654719561
 20
74.68661505821984
 30
0.0
 10
19.35347795040023
 20
74.68661505821984
 30
0.0
  0
LINE
  5
FC
330
70
100
AcDbEntity
  8
Rahmen (ISO)
 62
    18
420
        0
370
     5
100
AcDbLine
 10
19.12391991309538
 20
75.11129742723352
 30
0.0
 11
19.12391991309538
 21
74.91617309552468
 31
0.0
  0
SPLINE
  5
FD
330
70
100
AcDbEntity
  8
Rahmen (ISO)
 62
    18
420
        0
370
     5
100
AcDbSpline
210
0.0
220
0.0
230
1.0
 70
     8
 71
     3
 72
     8
 73
     4
 74
     0
 42
0.0000000001
 43
0.0000000001
 40
0.0
 40
0.0
 40
0.0
 40
0.0
 40
1.0
 40
1.0
 40
1.0
 40
1.0
 10
19.35347795040023
 20
75.340855464539
 30
0.0
 10
19.22669654719561
 20
75.340855464539
 30
0.0
 10
19.12391991309538
 20
75.23807883043845
 30
0.0
 10
19.12391991309538
 20
75.11129742723352
 30
0.0
  0
LINE
  5
FE
330
70
100
AcDbEntity
  8
Rahmen (ISO)
 62
    18
420
        0
370
     5
100
AcDbLine
 10
21.87861636075547
 20
75.340855464539
 30
0.0
 11
19.35347795040023
 21
75.340855464539
 31
0.0
  0
LINE
  5
FF
330
70
100
AcDbEntity
  8
Rahmen (ISO)
 62
    18
420
        0
370
     5
100
AcDbLine
 10
21.87861636075547
 20
75.45563448319143
 30
0.0
 11
21.87861636075547
 21
75.340855464539
 31
0.0
  0
LINE
  5
100
330
70
100
AcDbEntity
  8
Rahmen (ISO)
 62
    18
420
        0
370
     5
100
AcDbLine
 10
21.77441096862136
 20
75.45563448319143
 30
0.0
 11
21.87861636075547
 21
75.45563448319143
 31
0.0
  0
LINE
  5
101
330
70
100
AcDbEntity
  8
Rahmen (ISO)
 62
    18
420
        0
370
     5
100
AcDbLine
 10
17.37022934243989
 20
77.63643583758876
 30
0.0
 11
17.37022934243989
 21
77.75121485624119
 31
0.0
  0
LINE
  5
102
330
70
100
AcDbEntity
  8
Rahmen (ISO)
 62
    18
420
        0
370
     5
100
AcDbLine
 10
17.37022934243989
 20
77.63643583758876
 30
0.0
 11
17.37022934243989
 21
68.33933532673636
 31
0.0
  0
LINE
  5
103
330
70
100
AcDbEntity
  8
Rahmen (ISO)
 62
    18
420
        0
370
     5
100
AcDbLine
 10
17.7006600818043
 20
68.33933532673636
 30
0.0
 11
17.37022934243989
 21
68.33933532673636
 31
0.0
  0
LINE
  5
104
330
70
100
AcDbEntity
  8
Rahmen (ISO)
 62
    18
420
        0
370
     5
100
AcDbLine
 10
23.26744248645022
 20
69.40678020020515
 30
0.0
 11
23.26744248645022
 21
69.17722216290029
 31
0.0
  0
LINE
  5
105
330
70
100
AcDbEntity
  8
Rahmen (ISO)
 62
    18
420
        0
370
     5
100
AcDbLine
 10
21.86713845888981
 20
69.40678020020515
 30
0.0
 11
23.26744248645022
 21
69.40678020020515
 31
0.0
  0
LINE
  5
106
330
70
100
AcDbEntity
  8
Rahmen (ISO)
 62
    18
420
        0
370
     5
100
AcDbLine
 10
21.86713845888981
 20
69.17722216290029
 30
0.0
 11
21.86713845888981
 21
69.40678020020515
 31
0.0
  0
LINE
  5
107
330
70
100
AcDbEntity
  8
Rahmen (ISO)
 62
    18
420
        0
370
     5
100
AcDbLine
 10
19.35347795040023
 20
69.17722216290029
 30
0.0
 11
21.86713845888981
 21
69.17722216290029
 31
0.0
  0
SPLINE
  5
108
330
70
100
AcDbEntity
  8
Rahmen (ISO)
 62
    18
420
        0
370
     5
100
AcDbSpline
210
0.0
220
0.0
230
1.0
 70
     8
 71
     3
 72
     8
 73
     4
 74
     0
 42
0.0000000001
 43
0.0000000001
 40
0.0
 40
0.0
 40
0.0
 40
0.0
 40
1.0
 40
1.0
 40
1.0
 40
1.0
 10
19.12391991309538
 20
69.40678020020515
 30
0.0
 10
19.12391991309538
 20
69.27999879700021
 30
0.0
 10
19.22669654719561
 20
69.17722216290029
 30
0.0
 10
19.35347795040023
 20
69.17722216290029
 30
0.0
  0
LINE
  5
109
330
70
100
AcDbEntity
  8
Rahmen (ISO)
 62
    18
420
        0
370
     5
100
AcDbLine
 10
19.12391991309538
 20
69.60190453191462
 30
0.0
 11
19.12391991309538
 21
69.40678020020515
 31
0.0
  0
SPLINE
  5
10A
330
70
100
AcDbEntity
  8
Rahmen (ISO)
 62
    18
420
        0
370
     5
100
AcDbSpline
210
0.0
220
0.0
230
1.0
 70
     8
 71
     3
 72
     8
 73
     4
 74
     0
 42
0.0000000001
 43
0.0000000001
 40
0.0
 40
0.0
 40
0.0
 40
0.0
 40
1.0
 40
1.0
 40
1.0
 40
1.0
 10
19.35347795040023
 20
69.83146256921947
 30
0.0
 10
19.22669654719561
 20
69.83146256921947
 30
0.0
 10
19.12391991309538
 20
69.72868593511923
 30
0.0
 10
19.12391991309538
 20
69.60190453191462
 30
0.0
  0
LINE
  5
10B
330
70
100
AcDbEntity
  8
Rahmen (ISO)
 62
    18
420
        0
370
     5
100
AcDbLine
 10
21.87861636075547
 20
69.83146256921947
 30
0.0
 11
19.35347795040023
 21
69.83146256921947
 31
0.0
  0
LINE
  5
10C
330
70
100
AcDbEntity
  8
Rahmen (ISO)
 62
    18
420
        0
370
     5
100
AcDbLine
 10
21.87861636075547
 20
70.06102060652399
 30
0.0
 11
21.87861636075547
 21
69.83146256921947
 31
0.0
  0
LINE
  5
10D
330
70
100
AcDbEntity
  8
Rahmen (ISO)
 62
    18
420
        0
370
     5
100
AcDbLine
 10
23.2559645845852
 20
70.06102060652399
 30
0.0
 11
21.87861636075547
 21
70.06102060652399
 31
0.0
  0
LINE
  5
10E
330
70
100
AcDbEntity
  8
Rahmen (ISO)
 62
    18
420
        0
370
     5
100
AcDbLine
 10
23.2559645845852
 20
69.83146256921947
 30
0.0
 11
23.2559645845852
 21
70.06102060652399
 31
0.0
  0
LINE
  5
10F
330
70
100
AcDbEntity
  8
Rahmen (ISO)
 62
    18
420
        0
370
     5
100
AcDbLine
 10
25.78110299494044
 20
69.83146256921947
 30
0.0
 11
23.2559645845852
 21
69.83146256921947
 31
0.0
  0
SPLINE
  5
110
330
70
100
AcDbEntity
  8
Rahmen (ISO)
 62
    18
420
        0
370
     5
100
AcDbSpline
210
0.0
220
0.0
230
1.0
 70
     8
 71
     3
 72
     8
 73
     4
 74
     0
 42
0.0000000001
 43
0.0000000001
 40
0.0
 40
0.0
 40
0.0
 40
0.0
 40
1.0
 40
1.0
 40
1.0
 40
1.0
 10
26.01066103224529
 20
69.60190453191462
 30
0.0
 10
26.01066103224529
 20
69.72868593511923
 30
0.0
 10
25.90788439814506
 20
69.83146256921947
 30
0.0
 10
25.78110299494044
 20
69.83146256921947
 30
0.0
  0
LINE
  5
111
330
70
100
AcDbEntity
  8
Rahmen (ISO)
 62
    18
420
        0
370
     5
100
AcDbLine
 10
26.01066103224529
 20
69.40678020020515
 30
0.0
 11
26.01066103224529
 21
69.60190453191462
 31
0.0
  0
SPLINE
  5
112
330
70
100
AcDbEntity
  8
Rahmen (ISO)
 62
    18
420
        0
370
     5
100
AcDbSpline
210
0.0
220
0.0
230
1.0
 70
     8
 71
     3
 72
     8
 73
     4
 74
     0
 42
0.0000000001
 43
0.0000000001
 40
0.0
 40
0.0
 40
0.0
 40
0.0
 40
1.0
 40
1.0
 40
1.0
 40
1.0
 10
25.78110299494044
 20
69.17722216290029
 30
0.0
 10
25.90788439814506
 20
69.17722216290029
 30
0.0
 10
26.01066103224529
 20
69.27999879700021
 30
0.0
 10
26.01066103224529
 20
69.40678020020515
 30
0.0
  0
LINE
  5
113
330
70
100
AcDbEntity
  8
Rahmen (ISO)
 62
    18
420
        0
370
     5
100
AcDbLine
 10
23.26744248645022
 20
69.17722216290029
 30
0.0
 11
25.78110299494044
 21
69.17722216290029
 31
0.0
  0
LINE
  5
114
330
70
100
AcDbEntity
  8
Rahmen (ISO)
 62
    18
420
        0
370
     5
100
AcDbLine
 10
23.26744248645022
 20
70.78412842403487
 30
0.0
 11
23.26744248645022
 21
70.55457038672971
 31
0.0
  0
LINE
  5
115
330
70
100
AcDbEntity
  8
Rahmen (ISO)
 62
    18
420
        0
370
     5
100
AcDbLine
 10
21.86713845888981
 20
70.78412842403487
 30
0.0
 11
23.26744248645022
 21
70.78412842403487
 31
0.0
  0
LINE
  5
116
330
70
100
AcDbEntity
  8
Rahmen (ISO)
 62
    18
420
        0
370
     5
100
AcDbLine
 10
21.86713845888981
 20
70.55457038672971
 30
0.0
 11
21.86713845888981
 21
70.78412842403487
 31
0.0
  0
LINE
  5
117
330
70
100
AcDbEntity
  8
Rahmen (ISO)
 62
    18
420
        0
370
     5
100
AcDbLine
 10
19.35347795040023
 20
70.55457038672971
 30
0.0
 11
21.86713845888981
 21
70.55457038672971
 31
0.0
  0
SPLINE
  5
118
330
70
100
AcDbEntity
  8
Rahmen (ISO)
 62
    18
420
        0
370
     5
100
AcDbSpline
210
0.0
220
0.0
230
1.0
 70
     8
 71
     3
 72
     8
 73
     4
 74
     0
 42
0.0000000001
 43
0.0000000001
 40
0.0
 40
0.0
 40
0.0
 40
0.0
 40
1.0
 40
1.0
 40
1.0
 40
1.0
 10
19.12391991309538
 20
70.78412842403487
 30
0.0
 10
19.12391991309538
 20
70.65734702082993
 30
0.0
 10
19.22669654719561
 20
70.55457038672971
 30
0.0
 10
19.35347795040023
 20
70.55457038672971
 30
0.0
  0
LINE
  5
119
330
70
100
AcDbEntity
  8
Rahmen (ISO)
 62
    18
420
        0
370
     5
100
AcDbLine
 10
19.12391991309538
 20
70.97925275574434
 30
0.0
 11
19.12391991309538
 21
70.78412842403487
 31
0.0
  0
SPLINE
  5
11A
330
70
100
AcDbEntity
  8
Rahmen (ISO)
 62
    18
420
        0
370
     5
100
AcDbSpline
210
0.0
220
0.0
230
1.0
 70
     8
 71
     3
 72
     8
 73
     4
 74
     0
 42
0.0000000001
 43
0.0000000001
 40
0.0
 40
0.0
 40
0.0
 40
0.0
 40
1.0
 40
1.0
 40
1.0
 40
1.0
 10
19.35347795040023
 20
71.20881079304919
 30
0.0
 10
19.22669654719561
 20
71.20881079304919
 30
0.0
 10
19.12391991309538
 20
71.10603415894864
 30
0.0
 10
19.12391991309538
 20
70.97925275574434
 30
0.0
  0
LINE
  5
11B
330
70
100
AcDbEntity
  8
Rahmen (ISO)
 62
    18
420
        0
370
     5
100
AcDbLine
 10
21.87861636075547
 20
71.20881079304919
 30
0.0
 11
19.35347795040023
 21
71.20881079304919
 31
0.0
  0
LINE
  5
11C
330
70
100
AcDbEntity
  8
Rahmen (ISO)
 62
    18
420
        0
370
     5
100
AcDbLine
 10
21.87861636075547
 20
71.43836883035437
 30
0.0
 11
21.87861636075547
 21
71.20881079304919
 31
0.0
  0
LINE
  5
11D
330
70
100
AcDbEntity
  8
Rahmen (ISO)
 62
    18
420
        0
370
     5
100
AcDbLine
 10
23.2559645845852
 20
71.43836883035437
 30
0.0
 11
21.87861636075547
 21
71.43836883035437
 31
0.0
  0
LINE
  5
11E
330
70
100
AcDbEntity
  8
Rahmen (ISO)
 62
    18
420
        0
370
     5
100
AcDbLine
 10
23.2559645845852
 20
71.20881079304919
 30
0.0
 11
23.2559645845852
 21
71.43836883035437
 31
0.0
  0
LINE
  5
11F
330
70
100
AcDbEntity
  8
Rahmen (ISO)
 62
    18
420
        0
370
     5
100
AcDbLine
 10
25.78110299494044
 20
71.20881079304919
 30
0.0
 11
23.2559645845852
 21
71.20881079304919
 31
0.0
  0
SPLINE
  5
120
330
70
100
AcDbEntity
  8
Rahmen (ISO)
 62
    18
420
        0
370
     5
100
AcDbSpline
210
0.0
220
0.0
230
1.0
 70
     8
 71
     3
 72
     8
 73
     4
 74
     0
 42
0.0000000001
 43
0.0000000001
 40
0.0
 40
0.0
 40
0.0
 40
0.0
 40
1.0
 40
1.0
 40
1.0
 40
1.0
 10
26.01066103224529
 20
70.97925275574434
 30
0.0
 10
26.01066103224529
 20
71.10603415894864
 30
0.0
 10
25.90788439814506
 20
71.20881079304919
 30
0.0
 10
25.78110299494044
 20
71.20881079304919
 30
0.0
  0
LINE
  5
121
330
70
100
AcDbEntity
  8
Rahmen (ISO)
 62
    18
420
        0
370
     5
100
AcDbLine
 10
26.01066103224529
 20
70.78412842403487
 30
0.0
 11
26.01066103224529
 21
70.97925275574434
 31
0.0
  0
SPLINE
  5
122
330
70
100
AcDbEntity
  8
Rahmen (ISO)
 62
    18
420
        0
370
     5
100
AcDbSpline
210
0.0
220
0.0
230
1.0
 70
     8
 71
     3
 72
     8
 73
     4
 74
     0
 42
0.0000000001
 43
0.0000000001
 40
0.0
 40
0.0
 40
0.0
 40
0.0
 40
1.0
 40
1.0
 40
1.0
 40
1.0
 10
25.78110299494044
 20
70.55457038672971
 30
0.0
 10
25.90788439814506
 20
70.55457038672971
 30
0.0
 10
26.01066103224529
 20
70.65734702082993
 30
0.0
 10
26.01066103224529
 20
70.78412842403487
 30
0.0
  0
LINE
  5
123
330
70
100
AcDbEntity
  8
Rahmen (ISO)
 62
    18
420
        0
370
     5
100
AcDbLine
 10
23.26744248645022
 20
70.55457038672971
 30
0.0
 11
25.78110299494044
 21
70.55457038672971
 31
0.0
  0
LINE
  5
124
330
70
100
AcDbEntity
  8
Rahmen (ISO)
 62
    18
420
        0
370
     5
100
AcDbLine
 10
23.26744248645022
 20
72.16147664786524
 30
0.0
 11
23.26744248645022
 21
71.93191861055942
 31
0.0
  0
LINE
  5
125
330
70
100
AcDbEntity
  8
Rahmen (ISO)
 62
    18
420
        0
370
     5
100
AcDbLine
 10
21.86713845888981
 20
72.16147664786524
 30
0.0
 11
23.26744248645022
 21
72.16147664786524
 31
0.0
  0
LINE
  5
126
330
70
100
AcDbEntity
  8
Rahmen (ISO)
 62
    18
420
        0
370
     5
100
AcDbLine
 10
21.86713845888981
 20
71.93191861055942
 30
0.0
 11
21.86713845888981
 21
72.16147664786524
 31
0.0
  0
LINE
  5
127
330
70
100
AcDbEntity
  8
Rahmen (ISO)
 62
    18
420
        0
370
     5
100
AcDbLine
 10
19.35347795040023
 20
71.93191861055942
 30
0.0
 11
21.86713845888981
 21
71.93191861055942
 31
0.0
  0
SPLINE
  5
128
330
70
100
AcDbEntity
  8
Rahmen (ISO)
 62
    18
420
        0
370
     5
100
AcDbSpline
210
0.0
220
0.0
230
1.0
 70
     8
 71
     3
 72
     8
 73
     4
 74
     0
 42
0.0000000001
 43
0.0000000001
 40
0.0
 40
0.0
 40
0.0
 40
0.0
 40
1.0
 40
1.0
 40
1.0
 40
1.0
 10
19.12391991309538
 20
72.16147664786524
 30
0.0
 10
19.12391991309538
 20
72.03469524466029
 30
0.0
 10
19.22669654719561
 20
71.93191861055942
 30
0.0
 10
19.35347795040023
 20
71.93191861055942
 30
0.0
  0
LINE
  5
129
330
70
100
AcDbEntity
  8
Rahmen (ISO)
 62
    18
420
        0
370
     5
100
AcDbLine
 10
19.12391991309538
 20
72.35660097957439
 30
0.0
 11
19.12391991309538
 21
72.16147664786524
 31
0.0
  0
SPLINE
  5
12A
330
70
100
AcDbEntity
  8
Rahmen (ISO)
 62
    18
420
        0
370
     5
100
AcDbSpline
210
0.0
220
0.0
230
1.0
 70
     8
 71
     3
 72
     8
 73
     4
 74
     0
 42
0.0000000001
 43
0.0000000001
 40
0.0
 40
0.0
 40
0.0
 40
0.0
 40
1.0
 40
1.0
 40
1.0
 40
1.0
 10
19.35347795040023
 20
72.58615901687924
 30
0.0
 10
19.22669654719561
 20
72.58615901687924
 30
0.0
 10
19.12391991309538
 20
72.48338238277868
 30
0.0
 10
19.12391991309538
 20
72.35660097957439
 30
0.0
  0
LINE
  5
12B
330
70
100
AcDbEntity
  8
Rahmen (ISO)
 62
    18
420
        0
370
     5
100
AcDbLine
 10
21.87861636075547
 20
72.58615901687924
 30
0.0
 11
19.35347795040023
 21
72.58615901687924
 31
0.0
  0
LINE
  5
12C
330
70
100
AcDbEntity
  8
Rahmen (ISO)
 62
    18
420
        0
370
     5
100
AcDbLine
 10
21.87861636075547
 20
72.8157170541844
 30
0.0
 11
21.87861636075547
 21
72.58615901687924
 31
0.0
  0
LINE
  5
12D
330
70
100
AcDbEntity
  8
Rahmen (ISO)
 62
    18
420
        0
370
     5
100
AcDbLine
 10
23.2559645845852
 20
72.8157170541844
 30
0.0
 11
21.87861636075547
 21
72.8157170541844
 31
0.0
  0
LINE
  5
12E
330
70
100
AcDbEntity
  8
Rahmen (ISO)
 62
    18
420
        0
370
     5
100
AcDbLine
 10
23.2559645845852
 20
72.58615901687924
 30
0.0
 11
23.2559645845852
 21
72.8157170541844
 31
0.0
  0
LINE
  5
12F
330
70
100
AcDbEntity
  8
Rahmen (ISO)
 62
    18
420
        0
370
     5
100
AcDbLine
 10
25.78110299494044
 20
72.58615901687924
 30
0.0
 11
23.2559645845852
 21
72.58615901687924
 31
0.0
  0
SPLINE
  5
130
330
70
100
AcDbEntity
  8
Rahmen (ISO)
 62
    18
420
        0
370
     5
100
AcDbSpline
210
0.0
220
0.0
230
1.0
 70
     8
 71
     3
 72
     8
 73
     4
 74
     0
 42
0.0000000001
 43
0.0000000001
 40
0.0
 40
0.0
 40
0.0
 40
0.0
 40
1.0
 40
1.0
 40
1.0
 40
1.0
 10
26.01066103224529
 20
72.35660097957439
 30
0.0
 10
26.01066103224529
 20
72.48338238277868
 30
0.0
 10
25.90788439814506
 20
72.58615901687924
 30
0.0
 10
25.78110299494044
 20
72.58615901687924
 30
0.0
  0
LINE
  5
131
330
70
100
AcDbEntity
  8
Rahmen (ISO)
 62
    18
420
        0
370
     5
100
AcDbLine
 10
26.01066103224529
 20
72.16147664786524
 30
0.0
 11
26.01066103224529
 21
72.35660097957439
 31
0.0
  0
SPLINE
  5
132
330
70
100
AcDbEntity
  8
Rahmen (ISO)
 62
    18
420
        0
370
     5
100
AcDbSpline
210
0.0
220
0.0
230
1.0
 70
     8
 71
     3
 72
     8
 73
     4
 74
     0
 42
0.0000000001
 43
0.0000000001
 40
0.0
 40
0.0
 40
0.0
 40
0.0
 40
1.0
 40
1.0
 40
1.0
 40
1.0
 10
25.78110299494044
 20
71.93191861055942
 30
0.0
 10
25.90788439814506
 20
71.93191861055942
 30
0.0
 10
26.01066103224529
 20
72.03469524466029
 30
0.0
 10
26.01066103224529
 20
72.16147664786524
 30
0.0
  0
LINE
  5
133
330
70
100
AcDbEntity
  8
Rahmen (ISO)
 62
    18
420
        0
370
     5
100
AcDbLine
 10
23.26744248645022
 20
71.93191861055942
 30
0.0
 11
25.78110299494044
 21
71.93191861055942
 31
0.0
  0
LINE
  5
134
330
70
100
AcDbEntity
  8
Rahmen (ISO)
 62
    18
420
        0
370
     5
100
AcDbLine
 10
23.26744248645022
 20
73.53882487169496
 30
0.0
 11
23.26744248645022
 21
73.30926683439011
 31
0.0
  0
LINE
  5
135
330
70
100
AcDbEntity
  8
Rahmen (ISO)
 62
    18
420
        0
370
     5
100
AcDbLine
 10
21.86713845888981
 20
73.53882487169496
 30
0.0
 11
23.26744248645022
 21
73.53882487169496
 31
0.0
  0
LINE
  5
136
330
70
100
AcDbEntity
  8
Rahmen (ISO)
 62
    18
420
        0
370
     5
100
AcDbLine
 10
21.86713845888981
 20
73.30926683439011
 30
0.0
 11
21.86713845888981
 21
73.53882487169496
 31
0.0
  0
LINE
  5
137
330
70
100
AcDbEntity
  8
Rahmen (ISO)
 62
    18
420
        0
370
     5
100
AcDbLine
 10
19.35347795040023
 20
73.30926683439011
 30
0.0
 11
21.86713845888981
 21
73.30926683439011
 31
0.0
  0
SPLINE
  5
138
330
70
100
AcDbEntity
  8
Rahmen (ISO)
 62
    18
420
        0
370
     5
100
AcDbSpline
210
0.0
220
0.0
230
1.0
 70
     8
 71
     3
 72
     8
 73
     4
 74
     0
 42
0.0000000001
 43
0.0000000001
 40
0.0
 40
0.0
 40
0.0
 40
0.0
 40
1.0
 40
1.0
 40
1.0
 40
1.0
 10
19.12391991309538
 20
73.53882487169496
 30
0.0
 10
19.12391991309538
 20
73.41204346849034
 30
0.0
 10
19.22669654719561
 20
73.30926683439011
 30
0.0
 10
19.35347795040023
 20
73.30926683439011
 30
0.0
  0
LINE
  5
139
330
70
100
AcDbEntity
  8
Rahmen (ISO)
 62
    18
420
        0
370
     5
100
AcDbLine
 10
19.12391991309538
 20
73.73394920340411
 30
0.0
 11
19.12391991309538
 21
73.53882487169496
 31
0.0
  0
SPLINE
  5
13A
330
70
100
AcDbEntity
  8
Rahmen (ISO)
 62
    18
420
        0
370
     5
100
AcDbSpline
210
0.0
220
0.0
230
1.0
 70
     8
 71
     3
 72
     8
 73
     4
 74
     0
 42
0.0000000001
 43
0.0000000001
 40
0.0
 40
0.0
 40
0.0
 40
0.0
 40
1.0
 40
1.0
 40
1.0
 40
1.0
 10
19.35347795040023
 20
73.96350724070863
 30
0.0
 10
19.22669654719561
 20
73.96350724070863
 30
0.0
 10
19.12391991309538
 20
73.86073060660841
 30
0.0
 10
19.12391991309538
 20
73.73394920340411
 30
0.0
  0
LINE
  5
13B
330
70
100
AcDbEntity
  8
Rahmen (ISO)
 62
    18
420
        0
370
     5
100
AcDbLine
 10
21.87861636075547
 20
73.96350724070863
 30
0.0
 11
19.35347795040023
 21
73.96350724070863
 31
0.0
  0
LINE
  5
13C
330
70
100
AcDbEntity
  8
Rahmen (ISO)
 62
    18
420
        0
370
     5
100
AcDbLine
 10
21.87861636075547
 20
74.19306527801413
 30
0.0
 11
21.87861636075547
 21
73.96350724070863
 31
0.0
  0
LINE
  5
13D
330
70
100
AcDbEntity
  8
Rahmen (ISO)
 62
    18
420
        0
370
     5
100
AcDbLine
 10
23.2559645845852
 20
74.19306527801413
 30
0.0
 11
21.87861636075547
 21
74.19306527801413
 31
0.0
  0
LINE
  5
13E
330
70
100
AcDbEntity
  8
Rahmen (ISO)
 62
    18
420
        0
370
     5
100
AcDbLine
 10
23.2559645845852
 20
73.96350724070863
 30
0.0
 11
23.2559645845852
 21
74.19306527801413
 31
0.0
  0
LINE
  5
13F
330
70
100
AcDbEntity
  8
Rahmen (ISO)
 62
    18
420
        0
370
     5
100
AcDbLine
 10
25.78110299494044
 20
73.96350724070863
 30
0.0
 11
23.2559645845852
 21
73.96350724070863
 31
0.0
  0
SPLINE
  5
140
330
70
100
AcDbEntity
  8
Rahmen (ISO)
 62
    18
420
        0
370
     5
100
AcDbSpline
210
0.0
220
0.0
230
1.0
 70
     8
 71
     3
 72
     8
 73
     4
 74
     0
 42
0.0000000001
 43
0.0000000001
 40
0.0
 40
0.0
 40
0.0
 40
0.0
 40
1.0
 40
1.0
 40
1.0
 40
1.0
 10
26.01066103224529
 20
73.73394920340411
 30
0.0
 10
26.01066103224529
 20
73.86073060660841
 30
0.0
 10
25.90788439814506
 20
73.96350724070863
 30
0.0
 10
25.78110299494044
 20
73.96350724070863
 30
0.0
  0
LINE
  5
141
330
70
100
AcDbEntity
  8
Rahmen (ISO)
 62
    18
420
        0
370
     5
100
AcDbLine
 10
26.01066103224529
 20
73.53882487169496
 30
0.0
 11
26.01066103224529
 21
73.73394920340411
 31
0.0
  0
SPLINE
  5
142
330
70
100
AcDbEntity
  8
Rahmen (ISO)
 62
    18
420
        0
370
     5
100
AcDbSpline
210
0.0
220
0.0
230
1.0
 70
     8
 71
     3
 72
     8
 73
     4
 74
     0
 42
0.0000000001
 43
0.0000000001
 40
0.0
 40
0.0
 40
0.0
 40
0.0
 40
1.0
 40
1.0
 40
1.0
 40
1.0
 10
25.78110299494044
 20
73.30926683439011
 30
0.0
 10
25.90788439814506
 20
73.30926683439011
 30
0.0
 10
26.01066103224529
 20
73.41204346849034
 30
0.0
 10
26.01066103224529
 20
73.53882487169496
 30
0.0
  0
LINE
  5
143
330
70
100
AcDbEntity
  8
Rahmen (ISO)
 62
    18
420
        0
370
     5
100
AcDbLine
 10
23.26744248645022
 20
73.30926683439011
 30
0.0
 11
25.78110299494044
 21
73.30926683439011
 31
0.0
  0
LINE
  5
144
330
70
100
AcDbEntity
  8
Rahmen (ISO)
 62
    18
420
        0
370
     5
100
AcDbLine
 10
28.1914623866423
 20
71.27767820424089
 30
0.0
 11
27.04367220011774
 21
71.27767820424089
 31
0.0
  0
LINE
  5
145
330
70
100
AcDbEntity
  8
Rahmen (ISO)
 62
    18
420
        0
370
     5
100
AcDbLine
 10
27.04367220011774
 20
69.44121390580019
 30
0.0
 11
28.1914623866423
 21
69.44121390580019
 31
0.0
  0
LINE
  5
146
330
70
100
AcDbEntity
  8
Rahmen (ISO)
 62
    18
420
        0
370
     5
100
AcDbLine
 10
28.1914623866423
 20
68.33933532673636
 30
0.0
 11
27.04367220011774
 21
68.33933532673636
 31
0.0
  0
LINE
  5
147
330
70
100
AcDbEntity
  8
Rahmen (ISO)
 62
    18
420
        0
370
     5
100
AcDbLine
 10
35.30776154309705
 20
69.44121390580019
 30
0.0
 11
34.15997135657282
 21
69.44121390580019
 31
0.0
  0
LINE
  5
148
330
70
100
AcDbEntity
  8
Rahmen (ISO)
 62
    18
420
        0
370
     5
100
AcDbLine
 10
34.15997135657282
 20
68.33933532673636
 30
0.0
 11
35.30776154309705
 21
68.33933532673636
 31
0.0
  0
LINE
  5
149
330
70
100
AcDbEntity
  8
Rahmen (ISO)
 62
    18
420
        0
370
     5
100
AcDbLine
 10
34.15997135657282
 20
71.27767820424089
 30
0.0
 11
35.30776154309705
 21
71.27767820424089
 31
0.0
  0
LINE
  5
14A
330
70
100
AcDbEntity
  8
Rahmen (ISO)
 62
    18
420
        0
370
     5
100
AcDbLine
 10
44.65077366141081
 20
76.14430859510661
 30
0.0
 11
44.65077366141081
 21
68.33933532673636
 31
0.0
  0
LINE
  5
14B
330
70
100
AcDbEntity
  8
Rahmen (ISO)
 62
    18
420
        0
370
     5
100
AcDbLine
 10
44.65077366141081
 20
68.33933532673636
 30
0.0
 11
44.98120440077554
 21
68.33933532673636
 31
0.0
  0
LINE
  5
14C
330
70
100
AcDbEntity
  8
Rahmen (ISO)
 62
    18
420
        0
370
     5
100
AcDbLine
 10
44.98120440077554
 20
77.63643583758876
 30
0.0
 11
44.98120440077554
 21
68.33933532673636
 31
0.0
  0
LINE
  5
14D
330
70
100
AcDbEntity
  8
Rahmen (ISO)
 62
    18
420
        0
370
     5
100
AcDbLine
 10
44.98120440077554
 20
77.63643583758876
 30
0.0
 11
44.98120440077554
 21
77.75121485624119
 31
0.0
  0
LINE
  5
14E
330
70
100
AcDbEntity
  8
Rahmen (ISO)
 62
    18
420
        0
370
     5
100
AcDbLine
 10
40.57702277459375
 20
75.45563448319143
 30
0.0
 11
40.57702277459375
 21
76.14430859510661
 31
0.0
  0
LINE
  5
14F
330
70
100
AcDbEntity
  8
Rahmen (ISO)
 62
    18
420
        0
370
     5
100
AcDbLine
 10
40.57702277459375
 20
75.45563448319143
 30
0.0
 11
40.47281738245964
 21
75.45563448319143
 31
0.0
  0
LINE
  5
150
330
70
100
AcDbEntity
  8
Rahmen (ISO)
 62
    18
420
        0
370
     5
100
AcDbLine
 10
40.47281738245964
 20
75.45563448319143
 30
0.0
 11
40.47281738245964
 21
75.340855464539
 31
0.0
  0
LINE
  5
151
330
70
100
AcDbEntity
  8
Rahmen (ISO)
 62
    18
420
        0
370
     5
100
AcDbLine
 10
40.47281738245964
 20
75.340855464539
 30
0.0
 11
42.99795579281489
 21
75.340855464539
 31
0.0
  0
SPLINE
  5
152
330
70
100
AcDbEntity
  8
Rahmen (ISO)
 62
    18
420
        0
370
     5
100
AcDbSpline
210
0.0
220
0.0
230
1.0
 70
     8
 71
     3
 72
     8
 73
     4
 74
     0
 42
0.0000000001
 43
0.0000000001
 40
0.0
 40
0.0
 40
0.0
 40
0.0
 40
1.0
 40
1.0
 40
1.0
 40
1.0
 10
43.22751383012005
 20
75.11129742723352
 30
0.0
 10
43.22751383012005
 20
75.23807883043845
 30
0.0
 10
43.1247371960195
 20
75.340855464539
 30
0.0
 10
42.99795579281489
 20
75.340855464539
 30
0.0
  0
LINE
  5
153
330
70
100
AcDbEntity
  8
Rahmen (ISO)
 62
    18
420
        0
370
     5
100
AcDbLine
 10
43.22751383012005
 20
75.11129742723352
 30
0.0
 11
43.22751383012005
 21
74.91617309552468
 31
0.0
  0
SPLINE
  5
154
330
70
100
AcDbEntity
  8
Rahmen (ISO)
 62
    18
420
        0
370
     5
100
AcDbSpline
210
0.0
220
0.0
230
1.0
 70
     8
 71
     3
 72
     8
 73
     4
 74
     0
 42
0.0000000001
 43
0.0000000001
 40
0.0
 40
0.0
 40
0.0
 40
0.0
 40
1.0
 40
1.0
 40
1.0
 40
1.0
 10
42.99795579281489
 20
74.68661505821984
 30
0.0
 10
43.1247371960195
 20
74.68661505821984
 30
0.0
 10
43.22751383012005
 20
74.78939169232006
 30
0.0
 10
43.22751383012005
 20
74.91617309552468
 30
0.0
  0
LINE
  5
155
330
70
100
AcDbEntity
  8
Rahmen (ISO)
 62
    18
420
        0
370
     5
100
AcDbLine
 10
42.99795579281489
 20
74.68661505821984
 30
0.0
 11
40.48429528432499
 21
74.68661505821984
 31
0.0
  0
LINE
  5
156
330
70
100
AcDbEntity
  8
Rahmen (ISO)
 62
    18
420
        0
370
     5
100
AcDbLine
 10
40.48429528432499
 20
74.68661505821984
 30
0.0
 11
40.48429528432499
 21
74.91617309552468
 31
0.0
  0
LINE
  5
157
330
70
100
AcDbEntity
  8
Rahmen (ISO)
 62
    18
420
        0
370
     5
100
AcDbLine
 10
40.48429528432499
 20
74.91617309552468
 30
0.0
 11
39.08399125676459
 21
74.91617309552468
 31
0.0
  0
LINE
  5
158
330
70
100
AcDbEntity
  8
Rahmen (ISO)
 62
    18
420
        0
370
     5
100
AcDbLine
 10
39.08399125676459
 20
74.91617309552468
 30
0.0
 11
39.08399125676459
 21
74.68661505821984
 31
0.0
  0
LINE
  5
159
330
70
100
AcDbEntity
  8
Rahmen (ISO)
 62
    18
420
        0
370
     5
100
AcDbLine
 10
39.08399125676459
 20
74.68661505821984
 30
0.0
 11
36.570330748275
 21
74.68661505821984
 31
0.0
  0
SPLINE
  5
15A
330
70
100
AcDbEntity
  8
Rahmen (ISO)
 62
    18
420
        0
370
     5
100
AcDbSpline
210
0.0
220
0.0
230
1.0
 70
     8
 71
     3
 72
     8
 73
     4
 74
     0
 42
0.0000000001
 43
0.0000000001
 40
0.0
 40
0.0
 40
0.0
 40
0.0
 40
1.0
 40
1.0
 40
1.0
 40
1.0
 10
36.34077271096951
 20
74.91617309552468
 30
0.0
 10
36.34077271096951
 20
74.78939169232006
 30
0.0
 10
36.44354934507038
 20
74.68661505821984
 30
0.0
 10
36.570330748275
 20
74.68661505821984
 30
0.0
  0
LINE
  5
15B
330
70
100
AcDbEntity
  8
Rahmen (ISO)
 62
    18
420
        0
370
     5
100
AcDbLine
 10
36.34077271096951
 20
74.91617309552468
 30
0.0
 11
36.34077271096951
 21
75.11129742723352
 31
0.0
  0
SPLINE
  5
15C
330
70
100
AcDbEntity
  8
Rahmen (ISO)
 62
    18
420
        0
370
     5
100
AcDbSpline
210
0.0
220
0.0
230
1.0
 70
     8
 71
     3
 72
     8
 73
     4
 74
     0
 42
0.0000000001
 43
0.0000000001
 40
0.0
 40
0.0
 40
0.0
 40
0.0
 40
1.0
 40
1.0
 40
1.0
 40
1.0
 10
36.570330748275
 20
75.340855464539
 30
0.0
 10
36.44354934507038
 20
75.340855464539
 30
0.0
 10
36.34077271096951
 20
75.23807883043845
 30
0.0
 10
36.34077271096951
 20
75.11129742723352
 30
0.0
  0
LINE
  5
15D
330
70
100
AcDbEntity
  8
Rahmen (ISO)
 62
    18
420
        0
370
     5
100
AcDbLine
 10
36.570330748275
 20
75.340855464539
 30
0.0
 11
39.09546915862992
 21
75.340855464539
 31
0.0
  0
LINE
  5
15E
330
70
100
AcDbEntity
  8
Rahmen (ISO)
 62
    18
420
        0
370
     5
100
AcDbLine
 10
39.09546915862992
 20
75.340855464539
 30
0.0
 11
39.09546915862992
 21
75.57041350184386
 31
0.0
  0
LINE
  5
15F
330
70
100
AcDbEntity
  8
Rahmen (ISO)
 62
    18
420
        0
370
     5
100
AcDbLine
 10
39.09546915862992
 20
75.57041350184386
 30
0.0
 11
40.13905395302036
 21
75.57041350184386
 31
0.0
  0
LINE
  5
160
330
70
100
AcDbEntity
  8
Rahmen (ISO)
 62
    18
420
        0
370
     5
100
AcDbLine
 10
40.13905395302036
 20
75.57041350184386
 30
0.0
 11
40.13905395302036
 21
76.14430859510661
 31
0.0
  0
LINE
  5
161
330
70
100
AcDbEntity
  8
Rahmen (ISO)
 62
    18
420
        0
370
     5
100
AcDbLine
 10
36.2259936923174
 20
68.33933532673636
 30
0.0
 11
44.03096696068734
 21
68.33933532673636
 31
0.0
  0
LINE
  5
162
330
70
100
AcDbEntity
  8
Rahmen (ISO)
 62
    18
420
        0
370
     5
100
AcDbLine
 10
44.03096696068734
 20
76.14430859510661
 30
0.0
 11
44.03096696068734
 21
68.33933532673636
 31
0.0
  0
LINE
  5
163
330
70
100
AcDbEntity
  8
Rahmen (ISO)
 62
    18
420
        0
370
     5
100
AcDbLine
 10
39.08399125676459
 20
73.53882487169496
 30
0.0
 11
39.08399125676459
 21
73.30926683439011
 31
0.0
  0
LINE
  5
164
330
70
100
AcDbEntity
  8
Rahmen (ISO)
 62
    18
420
        0
370
     5
100
AcDbLine
 10
39.08399125676459
 20
73.30926683439011
 30
0.0
 11
36.570330748275
 21
73.30926683439011
 31
0.0
  0
SPLINE
  5
165
330
70
100
AcDbEntity
  8
Rahmen (ISO)
 62
    18
420
        0
370
     5
100
AcDbSpline
210
0.0
220
0.0
230
1.0
 70
     8
 71
     3
 72
     8
 73
     4
 74
     0
 42
0.0000000001
 43
0.0000000001
 40
0.0
 40
0.0
 40
0.0
 40
0.0
 40
1.0
 40
1.0
 40
1.0
 40
1.0
 10
36.34077271096951
 20
73.53882487169496
 30
0.0
 10
36.34077271096951
 20
73.41204346849034
 30
0.0
 10
36.44354934507038
 20
73.30926683439011
 30
0.0
 10
36.570330748275
 20
73.30926683439011
 30
0.0
  0
LINE
  5
166
330
70
100
AcDbEntity
  8
Rahmen (ISO)
 62
    18
420
        0
370
     5
100
AcDbLine
 10
36.34077271096951
 20
73.53882487169496
 30
0.0
 11
36.34077271096951
 21
73.73394920340411
 31
0.0
  0
SPLINE
  5
167
330
70
100
AcDbEntity
  8
Rahmen (ISO)
 62
    18
420
        0
370
     5
100
AcDbSpline
210
0.0
220
0.0
230
1.0
 70
     8
 71
     3
 72
     8
 73
     4
 74
     0
 42
0.0000000001
 43
0.0000000001
 40
0.0
 40
0.0
 40
0.0
 40
0.0
 40
1.0
 40
1.0
 40
1.0
 40
1.0
 10
36.570330748275
 20
73.96350724070863
 30
0.0
 10
36.44354934507038
 20
73.96350724070863
 30
0.0
 10
36.34077271096951
 20
73.86073060660841
 30
0.0
 10
36.34077271096951
 20
73.73394920340411
 30
0.0
  0
LINE
  5
168
330
70
100
AcDbEntity
  8
Rahmen (ISO)
 62
    18
420
        0
370
     5
100
AcDbLine
 10
36.570330748275
 20
73.96350724070863
 30
0.0
 11
39.09546915862992
 21
73.96350724070863
 31
0.0
  0
LINE
  5
169
330
70
100
AcDbEntity
  8
Rahmen (ISO)
 62
    18
420
        0
370
     5
100
AcDbLine
 10
39.09546915862992
 20
73.96350724070863
 30
0.0
 11
39.09546915862992
 21
74.19306527801413
 31
0.0
  0
LINE
  5
16A
330
70
100
AcDbEntity
  8
Rahmen (ISO)
 62
    18
420
        0
370
     5
100
AcDbLine
 10
39.09546915862992
 20
74.19306527801413
 30
0.0
 11
40.47281738245964
 21
74.19306527801413
 31
0.0
  0
LINE
  5
16B
330
70
100
AcDbEntity
  8
Rahmen (ISO)
 62
    18
420
        0
370
     5
100
AcDbLine
 10
40.47281738245964
 20
74.19306527801413
 30
0.0
 11
40.47281738245964
 21
73.96350724070863
 31
0.0
  0
LINE
  5
16C
330
70
100
AcDbEntity
  8
Rahmen (ISO)
 62
    18
420
        0
370
     5
100
AcDbLine
 10
40.47281738245964
 20
73.96350724070863
 30
0.0
 11
42.99795579281489
 21
73.96350724070863
 31
0.0
  0
SPLINE
  5
16D
330
70
100
AcDbEntity
  8
Rahmen (ISO)
 62
    18
420
        0
370
     5
100
AcDbSpline
210
0.0
220
0.0
230
1.0
 70
     8
 71
     3
 72
     8
 73
     4
 74
     0
 42
0.0000000001
 43
0.0000000001
 40
0.0
 40
0.0
 40
0.0
 40
0.0
 40
1.0
 40
1.0
 40
1.0
 40
1.0
 10
43.22751383012005
 20
73.73394920340411
 30
0.0
 10
43.22751383012005
 20
73.86073060660841
 30
0.0
 10
43.1247371960195
 20
73.96350724070863
 30
0.0
 10
42.99795579281489
 20
73.96350724070863
 30
0.0
  0
LINE
  5
16E
330
70
100
AcDbEntity
  8
Rahmen (ISO)
 62
    18
420
        0
370
     5
100
AcDbLine
 10
43.22751383012005
 20
73.73394920340411
 30
0.0
 11
43.22751383012005
 21
73.53882487169496
 31
0.0
  0
SPLINE
  5
16F
330
70
100
AcDbEntity
  8
Rahmen (ISO)
 62
    18
420
        0
370
     5
100
AcDbSpline
210
0.0
220
0.0
230
1.0
 70
     8
 71
     3
 72
     8
 73
     4
 74
     0
 42
0.0000000001
 43
0.0000000001
 40
0.0
 40
0.0
 40
0.0
 40
0.0
 40
1.0
 40
1.0
 40
1.0
 40
1.0
 10
42.99795579281489
 20
73.30926683439011
 30
0.0
 10
43.1247371960195
 20
73.30926683439011
 30
0.0
 10
43.22751383012005
 20
73.41204346849034
 30
0.0
 10
43.22751383012005
 20
73.53882487169496
 30
0.0
  0
LINE
  5
170
330
70
100
AcDbEntity
  8
Rahmen (ISO)
 62
    18
420
        0
370
     5
100
AcDbLine
 10
42.99795579281489
 20
73.30926683439011
 30
0.0
 11
40.48429528432499
 21
73.30926683439011
 31
0.0
  0
LINE
  5
171
330
70
100
AcDbEntity
  8
Rahmen (ISO)
 62
    18
420
        0
370
     5
100
AcDbLine
 10
40.48429528432499
 20
73.30926683439011
 30
0.0
 11
40.48429528432499
 21
73.53882487169496
 31
0.0
  0
LINE
  5
172
330
70
100
AcDbEntity
  8
Rahmen (ISO)
 62
    18
420
        0
370
     5
100
AcDbLine
 10
40.48429528432499
 20
73.53882487169496
 30
0.0
 11
39.08399125676459
 21
73.53882487169496
 31
0.0
  0
LINE
  5
173
330
70
100
AcDbEntity
  8
Rahmen (ISO)
 62
    18
420
        0
370
     5
100
AcDbLine
 10
39.08399125676459
 20
72.16147664786524
 30
0.0
 11
39.08399125676459
 21
71.93191861055942
 31
0.0
  0
LINE
  5
174
330
70
100
AcDbEntity
  8
Rahmen (ISO)
 62
    18
420
        0
370
     5
100
AcDbLine
 10
39.08399125676459
 20
71.93191861055942
 30
0.0
 11
36.570330748275
 21
71.93191861055942
 31
0.0
  0
SPLINE
  5
175
330
70
100
AcDbEntity
  8
Rahmen (ISO)
 62
    18
420
        0
370
     5
100
AcDbSpline
210
0.0
220
0.0
230
1.0
 70
     8
 71
     3
 72
     8
 73
     4
 74
     0
 42
0.0000000001
 43
0.0000000001
 40
0.0
 40
0.0
 40
0.0
 40
0.0
 40
1.0
 40
1.0
 40
1.0
 40
1.0
 10
36.34077271096951
 20
72.16147664786524
 30
0.0
 10
36.34077271096951
 20
72.03469524466029
 30
0.0
 10
36.44354934507038
 20
71.93191861055942
 30
0.0
 10
36.570330748275
 20
71.93191861055942
 30
0.0
  0
LINE
  5
176
330
70
100
AcDbEntity
  8
Rahmen (ISO)
 62
    18
420
        0
370
     5
100
AcDbLine
 10
36.34077271096951
 20
72.16147664786524
 30
0.0
 11
36.34077271096951
 21
72.35660097957439
 31
0.0
  0
SPLINE
  5
177
330
70
100
AcDbEntity
  8
Rahmen (ISO)
 62
    18
420
        0
370
     5
100
AcDbSpline
210
0.0
220
0.0
230
1.0
 70
     8
 71
     3
 72
     8
 73
     4
 74
     0
 42
0.0000000001
 43
0.0000000001
 40
0.0
 40
0.0
 40
0.0
 40
0.0
 40
1.0
 40
1.0
 40
1.0
 40
1.0
 10
36.570330748275
 20
72.58615901687924
 30
0.0
 10
36.44354934507038
 20
72.58615901687924
 30
0.0
 10
36.34077271096951
 20
72.48338238277868
 30
0.0
 10
36.34077271096951
 20
72.35660097957439
 30
0.0
  0
LINE
  5
178
330
70
100
AcDbEntity
  8
Rahmen (ISO)
 62
    18
420
        0
370
     5
100
AcDbLine
 10
36.570330748275
 20
72.58615901687924
 30
0.0
 11
39.09546915862992
 21
72.58615901687924
 31
0.0
  0
LINE
  5
179
330
70
100
AcDbEntity
  8
Rahmen (ISO)
 62
    18
420
        0
370
     5
100
AcDbLine
 10
39.09546915862992
 20
72.58615901687924
 30
0.0
 11
39.09546915862992
 21
72.8157170541844
 31
0.0
  0
LINE
  5
17A
330
70
100
AcDbEntity
  8
Rahmen (ISO)
 62
    18
420
        0
370
     5
100
AcDbLine
 10
39.09546915862992
 20
72.8157170541844
 30
0.0
 11
40.47281738245964
 21
72.8157170541844
 31
0.0
  0
LINE
  5
17B
330
70
100
AcDbEntity
  8
Rahmen (ISO)
 62
    18
420
        0
370
     5
100
AcDbLine
 10
40.47281738245964
 20
72.8157170541844
 30
0.0
 11
40.47281738245964
 21
72.58615901687924
 31
0.0
  0
LINE
  5
17C
330
70
100
AcDbEntity
  8
Rahmen (ISO)
 62
    18
420
        0
370
     5
100
AcDbLine
 10
40.47281738245964
 20
72.58615901687924
 30
0.0
 11
42.99795579281489
 21
72.58615901687924
 31
0.0
  0
SPLINE
  5
17D
330
70
100
AcDbEntity
  8
Rahmen (ISO)
 62
    18
420
        0
370
     5
100
AcDbSpline
210
0.0
220
0.0
230
1.0
 70
     8
 71
     3
 72
     8
 73
     4
 74
     0
 42
0.0000000001
 43
0.0000000001
 40
0.0
 40
0.0
 40
0.0
 40
0.0
 40
1.0
 40
1.0
 40
1.0
 40
1.0
 10
43.22751383012005
 20
72.35660097957439
 30
0.0
 10
43.22751383012005
 20
72.48338238277868
 30
0.0
 10
43.1247371960195
 20
72.58615901687924
 30
0.0
 10
42.99795579281489
 20
72.58615901687924
 30
0.0
  0
LINE
  5
17E
330
70
100
AcDbEntity
  8
Rahmen (ISO)
 62
    18
420
        0
370
     5
100
AcDbLine
 10
43.22751383012005
 20
72.35660097957439
 30
0.0
 11
43.22751383012005
 21
72.16147664786524
 31
0.0
  0
SPLINE
  5
17F
330
70
100
AcDbEntity
  8
Rahmen (ISO)
 62
    18
420
        0
370
     5
100
AcDbSpline
210
0.0
220
0.0
230
1.0
 70
     8
 71
     3
 72
     8
 73
     4
 74
     0
 42
0.0000000001
 43
0.0000000001
 40
0.0
 40
0.0
 40
0.0
 40
0.0
 40
1.0
 40
1.0
 40
1.0
 40
1.0
 10
42.99795579281489
 20
71.93191861055942
 30
0.0
 10
43.1247371960195
 20
71.93191861055942
 30
0.0
 10
43.22751383012005
 20
72.03469524466029
 30
0.0
 10
43.22751383012005
 20
72.16147664786524
 30
0.0
  0
LINE
  5
180
330
70
100
AcDbEntity
  8
Rahmen (ISO)
 62
    18
420
        0
370
     5
100
AcDbLine
 10
42.99795579281489
 20
71.93191861055942
 30
0.0
 11
40.48429528432499
 21
71.93191861055942
 31
0.0
  0
LINE
  5
181
330
70
100
AcDbEntity
  8
Rahmen (ISO)
 62
    18
420
        0
370
     5
100
AcDbLine
 10
40.48429528432499
 20
71.93191861055942
 30
0.0
 11
40.48429528432499
 21
72.16147664786524
 31
0.0
  0
LINE
  5
182
330
70
100
AcDbEntity
  8
Rahmen (ISO)
 62
    18
420
        0
370
     5
100
AcDbLine
 10
40.48429528432499
 20
72.16147664786524
 30
0.0
 11
39.08399125676459
 21
72.16147664786524
 31
0.0
  0
LINE
  5
183
330
70
100
AcDbEntity
  8
Rahmen (ISO)
 62
    18
420
        0
370
     5
100
AcDbLine
 10
39.08399125676459
 20
70.78412842403487
 30
0.0
 11
39.08399125676459
 21
70.55457038672971
 31
0.0
  0
LINE
  5
184
330
70
100
AcDbEntity
  8
Rahmen (ISO)
 62
    18
420
        0
370
     5
100
AcDbLine
 10
39.08399125676459
 20
70.55457038672971
 30
0.0
 11
36.570330748275
 21
70.55457038672971
 31
0.0
  0
SPLINE
  5
185
330
70
100
AcDbEntity
  8
Rahmen (ISO)
 62
    18
420
        0
370
     5
100
AcDbSpline
210
0.0
220
0.0
230
1.0
 70
     8
 71
     3
 72
     8
 73
     4
 74
     0
 42
0.0000000001
 43
0.0000000001
 40
0.0
 40
0.0
 40
0.0
 40
0.0
 40
1.0
 40
1.0
 40
1.0
 40
1.0
 10
36.34077271096951
 20
70.78412842403487
 30
0.0
 10
36.34077271096951
 20
70.65734702082993
 30
0.0
 10
36.44354934507038
 20
70.55457038672971
 30
0.0
 10
36.570330748275
 20
70.55457038672971
 30
0.0
  0
LINE
  5
186
330
70
100
AcDbEntity
  8
Rahmen (ISO)
 62
    18
420
        0
370
     5
100
AcDbLine
 10
36.34077271096951
 20
70.78412842403487
 30
0.0
 11
36.34077271096951
 21
70.97925275574434
 31
0.0
  0
SPLINE
  5
187
330
70
100
AcDbEntity
  8
Rahmen (ISO)
 62
    18
420
        0
370
     5
100
AcDbSpline
210
0.0
220
0.0
230
1.0
 70
     8
 71
     3
 72
     8
 73
     4
 74
     0
 42
0.0000000001
 43
0.0000000001
 40
0.0
 40
0.0
 40
0.0
 40
0.0
 40
1.0
 40
1.0
 40
1.0
 40
1.0
 10
36.570330748275
 20
71.20881079304919
 30
0.0
 10
36.44354934507038
 20
71.20881079304919
 30
0.0
 10
36.34077271096951
 20
71.10603415894864
 30
0.0
 10
36.34077271096951
 20
70.97925275574434
 30
0.0
  0
LINE
  5
188
330
70
100
AcDbEntity
  8
Rahmen (ISO)
 62
    18
420
        0
370
     5
100
AcDbLine
 10
36.570330748275
 20
71.20881079304919
 30
0.0
 11
39.09546915862992
 21
71.20881079304919
 31
0.0
  0
LINE
  5
189
330
70
100
AcDbEntity
  8
Rahmen (ISO)
 62
    18
420
        0
370
     5
100
AcDbLine
 10
39.09546915862992
 20
71.20881079304919
 30
0.0
 11
39.09546915862992
 21
71.43836883035437
 31
0.0
  0
LINE
  5
18A
330
70
100
AcDbEntity
  8
Rahmen (ISO)
 62
    18
420
        0
370
     5
100
AcDbLine
 10
39.09546915862992
 20
71.43836883035437
 30
0.0
 11
40.47281738245964
 21
71.43836883035437
 31
0.0
  0
LINE
  5
18B
330
70
100
AcDbEntity
  8
Rahmen (ISO)
 62
    18
420
        0
370
     5
100
AcDbLine
 10
40.47281738245964
 20
71.43836883035437
 30
0.0
 11
40.47281738245964
 21
71.20881079304919
 31
0.0
  0
LINE
  5
18C
330
70
100
AcDbEntity
  8
Rahmen (ISO)
 62
    18
420
        0
370
     5
100
AcDbLine
 10
40.47281738245964
 20
71.20881079304919
 30
0.0
 11
42.99795579281489
 21
71.20881079304919
 31
0.0
  0
SPLINE
  5
18D
330
70
100
AcDbEntity
  8
Rahmen (ISO)
 62
    18
420
        0
370
     5
100
AcDbSpline
210
0.0
220
0.0
230
1.0
 70
     8
 71
     3
 72
     8
 73
     4
 74
     0
 42
0.0000000001
 43
0.0000000001
 40
0.0
 40
0.0
 40
0.0
 40
0.0
 40
1.0
 40
1.0
 40
1.0
 40
1.0
 10
43.22751383012005
 20
70.97925275574434
 30
0.0
 10
43.22751383012005
 20
71.10603415894864
 30
0.0
 10
43.1247371960195
 20
71.20881079304919
 30
0.0
 10
42.99795579281489
 20
71.20881079304919
 30
0.0
  0
LINE
  5
18E
330
70
100
AcDbEntity
  8
Rahmen (ISO)
 62
    18
420
        0
370
     5
100
AcDbLine
 10
43.22751383012005
 20
70.97925275574434
 30
0.0
 11
43.22751383012005
 21
70.78412842403487
 31
0.0
  0
SPLINE
  5
18F
330
70
100
AcDbEntity
  8
Rahmen (ISO)
 62
    18
420
        0
370
     5
100
AcDbSpline
210
0.0
220
0.0
230
1.0
 70
     8
 71
     3
 72
     8
 73
     4
 74
     0
 42
0.0000000001
 43
0.0000000001
 40
0.0
 40
0.0
 40
0.0
 40
0.0
 40
1.0
 40
1.0
 40
1.0
 40
1.0
 10
42.99795579281489
 20
70.55457038672971
 30
0.0
 10
43.1247371960195
 20
70.55457038672971
 30
0.0
 10
43.22751383012005
 20
70.65734702082993
 30
0.0
 10
43.22751383012005
 20
70.78412842403487
 30
0.0
  0
LINE
  5
190
330
70
100
AcDbEntity
  8
Rahmen (ISO)
 62
    18
420
        0
370
     5
100
AcDbLine
 10
42.99795579281489
 20
70.55457038672971
 30
0.0
 11
40.48429528432499
 21
70.55457038672971
 31
0.0
  0
LINE
  5
191
330
70
100
AcDbEntity
  8
Rahmen (ISO)
 62
    18
420
        0
370
     5
100
AcDbLine
 10
40.48429528432499
 20
70.55457038672971
 30
0.0
 11
40.48429528432499
 21
70.78412842403487
 31
0.0
  0
LINE
  5
192
330
70
100
AcDbEntity
  8
Rahmen (ISO)
 62
    18
420
        0
370
     5
100
AcDbLine
 10
40.48429528432499
 20
70.78412842403487
 30
0.0
 11
39.08399125676459
 21
70.78412842403487
 31
0.0
  0
LINE
  5
193
330
70
100
AcDbEntity
  8
Rahmen (ISO)
 62
    18
420
        0
370
     5
100
AcDbLine
 10
39.08399125676459
 20
69.40678020020515
 30
0.0
 11
39.08399125676459
 21
69.17722216290029
 31
0.0
  0
LINE
  5
194
330
70
100
AcDbEntity
  8
Rahmen (ISO)
 62
    18
420
        0
370
     5
100
AcDbLine
 10
39.08399125676459
 20
69.17722216290029
 30
0.0
 11
36.570330748275
 21
69.17722216290029
 31
0.0
  0
SPLINE
  5
195
330
70
100
AcDbEntity
  8
Rahmen (ISO)
 62
    18
420
        0
370
     5
100
AcDbSpline
210
0.0
220
0.0
230
1.0
 70
     8
 71
     3
 72
     8
 73
     4
 74
     0
 42
0.0000000001
 43
0.0000000001
 40
0.0
 40
0.0
 40
0.0
 40
0.0
 40
1.0
 40
1.0
 40
1.0
 40
1.0
 10
36.34077271096951
 20
69.40678020020515
 30
0.0
 10
36.34077271096951
 20
69.27999879700021
 30
0.0
 10
36.44354934507038
 20
69.17722216290029
 30
0.0
 10
36.570330748275
 20
69.17722216290029
 30
0.0
  0
LINE
  5
196
330
70
100
AcDbEntity
  8
Rahmen (ISO)
 62
    18
420
        0
370
     5
100
AcDbLine
 10
36.34077271096951
 20
69.40678020020515
 30
0.0
 11
36.34077271096951
 21
69.60190453191462
 31
0.0
  0
SPLINE
  5
197
330
70
100
AcDbEntity
  8
Rahmen (ISO)
 62
    18
420
        0
370
     5
100
AcDbSpline
210
0.0
220
0.0
230
1.0
 70
     8
 71
     3
 72
     8
 73
     4
 74
     0
 42
0.0000000001
 43
0.0000000001
 40
0.0
 40
0.0
 40
0.0
 40
0.0
 40
1.0
 40
1.0
 40
1.0
 40
1.0
 10
36.570330748275
 20
69.83146256921947
 30
0.0
 10
36.44354934507038
 20
69.83146256921947
 30
0.0
 10
36.34077271096951
 20
69.72868593511923
 30
0.0
 10
36.34077271096951
 20
69.60190453191462
 30
0.0
  0
LINE
  5
198
330
70
100
AcDbEntity
  8
Rahmen (ISO)
 62
    18
420
        0
370
     5
100
AcDbLine
 10
36.570330748275
 20
69.83146256921947
 30
0.0
 11
39.09546915862992
 21
69.83146256921947
 31
0.0
  0
LINE
  5
199
330
70
100
AcDbEntity
  8
Rahmen (ISO)
 62
    18
420
        0
370
     5
100
AcDbLine
 10
39.09546915862992
 20
69.83146256921947
 30
0.0
 11
39.09546915862992
 21
70.06102060652399
 31
0.0
  0
LINE
  5
19A
330
70
100
AcDbEntity
  8
Rahmen (ISO)
 62
    18
420
        0
370
     5
100
AcDbLine
 10
39.09546915862992
 20
70.06102060652399
 30
0.0
 11
40.47281738245964
 21
70.06102060652399
 31
0.0
  0
LINE
  5
19B
330
70
100
AcDbEntity
  8
Rahmen (ISO)
 62
    18
420
        0
370
     5
100
AcDbLine
 10
40.47281738245964
 20
70.06102060652399
 30
0.0
 11
40.47281738245964
 21
69.83146256921947
 31
0.0
  0
LINE
  5
19C
330
70
100
AcDbEntity
  8
Rahmen (ISO)
 62
    18
420
        0
370
     5
100
AcDbLine
 10
40.47281738245964
 20
69.83146256921947
 30
0.0
 11
42.99795579281489
 21
69.83146256921947
 31
0.0
  0
SPLINE
  5
19D
330
70
100
AcDbEntity
  8
Rahmen (ISO)
 62
    18
420
        0
370
     5
100
AcDbSpline
210
0.0
220
0.0
230
1.0
 70
     8
 71
     3
 72
     8
 73
     4
 74
     0
 42
0.0000000001
 43
0.0000000001
 40
0.0
 40
0.0
 40
0.0
 40
0.0
 40
1.0
 40
1.0
 40
1.0
 40
1.0
 10
43.22751383012005
 20
69.60190453191462
 30
0.0
 10
43.22751383012005
 20
69.72868593511923
 30
0.0
 10
43.1247371960195
 20
69.83146256921947
 30
0.0
 10
42.99795579281489
 20
69.83146256921947
 30
0.0
  0
LINE
  5
19E
330
70
100
AcDbEntity
  8
Rahmen (ISO)
 62
    18
420
        0
370
     5
100
AcDbLine
 10
43.22751383012005
 20
69.60190453191462
 30
0.0
 11
43.22751383012005
 21
69.40678020020515
 31
0.0
  0
SPLINE
  5
19F
330
70
100
AcDbEntity
  8
Rahmen (ISO)
 62
    18
420
        0
370
     5
100
AcDbSpline
210
0.0
220
0.0
230
1.0
 70
     8
 71
     3
 72
     8
 73
     4
 74
     0
 42
0.0000000001
 43
0.0000000001
 40
0.0
 40
0.0
 40
0.0
 40
0.0
 40
1.0
 40
1.0
 40
1.0
 40
1.0
 10
42.99795579281489
 20
69.17722216290029
 30
0.0
 10
43.1247371960195
 20
69.17722216290029
 30
0.0
 10
43.22751383012005
 20
69.27999879700021
 30
0.0
 10
43.22751383012005
 20
69.40678020020515
 30
0.0
  0
LINE
  5
1A0
330
70
100
AcDbEntity
  8
Rahmen (ISO)
 62
    18
420
        0
370
     5
100
AcDbLine
 10
42.99795579281489
 20
69.17722216290029
 30
0.0
 11
40.48429528432499
 21
69.17722216290029
 31
0.0
  0
LINE
  5
1A1
330
70
100
AcDbEntity
  8
Rahmen (ISO)
 62
    18
420
        0
370
     5
100
AcDbLine
 10
40.48429528432499
 20
69.17722216290029
 30
0.0
 11
40.48429528432499
 21
69.40678020020515
 31
0.0
  0
LINE
  5
1A2
330
70
100
AcDbEntity
  8
Rahmen (ISO)
 62
    18
420
        0
370
     5
100
AcDbLine
 10
40.48429528432499
 20
69.40678020020515
 30
0.0
 11
39.08399125676459
 21
69.40678020020515
 31
0.0
  0
LINE
  5
1A3
330
70
100
AcDbEntity
  8
Rahmen (ISO)
 62
    18
420
        0
370
     5
100
AcDbLine
 10
32.94331375885591
 20
73.38961214744653
 30
0.0
 11
32.94331375885591
 21
68.33933532673636
 31
0.0
  0
LINE
  5
1A4
330
70
100
AcDbEntity
  8
Rahmen (ISO)
 62
    18
420
        0
370
     5
100
AcDbLine
 10
32.94331375885591
 20
68.33933532673636
 30
0.0
 11
33.24173920735215
 21
68.33933532673636
 31
0.0
  0
LINE
  5
1A5
330
70
100
AcDbEntity
  8
Rahmen (ISO)
 62
    18
420
        0
370
     5
100
AcDbLine
 10
32.32350705813244
 20
68.33933532673636
 30
0.0
 11
30.02792668508268
 21
68.33933532673636
 31
0.0
  0
LINE
  5
1A6
330
70
100
AcDbEntity
  8
Rahmen (ISO)
 62
    18
420
        0
370
     5
100
AcDbLine
 10
32.32350705813244
 20
73.38961214744653
 30
0.0
 11
32.32350705813244
 21
68.33933532673636
 31
0.0
  0
LINE
  5
1A7
330
70
100
AcDbEntity
  8
Rahmen (ISO)
 62
    18
420
        0
370
     5
100
AcDbLine
 10
30.02792668508268
 20
73.38961214744653
 30
0.0
 11
30.02792668508268
 21
68.33933532673636
 31
0.0
  0
LINE
  5
1A8
330
70
100
AcDbEntity
  8
Rahmen (ISO)
 62
    18
420
        0
370
     5
100
AcDbLine
 10
33.24173920735215
 20
73.8487282220559
 30
0.0
 11
29.10969453586233
 21
73.8487282220559
 31
0.0
  0
LINE
  5
1A9
330
70
100
AcDbEntity
  8
Rahmen (ISO)
 62
    18
420
        0
370
     5
100
AcDbLine
 10
33.24173920735215
 20
73.38961214744653
 30
0.0
 11
33.24173920735215
 21
68.33933532673636
 31
0.0
  0
LINE
  5
1AA
330
70
100
AcDbEntity
  8
Rahmen (ISO)
 62
    18
420
        0
370
     5
100
AcDbLine
 10
33.24173920735215
 20
76.60342466971695
 30
0.0
 11
33.24173920735215
 21
73.8487282220559
 31
0.0
  0
LINE
  5
1AB
330
70
100
AcDbEntity
  8
Rahmen (ISO)
 62
    18
420
        0
370
     5
100
AcDbLine
 10
29.10969453586233
 20
73.38961214744653
 30
0.0
 11
33.24173920735215
 21
73.38961214744653
 31
0.0
  0
LINE
  5
1AC
330
70
100
AcDbEntity
  8
Rahmen (ISO)
 62
    18
420
        0
370
     5
100
AcDbLine
 10
34.15997135657282
 20
68.33933532673636
 30
0.0
 11
33.24173920735215
 21
68.33933532673636
 31
0.0
  0
LINE
  5
1AD
330
70
100
AcDbEntity
  8
Rahmen (ISO)
 62
    18
420
        0
370
     5
100
AcDbLine
 10
34.15997135657282
 20
68.33933532673636
 30
0.0
 11
34.15997135657282
 21
76.14430859510661
 31
0.0
  0
LINE
  5
1AE
330
70
100
AcDbEntity
  8
Rahmen (ISO)
 62
    18
420
        0
370
     5
100
AcDbLine
 10
34.15997135657282
 20
76.14430859510661
 30
0.0
 11
35.30776154309705
 21
76.14430859510661
 31
0.0
  0
LINE
  5
1AF
330
70
100
AcDbEntity
  8
Rahmen (ISO)
 62
    18
420
        0
370
     5
100
AcDbLine
 10
35.30776154309705
 20
68.33933532673636
 30
0.0
 11
35.30776154309705
 21
76.14430859510661
 31
0.0
  0
LINE
  5
1B0
330
70
100
AcDbEntity
  8
Rahmen (ISO)
 62
    18
420
        0
370
     5
100
AcDbLine
 10
36.2259936923174
 20
68.33933532673636
 30
0.0
 11
35.30776154309705
 21
68.33933532673636
 31
0.0
  0
LINE
  5
1B1
330
70
100
AcDbEntity
  8
Rahmen (ISO)
 62
    18
420
        0
370
     5
100
AcDbLine
 10
36.2259936923174
 20
68.33933532673636
 30
0.0
 11
36.2259936923174
 21
76.14430859510661
 31
0.0
  0
LINE
  5
1B2
330
70
100
AcDbEntity
  8
Rahmen (ISO)
 62
    18
420
        0
370
     5
100
AcDbLine
 10
36.2259936923174
 20
76.14430859510661
 30
0.0
 11
43.25965195534313
 21
76.14430859510661
 31
0.0
  0
LINE
  5
1B3
330
70
100
AcDbEntity
  8
Rahmen (ISO)
 62
    18
420
        0
370
     5
100
AcDbLine
 10
33.24173920735215
 20
76.60342466971695
 30
0.0
 11
43.25965195534313
 21
76.60342466971695
 31
0.0
  0
LINE
  5
1B4
330
70
100
AcDbEntity
  8
Rahmen (ISO)
 62
    18
420
        0
370
     5
100
AcDbLine
 10
29.10969453586233
 20
76.60342466971695
 30
0.0
 11
29.10969453586233
 21
73.8487282220559
 31
0.0
  0
LINE
  5
1B5
330
70
100
AcDbEntity
  8
Rahmen (ISO)
 62
    18
420
        0
370
     5
100
AcDbLine
 10
29.10969453586233
 20
76.60342466971695
 30
0.0
 11
19.09178178787295
 21
76.60342466971695
 31
0.0
  0
LINE
  5
1B6
330
70
100
AcDbEntity
  8
Rahmen (ISO)
 62
    18
420
        0
370
     5
100
AcDbLine
 10
26.12544005089739
 20
68.33933532673636
 30
0.0
 11
26.12544005089739
 21
76.14430859510661
 31
0.0
  0
LINE
  5
1B7
330
70
100
AcDbEntity
  8
Rahmen (ISO)
 62
    18
420
        0
370
     5
100
AcDbLine
 10
26.12544005089739
 20
68.33933532673636
 30
0.0
 11
27.04367220011774
 21
68.33933532673636
 31
0.0
  0
LINE
  5
1B8
330
70
100
AcDbEntity
  8
Rahmen (ISO)
 62
    18
420
        0
370
     5
100
AcDbLine
 10
27.04367220011774
 20
68.33933532673636
 30
0.0
 11
27.04367220011774
 21
76.14430859510661
 31
0.0
  0
LINE
  5
1B9
330
70
100
AcDbEntity
  8
Rahmen (ISO)
 62
    18
420
        0
370
     5
100
AcDbLine
 10
28.1914623866423
 20
68.33933532673636
 30
0.0
 11
28.1914623866423
 21
76.14430859510661
 31
0.0
  0
LINE
  5
1BA
330
70
100
AcDbEntity
  8
Rahmen (ISO)
 62
    18
420
        0
370
     5
100
AcDbLine
 10
28.1914623866423
 20
68.33933532673636
 30
0.0
 11
29.10969453586233
 21
68.33933532673636
 31
0.0
  0
LINE
  5
1BB
330
70
100
AcDbEntity
  8
Rahmen (ISO)
 62
    18
420
        0
370
     5
100
AcDbLine
 10
29.10969453586233
 20
73.38961214744653
 30
0.0
 11
29.10969453586233
 21
68.33933532673636
 31
0.0
  0
LINE
  5
1BC
330
70
100
AcDbEntity
  8
Rahmen (ISO)
 62
    18
420
        0
370
     5
100
AcDbLine
 10
49.24193440750968
 20
68.33933532673636
 30
0.0
 11
49.42558083735382
 21
68.33933532673636
 31
0.0
  0
LINE
  5
1BD
330
70
100
AcDbEntity
  8
Rahmen (ISO)
 62
    18
420
        0
370
     5
100
AcDbLine
 10
49.08124378139622
 20
68.33933532673636
 30
0.0
 11
49.24193440750968
 21
68.33933532673636
 31
0.0
  0
LINE
  5
1BE
330
70
100
AcDbEntity
  8
Rahmen (ISO)
 62
    18
420
        0
370
     5
100
AcDbLine
 10
49.08124378139622
 20
68.33933532673636
 30
0.0
 11
44.98120440077426
 21
68.33933532673636
 31
0.0
  0
LINE
  5
1BF
330
70
100
AcDbEntity
  8
Rahmen (ISO)
 62
    18
420
        0
370
     5
100
AcDbLine
 10
44.03096696068734
 20
68.33933532673636
 30
0.0
 11
44.65077366141081
 21
68.33933532673636
 31
0.0
  0
LINE
  5
1C0
330
70
100
AcDbEntity
  8
Rahmen (ISO)
 62
    18
420
        0
370
     5
100
AcDbLine
 10
32.32350705813244
 20
68.33933532673636
 30
0.0
 11
32.94331375885591
 21
68.33933532673636
 31
0.0
  0
LINE
  5
1C1
330
70
100
AcDbEntity
  8
Rahmen (ISO)
 62
    18
420
        0
370
     5
100
AcDbLine
 10
30.02792668508268
 20
68.33933532673636
 30
0.0
 11
29.40811998435921
 21
68.33933532673636
 31
0.0
  0
LINE
  5
1C2
330
70
100
AcDbEntity
  8
Rahmen (ISO)
 62
    18
420
        0
370
     5
100
AcDbLine
 10
18.32046678252745
 20
68.33933532673636
 30
0.0
 11
17.7006600818043
 21
68.33933532673636
 31
0.0
  0
LINE
  5
1C3
330
70
100
AcDbEntity
  8
Rahmen (ISO)
 62
    18
420
        0
370
     5
100
AcDbLine
 10
13.27018996181825
 20
68.33933532673636
 30
0.0
 11
17.37022934243989
 21
68.33933532673636
 31
0.0
  0
LINE
  5
1C4
330
70
100
AcDbEntity
  8
Rahmen (ISO)
 62
    18
420
        0
370
     5
100
AcDbLine
 10
13.10949933570511
 20
68.33933532673636
 30
0.0
 11
13.27018996181825
 21
68.33933532673636
 31
0.0
  0
LINE
  5
1C5
330
70
100
AcDbEntity
  8
Rahmen (ISO)
 62
    18
420
        0
370
     5
100
AcDbLine
 10
12.92585290586066
 20
68.33933532673636
 30
0.0
 11
13.10949933570511
 21
68.33933532673636
 31
0.0
  0
LINE
  5
1C6
330
70
100
AcDbEntity
  8
Rahmen (ISO)
 62
    18
420
        0
370
     5
100
AcDbLine
 10
45.00456435977575
 20
77.63643583758876
 30
0.0
 11
45.00456435977575
 21
77.75121485624119
 31
0.0
  0
LINE
  5
1C7
330
70
100
AcDbEntity
  8
Rahmen (ISO)
 62
    18
420
        0
370
     5
100
AcDbLine
 10
40.47281738246028
 20
75.57041350184386
 30
0.0
 11
40.13905395302133
 21
75.57041350184386
 31
0.0
  0
LINE
  5
1C8
330
70
100
AcDbEntity
  8
Rahmen (ISO)
 62
    18
420
        0
370
     5
100
AcDbLine
 10
40.47281738245964
 20
75.45563448319143
 30
0.0
 11
40.47281738245964
 21
75.57041350184386
 31
0.0
  0
LINE
  5
1C9
330
70
100
AcDbEntity
  8
Rahmen (ISO)
 62
    18
420
        0
370
     5
100
AcDbLine
 10
43.25965195534313
 20
76.14430859510661
 30
0.0
 11
43.60398901129975
 21
76.14430859510661
 31
0.0
  0
LINE
  5
1CA
330
70
100
AcDbEntity
  8
Rahmen (ISO)
 62
    18
420
        0
370
     5
100
AcDbLine
 10
43.60398901129975
 20
76.60342466971695
 30
0.0
 11
43.60398901129975
 21
76.14430859510661
 31
0.0
  0
LINE
  5
1CB
330
70
100
AcDbEntity
  8
Rahmen (ISO)
 62
    18
420
        0
370
     5
100
AcDbLine
 10
43.60398901129975
 20
76.60342466971695
 30
0.0
 11
43.25965195534313
 21
76.60342466971695
 31
0.0
  0
LINE
  5
1CC
330
70
100
AcDbEntity
  8
Rahmen (ISO)
 62
    18
420
        0
370
     5
100
AcDbLine
 10
39.66936425189236
 20
77.75121485624119
 30
0.0
 11
39.66936425189236
 21
76.60342466971695
 31
0.0
  0
LINE
  5
1CD
330
70
100
AcDbEntity
  8
Rahmen (ISO)
 62
    18
420
        0
370
     5
100
AcDbLine
 10
41.04671247572208
 20
77.75121485624119
 30
0.0
 11
41.04671247572208
 21
76.60342466971695
 31
0.0
  0
LINE
  5
1CE
330
70
100
AcDbEntity
  8
Rahmen (ISO)
 62
    18
420
        0
370
     5
100
AcDbLine
 10
18.32046678252745
 20
76.14430859510661
 30
0.0
 11
17.7006600818043
 21
76.14430859510661
 31
0.0
  0
LINE
  5
1CF
330
70
100
AcDbEntity
  8
Rahmen (ISO)
 62
    18
420
        0
370
     5
100
AcDbLine
 10
44.03096696068734
 20
76.14430859510661
 30
0.0
 11
44.65077366141081
 21
76.14430859510661
 31
0.0
  0
LINE
  5
1D0
330
70
100
AcDbEntity
  8
Rahmen (ISO)
 62
    18
420
        0
370
     5
100
AcDbLine
 10
18.74744473191471
 20
76.60342466971695
 30
0.0
 11
19.09178178787295
 21
76.60342466971695
 31
0.0
  0
LINE
  5
1D1
330
70
100
AcDbEntity
  8
Rahmen (ISO)
 62
    18
420
        0
370
     5
100
AcDbLine
 10
22.68206949132244
 20
77.75121485624119
 30
0.0
 11
22.68206949132244
 21
76.60342466971695
 31
0.0
  0
LINE
  5
1D2
330
70
100
AcDbEntity
  8
Rahmen (ISO)
 62
    18
420
        0
370
     5
100
AcDbLine
 10
18.74744473191471
 20
76.60342466971695
 30
0.0
 11
18.74744473191471
 21
76.14430859510661
 31
0.0
  0
LINE
  5
1D3
330
70
100
AcDbEntity
  8
Rahmen (ISO)
 62
    18
420
        0
370
     5
100
AcDbLine
 10
40.20645987124125
 20
76.14311797171975
 30
0.0
 11
40.20758649665717
 21
76.14391138386868
 31
0.0
  0
SPLINE
  5
1D4
330
70
100
AcDbEntity
  8
Rahmen (ISO)
 62
    18
420
        0
370
     5
100
AcDbSpline
210
0.0
220
0.0
230
1.0
 70
     8
 71
     3
 72
    14
 73
    10
 74
     0
 42
0.0000000001
 43
0.0000000001
 40
0.0
 40
0.0
 40
0.0
 40
0.0
 40
1.0
 40
1.0
 40
1.0
 40
2.0
 40
2.0
 40
2.0
 40
3.0
 40
3.0
 40
3.0
 40
3.0
 10
21.84355239716889
 20
76.14430861935129
 30
0.0
 10
21.8430250371106
 20
76.14395567831566
 30
0.0
 10
21.84250872232976
 20
76.14360246342887
 30
0.0
 10
21.84200362322119
 20
76.14324901423147
 30
0.0
 10
21.83213036263099
 20
76.13634008096461
 30
0.0
 10
21.82863355608501
 20
76.13081614976545
 30
0.0
 10
21.82721890815249
 20
76.12668616010799
 30
0.0
 10
21.8266074428817
 20
76.12490101965916
 30
0.0
 10
21.82629989520651
 20
76.12308555216144
 30
0.0
 10
21.82629939483367
 20
76.12124605723685
 30
0.0
  0
LWPOLYLINE
  5
1D5
330
70
100
AcDbEntity
  8
Rahmen (ISO)
 62
    18
420
        0
370
     5
100
AcDbPolyline
 90
        1
 70
     0
 43
0.0
 10
22.0278344748719
 20
76.11280963957316
  0
LWPOLYLINE
  5
1D6
330
70
100
AcDbEntity
  8
Rahmen (ISO)
 62
    18
420
        0
370
     5
100
AcDbPolyline
 90
        1
 70
     0
 43
0.0
 10
22.09068856700799
 20
76.14431974432389
  0
LWPOLYLINE
  5
1D7
330
70
100
AcDbEntity
  8
Rahmen (ISO)
 62
    18
420
        0
370
     5
100
AcDbPolyline
 90
        1
 70
     0
 43
0.0
 10
82.94692184379481
 20
69.67610974922478
  0
LINE
  5
1D8
330
70
100
AcDbEntity
  8
Rahmen (ISO)
 62
    18
420
        0
370
     5
100
AcDbLine
 10
52.1802772850139
 20
65.12552280446657
 30
0.0
 11
79.89961742741899
 21
65.14548988451855
 31
0.0
  0
LWPOLYLINE
  5
1D9
330
70
100
AcDbEntity
  8
Rahmen (ISO)
 62
    18
420
        0
370
     5
100
AcDbPolyline
 90
        1
 70
     0
 43
0.0
 10
74.90755101542153
 20
69.48925226280427
  0
LINE
  5
1DA
330
70
100
AcDbEntity
  8
Rahmen (ISO)
  6
AI-Linetype-0
 62
    18
420
        0
370
     5
100
AcDbLine
 10
65.85097918652919
 20
79.28198137524171
 30
0.0
 11
52.32627358714127
 21
79.23947128828229
 31
0.0
  0
INSERT
  5
1DD
330
70
100
AcDbEntity
  8
Rahmen (ISO)
100
AcDbBlockReference
  2
Block_9
 10
0.0
 20
0.0
 30
0.0
  0
LWPOLYLINE
  5
1EB
330
70
100
AcDbEntity
  8
Rahmen (ISO)
 62
    18
420
        0
370
     5
100
AcDbPolyline
 90
        1
 70
     0
 43
0.0
 10
63.33889061691065
 20
77.17941555058003
  0
INSERT
  5
1ED
330
70
100
AcDbEntity
  8
Rahmen (ISO)
100
AcDbBlockReference
  2
Block_12
 10
0.0
 20
0.0
 30
0.0
  0
INSERT
  5
202
330
70
100
AcDbEntity
  8
Rahmen (ISO)
100
AcDbBlockReference
  2
Block_16
 10
0.0
 20
0.0
 30
0.0
  0
LINE
  5
20D
330
70
100
AcDbEntity
  8
Rahmen (ISO)
 62
    18
420
        0
370
     5
100
AcDbLine
 10
54.01674158345461
 20
82.80149167695135
 30
0.0
 11
79.95719316360084
 21
82.82079162323682
 31
0.0
  0
LINE
  5
20E
330
70
100
AcDbEntity
  8
Rahmen (ISO)
  6
AI-Linetype-1
 62
    18
420
        0
370
     5
100
AcDbLine
 10
63.84489183592331
 20
82.77918265315609
 30
0.0
 11
63.84125078821495
 21
79.260726331762
 31
0.0
  0
LWPOLYLINE
  5
210
330
70
100
AcDbEntity
  8
Rahmen (ISO)
 62
    18
420
        0
370
     5
100
AcDbPolyline
 90
        1
 70
     0
 43
0.0
 10
70.18050545108964
 20
77.75116887153327
  0
INSERT
  5
212
330
70
100
AcDbEntity
  8
Rahmen (ISO)
100
AcDbBlockReference
  2
Block_18
 10
0.0
 20
0.0
 30
0.0
  0
SPLINE
  5
21D
330
70
100
AcDbEntity
  8
Rahmen (ISO)
 62
    18
420
        0
370
     5
100
AcDbSpline
210
0.0
220
0.0
230
1.0
 70
     8
 71
     3
 72
     8
 73
     4
 74
     0
 42
0.0000000001
 43
0.0000000001
 40
0.0
 40
0.0
 40
0.0
 40
0.0
 40
1.0
 40
1.0
 40
1.0
 40
1.0
 10
24.76756448462151
 20
25.66647877403039
 30
0.0
 10
24.76931325330666
 20
25.66546494645205
 30
0.0
 10
24.7711883358156
 20
25.66468667360308
 30
0.0
 10
24.77314103311126
 20
25.6641641685361
 30
0.0
  0
CIRCLE
  5
21E
330
70
100
AcDbEntity
  8
Rahmen (ISO)
 62
    18
420
        0
370
     5
100
AcDbCircle
 10
31.21148902232246
 20
36.78171540550289
 30
0.0
 40
13.19221983544236
  0
LINE
  5
21F
330
70
100
AcDbEntity
  8
Rahmen (ISO)
 62
    18
420
        0
370
     5
100
AcDbLine
 10
24.76756448462151
 20
25.66647877403039
 30
0.0
 11
24.76796125753633
 21
25.66716546944153
 31
0.0
  0
LINE
  5
220
330
70
100
AcDbEntity
  8
Rahmen (ISO)
 62
    18
420
        0
370
     5
100
AcDbLine
 10
24.79562170465467
 20
25.65026018243051
 30
0.0
 11
24.79760608436289
 21
25.64942438112662
 31
0.0
  0
CIRCLE
  5
221
330
70
100
AcDbEntity
  8
Rahmen (ISO)
 62
    18
420
        0
370
     5
100
AcDbCircle
 10
31.21148902232262
 20
36.78171540550265
 30
0.0
 40
12.79497351325005
  0
SPLINE
  5
222
330
70
100
AcDbEntity
  8
Rahmen (ISO)
 62
    18
420
        0
370
     5
100
AcDbSpline
210
0.0
220
0.0
230
1.0
 70
     8
 71
     3
 72
     8
 73
     4
 74
     0
 42
0.0000000001
 43
0.0000000001
 40
0.0
 40
0.0
 40
0.0
 40
0.0
 40
1.0
 40
1.0
 40
1.0
 40
1.0
 10
31.52108396757443
 20
34.00570830889481
 30
0.0
 10
31.55896926628103
 20
34.00572158091925
 30
0.0
 10
31.58945798007573
 20
34.03891678221073
 30
0.0
 10
31.58945290931666
 20
34.08014637140027
 30
0.0
  0
LINE
  5
223
330
70
100
AcDbEntity
  8
Rahmen (ISO)
 62
    18
420
        0
370
     5
100
AcDbLine
 10
31.52108396763668
 20
34.00570830889481
 30
0.0
 11
30.9018940771109
 21
34.0057083019266
 31
0.0
  0
SPLINE
  5
224
330
70
100
AcDbEntity
  8
Rahmen (ISO)
 62
    18
420
        0
370
     5
100
AcDbSpline
210
0.0
220
0.0
230
1.0
 70
     8
 71
     3
 72
     8
 73
     4
 74
     0
 42
0.0000000001
 43
0.0000000001
 40
0.0
 40
0.0
 40
0.0
 40
0.0
 40
1.0
 40
1.0
 40
1.0
 40
1.0
 10
30.83352513532857
 20
34.08014632956663
 30
0.0
 10
30.83351708916025
 20
34.03892006989223
 30
0.0
 10
30.86401351392536
 20
34.00571648870369
 30
0.0
 10
30.90189407712245
 20
34.0057083019266
 30
0.0
  0
LINE
  5
225
330
70
100
AcDbEntity
  8
Rahmen (ISO)
 62
    18
420
        0
370
     5
100
AcDbLine
 10
30.83352513532857
 20
34.08014632956663
 30
0.0
 11
30.83352513532857
 21
39.48328443960502
 31
0.0
  0
SPLINE
  5
226
330
70
100
AcDbEntity
  8
Rahmen (ISO)
 62
    18
420
        0
370
     5
100
AcDbSpline
210
0.0
220
0.0
230
1.0
 70
     8
 71
     3
 72
     8
 73
     4
 74
     0
 42
0.0000000001
 43
0.0000000001
 40
0.0
 40
0.0
 40
0.0
 40
0.0
 40
1.0
 40
1.0
 40
1.0
 40
1.0
 10
30.9018940770708
 20
39.55772250211048
 30
0.0
 10
30.86400877836484
 20
39.55770923008604
 30
0.0
 10
30.8335200645695
 20
39.5245140287952
 30
0.0
 10
30.83352513532857
 20
39.48328443960502
 30
0.0
  0
LINE
  5
227
330
70
100
AcDbEntity
  8
Rahmen (ISO)
 62
    18
420
        0
370
     5
100
AcDbLine
 10
30.90189407700855
 20
39.55772250211048
 30
0.0
 11
31.52108396753465
 21
39.55772250907934
 31
0.0
  0
SPLINE
  5
228
330
70
100
AcDbEntity
  8
Rahmen (ISO)
 62
    18
420
        0
370
     5
100
AcDbSpline
210
0.0
220
0.0
230
1.0
 70
     8
 71
     3
 72
     8
 73
     4
 74
     0
 42
0.0000000001
 43
0.0000000001
 40
0.0
 40
0.0
 40
0.0
 40
0.0
 40
1.0
 40
1.0
 40
1.0
 40
1.0
 10
31.58945290931666
 20
39.48328448143995
 30
0.0
 10
31.58946095548851
 20
39.52451074110985
 30
0.0
 10
31.55896453071923
 20
39.55771432230224
 30
0.0
 10
31.52108396752342
 20
39.55772250907934
 30
0.0
  0
LINE
  5
229
330
70
100
AcDbEntity
  8
Rahmen (ISO)
 62
    18
420
        0
370
     5
100
AcDbLine
 10
31.58945290931666
 20
39.48328448143995
 30
0.0
 11
31.58945290931666
 21
34.08014637140027
 31
0.0
  0
LINE
  5
22A
330
70
100
AcDbEntity
  8
Rahmen (ISO)
 62
    18
420
        0
370
     5
100
AcDbLine
 10
31.52108396752342
 20
49.9716354925582
 30
0.0
 11
63.84081183382853
 21
49.97393524094544
 31
0.0
  0
LINE
  5
22B
330
70
100
AcDbEntity
  8
Rahmen (ISO)
 62
    18
420
        0
370
     5
100
AcDbLine
 10
31.52489651591342
 20
23.58725490185944
 30
0.0
 11
65.84081183332807
 21
23.59185439863392
 31
0.0
  0
LINE
  5
22C
330
70
100
AcDbEntity
  8
Rahmen (ISO)
 62
    18
420
        0
370
     5
100
AcDbLine
 10
63.84081183382853
 20
49.97393524094544
 30
0.0
 11
65.84081183332807
 21
49.97393524094544
 31
0.0
  0
INSERT
  5
22E
330
70
100
AcDbEntity
  8
Rahmen (ISO)
100
AcDbBlockReference
  2
Block_20
 10
0.0
 20
0.0
 30
0.0
  0
INSERT
  5
243
330
70
100
AcDbEntity
  8
Rahmen (ISO)
100
AcDbBlockReference
  2
Block_24
 10
0.0
 20
0.0
 30
0.0
  0
INSERT
  5
253
330
70
100
AcDbEntity
  8
Rahmen (ISO)
100
AcDbBlockReference
  2
Block_25
 10
0.0
 20
0.0
 30
0.0
  0
INSERT
  5
262
330
70
100
AcDbEntity
  8
Rahmen (ISO)
100
AcDbBlockReference
  2
Block_26
 10
0.0
 20
0.0
 30
0.0
  0
ENDSEC
  0
SECTION
  2
OBJECTS
  0
DICTIONARY
  5
C
330
0
100
AcDbDictionary
281
     1
  3
ACAD_COLOR
350
63
  3
ACAD_DETAILVIEWSTYLE
350
6A
  3
ACAD_GROUP
350
D
  3
ACAD_LAYOUT
350
62
  3
ACAD_MATERIAL
350
10
  3
ACAD_MLEADERSTYLE
350
66
  3
ACAD_MLINESTYLE
350
5F
  3
ACAD_PLOTSETTINGS
350
61
  3
ACAD_PLOTSTYLENAME
350
E
  3
ACAD_SCALELIST
350
42
  3
ACAD_SECTIONVIEWSTYLE
350
68
  3
ACAD_TABLESTYLE
350
64
  3
ACAD_VISUALSTYLE
350
29
  3
ACDB_RECOMPOSE_DATA
350
27B
  3
AcDbVariableDictionary
350
273
  0
DICTIONARY
  5
63
102
{ACAD_REACTORS
330
C
102
}
330
C
100
AcDbDictionary
281
     1
  0
DICTIONARY
  5
6A
102
{ACAD_REACTORS
330
C
102
}
330
C
100
AcDbDictionary
281
     1
  3
Imperial24
350
6B
  0
DICTIONARY
  5
D
102
{ACAD_REACTORS
330
C
102
}
330
C
100
AcDbDictionary
281
     1
  0
DICTIONARY
  5
62
102
{ACAD_REACTORS
330
C
102
}
330
C
100
AcDbDictionary
281
     1
  3
Layout1
350
6F
  3
Layout2
350
77
  3
Model
350
73
  0
DICTIONARY
  5
10
102
{ACAD_REACTORS
330
C
102
}
330
C
100
AcDbDictionary
281
     1
  3
ByBlock
350
19
  3
ByLayer
350
11
  3
Global
350
21
  0
DICTIONARY
  5
66
102
{ACAD_REACTORS
330
C
102
}
330
C
100
AcDbDictionary
281
     1
  3
Standard
350
67
  0
DICTIONARY
  5
5F
102
{ACAD_REACTORS
330
C
102
}
330
C
100
AcDbDictionary
281
     1
  3
Standard
350
60
  0
DICTIONARY
  5
61
102
{ACAD_REACTORS
330
C
102
}
330
C
100
AcDbDictionary
281
     1
  0
ACDBDICTIONARYWDFLT
  5
E
102
{ACAD_REACTORS
330
C
102
}
330
C
100
AcDbDictionary
281
     1
  3
Normal
350
F
100
AcDbDictionaryWithDefault
340
F
  0
DICTIONARY
  5
42
102
{ACAD_REACTORS
330
C
102
}
330
C
100
AcDbDictionary
281
     1
  3
A0
350
43
  3
A1
350
44
  3
A2
350
45
  3
A3
350
46
  3
A4
350
47
  3
A5
350
48
  3
A6
350
49
  3
A7
350
4A
  3
A8
350
4B
  3
A9
350
4C
  3
B0
350
4D
  3
B1
350
4E
  3
B2
350
4F
  3
B3
350
50
  3
B4
350
51
  3
B5
350
52
  3
B6
350
53
  0
DICTIONARY
  5
68
102
{ACAD_REACTORS
330
C
102
}
330
C
100
AcDbDictionary
281
     1
  3
Imperial24
350
69
  0
DICTIONARY
  5
64
102
{ACAD_REACTORS
330
C
102
}
330
C
100
AcDbDictionary
281
     1
  3
Standard
350
65
  0
DICTIONARY
  5
29
102
{ACAD_REACTORS
330
C
102
}
330
C
100
AcDbDictionary
281
     1
  3
2dWireframe
350
2F
  3
Basic
350
2E
  3
Brighten
350
35
  3
ColorChange
350
39
  3
Conceptual
350
32
  3
Dim
350
34
  3
EdgeColorOff
350
41
  3
Facepattern
350
38
  3
Flat
350
2A
  3
FlatWithEdges
350
2B
  3
Gouraud
350
2C
  3
GouraudWithEdges
350
2D
  3
Hidden
350
31
  3
JitterOff
350
3F
  3
Linepattern
350
37
  3
OverhangOff
350
40
  3
Realistic
350
33
  3
Shaded
350
3E
  3
Shaded with edges
350
3D
  3
Shades of Gray
350
3A
  3
Sketchy
350
3B
  3
Thicken
350
36
  3
Wireframe
350
30
  3
X-Ray
350
3C
  0
XRECORD
  5
27B
102
{ACAD_REACTORS
330
C
102
}
330
C
100
AcDbXrecord
280
     1
 90
        1
330
65
  0
DICTIONARY
  5
273
102
{ACAD_REACTORS
330
C
102
}
330
C
100
AcDbDictionary
281
     1
  3
CANNOSCALE
350
278
  3
CMLEADERSTYLE
350
275
  3
CTABLESTYLE
350
274
  3
CVIEWDETAILSTYLE
350
276
  3
CVIEWSECTIONSTYLE
350
277
  0
ACDBDETAILVIEWSTYLE
  5
6B
102
{ACAD_REACTORS
330
6A
102
}
330
6A
100
AcDbModelDocViewStyle
 70
     0
  3
Imperial24
290
     1
300
Imperial24
 90
        0
100
AcDbDetailViewStyle
 70
     0
 71
     0
 90
        3
 71
     1
340
55
 62
   256
 40
0.24
340
0
 62
   256
 40
0.24
300

 40
0.36
280
     3
 71
     2
340
5D
 90
       25
 62
   256
 71
     3
340
55
 62
   256
 40
0.24
 90
        1
 40
0.75
 90
        1
300
%<\AcVar ViewType \f "%tc1">% %<\AcVar ViewDetailId>%\PSCALE %<\AcVar ViewScale \f "%sn">%
 71
     4
340
5D
 90
       25
 62
   256
340
5D
 90
       25
 62
   256
280
     0
  0
LAYOUT
  5
6F
102
{ACAD_REACTORS
330
62
102
}
330
62
100
AcDbPlotSettings
  1

  2

  4

  6

 40
0.0
 41
0.0
 42
0.0
 43
0.0
 44
0.0
 45
0.0
 46
0.0
 47
0.0
 48
0.0
 49
0.0
140
0.0
141
0.0
142
1.0
143
1.0
 70
   688
 72
     0
 73
     0
 74
     5
  7

 75
    16
147
1.0
 76
     0
 77
     2
 78
   300
148
0.0
149
0.0
100
AcDbLayout
  1
Layout1
 70
     1
 71
     1
 10
0.0
 20
0.0
 11
12.0
 21
9.0
 12
0.0
 22
0.0
 32
0.0
 14
0.0
 24
0.0
 34
0.0
 15
0.0
 25
0.0
 35
0.0
146
0.0
 13
0.0
 23
0.0
 33
0.0
 16
1.0
 26
0.0
 36
0.0
 17
0.0
 27
1.0
 37
0.0
 76
     0
330
6C
  0
LAYOUT
  5
77
102
{ACAD_REACTORS
330
62
102
}
330
62
100
AcDbPlotSettings
  1

  2

  4

  6

 40
0.0
 41
0.0
 42
0.0
 43
0.0
 44
0.0
 45
0.0
 46
0.0
 47
0.0
 48
0.0
 49
0.0
140
0.0
141
0.0
142
1.0
143
1.0
 70
   688
 72
     0
 73
     0
 74
     5
  7

 75
    16
147
1.0
 76
     0
 77
     2
 78
   300
148
0.0
149
0.0
100
AcDbLayout
  1
Layout2
 70
     1
 71
     2
 10
0.0
 20
0.0
 11
12.0
 21
9.0
 12
0.0
 22
0.0
 32
0.0
 14
0.0
 24
0.0
 34
0.0
 15
0.0
 25
0.0
 35
0.0
146
0.0
 13
0.0
 23
0.0
 33
0.0
 16
1.0
 26
0.0
 36
0.0
 17
0.0
 27
1.0
 37
0.0
 76
     0
330
74
  0
LAYOUT
  5
73
102
{ACAD_REACTORS
330
62
102
}
330
62
100
AcDbPlotSettings
  1

  2

  4

  6

 40
0.0
 41
0.0
 42
0.0
 43
0.0
 44
0.0
 45
0.0
 46
0.0
 47
0.0
 48
0.0
 49
0.0
140
0.0
141
0.0
142
1.0
143
1.0
 70
  1712
 72
     0
 73
     0
 74
     0
  7

 75
     0
147
1.0
 76
     0
 77
     2
 78
   300
148
0.0
149
0.0
100
AcDbLayout
  1
Model
 70
     1
 71
     0
 10
0.0
 20
0.0
 11
12.0
 21
9.0
 12
0.0
 22
0.0
 32
0.0
 14
0.0
 24
0.0
 34
0.0
 15
0.0
 25
0.0
 35
0.0
146
0.0
 13
0.0
 23
0.0
 33
0.0
 16
1.0
 26
0.0
 36
0.0
 17
0.0
 27
1.0
 37
0.0
 76
     0
330
70
  0
MATERIAL
  5
19
102
{ACAD_XDICTIONARY
360
1A
102
}
102
{ACAD_REACTORS
330
10
102
}
330
10
100
AcDbMaterial
  1
ByBlock
 72
     0
 43
0.0208333333333333
 43
0.0
 43
0.0
 43
0.0
 43
0.0
 43
0.0208333333333333
 43
0.0
 43
0.0
 43
0.0
 43
0.0
 43
1.0
 43
0.0
 43
0.0
 43
0.0
 43
0.0
 43
1.0
 77
     0
 47
0.0208333333333333
 47
0.0
 47
0.0
 47
0.0
 47
0.0
 47
0.0208333333333333
 47
0.0
 47
0.0
 47
0.0
 47
0.0
 47
1.0
 47
0.0
 47
0.0
 47
0.0
 47
0.0
 47
1.0
171
     0
 49
0.0208333333333333
 49
0.0
 49
0.0
 49
0.0
 49
0.0
 49
0.0208333333333333
 49
0.0
 49
0.0
 49
0.0
 49
0.0
 49
1.0
 49
0.0
 49
0.0
 49
0.0
 49
0.0
 49
1.0
175
     0
142
0.0208333333333333
142
0.0
142
0.0
142
0.0
142
0.0
142
0.0208333333333333
142
0.0
142
0.0
142
0.0
142
0.0
142
1.0
142
0.0
142
0.0
142
0.0
142
0.0
142
1.0
179
     0
144
0.0208333333333333
144
0.0
144
0.0
144
0.0
144
0.0
144
0.0208333333333333
144
0.0
144
0.0
144
0.0
144
0.0
144
1.0
144
0.0
144
0.0
144
0.0
144
0.0
144
1.0
147
0.0208333333333333
147
0.0
147
0.0
147
0.0
147
0.0
147
0.0208333333333333
147
0.0
147
0.0
147
0.0
147
0.0
147
1.0
147
0.0
147
0.0
147
0.0
147
0.0
147
1.0
  0
MATERIAL
  5
11
102
{ACAD_XDICTIONARY
360
12
102
}
102
{ACAD_REACTORS
330
10
102
}
330
10
100
AcDbMaterial
  1
ByLayer
 72
     0
 43
0.0208333333333333
 43
0.0
 43
0.0
 43
0.0
 43
0.0
 43
0.0208333333333333
 43
0.0
 43
0.0
 43
0.0
 43
0.0
 43
1.0
 43
0.0
 43
0.0
 43
0.0
 43
0.0
 43
1.0
 77
     0
 47
0.0208333333333333
 47
0.0
 47
0.0
 47
0.0
 47
0.0
 47
0.0208333333333333
 47
0.0
 47
0.0
 47
0.0
 47
0.0
 47
1.0
 47
0.0
 47
0.0
 47
0.0
 47
0.0
 47
1.0
171
     0
 49
0.0208333333333333
 49
0.0
 49
0.0
 49
0.0
 49
0.0
 49
0.0208333333333333
 49
0.0
 49
0.0
 49
0.0
 49
0.0
 49
1.0
 49
0.0
 49
0.0
 49
0.0
 49
0.0
 49
1.0
175
     0
142
0.0208333333333333
142
0.0
142
0.0
142
0.0
142
0.0
142
0.0208333333333333
142
0.0
142
0.0
142
0.0
142
0.0
142
1.0
142
0.0
142
0.0
142
0.0
142
0.0
142
1.0
179
     0
144
0.0208333333333333
144
0.0
144
0.0
144
0.0
144
0.0
144
0.0208333333333333
144
0.0
144
0.0
144
0.0
144
0.0
144
1.0
144
0.0
144
0.0
144
0.0
144
0.0
144
1.0
147
0.0208333333333333
147
0.0
147
0.0
147
0.0
147
0.0
147
0.0208333333333333
147
0.0
147
0.0
147
0.0
147
0.0
147
1.0
147
0.0
147
0.0
147
0.0
147
0.0
147
1.0
  0
MATERIAL
  5
21
102
{ACAD_XDICTIONARY
360
22
102
}
102
{ACAD_REACTORS
330
10
102
}
330
10
100
AcDbMaterial
  1
Global
 72
     0
 43
0.0208333333333333
 43
0.0
 43
0.0
 43
0.0
 43
0.0
 43
0.0208333333333333
 43
0.0
 43
0.0
 43
0.0
 43
0.0
 43
1.0
 43
0.0
 43
0.0
 43
0.0
 43
0.0
 43
1.0
 77
     0
 47
0.0208333333333333
 47
0.0
 47
0.0
 47
0.0
 47
0.0
 47
0.0208333333333333
 47
0.0
 47
0.0
 47
0.0
 47
0.0
 47
1.0
 47
0.0
 47
0.0
 47
0.0
 47
0.0
 47
1.0
171
     0
 49
0.0208333333333333
 49
0.0
 49
0.0
 49
0.0
 49
0.0
 49
0.0208333333333333
 49
0.0
 49
0.0
 49
0.0
 49
0.0
 49
1.0
 49
0.0
 49
0.0
 49
0.0
 49
0.0
 49
1.0
175
     0
142
0.0208333333333333
142
0.0
142
0.0
142
0.0
142
0.0
142
0.0208333333333333
142
0.0
142
0.0
142
0.0
142
0.0
142
1.0
142
0.0
142
0.0
142
0.0
142
0.0
142
1.0
179
     0
144
0.0208333333333333
144
0.0
144
0.0
144
0.0
144
0.0
144
0.0208333333333333
144
0.0
144
0.0
144
0.0
144
0.0
144
1.0
144
0.0
144
0.0
144
0.0
144
0.0
144
1.0
147
0.0208333333333333
147
0.0
147
0.0
147
0.0
147
0.0
147
0.0208333333333333
147
0.0
147
0.0
147
0.0
147
0.0
147
1.0
147
0.0
147
0.0
147
0.0
147
0.0
147
1.0
  0
MLEADERSTYLE
  5
67
102
{ACAD_REACTORS
330
66
102
}
330
66
100
AcDbMLeaderStyle
179
     2
170
     2
171
     1
172
     0
 90
        2
 40
0.0
 41
0.0
173
     1
 91
-1056964608
340
5B
 92
       -2
290
     1
 42
0.09
291
     1
 43
0.36
  3
Standard
 44
0.18
300

342
55
174
     1
178
     6
175
     1
176
     0
 93
-1056964608
 45
0.18
292
     0
297
     0
 46
0.18
 94
-1056964608
 47
1.0
 49
1.0
140
1.0
293
     1
141
0.0
294
     1
177
     0
142
1.0
295
     1
296
     0
143
0.125
271
     0
272
     9
273
     9
298
     1
  0
MLINESTYLE
  5
60
102
{ACAD_REACTORS
330
5F
102
}
330
5F
100
AcDbMlineStyle
  2
STANDARD
 70
     0
  3

 62
   256
 51
90.0
 52
90.0
 71
     2
 49
0.5
 62
   256
  6
BYLAYER
 49
-0.5
 62
   256
  6
BYLAYER
  0
ACDBPLACEHOLDER
  5
F
102
{ACAD_REACTORS
330
E
102
}
330
E
  0
SCALE
  5
43
102
{ACAD_REACTORS
330
42
102
}
330
42
100
AcDbScale
 70
     0
300
1:1
140
1.0
141
1.0
290
     1
  0
SCALE
  5
44
102
{ACAD_REACTORS
330
42
102
}
330
42
100
AcDbScale
 70
     0
300
1/128" = 1'-0"
140
0.0078125
141
12.0
290
     0
  0
SCALE
  5
45
102
{ACAD_REACTORS
330
42
102
}
330
42
100
AcDbScale
 70
     0
300
1/64" = 1'-0"
140
0.015625
141
12.0
290
     0
  0
SCALE
  5
46
102
{ACAD_REACTORS
330
42
102
}
330
42
100
AcDbScale
 70
     0
300
1/32" = 1'-0"
140
0.03125
141
12.0
290
     0
  0
SCALE
  5
47
102
{ACAD_REACTORS
330
42
102
}
330
42
100
AcDbScale
 70
     0
300
1/16" = 1'-0"
140
0.0625
141
12.0
290
     0
  0
SCALE
  5
48
102
{ACAD_REACTORS
330
42
102
}
330
42
100
AcDbScale
 70
     0
300
3/32" = 1'-0"
140
0.09375
141
12.0
290
     0
  0
SCALE
  5
49
102
{ACAD_REACTORS
330
42
102
}
330
42
100
AcDbScale
 70
     0
300
1/8" = 1'-0"
140
0.125
141
12.0
290
     0
  0
SCALE
  5
4A
102
{ACAD_REACTORS
330
42
102
}
330
42
100
AcDbScale
 70
     0
300
3/16" = 1'-0"
140
0.1875
141
12.0
290
     0
  0
SCALE
  5
4B
102
{ACAD_REACTORS
330
42
102
}
330
42
100
AcDbScale
 70
     0
300
1/4" = 1'-0"
140
0.25
141
12.0
290
     0
  0
SCALE
  5
4C
102
{ACAD_REACTORS
330
42
102
}
330
42
100
AcDbScale
 70
     0
300
3/8" = 1'-0"
140
0.375
141
12.0
290
     0
  0
SCALE
  5
4D
102
{ACAD_REACTORS
330
42
102
}
330
42
100
AcDbScale
 70
     0
300
1/2" = 1'-0"
140
0.5
141
12.0
290
     0
  0
SCALE
  5
4E
102
{ACAD_REACTORS
330
42
102
}
330
42
100
AcDbScale
 70
     0
300
3/4" = 1'-0"
140
0.75
141
12.0
290
     0
  0
SCALE
  5
4F
102
{ACAD_REACTORS
330
42
102
}
330
42
100
AcDbScale
 70
     0
300
1" = 1'-0"
140
1.0
141
12.0
290
     0
  0
SCALE
  5
50
102
{ACAD_REACTORS
330
42
102
}
330
42
100
AcDbScale
 70
     0
300
1-1/2" = 1'-0"
140
1.5
141
12.0
290
     0
  0
SCALE
  5
51
102
{ACAD_REACTORS
330
42
102
}
330
42
100
AcDbScale
 70
     0
300
3" = 1'-0"
140
3.0
141
12.0
290
     0
  0
SCALE
  5
52
102
{ACAD_REACTORS
330
42
102
}
330
42
100
AcDbScale
 70
     0
300
6" = 1'-0"
140
6.0
141
12.0
290
     0
  0
SCALE
  5
53
102
{ACAD_REACTORS
330
42
102
}
330
42
100
AcDbScale
 70
     0
300
1'-0" = 1'-0"
140
12.0
141
12.0
290
     0
  0
ACDBSECTIONVIEWSTYLE
  5
69
102
{ACAD_REACTORS
330
68
102
}
330
68
100
AcDbModelDocViewStyle
 70
     0
  3
Imperial24
290
     1
300
Imperial24
 90
        0
100
AcDbSectionViewStyle
 70
     0
 71
     0
 90
       78
 71
     1
340
55
 62
   256
 40
0.24
340
0
340
0
 62
   256
 40
0.24
300
I, O, Q, S, X, Z
 40
0.48
 90
        3
 40
0.18
 90
        1
 71
     2
340
5D
 90
       25
 62
   256
340
5D
 90
       50
 62
   256
 40
0.24
 40
0.0
 40
0.24
 71
     3
340
55
 62
   256
 40
0.24
 90
        1
 40
0.75
 90
        1
300
%<\AcVar ViewType \f "%tc1">% %<\AcVar ViewSectionStartId>%-%<\AcVar ViewSectionEndId>%\PSCALE %<\AcVar ViewScale \f "%sn">%
 71
     4
 62
   256
 62
   257
300
ANSI31
 40
1.0
 90
        0
290
     0
290
     0
 90
        6
 40
0.0
 40
1.570796326794896
 40
0.2617993877991494
 40
1.308996938995747
 40
-0.2617993877991494
 40
1.832595714594046
  0
TABLESTYLE
  5
65
102
{ACAD_XDICTIONARY
360
279
102
}
102
{ACAD_REACTORS
330
64
102
}
330
64
100
AcDbTableStyle
280
     0
  3
Standard
 70
     0
 71
     0
 40
0.06
 41
0.06
280
     0
281
     0
  7
Standard
140
0.18
170
     2
 62
     0
 63
     7
283
     0
 90
      512
 91
        0
  1

274
    -2
284
     1
 64
     0
275
    -2
285
     1
 65
     0
276
    -2
286
     1
 66
     0
277
    -2
287
     1
 67
     0
278
    -2
288
     1
 68
     0
279
    -2
289
     1
 69
     0
  7
Standard
140
0.25
170
     5
 62
     0
 63
     7
283
     0
 90
      512
 91
        0
  1

274
    -2
284
     1
 64
     0
275
    -2
285
     1
 65
     0
276
    -2
286
     1
 66
     0
277
    -2
287
     1
 67
     0
278
    -2
288
     1
 68
     0
279
    -2
289
     1
 69
     0
  7
Standard
140
0.18
170
     5
 62
     0
 63
     7
283
     0
 90
      512
 91
        0
  1

274
    -2
284
     1
 64
     0
275
    -2
285
     1
 65
     0
276
    -2
286
     1
 66
     0
277
    -2
287
     1
 67
     0
278
    -2
288
     1
 68
     0
279
    -2
289
     1
 69
     0
  0
VISUALSTYLE
  5
2F
102
{ACAD_REACTORS
330
29
102
}
330
29
100
AcDbVisualStyle
  2
2dWireframe
 70
     4
177
     3
291
     0
 70
    58
 90
        0
176
     1
 90
        2
176
     1
 90
        0
176
     1
 90
        0
176
     1
 40
0.6
176
     1
 40
30.0
176
     1
 62
     7
420
 16777215
176
     1
 90
        1
176
     1
 90
        4
176
     1
 62
     7
176
     1
 62
   257
176
     1
 90
        1
176
     1
 90
        1
176
     1
 40
1.0
176
     1
 90
        0
176
     1
 62
   257
176
     1
 40
1.0
176
     1
 90
        1
176
     1
 90
        6
176
     1
 90
        2
176
     1
 62
     7
176
     1
 90
        5
176
     1
 90
        0
176
     1
 90
        0
176
     1
290
     0
176
     1
 90
        1
176
     1
 40
0.0
176
     1
 90
        0
176
     1
290
     1
176
     1
290
     1
176
     1
290
     0
176
     1
290
     0
176
     1
290
     0
176
     1
290
     0
176
     1
290
     0
176
     1
290
     0
176
     1
290
     0
176
     1
 90
       50
176
     1
 40
0.0
176
     1
 40
1.0
176
     1
 90
        0
176
     1
 62
    18
420
        0
176
     1
 90
       50
176
     1
 90
        3
176
     1
 62
     5
420
      255
176
     1
290
     0
176
     1
 90
       50
176
     1
 90
       50
176
     1
 90
       50
176
     1
290
     0
176
     1
 90
       50
176
     1
 62
   256
176
     0
 40
1.0
176
     0
 90
        2
176
     1
  1
strokes_ogs.tif
176
     1
290
     0
176
     1
 40
1.0
176
     1
 40
1.0
176
     1
  0
VISUALSTYLE
  5
2E
102
{ACAD_REACTORS
330
29
102
}
330
29
100
AcDbVisualStyle
  2
Basic
 70
     7
177
     3
291
     1
 70
    58
 90
        1
176
     1
 90
        0
176
     1
 90
        1
176
     1
 90
        0
176
     1
 40
0.6
176
     1
 40
30.0
176
     1
 62
     7
420
 16777215
176
     1
 90
        0
176
     1
 90
        4
176
     1
 62
     7
176
     1
 62
   257
176
     1
 90
        1
176
     1
 90
        1
176
     1
 40
1.0
176
     1
 90
        8
176
     1
 62
     7
176
     1
 40
1.0
176
     1
 90
        1
176
     1
 90
        6
176
     1
 90
        2
176
     1
 62
     7
176
     1
 90
        5
176
     1
 90
        0
176
     1
 90
        0
176
     1
290
     0
176
     1
 90
        1
176
     1
 40
0.0
176
     1
 90
        0
176
     1
290
     0
176
     1
290
     1
176
     1
290
     1
176
     1
290
     0
176
     1
290
     0
176
     1
290
     0
176
     1
290
     0
176
     1
290
     0
176
     1
290
     0
176
     1
 90
       50
176
     1
 40
0.0
176
     1
 40
1.0
176
     1
 90
        0
176
     1
 62
    18
420
        0
176
     1
 90
       50
176
     1
 90
        3
176
     1
 62
     5
420
      255
176
     1
290
     0
176
     1
 90
       50
176
     1
 90
       50
176
     1
 90
       50
176
     1
290
     0
176
     1
 90
       50
176
     1
 62
   256
176
     0
 40
1.0
176
     0
 90
        2
176
     1
  1
strokes_ogs.tif
176
     1
290
     0
176
     1
 40
1.0
176
     1
 40
1.0
176
     1
  0
VISUALSTYLE
  5
35
102
{ACAD_REACTORS
330
29
102
}
330
29
100
AcDbVisualStyle
  2
Brighten
 70
    12
177
     3
291
     1
 70
    58
 90
        2
176
     1
 90
        2
176
     1
 90
        0
176
     1
 90
        0
176
     1
 40
0.6
176
     1
 40
30.0
176
     1
 62
     7
420
 16777215
176
     1
 90
        1
176
     1
 90
        4
176
     1
 62
     7
176
     1
 62
   257
176
     1
 90
        1
176
     1
 90
        1
176
     1
 40
1.0
176
     1
 90
        8
176
     1
 62
     7
176
     1
 40
1.0
176
     1
 90
        1
176
     1
 90
        6
176
     1
 90
        2
176
     1
 62
     7
176
     1
 90
        5
176
     1
 90
        0
176
     1
 90
        0
176
     1
290
     0
176
     1
 90
        1
176
     1
 40
50.0
176
     1
 90
        0
176
     1
290
     0
176
     1
290
     1
176
     1
290
     1
176
     1
290
     0
176
     1
290
     0
176
     1
290
     0
176
     1
290
     0
176
     1
290
     0
176
     1
290
     0
176
     1
 90
       50
176
     1
 40
0.0
176
     1
 40
1.0
176
     1
 90
        0
176
     1
 62
    18
420
        0
176
     1
 90
       50
176
     1
 90
        3
176
     1
 62
     5
420
      255
176
     1
290
     0
176
     1
 90
       50
176
     1
 90
       50
176
     1
 90
       50
176
     1
290
     0
176
     1
 90
       50
176
     1
 62
   256
176
     0
 40
1.0
176
     0
 90
        2
176
     1
  1
strokes_ogs.tif
176
     1
290
     0
176
     1
 40
1.0
176
     1
 40
1.0
176
     1
  0
VISUALSTYLE
  5
39
102
{ACAD_REACTORS
330
29
102
}
330
29
100
AcDbVisualStyle
  2
ColorChange
 70
    16
177
     3
291
     1
 70
    58
 90
        2
176
     1
 90
        2
176
     1
 90
        3
176
     1
 90
        0
176
     1
 40
0.6
176
     1
 40
30.0
176
     1
 62
     8
420
  8421504
176
     1
 90
        1
176
     1
 90
        4
176
     1
 62
     7
176
     1
 62
   257
176
     1
 90
        1
176
     1
 90
        1
176
     1
 40
1.0
176
     1
 90
        8
176
     1
 62
     8
420
  8421504
176
     1
 40
1.0
176
     1
 90
        1
176
     1
 90
        6
176
     1
 90
        2
176
     1
 62
     7
176
     1
 90
        5
176
     1
 90
        0
176
     1
 90
        0
176
     1
290
     0
176
     1
 90
        1
176
     1
 40
0.0
176
     1
 90
        0
176
     1
290
     0
176
     1
290
     1
176
     1
290
     1
176
     1
290
     0
176
     1
290
     0
176
     1
290
     0
176
     1
290
     0
176
     1
290
     0
176
     1
290
     0
176
     1
 90
       50
176
     1
 40
0.0
176
     1
 40
1.0
176
     1
 90
        0
176
     1
 62
    18
420
        0
176
     1
 90
       50
176
     1
 90
        3
176
     1
 62
     5
420
      255
176
     1
290
     0
176
     1
 90
       50
176
     1
 90
       50
176
     1
 90
       50
176
     1
290
     0
176
     1
 90
       50
176
     1
 62
   256
176
     0
 40
1.0
176
     0
 90
        2
176
     1
  1
strokes_ogs.tif
176
     1
290
     0
176
     1
 40
1.0
176
     1
 40
1.0
176
     1
  0
VISUALSTYLE
  5
32
102
{ACAD_REACTORS
330
29
102
}
330
29
100
AcDbVisualStyle
  2
Conceptual
 70
     9
177
     3
291
     0
 70
    58
 90
        3
176
     1
 90
        2
176
     1
 90
        0
176
     1
 90
        0
176
     1
 40
0.6
176
     1
 40
30.0
176
     1
 62
     7
420
 16777215
176
     1
 90
        2
176
     1
 90
        2
176
     1
 62
     7
176
     1
 62
   257
176
     1
 90
        1
176
     1
 90
        1
176
     1
 40
179.0
176
     1
 90
        8
176
     1
 62
     7
176
     1
 40
1.0
176
     1
 90
        1
176
     1
 90
        6
176
     1
 90
        2
176
     1
 62
     7
176
     1
 90
        3
176
     1
 90
        0
176
     1
 90
        0
176
     1
290
     0
176
     1
 90
        1
176
     1
 40
0.0
176
     1
 90
        0
176
     1
290
     0
176
     1
290
     1
176
     1
290
     1
176
     1
290
     0
176
     1
290
     0
176
     1
290
     0
176
     1
290
     0
176
     1
290
     0
176
     1
290
     0
176
     1
 90
       50
176
     1
 40
0.0
176
     1
 40
1.0
176
     1
 90
        0
176
     1
 62
    18
420
        0
176
     1
 90
       50
176
     1
 90
        3
176
     1
 62
     5
420
      255
176
     1
290
     0
176
     1
 90
       50
176
     1
 90
       50
176
     1
 90
       50
176
     1
290
     0
176
     1
 90
       50
176
     1
 62
   256
176
     0
 40
1.0
176
     0
 90
        2
176
     1
  1
strokes_ogs.tif
176
     1
290
     0
176
     1
 40
1.0
176
     1
 40
1.0
176
     1
  0
VISUALSTYLE
  5
34
102
{ACAD_REACTORS
330
29
102
}
330
29
100
AcDbVisualStyle
  2
Dim
 70
    11
177
     3
291
     1
 70
    58
 90
        2
176
     1
 90
        2
176
     1
 90
        0
176
     1
 90
        0
176
     1
 40
0.6
176
     1
 40
30.0
176
     1
 62
     7
420
 16777215
176
     1
 90
        1
176
     1
 90
        4
176
     1
 62
     7
176
     1
 62
   257
176
     1
 90
        1
176
     1
 90
        1
176
     1
 40
1.0
176
     1
 90
        8
176
     1
 62
     7
176
     1
 40
1.0
176
     1
 90
        1
176
     1
 90
        6
176
     1
 90
        2
176
     1
 62
     7
176
     1
 90
        5
176
     1
 90
        0
176
     1
 90
        0
176
     1
290
     0
176
     1
 90
        1
176
     1
 40
-50.0
176
     1
 90
        0
176
     1
290
     0
176
     1
290
     1
176
     1
290
     1
176
     1
290
     0
176
     1
290
     0
176
     1
290
     0
176
     1
290
     0
176
     1
290
     0
176
     1
290
     0
176
     1
 90
       50
176
     1
 40
0.0
176
     1
 40
1.0
176
     1
 90
        0
176
     1
 62
    18
420
        0
176
     1
 90
       50
176
     1
 90
        3
176
     1
 62
     5
420
      255
176
     1
290
     0
176
     1
 90
       50
176
     1
 90
       50
176
     1
 90
       50
176
     1
290
     0
176
     1
 90
       50
176
     1
 62
   256
176
     0
 40
1.0
176
     0
 90
        2
176
     1
  1
strokes_ogs.tif
176
     1
290
     0
176
     1
 40
1.0
176
     1
 40
1.0
176
     1
  0
VISUALSTYLE
  5
41
102
{ACAD_REACTORS
330
29
102
}
330
29
100
AcDbVisualStyle
  2
EdgeColorOff
 70
    22
177
     3
291
     1
 70
    58
 90
        2
176
     0
 90
        2
176
     0
 90
        0
176
     0
 90
        0
176
     0
 40
0.6
176
     0
 40
30.0
176
     0
 62
     7
420
 16777215
176
     0
 90
        1
176
     0
 90
        4
176
     0
 62
     7
176
     0
 62
   257
176
     0
 90
        1
176
     0
 90
        1
176
     0
 40
1.0
176
     0
 90
        8
176
     2
 62
     7
176
     0
 40
1.0
176
     0
 90
        1
176
     0
 90
        6
176
     0
 90
        2
176
     0
 62
     7
176
     0
 90
        5
176
     0
 90
        0
176
     0
 90
        0
176
     0
290
     0
176
     0
 90
        1
176
     0
 40
0.0
176
     0
 90
        0
176
     0
290
     0
176
     0
290
     1
176
     0
290
     1
176
     0
290
     0
176
     0
290
     0
176
     0
290
     0
176
     0
290
     0
176
     0
290
     0
176
     0
290
     0
176
     0
 90
       50
176
     0
 40
0.0
176
     0
 40
1.0
176
     0
 90
        0
176
     0
 62
    18
420
        0
176
     0
 90
       50
176
     0
 90
        3
176
     0
 62
     5
420
      255
176
     0
290
     0
176
     0
 90
       50
176
     0
 90
       50
176
     0
 90
       50
176
     0
290
     0
176
     0
 90
       50
176
     0
 62
   256
176
     0
 40
1.0
176
     0
 90
        2
176
     0
  1
strokes_ogs.tif
176
     0
290
     0
176
     0
 40
1.0
176
     0
 40
1.0
176
     0
  0
VISUALSTYLE
  5
38
102
{ACAD_REACTORS
330
29
102
}
330
29
100
AcDbVisualStyle
  2
Facepattern
 70
    15
177
     3
291
     1
 70
    58
 90
        2
176
     1
 90
        2
176
     1
 90
        0
176
     1
 90
        0
176
     1
 40
0.6
176
     1
 40
30.0
176
     1
 62
     7
420
 16777215
176
     1
 90
        1
176
     1
 90
        4
176
     1
 62
     7
176
     1
 62
   257
176
     1
 90
        1
176
     1
 90
        1
176
     1
 40
1.0
176
     1
 90
        8
176
     1
 62
     7
176
     1
 40
1.0
176
     1
 90
        1
176
     1
 90
        6
176
     1
 90
        2
176
     1
 62
     7
176
     1
 90
        5
176
     1
 90
        0
176
     1
 90
        0
176
     1
290
     0
176
     1
 90
        1
176
     1
 40
0.0
176
     1
 90
        0
176
     1
290
     0
176
     1
290
     1
176
     1
290
     1
176
     1
290
     0
176
     1
290
     0
176
     1
290
     0
176
     1
290
     0
176
     1
290
     0
176
     1
290
     0
176
     1
 90
       50
176
     1
 40
0.0
176
     1
 40
1.0
176
     1
 90
        0
176
     1
 62
    18
420
        0
176
     1
 90
       50
176
     1
 90
        3
176
     1
 62
     5
420
      255
176
     1
290
     0
176
     1
 90
       50
176
     1
 90
       50
176
     1
 90
       50
176
     1
290
     0
176
     1
 90
       50
176
     1
 62
   256
176
     0
 40
1.0
176
     0
 90
        2
176
     1
  1
strokes_ogs.tif
176
     1
290
     0
176
     1
 40
1.0
176
     1
 40
1.0
176
     1
  0
VISUALSTYLE
  5
2A
102
{ACAD_REACTORS
330
29
102
}
330
29
100
AcDbVisualStyle
  2
Flat
 70
     0
177
     3
291
     1
 70
    58
 90
        2
176
     1
 90
        1
176
     1
 90
        1
176
     1
 90
        2
176
     1
 40
0.6
176
     1
 40
30.0
176
     1
 62
     7
420
 16777215
176
     1
 90
        0
176
     1
 90
        0
176
     1
 62
     7
176
     1
 62
   257
176
     1
 90
        1
176
     1
 90
        1
176
     1
 40
1.0
176
     1
 90
        8
176
     1
 62
     7
176
     1
 40
1.0
176
     1
 90
        1
176
     1
 90
        6
176
     1
 90
        2
176
     1
 62
     7
176
     1
 90
        5
176
     1
 90
        0
176
     1
 90
        0
176
     1
290
     0
176
     1
 90
       13
176
     1
 40
0.0
176
     1
 90
        0
176
     1
290
     0
176
     1
290
     1
176
     1
290
     1
176
     1
290
     0
176
     1
290
     0
176
     1
290
     0
176
     1
290
     0
176
     1
290
     0
176
     1
290
     0
176
     1
 90
       50
176
     1
 40
0.0
176
     1
 40
1.0
176
     1
 90
        0
176
     1
 62
    18
420
        0
176
     1
 90
       50
176
     1
 90
        3
176
     1
 62
     5
420
      255
176
     1
290
     0
176
     1
 90
       50
176
     1
 90
       50
176
     1
 90
       50
176
     1
290
     0
176
     1
 90
       50
176
     1
 62
   256
176
     0
 40
1.0
176
     0
 90
        2
176
     1
  1
strokes_ogs.tif
176
     1
290
     0
176
     1
 40
1.0
176
     1
 40
1.0
176
     1
  0
VISUALSTYLE
  5
2B
102
{ACAD_REACTORS
330
29
102
}
330
29
100
AcDbVisualStyle
  2
FlatWithEdges
 70
     1
177
     3
291
     1
 70
    58
 90
        2
176
     1
 90
        1
176
     1
 90
        1
176
     1
 90
        2
176
     1
 40
0.6
176
     1
 40
30.0
176
     1
 62
     7
420
 16777215
176
     1
 90
        1
176
     1
 90
        0
176
     1
 62
     7
176
     1
 62
   257
176
     1
 90
        1
176
     1
 90
        1
176
     1
 40
1.0
176
     1
 90
        0
176
     1
 62
   257
176
     1
 40
1.0
176
     1
 90
        1
176
     1
 90
        6
176
     1
 90
        2
176
     1
 62
     7
176
     1
 90
        5
176
     1
 90
        0
176
     1
 90
        0
176
     1
290
     0
176
     1
 90
       13
176
     1
 40
0.0
176
     1
 90
        0
176
     1
290
     0
176
     1
290
     1
176
     1
290
     1
176
     1
290
     0
176
     1
290
     0
176
     1
290
     0
176
     1
290
     0
176
     1
290
     0
176
     1
290
     0
176
     1
 90
       50
176
     1
 40
0.0
176
     1
 40
1.0
176
     1
 90
        0
176
     1
 62
    18
420
        0
176
     1
 90
       50
176
     1
 90
        3
176
     1
 62
     5
420
      255
176
     1
290
     0
176
     1
 90
       50
176
     1
 90
       50
176
     1
 90
       50
176
     1
290
     0
176
     1
 90
       50
176
     1
 62
   256
176
     0
 40
1.0
176
     0
 90
        2
176
     1
  1
strokes_ogs.tif
176
     1
290
     0
176
     1
 40
1.0
176
     1
 40
1.0
176
     1
  0
VISUALSTYLE
  5
2C
102
{ACAD_REACTORS
330
29
102
}
330
29
100
AcDbVisualStyle
  2
Gouraud
 70
     2
177
     3
291
     1
 70
    58
 90
        2
176
     1
 90
        2
176
     1
 90
        1
176
     1
 90
        2
176
     1
 40
0.6
176
     1
 40
30.0
176
     1
 62
     7
420
 16777215
176
     1
 90
        0
176
     1
 90
        0
176
     1
 62
     7
176
     1
 62
   257
176
     1
 90
        1
176
     1
 90
        1
176
     1
 40
1.0
176
     1
 90
        0
176
     1
 62
     7
176
     1
 40
1.0
176
     1
 90
        1
176
     1
 90
        6
176
     1
 90
        2
176
     1
 62
     7
176
     1
 90
        5
176
     1
 90
        0
176
     1
 90
        0
176
     1
290
     0
176
     1
 90
       13
176
     1
 40
0.0
176
     1
 90
        0
176
     1
290
     0
176
     1
290
     1
176
     1
290
     1
176
     1
290
     0
176
     1
290
     0
176
     1
290
     0
176
     1
290
     0
176
     1
290
     0
176
     1
290
     0
176
     1
 90
       50
176
     1
 40
0.0
176
     1
 40
1.0
176
     1
 90
        0
176
     1
 62
    18
420
        0
176
     1
 90
       50
176
     1
 90
        3
176
     1
 62
     5
420
      255
176
     1
290
     0
176
     1
 90
       50
176
     1
 90
       50
176
     1
 90
       50
176
     1
290
     0
176
     1
 90
       50
176
     1
 62
   256
176
     0
 40
1.0
176
     0
 90
        2
176
     1
  1
strokes_ogs.tif
176
     1
290
     0
176
     1
 40
1.0
176
     1
 40
1.0
176
     1
  0
VISUALSTYLE
  5
2D
102
{ACAD_REACTORS
330
29
102
}
330
29
100
AcDbVisualStyle
  2
GouraudWithEdges
 70
     3
177
     3
291
     1
 70
    58
 90
        2
176
     1
 90
        2
176
     1
 90
        1
176
     1
 90
        2
176
     1
 40
0.6
176
     1
 40
30.0
176
     1
 62
     7
420
 16777215
176
     1
 90
        1
176
     1
 90
        0
176
     1
 62
     7
176
     1
 62
   257
176
     1
 90
        1
176
     1
 90
        1
176
     1
 40
1.0
176
     1
 90
        0
176
     1
 62
   257
176
     1
 40
1.0
176
     1
 90
        1
176
     1
 90
        6
176
     1
 90
        2
176
     1
 62
     7
176
     1
 90
        5
176
     1
 90
        0
176
     1
 90
        0
176
     1
290
     0
176
     1
 90
       13
176
     1
 40
0.0
176
     1
 90
        0
176
     1
290
     0
176
     1
290
     1
176
     1
290
     1
176
     1
290
     0
176
     1
290
     0
176
     1
290
     0
176
     1
290
     0
176
     1
290
     0
176
     1
290
     0
176
     1
 90
       50
176
     1
 40
0.0
176
     1
 40
1.0
176
     1
 90
        0
176
     1
 62
    18
420
        0
176
     1
 90
       50
176
     1
 90
        3
176
     1
 62
     5
420
      255
176
     1
290
     0
176
     1
 90
       50
176
     1
 90
       50
176
     1
 90
       50
176
     1
290
     0
176
     1
 90
       50
176
     1
 62
   256
176
     0
 40
1.0
176
     0
 90
        2
176
     1
  1
strokes_ogs.tif
176
     1
290
     0
176
     1
 40
1.0
176
     1
 40
1.0
176
     1
  0
VISUALSTYLE
  5
31
102
{ACAD_REACTORS
330
29
102
}
330
29
100
AcDbVisualStyle
  2
Hidden
 70
     6
177
     3
291
     0
 70
    58
 90
        1
176
     1
 90
        2
176
     1
 90
        2
176
     1
 90
        0
176
     1
 40
0.6
176
     1
 40
30.0
176
     1
 62
     7
420
 16777215
176
     1
 90
        2
176
     1
 90
        2
176
     1
 62
     7
176
     1
 62
   257
176
     1
 90
        2
176
     1
 90
        1
176
     1
 40
40.0
176
     1
 90
        0
176
     1
 62
   257
176
     1
 40
1.0
176
     1
 90
        1
176
     1
 90
        6
176
     1
 90
        2
176
     1
 62
     7
176
     1
 90
        3
176
     1
 90
        0
176
     1
 90
        0
176
     1
290
     0
176
     1
 90
        1
176
     1
 40
0.0
176
     1
 90
        0
176
     1
290
     0
176
     1
290
     1
176
     1
290
     1
176
     1
290
     0
176
     1
290
     0
176
     1
290
     0
176
     1
290
     0
176
     1
290
     0
176
     1
290
     0
176
     1
 90
       50
176
     1
 40
0.0
176
     1
 40
1.0
176
     1
 90
        0
176
     1
 62
    18
420
        0
176
     1
 90
       50
176
     1
 90
        3
176
     1
 62
     5
420
      255
176
     1
290
     0
176
     1
 90
       50
176
     1
 90
       50
176
     1
 90
       50
176
     1
290
     0
176
     1
 90
       50
176
     1
 62
   256
176
     0
 40
1.0
176
     0
 90
        2
176
     1
  1
strokes_ogs.tif
176
     1
290
     0
176
     1
 40
1.0
176
     1
 40
1.0
176
     1
  0
VISUALSTYLE
  5
3F
102
{ACAD_REACTORS
330
29
102
}
330
29
100
AcDbVisualStyle
  2
JitterOff
 70
    20
177
     3
291
     1
 70
    58
 90
        2
176
     0
 90
        2
176
     0
 90
        0
176
     0
 90
        0
176
     0
 40
0.6
176
     0
 40
30.0
176
     0
 62
     7
420
 16777215
176
     0
 90
        1
176
     0
 90
        4
176
     0
 62
     7
176
     0
 62
   257
176
     0
 90
        1
176
     0
 90
        1
176
     0
 40
1.0
176
     0
 90
       10
176
     2
 62
     7
176
     0
 40
1.0
176
     0
 90
        1
176
     0
 90
        6
176
     0
 90
        2
176
     0
 62
     7
176
     0
 90
        5
176
     0
 90
        0
176
     0
 90
        0
176
     0
290
     0
176
     0
 90
        1
176
     0
 40
0.0
176
     0
 90
        0
176
     0
290
     0
176
     0
290
     1
176
     0
290
     1
176
     0
290
     0
176
     0
290
     0
176
     0
290
     0
176
     0
290
     0
176
     0
290
     0
176
     0
290
     0
176
     0
 90
       50
176
     0
 40
0.0
176
     0
 40
1.0
176
     0
 90
        0
176
     0
 62
    18
420
        0
176
     0
 90
       50
176
     0
 90
        3
176
     0
 62
     5
420
      255
176
     0
290
     0
176
     0
 90
       50
176
     0
 90
       50
176
     0
 90
       50
176
     0
290
     0
176
     0
 90
       50
176
     0
 62
   256
176
     0
 40
1.0
176
     0
 90
        2
176
     0
  1
strokes_ogs.tif
176
     0
290
     0
176
     0
 40
1.0
176
     0
 40
1.0
176
     0
  0
VISUALSTYLE
  5
37
102
{ACAD_REACTORS
330
29
102
}
330
29
100
AcDbVisualStyle
  2
Linepattern
 70
    14
177
     3
291
     1
 70
    58
 90
        2
176
     1
 90
        2
176
     1
 90
        0
176
     1
 90
        0
176
     1
 40
0.6
176
     1
 40
30.0
176
     1
 62
     7
420
 16777215
176
     1
 90
        1
176
     1
 90
        4
176
     1
 62
     7
176
     1
 62
   257
176
     1
 90
        7
176
     1
 90
        7
176
     1
 40
1.0
176
     1
 90
        8
176
     1
 62
     7
176
     1
 40
1.0
176
     1
 90
        1
176
     1
 90
        6
176
     1
 90
        2
176
     1
 62
     7
176
     1
 90
        5
176
     1
 90
        0
176
     1
 90
        0
176
     1
290
     0
176
     1
 90
        1
176
     1
 40
0.0
176
     1
 90
        0
176
     1
290
     0
176
     1
290
     1
176
     1
290
     1
176
     1
290
     0
176
     1
290
     0
176
     1
290
     0
176
     1
290
     0
176
     1
290
     0
176
     1
290
     0
176
     1
 90
       50
176
     1
 40
0.0
176
     1
 40
1.0
176
     1
 90
        0
176
     1
 62
    18
420
        0
176
     1
 90
       50
176
     1
 90
        3
176
     1
 62
     5
420
      255
176
     1
290
     0
176
     1
 90
       50
176
     1
 90
       50
176
     1
 90
       50
176
     1
290
     0
176
     1
 90
       50
176
     1
 62
   256
176
     0
 40
1.0
176
     0
 90
        2
176
     1
  1
strokes_ogs.tif
176
     1
290
     0
176
     1
 40
1.0
176
     1
 40
1.0
176
     1
  0
VISUALSTYLE
  5
40
102
{ACAD_REACTORS
330
29
102
}
330
29
100
AcDbVisualStyle
  2
OverhangOff
 70
    21
177
     3
291
     1
 70
    58
 90
        2
176
     0
 90
        2
176
     0
 90
        0
176
     0
 90
        0
176
     0
 40
0.6
176
     0
 40
30.0
176
     0
 62
     7
420
 16777215
176
     0
 90
        1
176
     0
 90
        4
176
     0
 62
     7
176
     0
 62
   257
176
     0
 90
        1
176
     0
 90
        1
176
     0
 40
1.0
176
     0
 90
        9
176
     2
 62
     7
176
     0
 40
1.0
176
     0
 90
        1
176
     0
 90
        6
176
     0
 90
        2
176
     0
 62
     7
176
     0
 90
        5
176
     0
 90
        0
176
     0
 90
        0
176
     0
290
     0
176
     0
 90
        1
176
     0
 40
0.0
176
     0
 90
        0
176
     0
290
     0
176
     0
290
     1
176
     0
290
     1
176
     0
290
     0
176
     0
290
     0
176
     0
290
     0
176
     0
290
     0
176
     0
290
     0
176
     0
290
     0
176
     0
 90
       50
176
     0
 40
0.0
176
     0
 40
1.0
176
     0
 90
        0
176
     0
 62
    18
420
        0
176
     0
 90
       50
176
     0
 90
        3
176
     0
 62
     5
420
      255
176
     0
290
     0
176
     0
 90
       50
176
     0
 90
       50
176
     0
 90
       50
176
     0
290
     0
176
     0
 90
       50
176
     0
 62
   256
176
     0
 40
1.0
176
     0
 90
        2
176
     0
  1
strokes_ogs.tif
176
     0
290
     0
176
     0
 40
1.0
176
     0
 40
1.0
176
     0
  0
VISUALSTYLE
  5
33
102
{ACAD_REACTORS
330
29
102
}
330
29
100
AcDbVisualStyle
  2
Realistic
 70
     8
177
     3
291
     0
 70
    58
 90
        2
176
     1
 90
        3
176
     1
 90
        0
176
     1
 90
        2
176
     1
 40
0.6
176
     1
 40
30.0
176
     1
 62
     7
420
 16777215
176
     1
 90
        0
176
     1
 90
        0
176
     1
 62
     7
176
     1
 62
   257
176
     1
 90
        1
176
     1
 90
        1
176
     1
 40
1.0
176
     1
 90
        8
176
     1
 62
   257
176
     1
 40
1.0
176
     1
 90
        1
176
     1
 90
        6
176
     1
 90
        2
176
     1
 62
     7
176
     1
 90
        3
176
     1
 90
        0
176
     1
 90
        0
176
     1
290
     0
176
     1
 90
       13
176
     1
 40
0.0
176
     1
 90
        0
176
     1
290
     0
176
     1
290
     1
176
     1
290
     1
176
     1
290
     0
176
     1
290
     0
176
     1
290
     0
176
     1
290
     0
176
     1
290
     0
176
     1
290
     0
176
     1
 90
       50
176
     1
 40
0.0
176
     1
 40
1.0
176
     1
 90
        0
176
     1
 62
    18
420
        0
176
     1
 90
       50
176
     1
 90
        3
176
     1
 62
     5
420
      255
176
     1
290
     0
176
     1
 90
       50
176
     1
 90
       50
176
     1
 90
       50
176
     1
290
     0
176
     1
 90
       50
176
     1
 62
   256
176
     0
 40
1.0
176
     0
 90
        2
176
     1
  1
strokes_ogs.tif
176
     1
290
     0
176
     1
 40
1.0
176
     1
 40
1.0
176
     1
  0
VISUALSTYLE
  5
3E
102
{ACAD_REACTORS
330
29
102
}
330
29
100
AcDbVisualStyle
  2
Shaded
 70
    27
177
     3
291
     0
 70
    58
 90
        2
176
     1
 90
        2
176
     1
 90
        1
176
     1
 90
        2
176
     1
 40
0.6
176
     1
 40
30.0
176
     1
 62
     7
420
 16777215
176
     1
 90
        0
176
     1
 90
        4
176
     1
 62
     7
176
     1
 62
   257
176
     1
 90
        1
176
     1
 90
        1
176
     1
 40
1.0
176
     1
 90
        8
176
     1
 62
   257
176
     1
 40
1.0
176
     1
 90
        1
176
     1
 90
        6
176
     1
 90
        2
176
     1
 62
     8
420
  7895160
176
     1
 90
        3
176
     1
 90
        0
176
     1
 90
        0
176
     1
290
     0
176
     1
 90
        5
176
     1
 40
0.0
176
     1
 90
        0
176
     1
290
     0
176
     1
290
     1
176
     1
290
     1
176
     1
290
     0
176
     1
290
     0
176
     1
290
     0
176
     1
290
     0
176
     1
290
     0
176
     1
290
     0
176
     1
 90
       50
176
     1
 40
0.0
176
     1
 40
1.0
176
     1
 90
        0
176
     1
 62
    18
420
        0
176
     1
 90
       50
176
     1
 90
        3
176
     1
 62
     5
420
      255
176
     1
290
     0
176
     1
 90
       50
176
     1
 90
       50
176
     1
 90
       50
176
     1
290
     0
176
     1
 90
       50
176
     1
 62
   256
176
     0
 40
1.0
176
     0
 90
        2
176
     1
  1
strokes_ogs.tif
176
     1
290
     0
176
     1
 40
1.0
176
     1
 40
1.0
176
     1
  0
VISUALSTYLE
  5
3D
102
{ACAD_REACTORS
330
29
102
}
330
29
100
AcDbVisualStyle
  2
Shaded with edges
 70
    26
177
     3
291
     0
 70
    58
 90
        2
176
     1
 90
        2
176
     1
 90
        1
176
     1
 90
        2
176
     1
 40
0.6
176
     1
 40
30.0
176
     1
 62
     7
420
 16777215
176
     1
 90
        1
176
     1
 90
        2
176
     1
 62
     7
176
     1
 62
   257
176
     1
 90
        2
176
     1
 90
        1
176
     1
 40
1.0
176
     1
 90
        8
176
     1
 62
   257
176
     1
 40
1.0
176
     1
 90
        1
176
     1
 90
        6
176
     1
 90
        2
176
     1
 62
     7
176
     1
 90
        3
176
     1
 90
        0
176
     1
 90
        0
176
     1
290
     0
176
     1
 90
        5
176
     1
 40
0.0
176
     1
 90
        0
176
     1
290
     0
176
     1
290
     1
176
     1
290
     1
176
     1
290
     0
176
     1
290
     0
176
     1
290
     0
176
     1
290
     0
176
     1
290
     0
176
     1
290
     0
176
     1
 90
       50
176
     1
 40
0.0
176
     1
 40
1.0
176
     1
 90
        0
176
     1
 62
    18
420
        0
176
     1
 90
       50
176
     1
 90
        3
176
     1
 62
     5
420
      255
176
     1
290
     0
176
     1
 90
       50
176
     1
 90
       50
176
     1
 90
       50
176
     1
290
     0
176
     1
 90
       50
176
     1
 62
   256
176
     0
 40
1.0
176
     0
 90
        2
176
     1
  1
strokes_ogs.tif
176
     1
290
     0
176
     1
 40
1.0
176
     1
 40
1.0
176
     1
  0
VISUALSTYLE
  5
3A
102
{ACAD_REACTORS
330
29
102
}
330
29
100
AcDbVisualStyle
  2
Shades of Gray
 70
    23
177
     3
291
     0
 70
    58
 90
        2
176
     1
 90
        2
176
     1
 90
        3
176
     1
 90
        0
176
     1
 40
0.6
176
     1
 40
30.0
176
     1
 62
     7
420
 16777215
176
     1
 90
        2
176
     1
 90
        2
176
     1
 62
     7
176
     1
 62
     7
176
     1
 90
        1
176
     1
 90
        1
176
     1
 40
40.0
176
     1
 90
        8
176
     1
 62
     7
176
     1
 40
1.0
176
     1
 90
        1
176
     1
 90
        6
176
     1
 90
        2
176
     1
 62
     7
176
     1
 90
        3
176
     1
 90
        0
176
     1
 90
        0
176
     1
290
     0
176
     1
 90
        1
176
     1
 40
0.0
176
     1
 90
        0
176
     1
290
     0
176
     1
290
     1
176
     1
290
     1
176
     1
290
     0
176
     1
290
     0
176
     1
290
     0
176
     1
290
     0
176
     1
290
     0
176
     1
290
     0
176
     1
 90
       50
176
     1
 40
0.0
176
     1
 40
1.0
176
     1
 90
        0
176
     1
 62
    18
420
        0
176
     1
 90
       50
176
     1
 90
        3
176
     1
 62
     5
420
      255
176
     1
290
     0
176
     1
 90
       50
176
     1
 90
       50
176
     1
 90
       50
176
     1
290
     0
176
     1
 90
       50
176
     1
 62
   256
176
     0
 40
1.0
176
     0
 90
        2
176
     1
  1
strokes_ogs.tif
176
     1
290
     0
176
     1
 40
1.0
176
     1
 40
1.0
176
     1
  0
VISUALSTYLE
  5
3B
102
{ACAD_REACTORS
330
29
102
}
330
29
100
AcDbVisualStyle
  2
Sketchy
 70
    24
177
     3
291
     0
 70
    58
 90
        1
176
     1
 90
        2
176
     1
 90
        2
176
     1
 90
        0
176
     1
 40
0.6
176
     1
 40
30.0
176
     1
 62
     7
420
 16777215
176
     1
 90
        2
176
     1
 90
        2
176
     1
 62
     7
176
     1
 62
     7
176
     1
 90
        1
176
     1
 90
        1
176
     1
 40
40.0
176
     1
 90
       11
176
     1
 62
     7
176
     1
 40
1.0
176
     1
 90
        1
176
     1
 90
        6
176
     1
 90
        2
176
     1
 62
     7
176
     1
 90
        6
176
     1
 90
        0
176
     1
 90
        0
176
     1
290
     0
176
     1
 90
        1
176
     1
 40
0.0
176
     1
 90
        0
176
     1
290
     0
176
     1
290
     1
176
     1
290
     1
176
     1
290
     0
176
     1
290
     0
176
     1
290
     0
176
     1
290
     0
176
     1
290
     0
176
     1
290
     0
176
     1
 90
       50
176
     1
 40
0.0
176
     1
 40
1.0
176
     1
 90
        0
176
     1
 62
    18
420
        0
176
     1
 90
       50
176
     1
 90
        3
176
     1
 62
     5
420
      255
176
     1
290
     0
176
     1
 90
       50
176
     1
 90
       50
176
     1
 90
       50
176
     1
290
     0
176
     1
 90
       50
176
     1
 62
   256
176
     0
 40
1.0
176
     0
 90
        2
176
     1
  1
strokes_ogs.tif
176
     1
290
     0
176
     1
 40
1.0
176
     1
 40
1.0
176
     1
  0
VISUALSTYLE
  5
36
102
{ACAD_REACTORS
330
29
102
}
330
29
100
AcDbVisualStyle
  2
Thicken
 70
    13
177
     3
291
     1
 70
    58
 90
        2
176
     1
 90
        2
176
     1
 90
        0
176
     1
 90
        0
176
     1
 40
0.6
176
     1
 40
30.0
176
     1
 62
     7
420
 16777215
176
     1
 90
        1
176
     1
 90
        4
176
     1
 62
     7
176
     1
 62
   257
176
     1
 90
        1
176
     1
 90
        1
176
     1
 40
1.0
176
     1
 90
       12
176
     1
 62
     7
176
     1
 40
1.0
176
     1
 90
        1
176
     1
 90
        6
176
     1
 90
        2
176
     1
 62
     7
176
     1
 90
        5
176
     1
 90
        0
176
     1
 90
        0
176
     1
290
     0
176
     1
 90
        1
176
     1
 40
0.0
176
     1
 90
        0
176
     1
290
     0
176
     1
290
     1
176
     1
290
     1
176
     1
290
     0
176
     1
290
     0
176
     1
290
     0
176
     1
290
     0
176
     1
290
     0
176
     1
290
     0
176
     1
 90
       50
176
     1
 40
0.0
176
     1
 40
1.0
176
     1
 90
        0
176
     1
 62
    18
420
        0
176
     1
 90
       50
176
     1
 90
        3
176
     1
 62
     5
420
      255
176
     1
290
     0
176
     1
 90
       50
176
     1
 90
       50
176
     1
 90
       50
176
     1
290
     0
176
     1
 90
       50
176
     1
 62
   256
176
     0
 40
1.0
176
     0
 90
        2
176
     1
  1
strokes_ogs.tif
176
     1
290
     0
176
     1
 40
1.0
176
     1
 40
1.0
176
     1
  0
VISUALSTYLE
  5
30
102
{ACAD_REACTORS
330
29
102
}
330
29
100
AcDbVisualStyle
  2
Wireframe
 70
     5
177
     3
291
     0
 70
    58
 90
        0
176
     1
 90
        2
176
     1
 90
        0
176
     1
 90
        0
176
     1
 40
0.6
176
     1
 40
30.0
176
     1
 62
     7
420
 16777215
176
     1
 90
        1
176
     1
 90
        4
176
     1
 62
     7
176
     1
 62
   257
176
     1
 90
        1
176
     1
 90
        1
176
     1
 40
1.0
176
     1
 90
        0
176
     1
 62
   257
176
     1
 40
1.0
176
     1
 90
        1
176
     1
 90
        6
176
     1
 90
        2
176
     1
 62
     7
176
     1
 90
        3
176
     1
 90
        0
176
     1
 90
        0
176
     1
290
     0
176
     1
 90
        1
176
     1
 40
0.0
176
     1
 90
        0
176
     1
290
     0
176
     1
290
     1
176
     1
290
     1
176
     1
290
     0
176
     1
290
     0
176
     1
290
     0
176
     1
290
     0
176
     1
290
     0
176
     1
290
     0
176
     1
 90
       50
176
     1
 40
0.0
176
     1
 40
1.0
176
     1
 90
        0
176
     1
 62
    18
420
        0
176
     1
 90
       50
176
     1
 90
        3
176
     1
 62
     5
420
      255
176
     1
290
     0
176
     1
 90
       50
176
     1
 90
       50
176
     1
 90
       50
176
     1
290
     0
176
     1
 90
       50
176
     1
 62
   256
176
     0
 40
1.0
176
     0
 90
        2
176
     1
  1
strokes_ogs.tif
176
     1
290
     0
176
     1
 40
1.0
176
     1
 40
1.0
176
     1
  0
VISUALSTYLE
  5
3C
102
{ACAD_REACTORS
330
29
102
}
330
29
100
AcDbVisualStyle
  2
X-Ray
 70
    25
177
     3
291
     0
 70
    58
 90
        2
176
     1
 90
        2
176
     1
 90
        1
176
     1
 90
        1
176
     1
 40
0.5
176
     1
 40
30.0
176
     1
 62
     7
420
 16777215
176
     1
 90
        1
176
     1
 90
        0
176
     1
 62
     7
176
     1
 62
   257
176
     1
 90
        1
176
     1
 90
        1
176
     1
 40
1.0
176
     1
 90
        8
176
     1
 62
     7
176
     1
 40
1.0
176
     1
 90
        1
176
     1
 90
        6
176
     1
 90
        2
176
     1
 62
     7
176
     1
 90
        3
176
     1
 90
        0
176
     1
 90
        0
176
     1
290
     0
176
     1
 90
       13
176
     1
 40
0.0
176
     1
 90
        0
176
     1
290
     0
176
     1
290
     1
176
     1
290
     1
176
     1
290
     0
176
     1
290
     0
176
     1
290
     0
176
     1
290
     0
176
     1
290
     0
176
     1
290
     0
176
     1
 90
       50
176
     1
 40
0.0
176
     1
 40
1.0
176
     1
 90
        0
176
     1
 62
    18
420
        0
176
     1
 90
       50
176
     1
 90
        3
176
     1
 62
     5
420
      255
176
     1
290
     0
176
     1
 90
       50
176
     1
 90
       50
176
     1
 90
       50
176
     1
290
     0
176
     1
 90
       50
176
     1
 62
   256
176
     0
 40
1.0
176
     0
 90
        2
176
     1
  1
strokes_ogs.tif
176
     1
290
     0
176
     1
 40
1.0
176
     1
 40
1.0
176
     1
  0
DICTIONARYVAR
  5
278
102
{ACAD_REACTORS
330
273
102
}
330
273
100
DictionaryVariables
280
     0
  1
1:1
  0
DICTIONARYVAR
  5
275
102
{ACAD_REACTORS
330
273
102
}
330
273
100
DictionaryVariables
280
     0
  1
STANDARD
  0
DICTIONARYVAR
  5
274
102
{ACAD_REACTORS
330
273
102
}
330
273
100
DictionaryVariables
280
     0
  1
STANDARD
  0
DICTIONARYVAR
  5
276
102
{ACAD_REACTORS
330
273
102
}
330
273
100
DictionaryVariables
280
     0
  1
Imperial24
  0
DICTIONARYVAR
  5
277
102
{ACAD_REACTORS
330
273
102
}
330
273
100
DictionaryVariables
280
     0
  1
Imperial24
  0
DICTIONARY
  5
1A
330
19
100
AcDbDictionary
280
     1
281
     1
  3
BUMPTILE
360
1C
  3
DIFFUSETILE
360
1B
  3
OPACITYTILE
360
1F
  3
REFLECTIONTILE
360
1E
  3
REFRACTIONTILE
360
20
  3
SPECULARTILE
360
1D
  0
DICTIONARY
  5
12
330
11
100
AcDbDictionary
280
     1
281
     1
  3
BUMPTILE
360
14
  3
DIFFUSETILE
360
13
  3
OPACITYTILE
360
17
  3
REFLECTIONTILE
360
16
  3
REFRACTIONTILE
360
18
  3
SPECULARTILE
360
15
  0
DICTIONARY
  5
22
330
21
100
AcDbDictionary
280
     1
281
     1
  3
BUMPTILE
360
24
  3
DIFFUSETILE
360
23
  3
OPACITYTILE
360
27
  3
REFLECTIONTILE
360
26
  3
REFRACTIONTILE
360
28
  3
SPECULARTILE
360
25
  0
DICTIONARY
  5
279
330
65
100
AcDbDictionary
280
     1
281
     1
  3
ACAD_ROUNDTRIP_2008_TABLESTYLE_CELLSTYLEMAP
360
27A
  0
XRECORD
  5
1C
102
{ACAD_REACTORS
330
1A
102
}
330
1A
100
AcDbXrecord
280
     1
270
     1
271
     1
  0
XRECORD
  5
1B
102
{ACAD_REACTORS
330
1A
102
}
330
1A
100
AcDbXrecord
280
     1
270
     1
271
     1
  0
XRECORD
  5
1F
102
{ACAD_REACTORS
330
1A
102
}
330
1A
100
AcDbXrecord
280
     1
270
     1
271
     1
  0
XRECORD
  5
1E
102
{ACAD_REACTORS
330
1A
102
}
330
1A
100
AcDbXrecord
280
     1
270
     1
271
     1
  0
XRECORD
  5
20
102
{ACAD_REACTORS
330
1A
102
}
330
1A
100
AcDbXrecord
280
     1
270
     1
271
     1
  0
XRECORD
  5
1D
102
{ACAD_REACTORS
330
1A
102
}
330
1A
100
AcDbXrecord
280
     1
270
     1
271
     1
  0
XRECORD
  5
14
102
{ACAD_REACTORS
330
12
102
}
330
12
100
AcDbXrecord
280
     1
270
     1
271
     1
  0
XRECORD
  5
13
102
{ACAD_REACTORS
330
12
102
}
330
12
100
AcDbXrecord
280
     1
270
     1
271
     1
  0
XRECORD
  5
17
102
{ACAD_REACTORS
330
12
102
}
330
12
100
AcDbXrecord
280
     1
270
     1
271
     1
  0
XRECORD
  5
16
102
{ACAD_REACTORS
330
12
102
}
330
12
100
AcDbXrecord
280
     1
270
     1
271
     1
  0
XRECORD
  5
18
102
{ACAD_REACTORS
330
12
102
}
330
12
100
AcDbXrecord
280
     1
270
     1
271
     1
  0
XRECORD
  5
15
102
{ACAD_REACTORS
330
12
102
}
330
12
100
AcDbXrecord
280
     1
270
     1
271
     1
  0
XRECORD
  5
24
102
{ACAD_REACTORS
330
22
102
}
330
22
100
AcDbXrecord
280
     1
270
     1
271
     1
  0
XRECORD
  5
23
102
{ACAD_REACTORS
330
22
102
}
330
22
100
AcDbXrecord
280
     1
270
     1
271
     1
  0
XRECORD
  5
27
102
{ACAD_REACTORS
330
22
102
}
330
22
100
AcDbXrecord
280
     1
270
     1
271
     1
  0
XRECORD
  5
26
102
{ACAD_REACTORS
330
22
102
}
330
22
100
AcDbXrecord
280
     1
270
     1
271
     1
  0
XRECORD
  5
28
102
{ACAD_REACTORS
330
22
102
}
330
22
100
AcDbXrecord
280
     1
270
     1
271
     1
  0
XRECORD
  5
25
102
{ACAD_REACTORS
330
22
102
}
330
22
100
AcDbXrecord
280
     1
270
     1
271
     1
  0
CELLSTYLEMAP
  5
27A
102
{ACAD_REACTORS
330
279
102
}
330
279
100
AcDbCellStyleMap
 90
        3
300
CELLSTYLE
  1
TABLEFORMAT_BEGIN
 90
        5
170
     1
 91
        0
 92
    32768
 62
   257
 93
        1
300
CONTENTFORMAT
  1
CONTENTFORMAT_BEGIN
 90
        0
 91
        0
 92
      512
 93
        0
300

 40
0.0
140
1.0
 94
        5
 62
     0
340
55
144
0.25
309
CONTENTFORMAT_END
171
     0
 94
        0
309
TABLEFORMAT_END
  1
CELLSTYLE_BEGIN
 90
        1
 91
        1
300
_TITLE
309
CELLSTYLE_END
300
CELLSTYLE
  1
TABLEFORMAT_BEGIN
 90
        5
170
     1
 91
        0
 92
        0
 62
   257
 93
        1
300
CONTENTFORMAT
  1
CONTENTFORMAT_BEGIN
 90
        0
 91
        0
 92
      512
 93
        0
300

 40
0.0
140
1.0
 94
        5
 62
     0
340
55
144
0.18
309
CONTENTFORMAT_END
171
     0
 94
        0
309
TABLEFORMAT_END
  1
CELLSTYLE_BEGIN
 90
        2
 91
        1
300
_HEADER
309
CELLSTYLE_END
300
CELLSTYLE
  1
TABLEFORMAT_BEGIN
 90
        5
170
     1
 91
        0
 92
        0
 62
   257
 93
        1
300
CONTENTFORMAT
  1
CONTENTFORMAT_BEGIN
 90
        0
 91
        0
 92
      512
 93
        0
300

 40
0.0
140
1.0
 94
        2
 62
     0
340
55
144
0.18
309
CONTENTFORMAT_END
171
     0
 94
        0
309
TABLEFORMAT_END
  1
CELLSTYLE_BEGIN
 90
        3
 91
        2
300
_DATA
309
CELLSTYLE_END
  0
ENDSEC
  0
EOF
