999
DXF file: ekq060tm25.dxf
999
Pro/ENGINEER 2022281 by Parametric Technology Corporation
  0
SECTION
  2
HEADER
  9
$EXTMAX
 10
8.2677165354
 20
11.6929133858
 30
0.0
  9
$EXTMIN
 10
-0.0
 20
0.0
 30
0.0
  9
$LIMMIN
 10
-0.0
 20
0.0
  9
$LIMMAX
 10
8.2677165354
 20
11.6929133858
  9
$VIEWCTR
 10
4.1338582677
 20
5.8464566929
  9
$VIEWSIZE
 40
11.6929133858
  9
$CLAYER
  8
0
  9
$LTSCALE
 40
0.7622047244
  9
$CELTYPE
  6
BYLAYER
  9
$DIMSCALE
 40
1.0
  9
$DIMASZ
 40
0.1875
  9
$DIMEXO
 40
0.0625
  9
$DIMDLI
 40
0.5266141732
  9
$DIMEXE
 40
0.125
  9
$DIMCEN
 40
0.1247244094
  9
$DIMLFAC
 40
1.0
  9
$DIMBLK
  1
_FILLED
  9
$DIMALT
 70
0
  9
$DIMALTF
 40
25.4
  9
$DIMTXT
 40
0.15625
  9
$AUNITS
 70
0
  9
$PDMODE
 70
3
  9
$PDSIZE
 40
0.3125
  9
$TILEMODE
 70
1
  0
ENDSEC
  0
SECTION
  2
TABLES
  0
TABLE
  2
LTYPE
 70
6
  0
LTYPE
  2
BYBLOCK
 70
0
  3

 72
65
 73
0
 40
0.0
  0
LTYPE
  2
BYLAYER
 70
0
  3

 72
65
 73
0
 40
0.0
  0
LTYPE
  2
CONTINUOUS
 70
64
  3
Solid line
 72
65
 73
0
 40
0.0
  0
LTYPE
  2
CENTER
 70
64
  3
____ _ ____ _ ____ _ ____ _ ____ _ ____ _ ____
 72
65
 73
4
 40
0.6
 49
0.375
 49
-0.075
 49
0.075
 49
-0.075
  0
LTYPE
  2
HIDDEN
 70
64
  3
- - - - - - - - - - - - - - - - - - - -
 72
65
 73
2
 40
0.2
 49
0.1
 49
-0.1
  0
LTYPE
  2
PHANTOM
 70
64
  3
_____ _ _ _____ _ _ _____ _ _ _____
 72
65
 73
6
 40
0.8
 49
0.45
 49
-0.05
 49
0.1
 49
-0.05
 49
0.1
 49
-0.05
  0
LTYPE
  2
DOT
 70
64
  3
. . . . . . . . . . . . . . . . . . . .
 72
65
 73
2
 40
0.2
 49
0.1
 49
-0.1
  0
LTYPE
  2
DASHED
 70
64
  3
- - - - - - - - - - - - - - - - - - - -
 72
65
 73
2
 40
0.2
 49
0.1
 49
-0.1
  0
ENDTAB
  0
TABLE
  2
LAYER
 70
36
  0
LAYER
  2
0
 70
0
 62
7
  6
CONTINUOUS
  0
LAYER
  2
DEFAULT_1
 70
0
 62
7
  6
CENTER
  0
LAYER
  2
DEFAULT_2
 70
0
 62
8
  6
HIDDEN
  0
LAYER
  2
DEFAULT_3
 70
0
 62
7
  6
PHANTOM
  0
LAYER
  2
LAYER_33169
 70
0
 62
7
  6
CONTINUOUS
  0
LAYER
  2
LAYER_54882
 70
0
 62
7
  6
CONTINUOUS
  0
LAYER
  2
LAYER_77719
 70
0
 62
7
  6
CONTINUOUS
  0
LAYER
  2
NONE
 70
0
 62
7
  6
CONTINUOUS
  0
LAYER
  2
VOLUMEN
 70
0
 62
7
  6
CONTINUOUS
  0
LAYER
  2
VOLUMEN_1
 70
0
 62
7
  6
CONTINUOUS
  0
ENDTAB
  0
TABLE
  2
STYLE
 70
1
  0
STYLE
  2
STANDARD
 70
0
 40
0.0
 41
0.8
 50
0.0
 71
0
 42
0.2
  3
txt
  4

  0
STYLE
  2
TEXTSTYLE_1
 70
0
 40
0.0
 41
0.8
 50
0.0
 71
0
 42
0.2
  3
gdt
  4

  0
ENDTAB
  0
ENDSEC
  0
SECTION
  2
BLOCKS
  0
BLOCK
  8
0
  2
_FILLED
 70
64
 10
0.0
 20
0.0
  0
SOLID
  8
0
  6
BYBLOCK
 62
0
 10
0.0
 20
0.0
 11
-1.0
 21
0.1666666667
 12
-1.0
 22
-0.1666666667
 13
-1.0
 23
-0.1666666667
  0
ENDBLK
  8
0
  6
BYBLOCK
 62
0
  0
ENDSEC
  0
SECTION
  2
ENTITIES
  0
TEXT
  8
0
 62
2
  6
CONTINUOUS
 10
2.3279765367
 20
0.1684091145
  7
STANDARD
 40
0.15625
  1
MASSSTAB 
 41
0.8
 72
2
 11
3.4529765367
 21
0.1684091145
  0
TEXT
  8
0
 62
2
  6
CONTINUOUS
 10
3.4529765367
 20
0.1684091145
  7
STANDARD
 40
0.15625
  1
0.300
 41
0.8
 72
2
 11
4.0779765367
 21
0.1684091145
  0
TEXT
  8
0
 62
2
  6
CONTINUOUS
 10
2.4647435475
 20
3.959079176
  7
STANDARD
 40
0.15625
  1
MASSSTAB 
 41
0.8
 72
2
 11
3.5897435475
 21
3.959079176
  0
TEXT
  8
0
 62
2
  6
CONTINUOUS
 10
3.5897435475
 20
3.959079176
  7
STANDARD
 40
0.15625
  1
0.500
 41
0.8
 72
2
 11
4.2147435475
 21
3.959079176
  0
TEXT
  8
0
 62
2
  6
CONTINUOUS
 10
2.5534029861
 20
8.6584814604
  7
STANDARD
 40
0.15625
  1
MASSSTAB 
 41
0.8
 72
2
 11
3.6784029861
 21
8.6584814604
  0
TEXT
  8
0
 62
2
  6
CONTINUOUS
 10
3.6784029861
 20
8.6584814604
  7
STANDARD
 40
0.15625
  1
0.500
 41
0.8
 72
2
 11
4.3034029861
 21
8.6584814604
  0
LINE
  8
0
 62
7
  6
CONTINUOUS
 10
-0.0
 20
0.0
 11
8.2677165354
 21
0.0
  0
LINE
  8
0
 62
7
  6
CONTINUOUS
 10
-0.0
 20
0.0
 11
-0.0
 21
11.6929133858
  0
LINE
  8
0
 62
7
  6
CONTINUOUS
 10
8.2677165354
 20
0.0
 11
8.2677165354
 21
11.6929133858
  0
LINE
  8
0
 62
7
  6
CONTINUOUS
 10
-0.0
 20
11.6929133858
 11
8.2677165354
 21
11.6929133858
  0
POLYLINE
  8
0
 62
7
  6
CONTINUOUS
 66
1
 70
0
  0
VERTEX
  8
0
 62
7
  6
CONTINUOUS
 10
2.4410522814
 20
2.0326927601
  0
VERTEX
  8
0
 62
7
  6
CONTINUOUS
 10
2.4413789674
 20
2.0282820137
  0
VERTEX
  8
0
 62
7
  6
CONTINUOUS
 10
2.4422866992
 20
2.0244367146
  0
VERTEX
  8
0
 62
7
  6
CONTINUOUS
 10
2.4437978029
 20
2.021122953
  0
VERTEX
  8
0
 62
7
  6
CONTINUOUS
 10
2.4458453005
 20
2.0184424583
  0
VERTEX
  8
0
 62
7
  6
CONTINUOUS
 10
2.4483909118
 20
2.0164719883
  0
SEQEND
  0
LINE
  8
0
 62
7
  6
CONTINUOUS
 10
2.4159972124
 20
2.0638614129
 11
2.4159972124
 21
2.3268261345
  0
LINE
  8
0
 62
7
  6
CONTINUOUS
 10
2.4335356147
 20
2.3369518753
 11
2.4335356147
 21
2.335987527
  0
LINE
  8
0
 62
7
  6
CONTINUOUS
 10
2.450238994
 20
2.3273083929
 11
2.450238994
 21
2.3263440447
  0
LINE
  8
0
 62
7
  6
CONTINUOUS
 10
2.4661071418
 20
2.3268262549
 11
2.4661071418
 21
2.3171827725
  0
LINE
  8
0
 62
7
  6
CONTINUOUS
 10
2.4828105211
 20
2.3171827725
 11
2.4828105211
 21
2.3075392901
  0
LINE
  8
0
 62
7
  6
CONTINUOUS
 10
2.4832281056
 20
2.3072982031
 11
2.4832281056
 21
2.3169416855
  0
POLYLINE
  8
LAYER_33169
 62
7
  6
CONTINUOUS
 66
1
 70
0
  0
VERTEX
  8
LAYER_33169
 62
7
  6
CONTINUOUS
 10
2.5789774081
 20
1.4878262243
  0
VERTEX
  8
LAYER_33169
 62
7
  6
CONTINUOUS
 10
2.5790506596
 20
1.485963195
  0
VERTEX
  8
LAYER_33169
 62
7
  6
CONTINUOUS
 10
2.5796428379
 20
1.4822240659
  0
VERTEX
  8
LAYER_33169
 62
7
  6
CONTINUOUS
 10
2.5808291425
 20
1.4785305255
  0
VERTEX
  8
LAYER_33169
 62
7
  6
CONTINUOUS
 10
2.5826117557
 20
1.4748935724
  0
VERTEX
  8
LAYER_33169
 62
7
  6
CONTINUOUS
 10
2.5849692922
 20
1.4713569863
  0
VERTEX
  8
LAYER_33169
 62
7
  6
CONTINUOUS
 10
2.5878928191
 20
1.4679585046
  0
VERTEX
  8
LAYER_33169
 62
7
  6
CONTINUOUS
 10
2.5913471608
 20
1.4647272533
  0
VERTEX
  8
LAYER_33169
 62
7
  6
CONTINUOUS
 10
2.5952893949
 20
1.4617101503
  0
VERTEX
  8
LAYER_33169
 62
7
  6
CONTINUOUS
 10
2.5997338287
 20
1.4588915562
  0
SEQEND
  0
LINE
  8
LAYER_33169
 62
7
  6
CONTINUOUS
 10
2.5789774078
 20
1.9410795453
 11
2.5789774078
 21
1.4878222443
  0
LINE
  8
0
 62
7
  6
CONTINUOUS
 10
2.8141970095
 20
1.6228194571
 11
2.8148209668
 21
1.5999129715
  0
LINE
  8
LAYER_33169
 62
7
  6
CONTINUOUS
 10
2.7207096912
 20
1.8592522245
 11
2.7207096912
 21
1.4878222443
  0
LINE
  8
0
 62
7
  6
CONTINUOUS
 10
2.8141970091
 20
1.6228378878
 11
2.8141970091
 21
1.8052785174
  0
LINE
  8
0
 62
7
  6
CONTINUOUS
 10
2.8148209668
 20
1.8049182834
 11
2.8148209668
 21
1.5999129715
  0
LINE
  8
0
 62
7
  6
CONTINUOUS
 10
4.0604312149
 20
3.2762348813
 11
2.4335356147
 21
2.3369518753
  0
LINE
  8
0
 62
7
  6
CONTINUOUS
 10
2.4327004527
 20
2.3364696971
 11
2.4159972124
 21
2.3268261345
  0
LINE
  8
0
 62
7
  6
CONTINUOUS
 10
4.0612663769
 20
3.2767170594
 11
4.0779696172
 21
3.2863606221
  0
LINE
  8
0
 62
7
  6
CONTINUOUS
 10
2.450238994
 20
2.3273083929
 11
4.0771345943
 21
3.2665913989
  0
LINE
  8
0
 62
7
  6
CONTINUOUS
 10
4.0779698258
 20
3.2574300545
 11
2.4661071418
 21
2.3268262549
  0
POLYLINE
  8
LAYER_33169
 62
7
  6
CONTINUOUS
 66
1
 70
0
  0
VERTEX
  8
LAYER_33169
 62
7
  6
CONTINUOUS
 10
4.0278727618
 20
0.6343738119
  0
VERTEX
  8
LAYER_33169
 62
7
  6
CONTINUOUS
 10
4.0327240896
 20
0.6318220183
  0
VERTEX
  8
LAYER_33169
 62
7
  6
CONTINUOUS
 10
4.0379208199
 20
0.6295555502
  0
VERTEX
  8
LAYER_33169
 62
7
  6
CONTINUOUS
 10
4.0434888887
 20
0.6275659188
  0
VERTEX
  8
LAYER_33169
 62
7
  6
CONTINUOUS
 10
4.0493504875
 20
0.6258785901
  0
VERTEX
  8
LAYER_33169
 62
7
  6
CONTINUOUS
 10
4.0554578782
 20
0.6245140085
  0
VERTEX
  8
LAYER_33169
 62
7
  6
CONTINUOUS
 10
4.0617467856
 20
0.6234787501
  0
VERTEX
  8
LAYER_33169
 62
7
  6
CONTINUOUS
 10
4.0681433264
 20
0.6227861087
  0
VERTEX
  8
LAYER_33169
 62
7
  6
CONTINUOUS
 10
4.0746285875
 20
0.6224363752
  0
VERTEX
  8
LAYER_33169
 62
7
  6
CONTINUOUS
 10
4.0811879323
 20
0.6224345582
  0
VERTEX
  8
LAYER_33169
 62
7
  6
CONTINUOUS
 10
4.0877346482
 20
0.622779799
  0
VERTEX
  8
LAYER_33169
 62
7
  6
CONTINUOUS
 10
4.0941947498
 20
0.6234770516
  0
VERTEX
  8
LAYER_33169
 62
7
  6
CONTINUOUS
 10
4.1005154178
 20
0.6245138868
  0
VERTEX
  8
LAYER_33169
 62
7
  6
CONTINUOUS
 10
4.1066353157
 20
0.6258852883
  0
VERTEX
  8
LAYER_33169
 62
7
  6
CONTINUOUS
 10
4.1125060098
 20
0.6275739709
  0
VERTEX
  8
LAYER_33169
 62
7
  6
CONTINUOUS
 10
4.1180721801
 20
0.6295679973
  0
VERTEX
  8
LAYER_33169
 62
7
  6
CONTINUOUS
 10
4.1232931485
 20
0.6318463081
  0
VERTEX
  8
LAYER_33169
 62
7
  6
CONTINUOUS
 10
4.1281211322
 20
0.6343920316
  0
VERTEX
  8
LAYER_33169
 62
7
  6
CONTINUOUS
 10
4.1325221242
 20
0.6371806675
  0
VERTEX
  8
LAYER_33169
 62
7
  6
CONTINUOUS
 10
4.1364550155
 20
0.6401912419
  0
VERTEX
  8
LAYER_33169
 62
7
  6
CONTINUOUS
 10
4.1398933293
 20
0.6433963042
  0
VERTEX
  8
LAYER_33169
 62
7
  6
CONTINUOUS
 10
4.1428029062
 20
0.6467712414
  0
VERTEX
  8
LAYER_33169
 62
7
  6
CONTINUOUS
 10
4.1451656858
 20
0.6502865659
  0
VERTEX
  8
LAYER_33169
 62
7
  6
CONTINUOUS
 10
4.1469553174
 20
0.6539154343
  0
VERTEX
  8
LAYER_33169
 62
7
  6
CONTINUOUS
 10
4.148162512
 20
0.657625301
  0
VERTEX
  8
LAYER_33169
 62
7
  6
CONTINUOUS
 10
4.148767399
 20
0.6613885542
  0
VERTEX
  8
LAYER_33169
 62
7
  6
CONTINUOUS
 10
4.148848624
 20
0.6633005199
  0
SEQEND
  0
POLYLINE
  8
LAYER_33169
 62
7
  6
CONTINUOUS
 66
1
 70
0
  0
VERTEX
  8
LAYER_33169
 62
7
  6
CONTINUOUS
 10
2.5997338287
 20
1.4588915562
  0
VERTEX
  8
LAYER_33169
 62
7
  6
CONTINUOUS
 10
2.6045851566
 20
1.4563397627
  0
VERTEX
  8
LAYER_33169
 62
7
  6
CONTINUOUS
 10
2.6097818868
 20
1.4540732945
  0
VERTEX
  8
LAYER_33169
 62
7
  6
CONTINUOUS
 10
2.6153499556
 20
1.4520836632
  0
VERTEX
  8
LAYER_33169
 62
7
  6
CONTINUOUS
 10
2.6212115544
 20
1.4503963345
  0
VERTEX
  8
LAYER_33169
 62
7
  6
CONTINUOUS
 10
2.6273189451
 20
1.4490317529
  0
VERTEX
  8
LAYER_33169
 62
7
  6
CONTINUOUS
 10
2.6336078525
 20
1.4479964944
  0
VERTEX
  8
LAYER_33169
 62
7
  6
CONTINUOUS
 10
2.6400043933
 20
1.447303853
  0
VERTEX
  8
LAYER_33169
 62
7
  6
CONTINUOUS
 10
2.6464896544
 20
1.4469541196
  0
VERTEX
  8
LAYER_33169
 62
7
  6
CONTINUOUS
 10
2.6530489993
 20
1.4469523026
  0
VERTEX
  8
LAYER_33169
 62
7
  6
CONTINUOUS
 10
2.6595957151
 20
1.4472975433
  0
VERTEX
  8
LAYER_33169
 62
7
  6
CONTINUOUS
 10
2.6660558167
 20
1.447994796
  0
VERTEX
  8
LAYER_33169
 62
7
  6
CONTINUOUS
 10
2.6723764847
 20
1.4490316312
  0
VERTEX
  8
LAYER_33169
 62
7
  6
CONTINUOUS
 10
2.6784963826
 20
1.4504030326
  0
VERTEX
  8
LAYER_33169
 62
7
  6
CONTINUOUS
 10
2.6843670767
 20
1.4520917152
  0
VERTEX
  8
LAYER_33169
 62
7
  6
CONTINUOUS
 10
2.6899332471
 20
1.4540857416
  0
VERTEX
  8
LAYER_33169
 62
7
  6
CONTINUOUS
 10
2.6951542154
 20
1.4563640525
  0
VERTEX
  8
LAYER_33169
 62
7
  6
CONTINUOUS
 10
2.6999821991
 20
1.458909776
  0
VERTEX
  8
LAYER_33169
 62
7
  6
CONTINUOUS
 10
2.7043831911
 20
1.4616984119
  0
VERTEX
  8
LAYER_33169
 62
7
  6
CONTINUOUS
 10
2.7083160824
 20
1.4647089863
  0
VERTEX
  8
LAYER_33169
 62
7
  6
CONTINUOUS
 10
2.7117543962
 20
1.4679140485
  0
VERTEX
  8
LAYER_33169
 62
7
  6
CONTINUOUS
 10
2.7146639731
 20
1.4712889857
  0
VERTEX
  8
LAYER_33169
 62
7
  6
CONTINUOUS
 10
2.7170267527
 20
1.4748043102
  0
VERTEX
  8
LAYER_33169
 62
7
  6
CONTINUOUS
 10
2.7188163843
 20
1.4784331786
  0
VERTEX
  8
LAYER_33169
 62
7
  6
CONTINUOUS
 10
2.720023579
 20
1.4821430453
  0
VERTEX
  8
LAYER_33169
 62
7
  6
CONTINUOUS
 10
2.720628466
 20
1.4859062986
  0
VERTEX
  8
LAYER_33169
 62
7
  6
CONTINUOUS
 10
2.7207096909
 20
1.4878182643
  0
SEQEND
  0
LINE
  8
0
 62
7
  6
CONTINUOUS
 10
2.4410522814
 20
2.0326927601
 11
2.4159972124
 21
2.0638614129
  0
LINE
  8
0
 62
7
  6
CONTINUOUS
 10
2.4828105211
 20
2.3171827725
 11
4.0946732052
 21
3.2477865721
  0
LINE
  8
0
 62
7
  6
CONTINUOUS
 10
2.4999313458
 20
2.3265852481
 11
2.4832281056
 21
2.3169416855
  0
LINE
  8
0
 62
7
  6
CONTINUOUS
 10
4.0783875494
 20
3.2379019223
 11
4.0950907896
 21
3.247545485
  0
POLYLINE
  8
0
 62
7
  6
CONTINUOUS
 66
1
 70
0
  0
VERTEX
  8
0
 62
7
  6
CONTINUOUS
 10
4.1488486243
 20
0.894469876
  0
VERTEX
  8
0
 62
7
  6
CONTINUOUS
 10
4.177158555
 20
0.8954558331
  0
VERTEX
  8
0
 62
7
  6
CONTINUOUS
 10
4.2232685209
 20
0.8980427869
  0
VERTEX
  8
0
 62
7
  6
CONTINUOUS
 10
4.2691517612
 20
0.9016019207
  0
VERTEX
  8
0
 62
7
  6
CONTINUOUS
 10
4.3148394706
 20
0.9061346521
  0
SEQEND
  0
LINE
  8
0
 62
7
  6
CONTINUOUS
 10
2.6999577771
 20
2.2111025468
 11
4.0781787608
 21
3.006814053
  0
LINE
  8
0
 62
7
  6
CONTINUOUS
 10
4.0779700345
 20
2.9874062535
 11
2.7166613008
 21
2.2014589811
  0
LINE
  8
0
 62
7
  6
CONTINUOUS
 10
4.0779834562
 20
1.1043349151
 11
4.0529283872
 21
1.1020967095
  0
LINE
  8
0
 62
7
  6
CONTINUOUS
 10
4.0812039985
 20
1.1058049564
 11
4.0826351148
 21
1.105870921
  0
LINE
  8
0
 62
7
  6
CONTINUOUS
 10
2.8148209668
 20
1.5999129715
 11
4.0071163408
 21
0.911556489
  0
POLYLINE
  8
VOLUMEN
 62
7
  6
CONTINUOUS
 66
1
 70
0
  0
VERTEX
  8
VOLUMEN
 62
7
  6
CONTINUOUS
 10
3.3988426784
 20
2.3268307461
  0
VERTEX
  8
VOLUMEN
 62
7
  6
CONTINUOUS
 10
3.4002736186
 20
2.3522224571
  0
VERTEX
  8
VOLUMEN
 62
7
  6
CONTINUOUS
 10
3.4045920033
 20
2.3777407515
  0
VERTEX
  8
VOLUMEN
 62
7
  6
CONTINUOUS
 10
3.411808697
 20
2.4030590336
  0
VERTEX
  8
VOLUMEN
 62
7
  6
CONTINUOUS
 10
3.4218622311
 20
2.4280490541
  0
VERTEX
  8
VOLUMEN
 62
7
  6
CONTINUOUS
 10
3.43470863
 20
2.4525652342
  0
VERTEX
  8
VOLUMEN
 62
7
  6
CONTINUOUS
 10
3.4503060154
 20
2.476552659
  0
VERTEX
  8
VOLUMEN
 62
7
  6
CONTINUOUS
 10
3.4686322465
 20
2.4999497074
  0
VERTEX
  8
VOLUMEN
 62
7
  6
CONTINUOUS
 10
3.4895841354
 20
2.5226309195
  0
VERTEX
  8
VOLUMEN
 62
7
  6
CONTINUOUS
 10
3.5130934663
 20
2.5444822423
  0
VERTEX
  8
VOLUMEN
 62
7
  6
CONTINUOUS
 10
3.5390331821
 20
2.5654078342
  0
VERTEX
  8
VOLUMEN
 62
7
  6
CONTINUOUS
 10
3.5672347625
 20
2.5852571038
  0
VERTEX
  8
VOLUMEN
 62
7
  6
CONTINUOUS
 10
3.5977543808
 20
2.6040802481
  0
SEQEND
  0
LINE
  8
VOLUMEN
 62
7
  6
CONTINUOUS
 10
3.415646909
 20
2.3231707627
 11
3.4166524343
 21
2.3290353305
  0
POLYLINE
  8
VOLUMEN
 62
7
  6
CONTINUOUS
 66
1
 70
0
  0
VERTEX
  8
VOLUMEN
 62
7
  6
CONTINUOUS
 10
3.5977543808
 20
2.6040802481
  0
VERTEX
  8
VOLUMEN
 62
7
  6
CONTINUOUS
 10
3.6302638336
 20
2.6216534588
  0
VERTEX
  8
VOLUMEN
 62
7
  6
CONTINUOUS
 10
3.6645421002
 20
2.6378962556
  0
VERTEX
  8
VOLUMEN
 62
7
  6
CONTINUOUS
 10
3.7006681813
 20
2.6528391386
  0
VERTEX
  8
VOLUMEN
 62
7
  6
CONTINUOUS
 10
3.7384050747
 20
2.6663906073
  0
VERTEX
  8
VOLUMEN
 62
7
  6
CONTINUOUS
 10
3.7776010075
 20
2.6784834405
  0
VERTEX
  8
VOLUMEN
 62
7
  6
CONTINUOUS
 10
3.8180792928
 20
2.6890752999
  0
VERTEX
  8
VOLUMEN
 62
7
  6
CONTINUOUS
 10
3.8596742383
 20
2.6981109888
  0
VERTEX
  8
VOLUMEN
 62
7
  6
CONTINUOUS
 10
3.9022010881
 20
2.7055618613
  0
VERTEX
  8
VOLUMEN
 62
7
  6
CONTINUOUS
 10
3.9454830735
 20
2.7113856931
  0
VERTEX
  8
VOLUMEN
 62
7
  6
CONTINUOUS
 10
3.9893305406
 20
2.7155680226
  0
VERTEX
  8
VOLUMEN
 62
7
  6
CONTINUOUS
 10
4.0335586783
 20
2.7180803233
  0
VERTEX
  8
VOLUMEN
 62
7
  6
CONTINUOUS
 10
4.0779761901
 20
2.7189225655
  0
VERTEX
  8
VOLUMEN
 62
7
  6
CONTINUOUS
 10
4.1223933945
 20
2.7180804099
  0
VERTEX
  8
VOLUMEN
 62
7
  6
CONTINUOUS
 10
4.166620636
 20
2.7155682585
  0
VERTEX
  8
VOLUMEN
 62
7
  6
CONTINUOUS
 10
4.2103734216
 20
2.711396936
  0
VERTEX
  8
VOLUMEN
 62
7
  6
CONTINUOUS
 10
4.2537465822
 20
2.7055628341
  0
SEQEND
  0
LINE
  8
0
 62
7
  6
CONTINUOUS
 10
2.4483909069
 20
2.0164719911
 11
4.0602670127
 21
1.0858759404
  0
LINE
  8
0
 62
7
  6
CONTINUOUS
 10
2.4410522814
 20
2.0326927601
 11
4.0529283872
 21
1.1020967095
  0
LINE
  8
0
 62
7
  6
CONTINUOUS
 10
4.0885725157
 20
1.110448475
 11
4.1030383165
 21
1.1020968299
  0
LINE
  8
0
 62
7
  6
CONTINUOUS
 10
4.0946866964
 20
1.114942826
 11
4.0955218584
 21
1.1144606559
  0
POLYLINE
  8
0
 62
7
  6
CONTINUOUS
 66
1
 70
0
  0
VERTEX
  8
0
 62
7
  6
CONTINUOUS
 10
4.0602670041
 20
1.0858759454
  0
VERTEX
  8
0
 62
7
  6
CONTINUOUS
 10
4.0577205473
 20
1.0878472752
  0
VERTEX
  8
0
 62
7
  6
CONTINUOUS
 10
4.0556733297
 20
1.090527873
  0
VERTEX
  8
0
 62
7
  6
CONTINUOUS
 10
4.0541625036
 20
1.0938415567
  0
VERTEX
  8
0
 62
7
  6
CONTINUOUS
 10
4.0532549545
 20
1.0976865242
  0
VERTEX
  8
0
 62
7
  6
CONTINUOUS
 10
4.0529283872
 20
1.1020967095
  0
SEQEND
  0
POLYLINE
  8
VOLUMEN_1
 62
7
  6
CONTINUOUS
 66
1
 70
0
  0
VERTEX
  8
VOLUMEN_1
 62
7
  6
CONTINUOUS
 10
3.4188337994
 20
2.2951613206
  0
VERTEX
  8
VOLUMEN_1
 62
7
  6
CONTINUOUS
 10
3.4166619035
 20
2.3201051249
  0
VERTEX
  8
VOLUMEN_1
 62
7
  6
CONTINUOUS
 10
3.4165592142
 20
2.3268423056
  0
SEQEND
  0
POLYLINE
  8
VOLUMEN
 62
7
  6
CONTINUOUS
 66
1
 70
0
  0
VERTEX
  8
VOLUMEN
 62
7
  6
CONTINUOUS
 10
3.3988426784
 20
2.1821753571
  0
VERTEX
  8
VOLUMEN
 62
7
  6
CONTINUOUS
 10
3.4003596503
 20
2.1560265574
  0
VERTEX
  8
VOLUMEN
 62
7
  6
CONTINUOUS
 10
3.4047837683
 20
2.1304257014
  0
VERTEX
  8
VOLUMEN
 62
7
  6
CONTINUOUS
 10
3.4121083673
 20
2.1050699699
  0
SEQEND
  0
POLYLINE
  8
VOLUMEN
 62
7
  6
CONTINUOUS
 66
1
 70
0
  0
VERTEX
  8
VOLUMEN
 62
7
  6
CONTINUOUS
 10
3.4141970091
 20
2.3268308315
  0
VERTEX
  8
VOLUMEN
 62
7
  6
CONTINUOUS
 10
3.4156519456
 20
2.3015281065
  0
VERTEX
  8
VOLUMEN
 62
7
  6
CONTINUOUS
 10
3.4199257468
 20
2.2765910277
  0
VERTEX
  8
VOLUMEN
 62
7
  6
CONTINUOUS
 10
3.4270160805
 20
2.2518929311
  0
VERTEX
  8
VOLUMEN
 62
7
  6
CONTINUOUS
 10
3.4368666054
 20
2.2275322616
  0
VERTEX
  8
VOLUMEN
 62
7
  6
CONTINUOUS
 10
3.4494374955
 20
2.2036247825
  0
VERTEX
  8
VOLUMEN
 62
7
  6
CONTINUOUS
 10
3.4646764869
 20
2.180242015
  0
VERTEX
  8
VOLUMEN
 62
7
  6
CONTINUOUS
 10
3.4825484301
 20
2.157458985
  0
VERTEX
  8
VOLUMEN
 62
7
  6
CONTINUOUS
 10
3.5029621556
 20
2.1353809417
  0
VERTEX
  8
VOLUMEN
 62
7
  6
CONTINUOUS
 10
3.5258523689
 20
2.1141083984
  0
VERTEX
  8
VOLUMEN
 62
7
  6
CONTINUOUS
 10
3.5511062961
 20
2.0937305889
  0
VERTEX
  8
VOLUMEN
 62
7
  6
CONTINUOUS
 10
3.5786420886
 20
2.0743401931
  0
VERTEX
  8
VOLUMEN
 62
7
  6
CONTINUOUS
 10
3.6083016766
 20
2.0560273856
  0
VERTEX
  8
VOLUMEN
 62
7
  6
CONTINUOUS
 10
3.6399272723
 20
2.038901296
  0
VERTEX
  8
VOLUMEN
 62
7
  6
CONTINUOUS
 10
3.6734361816
 20
2.022997739
  0
VERTEX
  8
VOLUMEN
 62
7
  6
CONTINUOUS
 10
3.7087589532
 20
2.0083627999
  0
VERTEX
  8
VOLUMEN
 62
7
  6
CONTINUOUS
 10
3.7456980723
 20
1.9950747968
  0
VERTEX
  8
VOLUMEN
 62
7
  6
CONTINUOUS
 10
3.7840960169
 20
1.9832125685
  0
VERTEX
  8
VOLUMEN
 62
7
  6
CONTINUOUS
 10
3.8237633582
 20
1.9728206379
  0
VERTEX
  8
VOLUMEN
 62
7
  6
CONTINUOUS
 10
3.8644279181
 20
1.9639786577
  0
VERTEX
  8
VOLUMEN
 62
7
  6
CONTINUOUS
 10
3.9061804226
 20
1.9566600771
  0
SEQEND
  0
POLYLINE
  8
0
 62
7
  6
CONTINUOUS
 66
1
 70
0
  0
VERTEX
  8
0
 62
7
  6
CONTINUOUS
 10
3.3988426784
 20
2.0857369047
  0
VERTEX
  8
0
 62
7
  6
CONTINUOUS
 10
3.4003018542
 20
2.0600899199
  0
VERTEX
  8
0
 62
7
  6
CONTINUOUS
 10
3.4046534586
 20
2.034555696
  0
VERTEX
  8
0
 62
7
  6
CONTINUOUS
 10
3.4118788687
 20
2.0092954094
  0
VERTEX
  8
0
 62
7
  6
CONTINUOUS
 10
3.4219843353
 20
1.98425431
  0
SEQEND
  0
POLYLINE
  8
VOLUMEN_1
 62
7
  6
CONTINUOUS
 66
1
 70
0
  0
VERTEX
  8
VOLUMEN_1
 62
7
  6
CONTINUOUS
 10
3.4165592142
 20
2.3075550175
  0
VERTEX
  8
VOLUMEN_1
 62
7
  6
CONTINUOUS
 10
3.4166752166
 20
2.3003949351
  0
VERTEX
  8
VOLUMEN_1
 62
7
  6
CONTINUOUS
 10
3.4175639027
 20
2.2903720836
  0
SEQEND
  0
LINE
  8
VOLUMEN
 62
7
  6
CONTINUOUS
 10
3.3988426784
 20
2.3268301294
 11
3.3988426784
 21
2.1821741893
  0
LINE
  8
0
 62
7
  6
CONTINUOUS
 10
3.3988426784
 20
2.1821741893
 11
3.3988426784
 21
2.085736896
  0
LINE
  8
VOLUMEN_1
 62
7
  6
CONTINUOUS
 10
3.4165592138
 20
2.3268301294
 11
3.4165592138
 21
2.3075426707
  0
POLYLINE
  8
VOLUMEN_1
 62
7
  6
CONTINUOUS
 66
1
 70
0
  0
VERTEX
  8
VOLUMEN_1
 62
7
  6
CONTINUOUS
 10
3.4165592142
 20
2.3268423056
  0
VERTEX
  8
VOLUMEN_1
 62
7
  6
CONTINUOUS
 10
3.417340345
 20
2.3452185961
  0
VERTEX
  8
VOLUMEN_1
 62
7
  6
CONTINUOUS
 10
3.4208562606
 20
2.3702875621
  0
VERTEX
  8
VOLUMEN_1
 62
7
  6
CONTINUOUS
 10
3.4272274139
 20
2.3951230427
  0
VERTEX
  8
VOLUMEN_1
 62
7
  6
CONTINUOUS
 10
3.436394368
 20
2.4196460627
  0
VERTEX
  8
VOLUMEN_1
 62
7
  6
CONTINUOUS
 10
3.448328996
 20
2.4437479052
  0
VERTEX
  8
VOLUMEN_1
 62
7
  6
CONTINUOUS
 10
3.4629551313
 20
2.4673288149
  0
VERTEX
  8
VOLUMEN_1
 62
7
  6
CONTINUOUS
 10
3.4802192827
 20
2.490283148
  0
VERTEX
  8
VOLUMEN_1
 62
7
  6
CONTINUOUS
 10
3.5000252967
 20
2.512519853
  0
VERTEX
  8
VOLUMEN_1
 62
7
  6
CONTINUOUS
 10
3.5222948244
 20
2.5339387577
  0
VERTEX
  8
VOLUMEN_1
 62
7
  6
CONTINUOUS
 10
3.5469209612
 20
2.5544615792
  0
VERTEX
  8
VOLUMEN_1
 62
7
  6
CONTINUOUS
 10
3.573810694
 20
2.574000632
  0
VERTEX
  8
VOLUMEN_1
 62
7
  6
CONTINUOUS
 10
3.6028440005
 20
2.5924839515
  0
VERTEX
  8
VOLUMEN_1
 62
7
  6
CONTINUOUS
 10
3.6339146652
 20
2.6098321142
  0
VERTEX
  8
VOLUMEN_1
 62
7
  6
CONTINUOUS
 10
3.6668882548
 20
2.6259798123
  0
VERTEX
  8
VOLUMEN_1
 62
7
  6
CONTINUOUS
 10
3.7016850356
 20
2.6408644908
  0
VERTEX
  8
VOLUMEN_1
 62
7
  6
CONTINUOUS
 10
3.7380346934
 20
2.6543984682
  0
VERTEX
  8
VOLUMEN_1
 62
7
  6
CONTINUOUS
 10
3.7756447987
 20
2.6664693941
  0
VERTEX
  8
VOLUMEN_1
 62
7
  6
CONTINUOUS
 10
3.814501963
 20
2.6770887216
  0
VERTEX
  8
VOLUMEN_1
 62
7
  6
CONTINUOUS
 10
3.8545647336
 20
2.6862477459
  0
VERTEX
  8
VOLUMEN_1
 62
7
  6
CONTINUOUS
 10
3.8956248733
 20
2.693894591
  0
VERTEX
  8
VOLUMEN_1
 62
7
  6
CONTINUOUS
 10
3.9375207053
 20
2.6999820834
  0
VERTEX
  8
VOLUMEN_1
 62
7
  6
CONTINUOUS
 10
3.9800710942
 20
2.70448741
  0
VERTEX
  8
VOLUMEN_1
 62
7
  6
CONTINUOUS
 10
4.0230116337
 20
2.7073672157
  0
VERTEX
  8
VOLUMEN_1
 62
7
  6
CONTINUOUS
 10
4.0664304594
 20
2.7086359521
  0
SEQEND
  0
LINE
  8
VOLUMEN
 62
7
  6
CONTINUOUS
 10
3.4150278892
 20
2.3123810385
 11
3.415646909
 21
2.3231707627
  0
POLYLINE
  8
0
 62
7
  6
CONTINUOUS
 66
1
 70
0
  0
VERTEX
  8
0
 62
7
  6
CONTINUOUS
 10
3.4219843353
 20
1.98425431
  0
VERTEX
  8
0
 62
7
  6
CONTINUOUS
 10
3.4349214503
 20
1.9596479096
  0
VERTEX
  8
0
 62
7
  6
CONTINUOUS
 10
3.4505431704
 20
1.9356833304
  0
VERTEX
  8
0
 62
7
  6
CONTINUOUS
 10
3.4688928807
 20
1.9123103175
  0
VERTEX
  8
0
 62
7
  6
CONTINUOUS
 10
3.4898404261
 20
1.8896796355
  0
VERTEX
  8
0
 62
7
  6
CONTINUOUS
 10
3.5133104737
 20
1.8678959608
  0
VERTEX
  8
0
 62
7
  6
CONTINUOUS
 10
3.539181942
 20
1.8470473032
  0
VERTEX
  8
0
 62
7
  6
CONTINUOUS
 10
3.5673278016
 20
1.8272430395
  0
VERTEX
  8
0
 62
7
  6
CONTINUOUS
 10
3.5976905643
 20
1.8085237436
  0
SEQEND
  0
LINE
  8
VOLUMEN
 62
7
  6
CONTINUOUS
 10
3.4121083673
 20
2.1050699699
 11
3.4222766885
 21
2.0800643409
  0
LINE
  8
0
 62
7
  6
CONTINUOUS
 10
3.4219843353
 20
2.0806916033
 11
3.4118788687
 21
2.1057327027
  0
LINE
  8
0
 62
7
  6
CONTINUOUS
 10
3.4118788687
 20
2.1057327027
 11
3.4046534586
 21
2.1309929894
  0
POLYLINE
  8
0
 62
7
  6
CONTINUOUS
 66
1
 70
0
  0
VERTEX
  8
0
 62
7
  6
CONTINUOUS
 10
3.4046534586
 20
2.1309929894
  0
VERTEX
  8
0
 62
7
  6
CONTINUOUS
 10
3.4003018542
 20
2.1565272132
  0
VERTEX
  8
0
 62
7
  6
CONTINUOUS
 10
3.3988426784
 20
2.1821741981
  0
SEQEND
  0
LINE
  8
0
 62
7
  6
CONTINUOUS
 10
2.4159972124
 20
2.3268261345
 11
4.0779834562
 21
1.3672996366
  0
LINE
  8
0
 62
7
  6
CONTINUOUS
 10
4.0946866964
 20
1.3769431993
 11
2.4327004527
 21
2.3364696971
  0
LINE
  8
0
 62
7
  6
CONTINUOUS
 10
2.450238994
 20
2.3273083929
 11
2.4335356147
 21
2.3369518753
  0
LINE
  8
0
 62
7
  6
CONTINUOUS
 10
4.0788184791
 20
1.3870688598
 11
4.0955218584
 21
1.3774253775
  0
LINE
  8
0
 62
7
  6
CONTINUOUS
 10
4.0608622837
 20
1.4061147737
 11
2.4832281056
 21
2.3169416855
  0
LINE
  8
0
 62
7
  6
CONTINUOUS
 10
2.4828105211
 20
2.3171827725
 11
2.4661071418
 21
2.3268262549
  0
LINE
  8
0
 62
7
  6
CONTINUOUS
 10
4.0612798682
 20
1.4058736866
 11
4.0779832475
 21
1.3962302042
  0
LINE
  8
0
 62
7
  6
CONTINUOUS
 10
2.4999313458
 20
2.3265852481
 11
4.077565524
 21
1.4157583364
  0
LINE
  8
0
 62
7
  6
CONTINUOUS
 10
4.1030383165
 20
1.1020968299
 11
4.0955218584
 21
1.1144606559
  0
POLYLINE
  8
VOLUMEN
 62
7
  6
CONTINUOUS
 66
1
 70
0
  0
VERTEX
  8
VOLUMEN
 62
7
  6
CONTINUOUS
 10
3.4222766885
 20
2.0800643409
  0
VERTEX
  8
VOLUMEN
 62
7
  6
CONTINUOUS
 10
3.435253995
 20
2.0555203181
  0
VERTEX
  8
VOLUMEN
 62
7
  6
CONTINUOUS
 10
3.4509669413
 20
2.0315316886
  0
VERTEX
  8
VOLUMEN
 62
7
  6
CONTINUOUS
 10
3.4693604571
 20
2.0081996388
  0
VERTEX
  8
VOLUMEN
 62
7
  6
CONTINUOUS
 10
3.4903449791
 20
1.9856134739
  0
VERTEX
  8
VOLUMEN
 62
7
  6
CONTINUOUS
 10
3.5138489091
 20
1.9638676915
  0
VERTEX
  8
VOLUMEN
 62
7
  6
CONTINUOUS
 10
3.5397632811
 20
1.9430479007
  0
VERTEX
  8
VOLUMEN
 62
7
  6
CONTINUOUS
 10
3.5680314999
 20
1.9232301177
  0
VERTEX
  8
VOLUMEN
 62
7
  6
CONTINUOUS
 10
3.5984248544
 20
1.904537619
  0
VERTEX
  8
VOLUMEN
 62
7
  6
CONTINUOUS
 10
3.6307025441
 20
1.8871218849
  0
VERTEX
  8
VOLUMEN
 62
7
  6
CONTINUOUS
 10
3.6648442419
 20
1.8709743198
  0
VERTEX
  8
VOLUMEN
 62
7
  6
CONTINUOUS
 10
3.7008103435
 20
1.8561100265
  0
VERTEX
  8
VOLUMEN
 62
7
  6
CONTINUOUS
 10
3.73841788
 20
1.8426093901
  0
VERTEX
  8
VOLUMEN
 62
7
  6
CONTINUOUS
 10
3.7775268067
 20
1.8305416763
  0
VERTEX
  8
VOLUMEN
 62
7
  6
CONTINUOUS
 10
3.8179687466
 20
1.819955346
  0
VERTEX
  8
VOLUMEN
 62
7
  6
CONTINUOUS
 10
3.8595017592
 20
1.8109308925
  0
VERTEX
  8
VOLUMEN
 62
7
  6
CONTINUOUS
 10
3.9022064911
 20
1.8034414846
  0
SEQEND
  0
LINE
  8
0
 62
7
  6
CONTINUOUS
 10
3.4349528303
 20
2.056041032
 11
3.4219843353
 21
2.0806916033
  0
LINE
  8
0
 62
7
  6
CONTINUOUS
 10
4.0771345943
 20
3.0036266773
 11
4.0730378351
 21
2.9921574142
  0
POLYLINE
  8
0
 62
7
  6
CONTINUOUS
 66
1
 70
0
  0
VERTEX
  8
0
 62
7
  6
CONTINUOUS
 10
3.6302482522
 20
1.7909260833
  0
VERTEX
  8
0
 62
7
  6
CONTINUOUS
 10
3.6647673042
 20
1.7745711536
  0
VERTEX
  8
0
 62
7
  6
CONTINUOUS
 10
3.7010636315
 20
1.759576588
  0
VERTEX
  8
0
 62
7
  6
CONTINUOUS
 10
3.7389668388
 20
1.7459894389
  0
VERTEX
  8
0
 62
7
  6
CONTINUOUS
 10
3.7783041385
 20
1.7338838422
  0
VERTEX
  8
0
 62
7
  6
CONTINUOUS
 10
3.8188986195
 20
1.7232961805
  0
VERTEX
  8
0
 62
7
  6
CONTINUOUS
 10
3.860577505
 20
1.7142794079
  0
VERTEX
  8
0
 62
7
  6
CONTINUOUS
 10
3.9031556059
 20
1.7068579456
  0
VERTEX
  8
0
 62
7
  6
CONTINUOUS
 10
3.9464492929
 20
1.7010703137
  0
VERTEX
  8
0
 62
7
  6
CONTINUOUS
 10
3.9902811101
 20
1.6969271689
  0
VERTEX
  8
0
 62
7
  6
CONTINUOUS
 10
4.0344720441
 20
1.6944519333
  0
VERTEX
  8
0
 62
7
  6
CONTINUOUS
 10
4.0788431388
 20
1.6936448297
  0
VERTEX
  8
0
 62
7
  6
CONTINUOUS
 10
4.1232222816
 20
1.6945185323
  0
VERTEX
  8
0
 62
7
  6
CONTINUOUS
 10
4.1674099291
 20
1.6970591093
  0
VERTEX
  8
0
 62
7
  6
CONTINUOUS
 10
4.2112316872
 20
1.7012717157
  0
VERTEX
  8
0
 62
7
  6
CONTINUOUS
 10
4.2544399961
 20
1.7071117654
  0
VERTEX
  8
0
 62
7
  6
CONTINUOUS
 10
4.2967455778
 20
1.7145432638
  0
VERTEX
  8
0
 62
7
  6
CONTINUOUS
 10
4.3380991941
 20
1.7235455911
  0
VERTEX
  8
0
 62
7
  6
CONTINUOUS
 10
4.3784226401
 20
1.7341034627
  0
VERTEX
  8
0
 62
7
  6
CONTINUOUS
 10
4.417513537
 20
1.746164879
  0
VERTEX
  8
0
 62
7
  6
CONTINUOUS
 10
4.455195939
 20
1.7596934438
  0
VERTEX
  8
0
 62
7
  6
CONTINUOUS
 10
4.491312342
 20
1.7746270621
  0
VERTEX
  8
0
 62
7
  6
CONTINUOUS
 10
4.5256195741
 20
1.7908822281
  0
VERTEX
  8
0
 62
7
  6
CONTINUOUS
 10
4.5581986925
 20
1.8084867772
  0
SEQEND
  0
LINE
  8
0
 62
7
  6
CONTINUOUS
 10
3.5976905643
 20
1.8085237436
 11
3.6302482522
 21
1.7909260833
  0
POLYLINE
  8
VOLUMEN
 62
7
  6
CONTINUOUS
 66
1
 70
0
  0
VERTEX
  8
VOLUMEN
 62
7
  6
CONTINUOUS
 10
3.5130279982
 20
2.1092323204
  0
VERTEX
  8
VOLUMEN
 62
7
  6
CONTINUOUS
 10
3.4896077029
 20
2.1310059876
  0
VERTEX
  8
VOLUMEN
 62
7
  6
CONTINUOUS
 10
3.4687022371
 20
2.1536287507
  0
VERTEX
  8
VOLUMEN
 62
7
  6
CONTINUOUS
 10
3.4503954285
 20
2.1769829749
  0
VERTEX
  8
VOLUMEN
 62
7
  6
CONTINUOUS
 10
3.4347927591
 20
2.2009617929
  0
VERTEX
  8
VOLUMEN
 62
7
  6
CONTINUOUS
 10
3.4219341531
 20
2.2254561975
  0
VERTEX
  8
VOLUMEN
 62
7
  6
CONTINUOUS
 10
3.4118899045
 20
2.2503457902
  0
VERTEX
  8
VOLUMEN
 62
7
  6
CONTINUOUS
 10
3.4046743851
 20
2.2755578772
  0
VERTEX
  8
VOLUMEN
 62
7
  6
CONTINUOUS
 10
3.4003206121
 20
2.3010202142
  0
VERTEX
  8
VOLUMEN
 62
7
  6
CONTINUOUS
 10
3.3988426784
 20
2.3268307461
  0
SEQEND
  0
POLYLINE
  8
VOLUMEN_1
 62
7
  6
CONTINUOUS
 66
1
 70
0
  0
VERTEX
  8
VOLUMEN_1
 62
7
  6
CONTINUOUS
 10
3.5110326537
 20
2.1301542619
  0
VERTEX
  8
VOLUMEN_1
 62
7
  6
CONTINUOUS
 10
3.4899238846
 20
2.1520366783
  0
VERTEX
  8
VOLUMEN_1
 62
7
  6
CONTINUOUS
 10
3.471410915
 20
2.1745705539
  0
VERTEX
  8
VOLUMEN_1
 62
7
  6
CONTINUOUS
 10
3.455462085
 20
2.1978077679
  0
VERTEX
  8
VOLUMEN_1
 62
7
  6
CONTINUOUS
 10
3.4421723742
 20
2.2215926829
  0
VERTEX
  8
VOLUMEN_1
 62
7
  6
CONTINUOUS
 10
3.4316181777
 20
2.2458233573
  0
VERTEX
  8
VOLUMEN_1
 62
7
  6
CONTINUOUS
 10
3.4238235882
 20
2.2703905833
  0
VERTEX
  8
VOLUMEN_1
 62
7
  6
CONTINUOUS
 10
3.4188337994
 20
2.2951613206
  0
SEQEND
  0
POLYLINE
  8
VOLUMEN
 62
7
  6
CONTINUOUS
 66
1
 70
0
  0
VERTEX
  8
VOLUMEN
 62
7
  6
CONTINUOUS
 10
3.9022064911
 20
1.8034414846
  0
VERTEX
  8
VOLUMEN
 62
7
  6
CONTINUOUS
 10
3.9455796518
 20
1.7976073827
  0
VERTEX
  8
VOLUMEN
 62
7
  6
CONTINUOUS
 10
3.9893324373
 20
1.7934360602
  0
VERTEX
  8
VOLUMEN
 62
7
  6
CONTINUOUS
 10
4.0335596788
 20
1.7909239087
  0
VERTEX
  8
VOLUMEN
 62
7
  6
CONTINUOUS
 10
4.0779768832
 20
1.7900817532
  0
VERTEX
  8
VOLUMEN
 62
7
  6
CONTINUOUS
 10
4.1223943951
 20
1.7909239954
  0
VERTEX
  8
VOLUMEN
 62
7
  6
CONTINUOUS
 10
4.1666225327
 20
1.7934362961
  0
VERTEX
  8
VOLUMEN
 62
7
  6
CONTINUOUS
 10
4.2104699999
 20
1.7976186256
  0
VERTEX
  8
VOLUMEN
 62
7
  6
CONTINUOUS
 10
4.2537519852
 20
1.8034424574
  0
VERTEX
  8
VOLUMEN
 62
7
  6
CONTINUOUS
 10
4.296278835
 20
1.8108933299
  0
VERTEX
  8
VOLUMEN
 62
7
  6
CONTINUOUS
 10
4.3378737805
 20
1.8199290188
  0
VERTEX
  8
VOLUMEN
 62
7
  6
CONTINUOUS
 10
4.3783520659
 20
1.8305208782
  0
VERTEX
  8
VOLUMEN
 62
7
  6
CONTINUOUS
 10
4.4175479986
 20
1.8426137114
  0
VERTEX
  8
VOLUMEN
 62
7
  6
CONTINUOUS
 10
4.4552848921
 20
1.8561651801
  0
VERTEX
  8
VOLUMEN
 62
7
  6
CONTINUOUS
 10
4.4914109732
 20
1.8711080631
  0
VERTEX
  8
VOLUMEN
 62
7
  6
CONTINUOUS
 10
4.5256892397
 20
1.8873508599
  0
VERTEX
  8
VOLUMEN
 62
7
  6
CONTINUOUS
 10
4.5581986925
 20
1.9049240706
  0
SEQEND
  0
LINE
  8
0
 62
7
  6
CONTINUOUS
 10
3.9445589456
 20
1.7977251293
 11
3.9012578772
 21
1.8035888095
  0
POLYLINE
  8
0
 62
7
  6
CONTINUOUS
 66
1
 70
0
  0
VERTEX
  8
0
 62
7
  6
CONTINUOUS
 10
3.9012578772
 20
1.8035888095
  0
VERTEX
  8
0
 62
7
  6
CONTINUOUS
 10
3.8587520287
 20
1.8110740012
  0
VERTEX
  8
0
 62
7
  6
CONTINUOUS
 10
3.8172043107
 20
1.8201387076
  0
VERTEX
  8
0
 62
7
  6
CONTINUOUS
 10
3.7767900387
 20
1.8307515379
  0
VERTEX
  8
0
 62
7
  6
CONTINUOUS
 10
3.7376643866
 20
1.8428610262
  0
VERTEX
  8
0
 62
7
  6
CONTINUOUS
 10
3.6999873854
 20
1.8564284656
  0
VERTEX
  8
0
 62
7
  6
CONTINUOUS
 10
3.66391978
 20
1.8713841892
  0
VERTEX
  8
0
 62
7
  6
CONTINUOUS
 10
3.6296170656
 20
1.8876823195
  0
VERTEX
  8
0
 62
7
  6
CONTINUOUS
 10
3.5972550232
 20
1.9052127814
  0
VERTEX
  8
0
 62
7
  6
CONTINUOUS
 10
3.5670530042
 20
1.9238608975
  0
VERTEX
  8
0
 62
7
  6
CONTINUOUS
 10
3.539035793
 20
1.943594597
  0
VERTEX
  8
0
 62
7
  6
CONTINUOUS
 10
3.5132578804
 20
1.9643780679
  0
VERTEX
  8
0
 62
7
  6
CONTINUOUS
 10
3.4898494994
 20
1.9861078569
  0
VERTEX
  8
0
 62
7
  6
CONTINUOUS
 10
3.4689315044
 20
2.0087016541
  0
VERTEX
  8
0
 62
7
  6
CONTINUOUS
 10
3.4505865227
 20
2.0320602171
  0
VERTEX
  8
0
 62
7
  6
CONTINUOUS
 10
3.4349528303
 20
2.056041032
  0
SEQEND
  0
POLYLINE
  8
LAYER_33169
 62
7
  6
CONTINUOUS
 66
1
 70
0
  0
VERTEX
  8
LAYER_33169
 62
7
  6
CONTINUOUS
 10
4.0071163412
 20
0.66330848
  0
VERTEX
  8
LAYER_33169
 62
7
  6
CONTINUOUS
 10
4.0071895927
 20
0.6614454506
  0
VERTEX
  8
LAYER_33169
 62
7
  6
CONTINUOUS
 10
4.007781771
 20
0.6577063216
  0
VERTEX
  8
LAYER_33169
 62
7
  6
CONTINUOUS
 10
4.0089680755
 20
0.6540127812
  0
VERTEX
  8
LAYER_33169
 62
7
  6
CONTINUOUS
 10
4.0107506888
 20
0.650375828
  0
VERTEX
  8
LAYER_33169
 62
7
  6
CONTINUOUS
 10
4.0131082253
 20
0.6468392419
  0
VERTEX
  8
LAYER_33169
 62
7
  6
CONTINUOUS
 10
4.0160317522
 20
0.6434407603
  0
VERTEX
  8
LAYER_33169
 62
7
  6
CONTINUOUS
 10
4.0194860939
 20
0.6402095089
  0
VERTEX
  8
LAYER_33169
 62
7
  6
CONTINUOUS
 10
4.0234283279
 20
0.6371924059
  0
VERTEX
  8
LAYER_33169
 62
7
  6
CONTINUOUS
 10
4.0278727618
 20
0.6343738119
  0
SEQEND
  0
LINE
  8
LAYER_33169
 62
7
  6
CONTINUOUS
 10
4.0071163408
 20
1.1165618009
 11
4.0071163408
 21
0.6633044999
  0
LINE
  8
0
 62
7
  6
CONTINUOUS
 10
4.0608622837
 20
1.3964712913
 11
4.0608622837
 21
1.4061147737
  0
LINE
  8
0
 62
7
  6
CONTINUOUS
 10
4.0612663769
 20
3.2757527112
 11
4.0612663769
 21
3.2767170594
  0
LINE
  8
0
 62
7
  6
CONTINUOUS
 10
4.0612798682
 20
1.4058736866
 11
4.0612798682
 21
1.3962302042
  0
LINE
  8
0
 62
7
  6
CONTINUOUS
 10
4.0771345943
 20
3.2665913989
 11
4.0771345943
 21
3.2569478362
  0
LINE
  8
0
 62
7
  6
CONTINUOUS
 10
4.0771345943
 20
3.0062112067
 11
4.0771345943
 21
3.0036266773
  0
LINE
  8
0
 62
7
  6
CONTINUOUS
 10
4.077565524
 20
1.4152761583
 11
4.077565524
 21
1.4157583364
  0
LINE
  8
0
 62
7
  6
CONTINUOUS
 10
4.0779832475
 20
1.3962302042
 11
4.0779832475
 21
1.3865867219
  0
LINE
  8
0
 62
7
  6
CONTINUOUS
 10
4.0779832475
 20
1.0876308655
 11
4.0779834562
 21
1.3672996366
  0
LINE
  8
0
 62
7
  6
CONTINUOUS
 10
4.0783875494
 20
3.0064524183
 11
4.0783875494
 21
3.2379019223
  0
LINE
  8
0
 62
7
  6
CONTINUOUS
 10
4.0788184791
 20
1.3870688598
 11
4.0788184791
 21
1.3861045116
  0
LINE
  8
0
 62
7
  6
CONTINUOUS
 10
4.0946732052
 20
3.2477865721
 11
4.0946732052
 21
3.247304394
  0
LINE
  8
0
 62
7
  6
CONTINUOUS
 10
4.0946866964
 20
1.1139784778
 11
4.0946866964
 21
1.3769431993
  0
LINE
  8
0
 62
7
  6
CONTINUOUS
 10
4.0955218584
 20
1.3774253775
 11
4.0955218584
 21
1.1144606559
  0
POLYLINE
  8
0
 62
7
  6
CONTINUOUS
 66
1
 70
0
  0
VERTEX
  8
0
 62
7
  6
CONTINUOUS
 10
4.0863216546
 20
3.0018717641
  0
VERTEX
  8
0
 62
7
  6
CONTINUOUS
 10
4.086142842
 20
2.9998316415
  0
VERTEX
  8
0
 62
7
  6
CONTINUOUS
 10
4.0856755276
 20
2.9977797107
  0
VERTEX
  8
0
 62
7
  6
CONTINUOUS
 10
4.0849028673
 20
2.9956811021
  0
VERTEX
  8
0
 62
7
  6
CONTINUOUS
 10
4.0838753936
 20
2.9936404246
  0
VERTEX
  8
0
 62
7
  6
CONTINUOUS
 10
4.082621863
 20
2.9917302648
  0
VERTEX
  8
0
 62
7
  6
CONTINUOUS
 10
4.0811907586
 20
2.99001182
  0
VERTEX
  8
0
 62
7
  6
CONTINUOUS
 10
4.0796474077
 20
2.9885811569
  0
VERTEX
  8
0
 62
7
  6
CONTINUOUS
 10
4.0779700345
 20
2.9874062535
  0
SEQEND
  0
LINE
  8
0
 62
7
  6
CONTINUOUS
 10
5.7232526207
 20
2.05422584
 11
5.7223813379
 21
2.0541480071
  0
POLYLINE
  8
VOLUMEN
 62
7
  6
CONTINUOUS
 66
1
 70
0
  0
VERTEX
  8
VOLUMEN
 62
7
  6
CONTINUOUS
 10
3.9455530152
 20
1.9422642888
  0
VERTEX
  8
VOLUMEN
 62
7
  6
CONTINUOUS
 10
3.9023014062
 20
1.9480828721
  0
VERTEX
  8
VOLUMEN
 62
7
  6
CONTINUOUS
 10
3.8597220453
 20
1.9555407502
  0
VERTEX
  8
VOLUMEN
 62
7
  6
CONTINUOUS
 10
3.8180351979
 20
1.9645955273
  0
VERTEX
  8
VOLUMEN
 62
7
  6
CONTINUOUS
 10
3.77743763
 20
1.9752251659
  0
VERTEX
  8
VOLUMEN
 62
7
  6
CONTINUOUS
 10
3.7381256655
 20
1.9873629246
  0
VERTEX
  8
VOLUMEN
 62
7
  6
CONTINUOUS
 10
3.7003152695
 20
2.0009576111
  0
VERTEX
  8
VOLUMEN
 62
7
  6
CONTINUOUS
 10
3.6641442844
 20
2.0159405395
  0
VERTEX
  8
VOLUMEN
 62
7
  6
CONTINUOUS
 10
3.6297790631
 20
2.0322526454
  0
VERTEX
  8
VOLUMEN
 62
7
  6
CONTINUOUS
 10
3.597350039
 20
2.0498138722
  0
VERTEX
  8
VOLUMEN
 62
7
  6
CONTINUOUS
 10
3.5670076548
 20
2.0685524006
  0
VERTEX
  8
VOLUMEN
 62
7
  6
CONTINUOUS
 10
3.5388582348
 20
2.088384454
  0
VERTEX
  8
VOLUMEN
 62
7
  6
CONTINUOUS
 10
3.5130279982
 20
2.1092323204
  0
SEQEND
  0
POLYLINE
  8
VOLUMEN
 62
7
  6
CONTINUOUS
 66
1
 70
0
  0
VERTEX
  8
VOLUMEN
 62
7
  6
CONTINUOUS
 10
3.9061804226
 20
1.9566600771
  0
VERTEX
  8
VOLUMEN
 62
7
  6
CONTINUOUS
 10
3.9485729726
 20
1.9509578767
  0
VERTEX
  8
VOLUMEN
 62
7
  6
CONTINUOUS
 10
3.9913365648
 20
1.9468808623
  0
VERTEX
  8
VOLUMEN
 62
7
  6
CONTINUOUS
 10
4.034563886
 20
1.9444255073
  0
VERTEX
  8
VOLUMEN
 62
7
  6
CONTINUOUS
 10
4.0779768754
 20
1.9436023918
  0
VERTEX
  8
VOLUMEN
 62
7
  6
CONTINUOUS
 10
4.1213901652
 20
1.944425592
  0
VERTEX
  8
VOLUMEN
 62
7
  6
CONTINUOUS
 10
4.1646183624
 20
1.9468810928
  0
VERTEX
  8
VOLUMEN
 62
7
  6
CONTINUOUS
 10
4.2074744955
 20
1.9509688653
  0
VERTEX
  8
VOLUMEN
 62
7
  6
CONTINUOUS
 10
4.2497779316
 20
1.9566610279
  0
VERTEX
  8
VOLUMEN
 62
7
  6
CONTINUOUS
 10
4.2913433048
 20
1.9639434459
  0
VERTEX
  8
VOLUMEN
 62
7
  6
CONTINUOUS
 10
4.3319978428
 20
1.9727748496
  0
VERTEX
  8
VOLUMEN
 62
7
  6
CONTINUOUS
 10
4.3715609669
 20
1.9831272409
  0
VERTEX
  8
VOLUMEN
 62
7
  6
CONTINUOUS
 10
4.4098707308
 20
1.994946671
  0
VERTEX
  8
VOLUMEN
 62
7
  6
CONTINUOUS
 10
4.4467544423
 20
2.0081917586
  0
VERTEX
  8
VOLUMEN
 62
7
  6
CONTINUOUS
 10
4.4820637598
 20
2.0227968025
  0
VERTEX
  8
VOLUMEN
 62
7
  6
CONTINUOUS
 10
4.5155670395
 20
2.0386723708
  0
VERTEX
  8
VOLUMEN
 62
7
  6
CONTINUOUS
 10
4.547341496
 20
2.0558482742
  0
SEQEND
  0
POLYLINE
  8
VOLUMEN_1
 62
7
  6
CONTINUOUS
 66
1
 70
0
  0
VERTEX
  8
VOLUMEN_1
 62
7
  6
CONTINUOUS
 10
3.9183191103
 20
1.9562582993
  0
VERTEX
  8
VOLUMEN_1
 62
7
  6
CONTINUOUS
 10
3.8767374586
 20
1.9630731535
  0
VERTEX
  8
VOLUMEN_1
 62
7
  6
CONTINUOUS
 10
3.8359837914
 20
1.9714424071
  0
VERTEX
  8
VOLUMEN_1
 62
7
  6
CONTINUOUS
 10
3.7962362674
 20
1.9813473549
  0
VERTEX
  8
VOLUMEN_1
 62
7
  6
CONTINUOUS
 10
3.7576925455
 20
1.9927237741
  0
VERTEX
  8
VOLUMEN_1
 62
7
  6
CONTINUOUS
 10
3.7205825895
 20
2.0055134242
  0
VERTEX
  8
VOLUMEN_1
 62
7
  6
CONTINUOUS
 10
3.6849876431
 20
2.0196796528
  0
VERTEX
  8
VOLUMEN_1
 62
7
  6
CONTINUOUS
 10
3.6510050984
 20
2.0351954112
  0
VERTEX
  8
VOLUMEN_1
 62
7
  6
CONTINUOUS
 10
3.6188164725
 20
2.0519736484
  0
VERTEX
  8
VOLUMEN_1
 62
7
  6
CONTINUOUS
 10
3.5885933897
 20
2.0699495714
  0
VERTEX
  8
VOLUMEN_1
 62
7
  6
CONTINUOUS
 10
3.5604629199
 20
2.0890293579
  0
VERTEX
  8
VOLUMEN_1
 62
7
  6
CONTINUOUS
 10
3.534632376
 20
2.1090831606
  0
VERTEX
  8
VOLUMEN_1
 62
7
  6
CONTINUOUS
 10
3.5110326537
 20
2.1301542619
  0
SEQEND
  0
LINE
  8
LAYER_33169
 62
7
  6
CONTINUOUS
 10
4.1488486243
 20
1.1165614287
 11
4.1488486243
 21
0.6633044999
  0
POLYLINE
  8
0
 62
7
  6
CONTINUOUS
 66
1
 70
0
  0
VERTEX
  8
0
 62
7
  6
CONTINUOUS
 10
4.1030383165
 20
1.1020968299
  0
VERTEX
  8
0
 62
7
  6
CONTINUOUS
 10
4.1027116278
 20
1.0976860819
  0
VERTEX
  8
0
 62
7
  6
CONTINUOUS
 10
4.1018038884
 20
1.0938407785
  0
VERTEX
  8
0
 62
7
  6
CONTINUOUS
 10
4.1002927722
 20
1.0905270095
  0
VERTEX
  8
0
 62
7
  6
CONTINUOUS
 10
4.0982452575
 20
1.0878465051
  0
VERTEX
  8
0
 62
7
  6
CONTINUOUS
 10
4.0956996982
 20
1.0858760651
  0
SEQEND
  0
POLYLINE
  8
VOLUMEN
 62
7
  6
CONTINUOUS
 66
1
 70
0
  0
VERTEX
  8
VOLUMEN
 62
7
  6
CONTINUOUS
 10
4.547341496
 20
2.0558482742
  0
VERTEX
  8
VOLUMEN
 62
7
  6
CONTINUOUS
 10
4.5770924069
 20
2.0741941754
  0
VERTEX
  8
VOLUMEN
 62
7
  6
CONTINUOUS
 10
4.6045895368
 20
2.0935368073
  0
VERTEX
  8
VOLUMEN
 62
7
  6
CONTINUOUS
 10
4.6298850076
 20
2.1139218418
  0
VERTEX
  8
VOLUMEN
 62
7
  6
CONTINUOUS
 10
4.6528224535
 20
2.1352122634
  0
VERTEX
  8
VOLUMEN
 62
7
  6
CONTINUOUS
 10
4.6732860756
 20
2.1573202874
  0
VERTEX
  8
VOLUMEN
 62
7
  6
CONTINUOUS
 10
4.691206295
 20
2.1801438926
  0
VERTEX
  8
VOLUMEN
 62
7
  6
CONTINUOUS
 10
4.7064841429
 20
2.2035624993
  0
VERTEX
  8
VOLUMEN
 62
7
  6
CONTINUOUS
 10
4.71909199
 20
2.227543999
  0
VERTEX
  8
VOLUMEN
 62
7
  6
CONTINUOUS
 10
4.7289942845
 20
2.2520833041
  0
VERTEX
  8
VOLUMEN
 62
7
  6
CONTINUOUS
 10
4.7361158239
 20
2.2769787727
  0
VERTEX
  8
VOLUMEN
 62
7
  6
CONTINUOUS
 10
4.7403623708
 20
2.3020575497
  0
SEQEND
  0
POLYLINE
  8
VOLUMEN_1
 62
7
  6
CONTINUOUS
 66
1
 70
0
  0
VERTEX
  8
VOLUMEN_1
 62
7
  6
CONTINUOUS
 10
4.5535615778
 20
2.0614464259
  0
VERTEX
  8
VOLUMEN_1
 62
7
  6
CONTINUOUS
 10
4.522394621
 20
2.0440157161
  0
VERTEX
  8
VOLUMEN_1
 62
7
  6
CONTINUOUS
 10
4.4893394642
 20
2.0278064507
  0
SEQEND
  0
LINE
  8
VOLUMEN
 62
7
  6
CONTINUOUS
 10
4.5581986925
 20
2.0495800106
 11
4.5256632549
 21
2.0319936729
  0
POLYLINE
  8
VOLUMEN
 62
7
  6
CONTINUOUS
 66
1
 70
0
  0
VERTEX
  8
VOLUMEN
 62
7
  6
CONTINUOUS
 10
4.5256632549
 20
2.0319936729
  0
VERTEX
  8
VOLUMEN
 62
7
  6
CONTINUOUS
 10
4.4913568206
 20
2.0157399886
  0
VERTEX
  8
VOLUMEN
 62
7
  6
CONTINUOUS
 10
4.4551952126
 20
2.0007872215
  0
VERTEX
  8
VOLUMEN
 62
7
  6
CONTINUOUS
 10
4.4174309621
 20
1.9872305801
  0
VERTEX
  8
VOLUMEN
 62
7
  6
CONTINUOUS
 10
4.3782246615
 20
1.9751412224
  0
VERTEX
  8
VOLUMEN
 62
7
  6
CONTINUOUS
 10
4.3377679501
 20
1.9645595633
  0
VERTEX
  8
VOLUMEN
 62
7
  6
CONTINUOUS
 10
4.2962720136
 20
1.9555446756
  0
VERTEX
  8
VOLUMEN
 62
7
  6
CONTINUOUS
 10
4.2538388058
 20
1.9481117439
  0
VERTEX
  8
VOLUMEN
 62
7
  6
CONTINUOUS
 10
4.2105557054
 20
1.9422859877
  0
VERTEX
  8
VOLUMEN
 62
7
  6
CONTINUOUS
 10
4.1666776234
 20
1.9380963752
  0
VERTEX
  8
VOLUMEN
 62
7
  6
CONTINUOUS
 10
4.1224253996
 20
1.9355815201
  0
VERTEX
  8
VOLUMEN
 62
7
  6
CONTINUOUS
 10
4.077988626
 20
1.9347377062
  0
VERTEX
  8
VOLUMEN
 62
7
  6
CONTINUOUS
 10
4.033567376
 20
1.9355797571
  0
VERTEX
  8
VOLUMEN
 62
7
  6
CONTINUOUS
 10
3.9893510457
 20
1.9380906672
  0
VERTEX
  8
VOLUMEN
 62
7
  6
CONTINUOUS
 10
3.9455530152
 20
1.9422642888
  0
SEQEND
  0
POLYLINE
  8
VOLUMEN_1
 62
7
  6
CONTINUOUS
 66
1
 70
0
  0
VERTEX
  8
VOLUMEN_1
 62
7
  6
CONTINUOUS
 10
4.4893394642
 20
2.0278064507
  0
VERTEX
  8
VOLUMEN_1
 62
7
  6
CONTINUOUS
 10
4.4545323485
 20
2.0128960918
  0
VERTEX
  8
VOLUMEN_1
 62
7
  6
CONTINUOUS
 10
4.4181359345
 20
1.9993371449
  0
VERTEX
  8
VOLUMEN_1
 62
7
  6
CONTINUOUS
 10
4.3803039925
 20
1.9871952046
  0
VERTEX
  8
VOLUMEN_1
 62
7
  6
CONTINUOUS
 10
4.341199434
 20
1.9765084663
  0
VERTEX
  8
VOLUMEN_1
 62
7
  6
CONTINUOUS
 10
4.3009799472
 20
1.9673276317
  0
VERTEX
  8
VOLUMEN_1
 62
7
  6
CONTINUOUS
 10
4.259814973
 20
1.9596807773
  0
VERTEX
  8
VOLUMEN_1
 62
7
  6
CONTINUOUS
 10
4.2178556983
 20
1.9536070095
  0
VERTEX
  8
VOLUMEN_1
 62
7
  6
CONTINUOUS
 10
4.1753145739
 20
1.9491239403
  0
VERTEX
  8
VOLUMEN_1
 62
7
  6
CONTINUOUS
 10
4.1323912378
 20
1.9462636952
  0
VERTEX
  8
VOLUMEN_1
 62
7
  6
CONTINUOUS
 10
4.0892753161
 20
1.9450218407
  0
VERTEX
  8
VOLUMEN_1
 62
7
  6
CONTINUOUS
 10
4.0461845152
 20
1.9454077171
  0
VERTEX
  8
VOLUMEN_1
 62
7
  6
CONTINUOUS
 10
4.0032342314
 20
1.9474121275
  0
VERTEX
  8
VOLUMEN_1
 62
7
  6
CONTINUOUS
 10
3.9605450605
 20
1.9510355996
  0
VERTEX
  8
VOLUMEN_1
 62
7
  6
CONTINUOUS
 10
3.9183191103
 20
1.9562582993
  0
SEQEND
  0
LINE
  8
0
 62
7
  6
CONTINUOUS
 10
4.3148394706
 20
1.2123957164
 11
4.3148394706
 21
0.9061346521
  0
POLYLINE
  8
VOLUMEN
 62
7
  6
CONTINUOUS
 66
1
 70
0
  0
VERTEX
  8
VOLUMEN
 62
7
  6
CONTINUOUS
 10
4.5581986925
 20
1.9049240706
  0
VERTEX
  8
VOLUMEN
 62
7
  6
CONTINUOUS
 10
4.5886396015
 20
1.9236956894
  0
VERTEX
  8
VOLUMEN
 62
7
  6
CONTINUOUS
 10
4.6167734722
 20
1.9434862804
  0
VERTEX
  8
VOLUMEN
 62
7
  6
CONTINUOUS
 10
4.6426534079
 20
1.9643425229
  0
SEQEND
  0
LINE
  8
0
 62
7
  6
CONTINUOUS
 10
4.5886963703
 20
1.9237311958
 11
4.5581986925
 21
1.9049240706
  0
LINE
  8
0
 62
7
  6
CONTINUOUS
 10
4.5581986925
 20
1.9049240706
 11
4.5256870411
 21
1.887349818
  0
POLYLINE
  8
0
 62
7
  6
CONTINUOUS
 66
1
 70
0
  0
VERTEX
  8
0
 62
7
  6
CONTINUOUS
 10
4.5256850033
 20
1.8873487165
  0
VERTEX
  8
0
 62
7
  6
CONTINUOUS
 10
4.4914022
 20
1.871104155
  0
VERTEX
  8
0
 62
7
  6
CONTINUOUS
 10
4.4552691879
 20
1.8561593877
  0
VERTEX
  8
0
 62
7
  6
CONTINUOUS
 10
4.4175292512
 20
1.8426074098
  0
VERTEX
  8
0
 62
7
  6
CONTINUOUS
 10
4.3783382829
 20
1.830517128
  0
VERTEX
  8
0
 62
7
  6
CONTINUOUS
 10
4.3378773614
 20
1.8199298092
  0
VERTEX
  8
0
 62
7
  6
CONTINUOUS
 10
4.2963512216
 20
1.8109035078
  0
VERTEX
  8
0
 62
7
  6
CONTINUOUS
 10
4.2538447877
 20
1.8034567669
  0
VERTEX
  8
0
 62
7
  6
CONTINUOUS
 10
4.2104088483
 20
1.7976149978
  0
VERTEX
  8
0
 62
7
  6
CONTINUOUS
 10
4.1663505458
 20
1.793415651
  0
VERTEX
  8
0
 62
7
  6
CONTINUOUS
 10
4.1219311802
 20
1.7909074601
  0
VERTEX
  8
0
 62
7
  6
CONTINUOUS
 10
4.0773390672
 20
1.7900819865
  0
VERTEX
  8
0
 62
7
  6
CONTINUOUS
 10
4.0327880497
 20
1.790953556
  0
VERTEX
  8
0
 62
7
  6
CONTINUOUS
 10
3.9884628459
 20
1.7935026086
  0
VERTEX
  8
0
 62
7
  6
CONTINUOUS
 10
3.9445589456
 20
1.7977251293
  0
SEQEND
  0
POLYLINE
  8
LAYER_33169
 62
7
  6
CONTINUOUS
 66
1
 70
0
  0
VERTEX
  8
LAYER_33169
 62
7
  6
CONTINUOUS
 10
5.4559998031
 20
1.4588984219
  0
VERTEX
  8
LAYER_33169
 62
7
  6
CONTINUOUS
 10
5.4608511309
 20
1.4563466283
  0
VERTEX
  8
LAYER_33169
 62
7
  6
CONTINUOUS
 10
5.4660478612
 20
1.4540801601
  0
VERTEX
  8
LAYER_33169
 62
7
  6
CONTINUOUS
 10
5.47161593
 20
1.4520905288
  0
VERTEX
  8
LAYER_33169
 62
7
  6
CONTINUOUS
 10
5.4774775288
 20
1.4504032001
  0
VERTEX
  8
LAYER_33169
 62
7
  6
CONTINUOUS
 10
5.4835849195
 20
1.4490386185
  0
VERTEX
  8
LAYER_33169
 62
7
  6
CONTINUOUS
 10
5.4898738269
 20
1.4480033601
  0
VERTEX
  8
LAYER_33169
 62
7
  6
CONTINUOUS
 10
5.4962703677
 20
1.4473107187
  0
VERTEX
  8
LAYER_33169
 62
7
  6
CONTINUOUS
 10
5.5027556288
 20
1.4469609852
  0
VERTEX
  8
LAYER_33169
 62
7
  6
CONTINUOUS
 10
5.5093149736
 20
1.4469591682
  0
VERTEX
  8
LAYER_33169
 62
7
  6
CONTINUOUS
 10
5.5158616895
 20
1.447304409
  0
VERTEX
  8
LAYER_33169
 62
7
  6
CONTINUOUS
 10
5.5223217911
 20
1.4480016616
  0
VERTEX
  8
LAYER_33169
 62
7
  6
CONTINUOUS
 10
5.5286424591
 20
1.4490384968
  0
VERTEX
  8
LAYER_33169
 62
7
  6
CONTINUOUS
 10
5.534762357
 20
1.4504098982
  0
VERTEX
  8
LAYER_33169
 62
7
  6
CONTINUOUS
 10
5.5406330511
 20
1.4520985808
  0
VERTEX
  8
LAYER_33169
 62
7
  6
CONTINUOUS
 10
5.5461992214
 20
1.4540926073
  0
VERTEX
  8
LAYER_33169
 62
7
  6
CONTINUOUS
 10
5.5514201898
 20
1.4563709181
  0
VERTEX
  8
LAYER_33169
 62
7
  6
CONTINUOUS
 10
5.5562481735
 20
1.4589166416
  0
VERTEX
  8
LAYER_33169
 62
7
  6
CONTINUOUS
 10
5.5606491655
 20
1.4617052775
  0
VERTEX
  8
LAYER_33169
 62
7
  6
CONTINUOUS
 10
5.5645820568
 20
1.4647158519
  0
VERTEX
  8
LAYER_33169
 62
7
  6
CONTINUOUS
 10
5.5680203706
 20
1.4679209142
  0
VERTEX
  8
LAYER_33169
 62
7
  6
CONTINUOUS
 10
5.5709299475
 20
1.4712958514
  0
VERTEX
  8
LAYER_33169
 62
7
  6
CONTINUOUS
 10
5.5732927271
 20
1.4748111759
  0
VERTEX
  8
LAYER_33169
 62
7
  6
CONTINUOUS
 10
5.5750823587
 20
1.4784400442
  0
VERTEX
  8
LAYER_33169
 62
7
  6
CONTINUOUS
 10
5.5762895533
 20
1.482149911
  0
VERTEX
  8
LAYER_33169
 62
7
  6
CONTINUOUS
 10
5.5768944403
 20
1.4859131642
  0
VERTEX
  8
LAYER_33169
 62
7
  6
CONTINUOUS
 10
5.5769756653
 20
1.4878251299
  0
SEQEND
  0
LINE
  8
0
 62
7
  6
CONTINUOUS
 10
4.6873229619
 20
2.0090589815
 11
4.6663528358
 21
1.9863572708
  0
LINE
  8
VOLUMEN
 62
7
  6
CONTINUOUS
 10
4.6661200984
 20
1.986124379
 11
4.687055598
 21
2.0087421097
  0
POLYLINE
  8
0
 62
7
  6
CONTINUOUS
 66
1
 70
0
  0
VERTEX
  8
0
 62
7
  6
CONTINUOUS
 10
4.6663528358
 20
1.9863572708
  0
VERTEX
  8
0
 62
7
  6
CONTINUOUS
 10
4.6428314298
 20
1.9644978641
  0
VERTEX
  8
0
 62
7
  6
CONTINUOUS
 10
4.6168879534
 20
1.9435724376
  0
VERTEX
  8
0
 62
7
  6
CONTINUOUS
 10
4.5886963703
 20
1.9237311958
  0
SEQEND
  0
LINE
  8
VOLUMEN
 62
7
  6
CONTINUOUS
 10
4.6426534079
 20
1.9643425229
 11
4.6661200984
 21
1.986124379
  0
POLYLINE
  8
0
 62
7
  6
CONTINUOUS
 66
1
 70
0
  0
VERTEX
  8
0
 62
7
  6
CONTINUOUS
 10
4.5581986925
 20
1.8084867772
  0
VERTEX
  8
0
 62
7
  6
CONTINUOUS
 10
4.5886362795
 20
1.8272545229
  0
VERTEX
  8
0
 62
7
  6
CONTINUOUS
 10
4.6167764273
 20
1.8470512037
  0
VERTEX
  8
0
 62
7
  6
CONTINUOUS
 10
4.6426754641
 20
1.8679250777
  0
VERTEX
  8
0
 62
7
  6
CONTINUOUS
 10
4.6661644052
 20
1.8897313706
  0
VERTEX
  8
0
 62
7
  6
CONTINUOUS
 10
4.6871190099
 20
1.9123818915
  0
VERTEX
  8
0
 62
7
  6
CONTINUOUS
 10
4.7054613738
 20
1.9357551476
  0
VERTEX
  8
0
 62
7
  6
CONTINUOUS
 10
4.7210786341
 20
1.959718393
  0
VERTEX
  8
0
 62
7
  6
CONTINUOUS
 10
4.7339514251
 20
1.9842171964
  0
VERTEX
  8
0
 62
7
  6
CONTINUOUS
 10
4.7440390604
 20
2.0092002551
  0
VERTEX
  8
0
 62
7
  6
CONTINUOUS
 10
4.7512926397
 20
2.0345254374
  0
VERTEX
  8
0
 62
7
  6
CONTINUOUS
 10
4.7556480246
 20
2.060071445
  0
VERTEX
  8
0
 62
7
  6
CONTINUOUS
 10
4.7571103949
 20
2.0857369315
  0
SEQEND
  0
LINE
  8
0
 62
7
  6
CONTINUOUS
 10
4.7441578993
 20
2.1059821892
 11
4.734109973
 21
2.0809966116
  0
POLYLINE
  8
VOLUMEN
 62
7
  6
CONTINUOUS
 66
1
 70
0
  0
VERTEX
  8
VOLUMEN
 62
7
  6
CONTINUOUS
 10
4.7339180917
 20
2.0805828574
  0
VERTEX
  8
VOLUMEN
 62
7
  6
CONTINUOUS
 10
4.7440518527
 20
2.1056955557
  0
VERTEX
  8
VOLUMEN
 62
7
  6
CONTINUOUS
 10
4.7513406127
 20
2.1311737642
  0
VERTEX
  8
VOLUMEN
 62
7
  6
CONTINUOUS
 10
4.7556853836
 20
2.1568350744
  0
VERTEX
  8
VOLUMEN
 62
7
  6
CONTINUOUS
 10
4.7571103949
 20
2.1821730215
  0
SEQEND
  0
POLYLINE
  8
0
 62
7
  6
CONTINUOUS
 66
1
 70
0
  0
VERTEX
  8
0
 62
7
  6
CONTINUOUS
 10
4.734109973
 20
2.0809966116
  0
VERTEX
  8
0
 62
7
  6
CONTINUOUS
 10
4.7212661679
 20
2.0564759555
  0
VERTEX
  8
0
 62
7
  6
CONTINUOUS
 10
4.7056655327
 20
2.0324774796
  0
SEQEND
  0
LINE
  8
0
 62
7
  6
CONTINUOUS
 10
4.7056655327
 20
2.0324774796
 11
4.6873229619
 21
2.0090589815
  0
POLYLINE
  8
VOLUMEN
 62
7
  6
CONTINUOUS
 66
1
 70
0
  0
VERTEX
  8
VOLUMEN
 62
7
  6
CONTINUOUS
 10
4.687055598
 20
2.0087421097
  0
VERTEX
  8
VOLUMEN
 62
7
  6
CONTINUOUS
 10
4.7053889163
 20
2.0320914981
  0
VERTEX
  8
VOLUMEN
 62
7
  6
CONTINUOUS
 10
4.7210188976
 20
2.056048191
  0
VERTEX
  8
VOLUMEN
 62
7
  6
CONTINUOUS
 10
4.7339180917
 20
2.0805828574
  0
SEQEND
  0
LINE
  8
0
 62
7
  6
CONTINUOUS
 10
4.077565524
 20
1.4157583364
 11
4.0608622837
 21
1.4061147737
  0
LINE
  8
0
 62
7
  6
CONTINUOUS
 10
5.6560217275
 20
2.3270750106
 11
5.6727249678
 21
2.3367185733
  0
LINE
  8
0
 62
7
  6
CONTINUOUS
 10
5.6731425522
 20
2.3364774862
 11
4.0612798682
 21
1.4058736866
  0
LINE
  8
0
 62
7
  6
CONTINUOUS
 10
4.0779832475
 20
1.3962302042
 11
5.6898459316
 21
2.3268340038
  0
LINE
  8
0
 62
7
  6
CONTINUOUS
 10
5.7057140794
 20
2.3263518658
 11
4.0788184791
 21
1.3870688598
  0
LINE
  8
0
 62
7
  6
CONTINUOUS
 10
4.0946866964
 20
1.3769431993
 11
4.0779834562
 21
1.3672996366
  0
LINE
  8
0
 62
7
  6
CONTINUOUS
 10
4.0955218584
 20
1.3774253775
 11
5.7224174587
 21
2.3167083834
  0
LINE
  8
0
 62
7
  6
CONTINUOUS
 10
5.7232526207
 20
2.3171905616
 11
5.7399558609
 21
2.3268341243
  0
POLYLINE
  8
VOLUMEN
 62
7
  6
CONTINUOUS
 66
1
 70
0
  0
VERTEX
  8
VOLUMEN
 62
7
  6
CONTINUOUS
 10
4.7417560642
 20
2.3268290089
  0
VERTEX
  8
VOLUMEN
 62
7
  6
CONTINUOUS
 10
4.740274475
 20
2.3523773201
  0
VERTEX
  8
VOLUMEN
 62
7
  6
CONTINUOUS
 10
4.735951787
 20
2.3773978434
  0
VERTEX
  8
VOLUMEN
 62
7
  6
CONTINUOUS
 10
4.7287944989
 20
2.4021790503
  0
VERTEX
  8
VOLUMEN
 62
7
  6
CONTINUOUS
 10
4.7188579522
 20
2.4266183803
  0
VERTEX
  8
VOLUMEN
 62
7
  6
CONTINUOUS
 10
4.706175994
 20
2.4506069359
  0
VERTEX
  8
VOLUMEN
 62
7
  6
CONTINUOUS
 10
4.6908201925
 20
2.4740530226
  0
VERTEX
  8
VOLUMEN
 62
7
  6
CONTINUOUS
 10
4.6728442533
 20
2.4968577543
  0
VERTEX
  8
VOLUMEN
 62
7
  6
CONTINUOUS
 10
4.6523356118
 20
2.5189338078
  0
SEQEND
  0
LINE
  8
VOLUMEN
 62
7
  6
CONTINUOUS
 10
4.7403970858
 20
2.3223749466
 11
4.7409476306
 21
2.3124599379
  0
LINE
  8
VOLUMEN_1
 62
7
  6
CONTINUOUS
 10
4.7393938595
 20
2.3268301294
 11
4.7393938595
 21
2.3075426707
  0
LINE
  8
VOLUMEN
 62
7
  6
CONTINUOUS
 10
4.7571103949
 20
2.3268301294
 11
4.7571103949
 21
2.1821741893
  0
LINE
  8
0
 62
7
  6
CONTINUOUS
 10
4.7571103949
 20
2.1821741893
 11
4.7571103949
 21
2.085736896
  0
LINE
  8
VOLUMEN_1
 62
7
  6
CONTINUOUS
 10
4.7393938592
 20
2.3268180102
 11
4.7386291039
 21
2.3085642556
  0
LINE
  8
VOLUMEN_1
 62
7
  6
CONTINUOUS
 10
4.73875722
 20
2.2925780315
 11
4.7393938592
 21
2.3075308011
  0
LINE
  8
VOLUMEN
 62
7
  6
CONTINUOUS
 10
4.7403623708
 20
2.3020575497
 11
4.7417560642
 21
2.3268290089
  0
LINE
  8
0
 62
7
  6
CONTINUOUS
 10
4.7571103949
 20
2.1821734834
 11
4.7556836117
 21
2.1568246093
  0
POLYLINE
  8
VOLUMEN
 62
7
  6
CONTINUOUS
 66
1
 70
0
  0
VERTEX
  8
VOLUMEN
 62
7
  6
CONTINUOUS
 10
4.7571103949
 20
2.3268317595
  0
VERTEX
  8
VOLUMEN
 62
7
  6
CONTINUOUS
 10
4.7555874469
 20
2.3006217047
  0
VERTEX
  8
VOLUMEN
 62
7
  6
CONTINUOUS
 10
4.7511760358
 20
2.2751104879
  0
VERTEX
  8
VOLUMEN
 62
7
  6
CONTINUOUS
 10
4.7438583543
 20
2.249787534
  0
VERTEX
  8
VOLUMEN
 62
7
  6
CONTINUOUS
 10
4.7337257074
 20
2.2248256263
  0
VERTEX
  8
VOLUMEN
 62
7
  6
CONTINUOUS
 10
4.7208554438
 20
2.2004254631
  0
VERTEX
  8
VOLUMEN
 62
7
  6
CONTINUOUS
 10
4.7052726115
 20
2.1765854683
  0
VERTEX
  8
VOLUMEN
 62
7
  6
CONTINUOUS
 10
4.6869984289
 20
2.153330154
  0
VERTEX
  8
VOLUMEN
 62
7
  6
CONTINUOUS
 10
4.6661217334
 20
2.1307819541
  0
VERTEX
  8
VOLUMEN
 62
7
  6
CONTINUOUS
 10
4.6427038191
 20
2.1090412815
  0
VERTEX
  8
VOLUMEN
 62
7
  6
CONTINUOUS
 10
4.6168485343
 20
2.0881987106
  0
VERTEX
  8
VOLUMEN
 62
7
  6
CONTINUOUS
 10
4.5886956938
 20
2.0683937927
  0
VERTEX
  8
VOLUMEN
 62
7
  6
CONTINUOUS
 10
4.5581986925
 20
2.0495800106
  0
SEQEND
  0
POLYLINE
  8
VOLUMEN_1
 62
7
  6
CONTINUOUS
 66
1
 70
0
  0
VERTEX
  8
VOLUMEN_1
 62
7
  6
CONTINUOUS
 10
4.7386291039
 20
2.3085642556
  0
VERTEX
  8
VOLUMEN_1
 62
7
  6
CONTINUOUS
 10
4.735148235
 20
2.283633626
  0
VERTEX
  8
VOLUMEN_1
 62
7
  6
CONTINUOUS
 10
4.7288377383
 20
2.2588965156
  0
VERTEX
  8
VOLUMEN_1
 62
7
  6
CONTINUOUS
 10
4.7197495537
 20
2.2344552206
  0
VERTEX
  8
VOLUMEN_1
 62
7
  6
CONTINUOUS
 10
4.7079080937
 20
2.2104231748
  0
VERTEX
  8
VOLUMEN_1
 62
7
  6
CONTINUOUS
 10
4.6933853008
 20
2.1868977753
  0
VERTEX
  8
VOLUMEN_1
 62
7
  6
CONTINUOUS
 10
4.676242641
 20
2.1639931452
  0
VERTEX
  8
VOLUMEN_1
 62
7
  6
CONTINUOUS
 10
4.6565359566
 20
2.1417725392
  0
VERTEX
  8
VOLUMEN_1
 62
7
  6
CONTINUOUS
 10
4.6343007683
 20
2.1202996399
  0
VERTEX
  8
VOLUMEN_1
 62
7
  6
CONTINUOUS
 10
4.6096595069
 20
2.0996872875
  0
VERTEX
  8
VOLUMEN_1
 62
7
  6
CONTINUOUS
 10
4.5826946464
 20
2.0800390269
  0
VERTEX
  8
VOLUMEN_1
 62
7
  6
CONTINUOUS
 10
4.5535615778
 20
2.0614464259
  0
SEQEND
  0
POLYLINE
  8
0
 62
7
  6
CONTINUOUS
 66
1
 70
0
  0
VERTEX
  8
0
 62
7
  6
CONTINUOUS
 10
4.7556828714
 20
2.1568114565
  0
VERTEX
  8
0
 62
7
  6
CONTINUOUS
 10
4.751368029
 20
2.131294262
  0
VERTEX
  8
0
 62
7
  6
CONTINUOUS
 10
4.7441578993
 20
2.1059821892
  0
SEQEND
  0
POLYLINE
  8
0
 62
7
  6
CONTINUOUS
 66
1
 70
0
  0
VERTEX
  8
0
 62
7
  6
CONTINUOUS
 10
4.0838887316
 20
1.106333391
  0
VERTEX
  8
0
 62
7
  6
CONTINUOUS
 10
4.0849161381
 20
1.1071879081
  0
VERTEX
  8
0
 62
7
  6
CONTINUOUS
 10
4.0856888048
 20
1.1083943345
  0
VERTEX
  8
0
 62
7
  6
CONTINUOUS
 10
4.0858351993
 20
1.108868094
  0
SEQEND
  0
LINE
  8
0
 62
7
  6
CONTINUOUS
 10
4.0806883037
 20
2.9895913471
 11
4.0747568876
 21
2.9969700635
  0
LINE
  8
VOLUMEN
 62
7
  6
CONTINUOUS
 10
4.7393680192
 20
2.3285108642
 11
4.7403970858
 21
2.3223749466
  0
LINE
  8
0
 62
7
  6
CONTINUOUS
 10
4.0946866964
 20
1.1139784778
 11
4.0779834562
 21
1.1043349151
  0
LINE
  8
0
 62
7
  6
CONTINUOUS
 10
5.7232526207
 20
2.05422584
 11
5.7399558609
 21
2.0638694027
  0
LINE
  8
0
 62
7
  6
CONTINUOUS
 10
4.1030383165
 20
1.1020968299
 11
5.7149010006
 21
2.0327006295
  0
LINE
  8
0
 62
7
  6
CONTINUOUS
 10
4.0956997036
 20
1.0858760682
 11
5.7075623877
 21
2.0164798678
  0
POLYLINE
  8
0
 62
7
  6
CONTINUOUS
 66
1
 70
0
  0
VERTEX
  8
0
 62
7
  6
CONTINUOUS
 10
4.0779832475
 20
1.0876308655
  0
VERTEX
  8
0
 62
7
  6
CONTINUOUS
 10
4.0740001321
 20
1.0857084552
  0
VERTEX
  8
0
 62
7
  6
CONTINUOUS
 10
4.070216185
 20
1.0845719757
  0
VERTEX
  8
0
 62
7
  6
CONTINUOUS
 10
4.0665908769
 20
1.0842238075
  0
VERTEX
  8
0
 62
7
  6
CONTINUOUS
 10
4.0632457956
 20
1.0846568088
  0
VERTEX
  8
0
 62
7
  6
CONTINUOUS
 10
4.0602670041
 20
1.0858759454
  0
SEQEND
  0
POLYLINE
  8
0
 62
7
  6
CONTINUOUS
 66
1
 70
0
  0
VERTEX
  8
0
 62
7
  6
CONTINUOUS
 10
4.0956996982
 20
1.0858760651
  0
VERTEX
  8
0
 62
7
  6
CONTINUOUS
 10
4.0927196414
 20
1.0846565695
  0
VERTEX
  8
0
 62
7
  6
CONTINUOUS
 10
4.0893745828
 20
1.0842238462
  0
VERTEX
  8
0
 62
7
  6
CONTINUOUS
 10
4.0857494509
 20
1.0845721983
  0
VERTEX
  8
0
 62
7
  6
CONTINUOUS
 10
4.0819658508
 20
1.0857086521
  0
VERTEX
  8
0
 62
7
  6
CONTINUOUS
 10
4.0779832475
 20
1.0876308655
  0
SEQEND
  0
LINE
  8
0
 62
7
  6
CONTINUOUS
 10
4.0826351148
 20
1.105870921
 11
4.0838887316
 21
1.106333391
  0
POLYLINE
  8
VOLUMEN
 62
7
  6
CONTINUOUS
 66
1
 70
0
  0
VERTEX
  8
VOLUMEN
 62
7
  6
CONTINUOUS
 10
4.0778720813
 20
2.71005792
  0
VERTEX
  8
VOLUMEN
 62
7
  6
CONTINUOUS
 10
4.0344487931
 20
2.7092295921
  0
VERTEX
  8
VOLUMEN
 62
7
  6
CONTINUOUS
 10
3.9912429356
 20
2.7067722708
  0
VERTEX
  8
VOLUMEN
 62
7
  6
CONTINUOUS
 10
3.9484874936
 20
2.7026954751
  0
VERTEX
  8
VOLUMEN
 62
7
  6
CONTINUOUS
 10
3.9062804171
 20
2.6970155982
  0
VERTEX
  8
VOLUMEN
 62
7
  6
CONTINUOUS
 10
3.8647182224
 20
2.6897365836
  0
VERTEX
  8
VOLUMEN
 62
7
  6
CONTINUOUS
 10
3.8240381948
 20
2.6809052985
  0
VERTEX
  8
VOLUMEN
 62
7
  6
CONTINUOUS
 10
3.7844573078
 20
2.6705511799
  0
VERTEX
  8
VOLUMEN
 62
7
  6
CONTINUOUS
 10
3.7461330119
 20
2.658730462
  0
VERTEX
  8
VOLUMEN
 62
7
  6
CONTINUOUS
 10
3.7092463031
 20
2.6454866691
  0
VERTEX
  8
VOLUMEN
 62
7
  6
CONTINUOUS
 10
3.6739435181
 20
2.6308873686
  0
VERTEX
  8
VOLUMEN
 62
7
  6
CONTINUOUS
 10
3.6403985591
 20
2.6149965347
  0
VERTEX
  8
VOLUMEN
 62
7
  6
CONTINUOUS
 10
3.6087097259
 20
2.5978684706
  0
VERTEX
  8
VOLUMEN
 62
7
  6
CONTINUOUS
 10
3.5789857469
 20
2.5795477747
  0
VERTEX
  8
VOLUMEN
 62
7
  6
CONTINUOUS
 10
3.5513692381
 20
2.5601275356
  0
VERTEX
  8
VOLUMEN
 62
7
  6
CONTINUOUS
 10
3.5260010116
 20
2.5396776649
  0
VERTEX
  8
VOLUMEN
 62
7
  6
CONTINUOUS
 10
3.5029952077
 20
2.5183122914
  0
VERTEX
  8
VOLUMEN
 62
7
  6
CONTINUOUS
 10
3.4824934594
 20
2.4961365885
  0
VERTEX
  8
VOLUMEN
 62
7
  6
CONTINUOUS
 10
3.4645541018
 20
2.4732473331
  0
VERTEX
  8
VOLUMEN
 62
7
  6
CONTINUOUS
 10
3.4492683717
 20
2.4497414513
  0
VERTEX
  8
VOLUMEN
 62
7
  6
CONTINUOUS
 10
3.4366791973
 20
2.4257236686
  0
VERTEX
  8
VOLUMEN
 62
7
  6
CONTINUOUS
 10
3.4268535071
 20
2.401297282
  0
VERTEX
  8
VOLUMEN
 62
7
  6
CONTINUOUS
 10
3.4198105371
 20
2.3765635021
  0
VERTEX
  8
VOLUMEN
 62
7
  6
CONTINUOUS
 10
3.4155916525
 20
2.3516239401
  0
VERTEX
  8
VOLUMEN
 62
7
  6
CONTINUOUS
 10
3.4141970091
 20
2.3268308315
  0
SEQEND
  0
POLYLINE
  8
VOLUMEN_1
 62
7
  6
CONTINUOUS
 66
1
 70
0
  0
VERTEX
  8
VOLUMEN_1
 62
7
  6
CONTINUOUS
 10
4.0664304594
 20
2.7086359521
  0
VERTEX
  8
VOLUMEN_1
 62
7
  6
CONTINUOUS
 10
4.1097985238
 20
2.7082493074
  0
VERTEX
  8
VOLUMEN_1
 62
7
  6
CONTINUOUS
 10
4.1528472782
 20
2.7062396412
  0
VERTEX
  8
VOLUMEN_1
 62
7
  6
CONTINUOUS
 10
4.1956683714
 20
2.702597376
  0
VERTEX
  8
VOLUMEN_1
 62
7
  6
CONTINUOUS
 10
4.237986857
 20
2.6973512443
  0
VERTEX
  8
VOLUMEN_1
 62
7
  6
CONTINUOUS
 10
4.2796152649
 20
2.6905138096
  0
VERTEX
  8
VOLUMEN_1
 62
7
  6
CONTINUOUS
 10
4.320382816
 20
2.6821240014
  0
VERTEX
  8
VOLUMEN_1
 62
7
  6
CONTINUOUS
 10
4.3601110455
 20
2.6722074857
  0
VERTEX
  8
VOLUMEN_1
 62
7
  6
CONTINUOUS
 10
4.39863554
 20
2.6608166167
  0
VERTEX
  8
VOLUMEN_1
 62
7
  6
CONTINUOUS
 10
4.435782455
 20
2.6479909122
  0
VERTEX
  8
VOLUMEN_1
 62
7
  6
CONTINUOUS
 10
4.4714016191
 20
2.6337945468
  0
VERTEX
  8
VOLUMEN_1
 62
7
  6
CONTINUOUS
 10
4.5053290034
 20
2.6182802755
  0
VERTEX
  8
VOLUMEN_1
 62
7
  6
CONTINUOUS
 10
4.5374323347
 20
2.6015218753
  0
VERTEX
  8
VOLUMEN_1
 62
7
  6
CONTINUOUS
 10
4.5675639299
 20
2.5835823319
  0
VERTEX
  8
VOLUMEN_1
 62
7
  6
CONTINUOUS
 10
4.5956059894
 20
2.5645467752
  0
VERTEX
  8
VOLUMEN_1
 62
7
  6
CONTINUOUS
 10
4.6213706076
 20
2.5445345958
  0
VERTEX
  8
VOLUMEN_1
 62
7
  6
CONTINUOUS
 10
4.6449204196
 20
2.5235059968
  0
SEQEND
  0
POLYLINE
  8
VOLUMEN
 62
7
  6
CONTINUOUS
 66
1
 70
0
  0
VERTEX
  8
VOLUMEN
 62
7
  6
CONTINUOUS
 10
4.2497726507
 20
2.6970001816
  0
VERTEX
  8
VOLUMEN
 62
7
  6
CONTINUOUS
 10
4.2073612684
 20
2.7027048111
  0
VERTEX
  8
VOLUMEN
 62
7
  6
CONTINUOUS
 10
4.164574046
 20
2.706782644
  0
VERTEX
  8
VOLUMEN
 62
7
  6
CONTINUOUS
 10
4.1213124725
 20
2.709237039
  0
VERTEX
  8
VOLUMEN
 62
7
  6
CONTINUOUS
 10
4.0778720813
 20
2.71005792
  0
SEQEND
  0
POLYLINE
  8
VOLUMEN
 62
7
  6
CONTINUOUS
 66
1
 70
0
  0
VERTEX
  8
VOLUMEN
 62
7
  6
CONTINUOUS
 10
4.2537465822
 20
2.7055628341
  0
VERTEX
  8
VOLUMEN
 62
7
  6
CONTINUOUS
 10
4.2963662216
 20
2.698093748
  0
VERTEX
  8
VOLUMEN
 62
7
  6
CONTINUOUS
 10
4.337870398
 20
2.6890762258
  0
VERTEX
  8
VOLUMEN
 62
7
  6
CONTINUOUS
 10
4.3783455265
 20
2.6784851717
  0
VERTEX
  8
VOLUMEN
 62
7
  6
CONTINUOUS
 10
4.4175323613
 20
2.6663958726
  0
VERTEX
  8
VOLUMEN
 62
7
  6
CONTINUOUS
 10
4.4552510406
 20
2.6528519963
  0
VERTEX
  8
VOLUMEN
 62
7
  6
CONTINUOUS
 10
4.4913498279
 20
2.6379233038
  0
VERTEX
  8
VOLUMEN
 62
7
  6
CONTINUOUS
 10
4.5256334241
 20
2.6216882864
  0
VERTEX
  8
VOLUMEN
 62
7
  6
CONTINUOUS
 10
4.5580526548
 20
2.6041644213
  0
VERTEX
  8
VOLUMEN
 62
7
  6
CONTINUOUS
 10
4.5885775663
 20
2.5853416563
  0
VERTEX
  8
VOLUMEN
 62
7
  6
CONTINUOUS
 10
4.6169551968
 20
2.5653810706
  0
VERTEX
  8
VOLUMEN
 62
7
  6
CONTINUOUS
 10
4.6429418455
 20
2.5444120584
  0
VERTEX
  8
VOLUMEN
 62
7
  6
CONTINUOUS
 10
4.6664797751
 20
2.5225196219
  0
VERTEX
  8
VOLUMEN
 62
7
  6
CONTINUOUS
 10
4.6874523169
 20
2.4997968953
  0
VERTEX
  8
VOLUMEN
 62
7
  6
CONTINUOUS
 10
4.7057925651
 20
2.4763488773
  0
VERTEX
  8
VOLUMEN
 62
7
  6
CONTINUOUS
 10
4.7214086451
 20
2.4522758453
  0
VERTEX
  8
VOLUMEN
 62
7
  6
CONTINUOUS
 10
4.7342587948
 20
2.4276850976
  0
VERTEX
  8
VOLUMEN
 62
7
  6
CONTINUOUS
 10
4.7442765293
 20
2.4026832264
  0
VERTEX
  8
VOLUMEN
 62
7
  6
CONTINUOUS
 10
4.7514441433
 20
2.3773726263
  0
VERTEX
  8
VOLUMEN
 62
7
  6
CONTINUOUS
 10
4.7557216961
 20
2.3518568242
  0
VERTEX
  8
VOLUMEN
 62
7
  6
CONTINUOUS
 10
4.7571103949
 20
2.3268317595
  0
SEQEND
  0
POLYLINE
  8
0
 62
7
  6
CONTINUOUS
 66
1
 70
0
  0
VERTEX
  8
0
 62
7
  6
CONTINUOUS
 10
4.0779700345
 20
2.9874062535
  0
VERTEX
  8
0
 62
7
  6
CONTINUOUS
 10
4.0762926472
 20
2.9885811489
  0
VERTEX
  8
0
 62
7
  6
CONTINUOUS
 10
4.0747492834
 20
2.9900118045
  0
VERTEX
  8
0
 62
7
  6
CONTINUOUS
 10
4.0733181672
 20
2.9917302425
  0
VERTEX
  8
0
 62
7
  6
CONTINUOUS
 10
4.0720646262
 20
2.9936403962
  0
VERTEX
  8
0
 62
7
  6
CONTINUOUS
 10
4.0710371438
 20
2.9956810688
  0
VERTEX
  8
0
 62
7
  6
CONTINUOUS
 10
4.0702644771
 20
2.9977796737
  0
VERTEX
  8
0
 62
7
  6
CONTINUOUS
 10
4.0697971589
 20
2.9998316022
  0
VERTEX
  8
0
 62
7
  6
CONTINUOUS
 10
4.0696183448
 20
3.001871724
  0
SEQEND
  0
POLYLINE
  8
VOLUMEN
 62
7
  6
CONTINUOUS
 66
1
 70
0
  0
VERTEX
  8
VOLUMEN
 62
7
  6
CONTINUOUS
 10
4.6523356118
 20
2.5189338078
  0
VERTEX
  8
VOLUMEN
 62
7
  6
CONTINUOUS
 10
4.6293634271
 20
2.5401892121
  0
VERTEX
  8
VOLUMEN
 62
7
  6
CONTINUOUS
 10
4.6040362342
 20
2.5605390241
  0
VERTEX
  8
VOLUMEN
 62
7
  6
CONTINUOUS
 10
4.5764133023
 20
2.5799065524
  0
VERTEX
  8
VOLUMEN
 62
7
  6
CONTINUOUS
 10
4.5467115873
 20
2.5981750702
  0
VERTEX
  8
VOLUMEN
 62
7
  6
CONTINUOUS
 10
4.5151591132
 20
2.615200821
  0
VERTEX
  8
VOLUMEN
 62
7
  6
CONTINUOUS
 10
4.481781945
 20
2.6309882034
  0
VERTEX
  8
VOLUMEN
 62
7
  6
CONTINUOUS
 10
4.4466226772
 20
2.6455195984
  0
VERTEX
  8
VOLUMEN
 62
7
  6
CONTINUOUS
 10
4.4098597447
 20
2.6587173015
  0
VERTEX
  8
VOLUMEN
 62
7
  6
CONTINUOUS
 10
4.371630635
 20
2.6705134636
  0
VERTEX
  8
VOLUMEN
 62
7
  6
CONTINUOUS
 10
4.3321007837
 20
2.6808608988
  0
VERTEX
  8
VOLUMEN
 62
7
  6
CONTINUOUS
 10
4.2915078637
 20
2.6896810795
  0
VERTEX
  8
VOLUMEN
 62
7
  6
CONTINUOUS
 10
4.2497726507
 20
2.6970001816
  0
SEQEND
  0
POLYLINE
  8
VOLUMEN_1
 62
7
  6
CONTINUOUS
 66
1
 70
0
  0
VERTEX
  8
VOLUMEN_1
 62
7
  6
CONTINUOUS
 10
4.6449204196
 20
2.5235059968
  0
VERTEX
  8
VOLUMEN_1
 62
7
  6
CONTINUOUS
 10
4.6660253838
 20
2.5016293771
  0
VERTEX
  8
VOLUMEN_1
 62
7
  6
CONTINUOUS
 10
4.6845384901
 20
2.4790946209
  0
VERTEX
  8
VOLUMEN_1
 62
7
  6
CONTINUOUS
 10
4.7004931495
 20
2.4558477634
  0
VERTEX
  8
VOLUMEN_1
 62
7
  6
CONTINUOUS
 10
4.7137891293
 20
2.4320506991
  0
VERTEX
  8
VOLUMEN_1
 62
7
  6
CONTINUOUS
 10
4.7243445349
 20
2.4078089431
  0
VERTEX
  8
VOLUMEN_1
 62
7
  6
CONTINUOUS
 10
4.7321377633
 20
2.3832376681
  0
VERTEX
  8
VOLUMEN_1
 62
7
  6
CONTINUOUS
 10
4.7371200857
 20
2.3584670645
  0
VERTEX
  8
VOLUMEN_1
 62
7
  6
CONTINUOUS
 10
4.739290985
 20
2.3335575938
  0
VERTEX
  8
VOLUMEN_1
 62
7
  6
CONTINUOUS
 10
4.7393938592
 20
2.3268180102
  0
SEQEND
  0
POLYLINE
  8
0
 62
7
  6
CONTINUOUS
 66
1
 70
0
  0
VERTEX
  8
0
 62
7
  6
CONTINUOUS
 10
5.7075623957
 20
2.0164798724
  0
VERTEX
  8
0
 62
7
  6
CONTINUOUS
 10
5.7101088005
 20
2.0184511722
  0
VERTEX
  8
0
 62
7
  6
CONTINUOUS
 10
5.7121560352
 20
2.0211317799
  0
VERTEX
  8
0
 62
7
  6
CONTINUOUS
 10
5.7136668739
 20
2.0244454708
  0
VERTEX
  8
0
 62
7
  6
CONTINUOUS
 10
5.7145744306
 20
2.0282904426
  0
VERTEX
  8
0
 62
7
  6
CONTINUOUS
 10
5.7149010006
 20
2.0327006295
  0
SEQEND
  0
LINE
  8
0
 62
7
  6
CONTINUOUS
 10
5.4392918421
 20
2.2014645217
 11
4.0779700345
 21
2.9874062535
  0
LINE
  8
0
 62
7
  6
CONTINUOUS
 10
4.0783875494
 20
3.0064524183
 11
5.4559952963
 21
2.2111082079
  0
LINE
  8
0
 62
7
  6
CONTINUOUS
 10
4.3148394706
 20
0.9061346521
 11
5.3193626738
 21
1.486092932
  0
LINE
  8
0
 62
7
  6
CONTINUOUS
 10
4.0783875494
 20
3.2379019223
 11
5.6560217275
 21
2.3270750106
  0
LINE
  8
0
 62
7
  6
CONTINUOUS
 10
5.6727249678
 20
2.3367185733
 11
4.0950907896
 21
3.247545485
  0
LINE
  8
0
 62
7
  6
CONTINUOUS
 10
4.0946732052
 20
3.2477865721
 11
4.0779698258
 21
3.2574300545
  0
LINE
  8
0
 62
7
  6
CONTINUOUS
 10
5.6731425522
 20
2.3364774862
 11
5.6898459316
 21
2.3268340038
  0
LINE
  8
0
 62
7
  6
CONTINUOUS
 10
4.0771345943
 20
3.2665913989
 11
4.0604312149
 21
3.2762348813
  0
LINE
  8
0
 62
7
  6
CONTINUOUS
 10
5.7057140794
 20
2.3263518658
 11
5.7224174587
 21
2.3167083834
  0
LINE
  8
0
 62
7
  6
CONTINUOUS
 10
5.7232526207
 20
2.3171905616
 11
4.0612663769
 21
3.2767170594
  0
LINE
  8
0
 62
7
  6
CONTINUOUS
 10
4.0779696172
 20
3.2863606221
 11
5.7399558609
 21
2.3268341243
  0
LINE
  8
0
 62
7
  6
CONTINUOUS
 10
5.3193626738
 20
1.486092932
 11
5.3193626738
 21
1.7923539963
  0
LINE
  8
0
 62
7
  6
CONTINUOUS
 10
5.3417560642
 20
1.6228378878
 11
5.3417560642
 21
1.8052827491
  0
POLYLINE
  8
LAYER_33169
 62
7
  6
CONTINUOUS
 66
1
 70
0
  0
VERTEX
  8
LAYER_33169
 62
7
  6
CONTINUOUS
 10
5.4352433825
 20
1.48783309
  0
VERTEX
  8
LAYER_33169
 62
7
  6
CONTINUOUS
 10
5.435316634
 20
1.4859700606
  0
VERTEX
  8
LAYER_33169
 62
7
  6
CONTINUOUS
 10
5.4359088123
 20
1.4822309316
  0
VERTEX
  8
LAYER_33169
 62
7
  6
CONTINUOUS
 10
5.4370951168
 20
1.4785373912
  0
VERTEX
  8
LAYER_33169
 62
7
  6
CONTINUOUS
 10
5.4388777301
 20
1.474900438
  0
VERTEX
  8
LAYER_33169
 62
7
  6
CONTINUOUS
 10
5.4412352666
 20
1.4713638519
  0
VERTEX
  8
LAYER_33169
 62
7
  6
CONTINUOUS
 10
5.4441587935
 20
1.4679653703
  0
VERTEX
  8
LAYER_33169
 62
7
  6
CONTINUOUS
 10
5.4476131352
 20
1.4647341189
  0
VERTEX
  8
LAYER_33169
 62
7
  6
CONTINUOUS
 10
5.4515553692
 20
1.4617170159
  0
VERTEX
  8
LAYER_33169
 62
7
  6
CONTINUOUS
 10
5.4559998031
 20
1.4588984219
  0
SEQEND
  0
LINE
  8
LAYER_33169
 62
7
  6
CONTINUOUS
 10
5.4352433821
 20
1.8592573551
 11
5.4352433821
 21
1.4878291099
  0
POLYLINE
  8
0
 62
7
  6
CONTINUOUS
 66
1
 70
0
  0
VERTEX
  8
0
 62
7
  6
CONTINUOUS
 10
5.3193626738
 20
1.486092932
  0
VERTEX
  8
0
 62
7
  6
CONTINUOUS
 10
5.3272133268
 20
1.512470404
  0
VERTEX
  8
0
 62
7
  6
CONTINUOUS
 10
5.3333776333
 20
1.538960756
  0
VERTEX
  8
0
 62
7
  6
CONTINUOUS
 10
5.3378580488
 20
1.5655819982
  0
VERTEX
  8
0
 62
7
  6
CONTINUOUS
 10
5.3406472069
 20
1.5922801004
  0
VERTEX
  8
0
 62
7
  6
CONTINUOUS
 10
5.341737741
 20
1.6190010324
  0
VERTEX
  8
0
 62
7
  6
CONTINUOUS
 10
5.3417560638
 20
1.6228563185
  0
SEQEND
  0
LINE
  8
LAYER_33169
 62
7
  6
CONTINUOUS
 10
5.5769756656
 20
1.9410860387
 11
5.5769756656
 21
1.4878291099
  0
LINE
  8
0
 62
7
  6
CONTINUOUS
 10
5.6560217275
 20
2.3265928324
 11
5.6560217275
 21
2.3270750106
  0
LINE
  8
0
 62
7
  6
CONTINUOUS
 10
5.7224174587
 20
2.0537436619
 11
5.7149010006
 21
2.0327006295
  0
LINE
  8
0
 62
7
  6
CONTINUOUS
 10
5.6727249678
 20
2.3362363951
 11
5.6727249678
 21
2.3367185733
  0
LINE
  8
0
 62
7
  6
CONTINUOUS
 10
5.6898459316
 20
2.3268340038
 11
5.6898459316
 21
2.3171904411
  0
LINE
  8
0
 62
7
  6
CONTINUOUS
 10
5.7224174587
 20
2.3167083834
 11
5.7224174587
 21
2.0537436619
  0
LINE
  8
0
 62
7
  6
CONTINUOUS
 10
5.7232526207
 20
2.05422584
 11
5.7232526207
 21
2.3171905616
  0
LINE
  8
0
 62
7
  6
CONTINUOUS
 10
5.7399558609
 20
2.0638694027
 11
5.7399558609
 21
2.3268341243
  0
LINE
  8
0
 62
7
  6
CONTINUOUS
 10
2.2560821302
 20
8.1387297665
 11
2.2560821302
 21
4.3040840972
  0
LINE
  8
0
 62
7
  6
CONTINUOUS
 10
2.2560821302
 20
4.3021155933
 11
2.2560821302
 21
4.2627455146
  0
LINE
  8
0
 62
7
  6
CONTINUOUS
 10
2.2560821302
 20
8.1406982705
 11
2.2560821302
 21
8.1800683492
  0
LINE
  8
0
 62
7
  6
CONTINUOUS
 10
2.2954522089
 20
4.3040840972
 11
2.2954522089
 21
8.1387297665
  0
LINE
  8
0
 62
7
  6
CONTINUOUS
 10
2.3151372483
 20
8.1406982705
 11
2.3151372483
 21
4.3021155933
  0
LINE
  8
0
 62
7
  6
CONTINUOUS
 10
2.354507327
 20
4.3218006327
 11
2.354507327
 21
8.1210132311
  0
LINE
  8
0
 62
7
  6
CONTINUOUS
 10
2.355491579
 20
4.3611707114
 11
2.355491579
 21
4.3218006327
  0
LINE
  8
0
 62
7
  6
CONTINUOUS
 10
2.355491579
 20
8.0816431524
 11
2.355491579
 21
8.1210132311
  0
LINE
  8
0
 62
7
  6
CONTINUOUS
 10
2.3741923664
 20
8.0816431524
 11
2.3741923664
 21
4.3611707114
  0
LINE
  8
0
 62
7
  6
CONTINUOUS
 10
6.1734049648
 20
4.2627455146
 11
2.2560821302
 21
4.2627455146
  0
LINE
  8
0
 62
7
  6
CONTINUOUS
 10
2.2560821302
 20
4.3021155933
 11
6.1734049648
 21
4.3021155933
  0
LINE
  8
0
 62
7
  6
CONTINUOUS
 10
2.2954522089
 20
4.3040840972
 11
2.2560821302
 21
4.3040840972
  0
LINE
  8
0
 62
7
  6
CONTINUOUS
 10
6.1340348861
 20
4.3040840972
 11
6.1734049648
 21
4.3040840972
  0
LINE
  8
0
 62
7
  6
CONTINUOUS
 10
2.2954522089
 20
4.3218006327
 11
2.354507327
 21
4.3218006327
  0
LINE
  8
0
 62
7
  6
CONTINUOUS
 10
2.355491579
 20
4.3218006327
 11
6.073995516
 21
4.3218006327
  0
LINE
  8
0
 62
7
  6
CONTINUOUS
 10
6.074979768
 20
4.3218006327
 11
6.1340348861
 21
4.3218006327
  0
LINE
  8
0
 62
7
  6
CONTINUOUS
 10
6.073995516
 20
4.3611707114
 11
2.355491579
 21
4.3611707114
  0
LINE
  8
0
 62
7
  6
CONTINUOUS
 10
2.354507327
 20
4.3808557508
 11
6.074979768
 21
4.3808557508
  0
LINE
  8
0
 62
7
  6
CONTINUOUS
 10
6.0552947286
 20
4.3611707114
 11
6.0552947286
 21
8.0816431524
  0
LINE
  8
0
 62
7
  6
CONTINUOUS
 10
6.073995516
 20
4.3611707114
 11
6.073995516
 21
4.3218006327
  0
LINE
  8
0
 62
7
  6
CONTINUOUS
 10
6.073995516
 20
8.0816431524
 11
6.073995516
 21
8.1210132311
  0
LINE
  8
0
 62
7
  6
CONTINUOUS
 10
6.074979768
 20
8.1210132311
 11
6.074979768
 21
4.3218006327
  0
LINE
  8
0
 62
7
  6
CONTINUOUS
 10
6.074979768
 20
8.061958113
 11
2.354507327
 21
8.061958113
  0
LINE
  8
0
 62
7
  6
CONTINUOUS
 10
6.073995516
 20
8.0816431524
 11
2.355491579
 21
8.0816431524
  0
LINE
  8
0
 62
7
  6
CONTINUOUS
 10
6.1143498467
 20
4.3021155933
 11
6.1143498467
 21
8.1406982705
  0
LINE
  8
0
 62
7
  6
CONTINUOUS
 10
6.1340348861
 20
8.1387297665
 11
6.1340348861
 21
4.3040840972
  0
LINE
  8
0
 62
7
  6
CONTINUOUS
 10
6.1734049648
 20
4.3021155933
 11
6.1734049648
 21
4.2627455146
  0
LINE
  8
0
 62
7
  6
CONTINUOUS
 10
6.1734049648
 20
4.3040840972
 11
6.1734049648
 21
8.1387297665
  0
LINE
  8
0
 62
7
  6
CONTINUOUS
 10
6.1734049648
 20
8.1406982705
 11
6.1734049648
 21
8.1800683492
  0
LINE
  8
0
 62
7
  6
CONTINUOUS
 10
2.354507327
 20
8.1210132311
 11
2.2954522089
 21
8.1210132311
  0
LINE
  8
0
 62
7
  6
CONTINUOUS
 10
2.355491579
 20
8.1210132311
 11
6.073995516
 21
8.1210132311
  0
LINE
  8
0
 62
7
  6
CONTINUOUS
 10
6.074979768
 20
8.1210132311
 11
6.1340348861
 21
8.1210132311
  0
LINE
  8
0
 62
7
  6
CONTINUOUS
 10
2.2954522089
 20
8.1387297665
 11
2.2560821302
 21
8.1387297665
  0
LINE
  8
0
 62
7
  6
CONTINUOUS
 10
6.1340348861
 20
8.1387297665
 11
6.1734049648
 21
8.1387297665
  0
LINE
  8
0
 62
7
  6
CONTINUOUS
 10
2.2560821302
 20
8.1406982705
 11
6.1734049648
 21
8.1406982705
  0
LINE
  8
0
 62
7
  6
CONTINUOUS
 10
6.1734049648
 20
8.1800683492
 11
2.2560821302
 21
8.1800683492
  0
LINE
  8
0
 62
7
  6
CONTINUOUS
 10
2.3447415687
 20
10.1038800825
 11
2.3447415687
 21
10.6747462242
  0
LINE
  8
0
 62
7
  6
CONTINUOUS
 10
2.3841116475
 20
10.1038800825
 11
2.3841116475
 21
10.1152452452
  0
LINE
  8
0
 62
7
  6
CONTINUOUS
 10
2.4037966869
 20
10.1038800825
 11
2.4037966869
 21
10.0448249643
  0
LINE
  8
LAYER_33169
 62
7
  6
CONTINUOUS
 10
2.5022218837
 20
10.0448249643
 11
2.5022218837
 21
8.962147799
  0
LINE
  8
LAYER_33169
 62
7
  6
CONTINUOUS
 10
2.7384423561
 20
10.0448249643
 11
2.7384423561
 21
8.962147799
  0
LINE
  8
0
 62
7
  6
CONTINUOUS
 10
2.8615494367
 20
9.2377383502
 11
2.8615494367
 21
10.0448249643
  0
LINE
  8
LAYER_33169
 62
7
  6
CONTINUOUS
 10
2.5022218837
 20
8.962147799
 11
2.7384423561
 21
8.962147799
  0
LINE
  8
LAYER_33169
 62
7
  6
CONTINUOUS
 10
5.868363616
 20
8.962147799
 11
6.1045840884
 21
8.962147799
  0
LINE
  8
0
 62
7
  6
CONTINUOUS
 10
2.4037966869
 20
10.1038800825
 11
2.3447415687
 21
10.1379755708
  0
LINE
  8
0
 62
7
  6
CONTINUOUS
 10
2.7384423561
 20
9.2377383502
 11
5.868363616
 21
9.2377383502
  0
LINE
  8
0
 62
7
  6
CONTINUOUS
 10
5.868363616
 20
10.0349824447
 11
5.7452565355
 21
10.0349824447
  0
LINE
  8
0
 62
7
  6
CONTINUOUS
 10
2.8615494367
 20
10.0349824447
 11
2.7384423561
 21
10.0349824447
  0
LINE
  8
0
 62
7
  6
CONTINUOUS
 10
6.2030092853
 20
10.0448249643
 11
2.4037966869
 21
10.0448249643
  0
LINE
  8
0
 62
7
  6
CONTINUOUS
 10
2.3841116475
 20
10.1038800825
 11
2.3447415687
 21
10.1038800825
  0
LINE
  8
0
 62
7
  6
CONTINUOUS
 10
2.4037966869
 20
10.1038800825
 11
6.2030092853
 21
10.1038800825
  0
LINE
  8
0
 62
7
  6
CONTINUOUS
 10
6.2226943246
 20
10.1038800825
 11
6.2620644034
 21
10.1038800825
  0
LINE
  8
0
 62
7
  6
CONTINUOUS
 10
6.2620644034
 20
10.1379755708
 11
6.2030092853
 21
10.1038800825
  0
LINE
  8
0
 62
7
  6
CONTINUOUS
 10
6.2620644034
 20
10.6747462242
 11
2.3447415687
 21
10.6747462242
  0
LINE
  8
0
 62
7
  6
CONTINUOUS
 10
5.7452565355
 20
9.2377383502
 11
5.7452565355
 21
10.0448249643
  0
LINE
  8
LAYER_33169
 62
7
  6
CONTINUOUS
 10
5.868363616
 20
10.0448249643
 11
5.868363616
 21
8.962147799
  0
LINE
  8
LAYER_33169
 62
7
  6
CONTINUOUS
 10
6.1045840884
 20
10.0448249643
 11
6.1045840884
 21
8.962147799
  0
LINE
  8
0
 62
7
  6
CONTINUOUS
 10
6.2030092853
 20
10.0448249643
 11
6.2030092853
 21
10.1038800825
  0
LINE
  8
0
 62
7
  6
CONTINUOUS
 10
6.2226943246
 20
10.1152452452
 11
6.2226943246
 21
10.1038800825
  0
LINE
  8
0
 62
7
  6
CONTINUOUS
 10
6.2620644034
 20
10.1038800825
 11
6.2620644034
 21
10.6747462242
  0
CIRCLE
  8
VOLUMEN
 62
7
  6
CONTINUOUS
 10
4.2147435475
 20
6.2214069319
 40
1.1318897638
  0
CIRCLE
  8
VOLUMEN
 62
7
  6
CONTINUOUS
 10
4.2147435475
 20
6.2214069319
 40
1.1062992126
  0
CIRCLE
  8
VOLUMEN_1
 62
7
  6
CONTINUOUS
 10
4.2147435475
 20
6.2214069319
 40
1.1023622047
  0
ARC
  8
0
 62
7
  6
CONTINUOUS
 10
2.4037966869
 20
10.1038800825
 40
0.0590551181
 50
180.0
 51
270.0
  0
ARC
  8
0
 62
7
  6
CONTINUOUS
 10
6.2030092853
 20
10.1038800825
 40
0.0590551181
 50
270.0
 51
360.0
  0
ARC
  8
0
 62
7
  6
CONTINUOUS
 10
2.4037966869
 20
10.1038800825
 40
0.0196850394
 50
180.0
 51
270.0
  0
ARC
  8
0
 62
7
  6
CONTINUOUS
 10
6.2030092853
 20
10.1038800825
 40
0.0196850394
 50
270.0
 51
360.0
  0
ENDSEC
  0
EOF
