  0
SECTION
  2
HEADER
  9
$ACADVER
  1
AC1032
  9
$ACADMAINTVER
 90
      251
  9
$DWGCODEPAGE
  3
ANSI_1252
  9
$REQUIREDVERSIONS
160
                 0
  9
$INSBASE
 10
0.0
 20
0.0
 30
0.0
  9
$EXTMIN
 10
1.000000000000000E+20
 20
1.000000000000000E+20
 30
1.000000000000000E+20
  9
$EXTMAX
 10
-1.000000000000000E+20
 20
-1.000000000000000E+20
 30
-1.000000000000000E+20
  9
$LIMMIN
 10
0.0
 20
0.0
  9
$LIMMAX
 10
12.0
 20
9.0
  9
$ORTHOMODE
 70
     0
  9
$REGENMODE
 70
     1
  9
$FILLMODE
 70
     1
  9
$QTEXTMODE
 70
     0
  9
$MIRRTEXT
 70
     0
  9
$LTSCALE
 40
1.0
  9
$ATTMODE
 70
     1
  9
$TEXTSIZE
 40
0.2
  9
$TRACEWID
 40
0.05
  9
$TEXTSTYLE
  7
Standard
  9
$CLAYER
  8
0
  9
$CELTYPE
  6
ByLayer
  9
$CECOLOR
 62
   256
  9
$CELTSCALE
 40
1.0
  9
$DISPSILH
 70
     0
  9
$DIMSCALE
 40
1.0
  9
$DIMASZ
 40
0.18
  9
$DIMEXO
 40
0.0625
  9
$DIMDLI
 40
0.38
  9
$DIMRND
 40
0.0
  9
$DIMDLE
 40
0.0
  9
$DIMEXE
 40
0.18
  9
$DIMTP
 40
0.0
  9
$DIMTM
 40
0.0
  9
$DIMTXT
 40
0.18
  9
$DIMCEN
 40
0.09
  9
$DIMTSZ
 40
0.0
  9
$DIMTOL
 70
     0
  9
$DIMLIM
 70
     0
  9
$DIMTIH
 70
     1
  9
$DIMTOH
 70
     1
  9
$DIMSE1
 70
     0
  9
$DIMSE2
 70
     0
  9
$DIMTAD
 70
     0
  9
$DIMZIN
 70
     0
  9
$DIMBLK
  1

  9
$DIMASO
 70
     1
  9
$DIMSHO
 70
     1
  9
$DIMPOST
  1

  9
$DIMAPOST
  1

  9
$DIMALT
 70
     0
  9
$DIMALTD
 70
     2
  9
$DIMALTF
 40
25.4
  9
$DIMLFAC
 40
1.0
  9
$DIMTOFL
 70
     0
  9
$DIMTVP
 40
0.0
  9
$DIMTIX
 70
     0
  9
$DIMSOXD
 70
     0
  9
$DIMSAH
 70
     0
  9
$DIMBLK1
  1

  9
$DIMBLK2
  1

  9
$DIMSTYLE
  2
Standard
  9
$DIMCLRD
 70
     0
  9
$DIMCLRE
 70
     0
  9
$DIMCLRT
 70
     0
  9
$DIMTFAC
 40
1.0
  9
$DIMGAP
 40
0.09
  9
$DIMJUST
 70
     0
  9
$DIMSD1
 70
     0
  9
$DIMSD2
 70
     0
  9
$DIMTOLJ
 70
     1
  9
$DIMTZIN
 70
     0
  9
$DIMALTZ
 70
     0
  9
$DIMALTTZ
 70
     0
  9
$DIMUPT
 70
     0
  9
$DIMDEC
 70
     4
  9
$DIMTDEC
 70
     4
  9
$DIMALTU
 70
     2
  9
$DIMALTTD
 70
     2
  9
$DIMTXSTY
  7
Standard
  9
$DIMAUNIT
 70
     0
  9
$DIMADEC
 70
     0
  9
$DIMALTRND
 40
0.0
  9
$DIMAZIN
 70
     0
  9
$DIMDSEP
 70
    46
  9
$DIMATFIT
 70
     3
  9
$DIMFRAC
 70
     0
  9
$DIMLDRBLK
  1

  9
$DIMLUNIT
 70
     2
  9
$DIMLWD
 70
    -2
  9
$DIMLWE
 70
    -2
  9
$DIMTMOVE
 70
     0
  9
$DIMFXL
 40
1.0
  9
$DIMFXLON
 70
     0
  9
$DIMJOGANG
 40
0.7853981633974483
  9
$DIMTFILL
 70
     0
  9
$DIMTFILLCLR
 70
     0
  9
$DIMARCSYM
 70
     0
  9
$DIMLTYPE
  6

  9
$DIMLTEX1
  6

  9
$DIMLTEX2
  6

  9
$DIMTXTDIRECTION
 70
     0
  9
$LUNITS
 70
     2
  9
$LUPREC
 70
     4
  9
$SKETCHINC
 40
0.1
  9
$FILLETRAD
 40
0.0
  9
$AUNITS
 70
     0
  9
$AUPREC
 70
     0
  9
$MENU
  1
.
  9
$ELEVATION
 40
0.0
  9
$PELEVATION
 40
0.0
  9
$THICKNESS
 40
0.0
  9
$LIMCHECK
 70
     0
  9
$CHAMFERA
 40
0.0
  9
$CHAMFERB
 40
0.0
  9
$CHAMFERC
 40
0.0
  9
$CHAMFERD
 40
0.0
  9
$SKPOLY
 70
     0
  9
$TDCREATE
 40
2459963.390775463
  9
$TDUCREATE
 40
2459963.349108796
  9
$TDUPDATE
 40
2459963.390775463
  9
$TDUUPDATE
 40
2459963.349108796
  9
$TDINDWG
 40
0.0000000000
  9
$TDUSRTIMER
 40
0.0000000000
  9
$USRTIMER
 70
     1
  9
$ANGBASE
 50
0.0
  9
$ANGDIR
 70
     0
  9
$PDMODE
 70
     0
  9
$PDSIZE
 40
0.0
  9
$PLINEWID
 40
0.0
  9
$SPLFRAME
 70
     0
  9
$SPLINETYPE
 70
     6
  9
$SPLINESEGS
 70
     8
  9
$HANDSEED
  5
373
  9
$SURFTAB1
 70
     6
  9
$SURFTAB2
 70
     6
  9
$SURFTYPE
 70
     6
  9
$SURFU
 70
     6
  9
$SURFV
 70
     6
  9
$UCSBASE
  2

  9
$UCSNAME
  2

  9
$UCSORG
 10
0.0
 20
0.0
 30
0.0
  9
$UCSXDIR
 10
1.0
 20
0.0
 30
0.0
  9
$UCSYDIR
 10
0.0
 20
1.0
 30
0.0
  9
$UCSORTHOREF
  2

  9
$UCSORTHOVIEW
 70
     0
  9
$UCSORGTOP
 10
0.0
 20
0.0
 30
0.0
  9
$UCSORGBOTTOM
 10
0.0
 20
0.0
 30
0.0
  9
$UCSORGLEFT
 10
0.0
 20
0.0
 30
0.0
  9
$UCSORGRIGHT
 10
0.0
 20
0.0
 30
0.0
  9
$UCSORGFRONT
 10
0.0
 20
0.0
 30
0.0
  9
$UCSORGBACK
 10
0.0
 20
0.0
 30
0.0
  9
$PUCSBASE
  2

  9
$PUCSNAME
  2

  9
$PUCSORG
 10
0.0
 20
0.0
 30
0.0
  9
$PUCSXDIR
 10
1.0
 20
0.0
 30
0.0
  9
$PUCSYDIR
 10
0.0
 20
1.0
 30
0.0
  9
$PUCSORTHOREF
  2

  9
$PUCSORTHOVIEW
 70
     0
  9
$PUCSORGTOP
 10
0.0
 20
0.0
 30
0.0
  9
$PUCSORGBOTTOM
 10
0.0
 20
0.0
 30
0.0
  9
$PUCSORGLEFT
 10
0.0
 20
0.0
 30
0.0
  9
$PUCSORGRIGHT
 10
0.0
 20
0.0
 30
0.0
  9
$PUCSORGFRONT
 10
0.0
 20
0.0
 30
0.0
  9
$PUCSORGBACK
 10
0.0
 20
0.0
 30
0.0
  9
$USERI1
 70
     0
  9
$USERI2
 70
     0
  9
$USERI3
 70
     0
  9
$USERI4
 70
     0
  9
$USERI5
 70
     0
  9
$USERR1
 40
0.0
  9
$USERR2
 40
0.0
  9
$USERR3
 40
0.0
  9
$USERR4
 40
0.0
  9
$USERR5
 40
0.0
  9
$WORLDVIEW
 70
     1
  9
$SHADEDGE
 70
     3
  9
$SHADEDIF
 70
    70
  9
$TILEMODE
 70
     1
  9
$MAXACTVP
 70
    64
  9
$PINSBASE
 10
0.0
 20
0.0
 30
0.0
  9
$PLIMCHECK
 70
     0
  9
$PEXTMIN
 10
1.000000000000000E+20
 20
1.000000000000000E+20
 30
1.000000000000000E+20
  9
$PEXTMAX
 10
-1.000000000000000E+20
 20
-1.000000000000000E+20
 30
-1.000000000000000E+20
  9
$PLIMMIN
 10
0.0
 20
0.0
  9
$PLIMMAX
 10
12.0
 20
9.0
  9
$UNITMODE
 70
     0
  9
$VISRETAIN
 70
     1
  9
$PLINEGEN
 70
     0
  9
$PSLTSCALE
 70
     1
  9
$TREEDEPTH
 70
  3020
  9
$CMLSTYLE
  2
Standard
  9
$CMLJUST
 70
     0
  9
$CMLSCALE
 40
1.0
  9
$PROXYGRAPHICS
 70
     1
  9
$MEASUREMENT
 70
     0
  9
$CELWEIGHT
370
    -1
  9
$ENDCAPS
280
     0
  9
$JOINSTYLE
280
     0
  9
$LWDISPLAY
290
     1
  9
$INSUNITS
 70
     4
  9
$HYPERLINKBASE
  1

  9
$STYLESHEET
  1

  9
$XEDIT
290
     1
  9
$CEPSNTYPE
380
     0
  9
$PSTYLEMODE
290
     1
  9
$FINGERPRINTGUID
  2
{D003102E-635E-8F4C-B53E-17CE5D5DC159}
  9
$VERSIONGUID
  2
{AAA0C2A7-22E0-7A43-A7C6-B83478B8F3F1}
  9
$EXTNAMES
290
     1
  9
$PSVPSCALE
 40
0.0
  9
$OLESTARTUP
290
     0
  9
$SORTENTS
280
   127
  9
$INDEXCTL
280
     0
  9
$HIDETEXT
280
     1
  9
$XCLIPFRAME
280
     2
  9
$HALOGAP
280
     0
  9
$OBSCOLOR
 70
   257
  9
$OBSLTYPE
280
     0
  9
$INTERSECTIONDISPLAY
280
     0
  9
$INTERSECTIONCOLOR
 70
   257
  9
$DIMASSOC
280
     2
  9
$PROJECTNAME
  1

  9
$CAMERADISPLAY
290
     0
  9
$LENSLENGTH
 40
50.0
  9
$CAMERAHEIGHT
 40
0.0
  9
$STEPSPERSEC
 40
2.0
  9
$STEPSIZE
 40
6.0
  9
$3DDWFPREC
 40
2.0
  9
$PSOLWIDTH
 40
0.25
  9
$PSOLHEIGHT
 40
4.0
  9
$LOFTANG1
 40
1.570796326794896
  9
$LOFTANG2
 40
1.570796326794896
  9
$LOFTMAG1
 40
0.0
  9
$LOFTMAG2
 40
0.0
  9
$LOFTPARAM
 70
     7
  9
$LOFTNORMALS
280
     1
  9
$LATITUDE
 40
37.795
  9
$LONGITUDE
 40
-122.394
  9
$NORTHDIRECTION
 40
0.0
  9
$TIMEZONE
 70
 -8000
  9
$LIGHTGLYPHDISPLAY
280
     1
  9
$TILEMODELIGHTSYNCH
280
     1
  9
$CMATERIAL
347
11
  9
$SOLIDHIST
280
     0
  9
$SHOWHIST
280
     1
  9
$DWFFRAME
280
     2
  9
$DGNFRAME
280
     0
  9
$REALWORLDSCALE
290
     1
  9
$INTERFERECOLOR
 62
     1
  9
$INTERFEREOBJVS
345
33
  9
$INTERFEREVPVS
346
30
  9
$CSHADOW
280
     0
  9
$SHADOWPLANELOCATION
 40
0.0
  0
ENDSEC
  0
SECTION
  2
CLASSES
  0
CLASS
  1
ACDBDICTIONARYWDFLT
  2
AcDbDictionaryWithDefault
  3
ObjectDBX Classes
 90
        0
 91
        1
280
     0
281
     0
  0
CLASS
  1
MATERIAL
  2
AcDbMaterial
  3
ObjectDBX Classes
 90
     1153
 91
        3
280
     0
281
     0
  0
CLASS
  1
VISUALSTYLE
  2
AcDbVisualStyle
  3
ObjectDBX Classes
 90
     4095
 91
       24
280
     0
281
     0
  0
CLASS
  1
SCALE
  2
AcDbScale
  3
ObjectDBX Classes
 90
     1153
 91
       17
280
     0
281
     0
  0
CLASS
  1
TABLESTYLE
  2
AcDbTableStyle
  3
ObjectDBX Classes
 90
     4095
 91
        1
280
     0
281
     0
  0
CLASS
  1
MLEADERSTYLE
  2
AcDbMLeaderStyle
  3
ACDB_MLEADERSTYLE_CLASS
 90
     4095
 91
        1
280
     0
281
     0
  0
CLASS
  1
ACDBSECTIONVIEWSTYLE
  2
AcDbSectionViewStyle
  3
ObjectDBX Classes
 90
     1025
 91
        1
280
     0
281
     0
  0
CLASS
  1
ACDBDETAILVIEWSTYLE
  2
AcDbDetailViewStyle
  3
ObjectDBX Classes
 90
     1025
 91
        1
280
     0
281
     0
  0
CLASS
  1
DICTIONARYVAR
  2
AcDbDictionaryVar
  3
ObjectDBX Classes
 90
        0
 91
        5
280
     0
281
     0
  0
CLASS
  1
CELLSTYLEMAP
  2
AcDbCellStyleMap
  3
ObjectDBX Classes
 90
     1152
 91
        1
280
     0
281
     0
  0
ENDSEC
  0
SECTION
  2
TABLES
  0
TABLE
  2
VPORT
  5
8
330
0
100
AcDbSymbolTable
 70
     1
  0
VPORT
  5
57
330
8
100
AcDbSymbolTableRecord
100
AcDbViewportTableRecord
  2
*Active
 70
     0
 10
0.0
 20
0.0
 11
1.0
 21
1.0
 12
0.0
 22
0.0
 13
0.0
 23
0.0
 14
1.0
 24
1.0
 15
0.0
 25
0.0
 16
0.0
 26
0.0
 36
1.0
 17
43.99999998899994
 27
43.99999998899994
 37
0.0
 40
89.75999997755989
 41
1.0
 42
50.0
 43
0.0
 44
0.0
 50
0.0
 51
0.0
 71
     0
 72
   100
 73
     1
 74
     1
 75
     0
 76
     0
 77
     0
 78
     0
281
     0
 65
     1
110
0.0
120
0.0
130
0.0
111
1.0
121
0.0
131
0.0
112
0.0
122
1.0
132
0.0
 79
     0
146
0.0
 60
     3
 61
     5
292
     1
282
     1
141
0.0
142
0.0
 63
   250
421
  3355443
  0
ENDTAB
  0
TABLE
  2
LTYPE
  5
5
330
0
100
AcDbSymbolTable
 70
     3
  0
LTYPE
  5
5B
330
5
100
AcDbSymbolTableRecord
100
AcDbLinetypeTableRecord
  2
ByBlock
 70
     0
  3

 72
    65
 73
     0
 40
0.0
  0
LTYPE
  5
5C
330
5
100
AcDbSymbolTableRecord
100
AcDbLinetypeTableRecord
  2
ByLayer
 70
     0
  3

 72
    65
 73
     0
 40
0.0
  0
LTYPE
  5
5D
330
5
100
AcDbSymbolTableRecord
100
AcDbLinetypeTableRecord
  2
Continuous
 70
     0
  3
Solid line
 72
    65
 73
     0
 40
0.0
  0
LTYPE
  5
1CA
330
5
100
AcDbSymbolTableRecord
100
AcDbLinetypeTableRecord
  2
AI-Linetype-0
 70
     0
  3
Adobe Illustrator Linetype No. 0
 72
    65
 73
     2
 40
1.411111110758333
 49
0.7055555553791667
 74
     0
 49
-0.7055555553791667
 74
     0
  0
LTYPE
  5
1FE
330
5
100
AcDbSymbolTableRecord
100
AcDbLinetypeTableRecord
  2
AI-Linetype-1
 70
     0
  3
Adobe Illustrator Linetype No. 1
 72
    65
 73
     2
 40
1.411111110758333
 49
0.7055555553791667
 74
     0
 49
-0.7055555553791667
 74
     0
  0
ENDTAB
  0
TABLE
  2
LAYER
  5
2
330
0
100
AcDbSymbolTable
 70
     3
  0
LAYER
  5
54
330
2
100
AcDbSymbolTableRecord
100
AcDbLayerTableRecord
  2
0
 70
     0
 62
     7
  6
Continuous
370
    -3
390
F
347
21
348
0
  0
LAYER
  5
78
330
2
100
AcDbSymbolTableRecord
100
AcDbLayerTableRecord
  2
Sichtbar (ISO)
 70
     0
 62
     7
  6
Continuous
370
     0
390
F
347
21
348
0
  0
LAYER
  5
233
330
2
100
AcDbSymbolTableRecord
100
AcDbLayerTableRecord
  2
Sichtbar schmal (ISO)
 70
     5
 62
     7
  6
Continuous
370
     0
390
F
347
21
348
0
  0
ENDTAB
  0
TABLE
  2
STYLE
  5
3
330
0
100
AcDbSymbolTable
 70
     2
  0
STYLE
  5
55
330
3
100
AcDbSymbolTableRecord
100
AcDbTextStyleTableRecord
  2
Standard
 70
     0
 40
0.0
 41
1.0
 50
0.0
 71
     0
 42
0.2
  3
txt
  4

  0
STYLE
  5
5A
330
3
100
AcDbSymbolTableRecord
100
AcDbTextStyleTableRecord
  2
Annotative
 70
     0
 40
0.0
 41
1.0
 50
0.0
 71
     0
 42
0.2
  3
txt
  4

1001
AcadAnnotative
1000
AnnotativeData
1002
{
1070
     1
1070
     1
1002
}
  0
ENDTAB
  0
TABLE
  2
VIEW
  5
6
330
0
100
AcDbSymbolTable
 70
     0
  0
ENDTAB
  0
TABLE
  2
UCS
  5
7
330
0
100
AcDbSymbolTable
 70
     0
  0
ENDTAB
  0
TABLE
  2
APPID
  5
9
330
0
100
AcDbSymbolTable
 70
     2
  0
APPID
  5
56
330
9
100
AcDbSymbolTableRecord
100
AcDbRegAppTableRecord
  2
ACAD
 70
     0
  0
APPID
  5
5E
330
9
100
AcDbSymbolTableRecord
100
AcDbRegAppTableRecord
  2
AcadAnnotative
 70
     0
  0
ENDTAB
  0
TABLE
  2
DIMSTYLE
  5
A
330
0
100
AcDbSymbolTable
 70
     2
100
AcDbDimStyleTable
 71
     0
  0
DIMSTYLE
105
58
330
A
100
AcDbSymbolTableRecord
100
AcDbDimStyleTableRecord
  2
Standard
 70
     0
340
55
  0
DIMSTYLE
105
59
330
A
100
AcDbSymbolTableRecord
100
AcDbDimStyleTableRecord
  2
Annotative
 70
     0
340
55
1001
AcadAnnotative
1000
AnnotativeData
1002
{
1070
     1
1070
     1
1002
}
  0
ENDTAB
  0
TABLE
  2
BLOCK_RECORD
  5
1
330
0
100
AcDbSymbolTable
 70
    25
  0
BLOCK_RECORD
  5
70
330
1
100
AcDbSymbolTableRecord
100
AcDbBlockTableRecord
  2
*Model_Space
340
73
 70
     0
280
     1
281
     0
  0
BLOCK_RECORD
  5
6C
330
1
100
AcDbSymbolTableRecord
100
AcDbBlockTableRecord
  2
*Paper_Space
340
6F
 70
     0
280
     1
281
     0
  0
BLOCK_RECORD
  5
74
330
1
100
AcDbSymbolTableRecord
100
AcDbBlockTableRecord
  2
*Paper_Space0
340
77
 70
     0
280
     1
281
     0
  0
BLOCK_RECORD
  5
79
330
1
100
AcDbSymbolTableRecord
100
AcDbBlockTableRecord
  2
Block_0
340
0
102
{BLKREFS
331
7A
102
}
 70
     0
280
     1
281
     0
  0
BLOCK_RECORD
  5
198
330
1
100
AcDbSymbolTableRecord
100
AcDbBlockTableRecord
  2
Block_1
340
0
102
{BLKREFS
331
199
102
}
 70
     0
280
     1
281
     0
  0
BLOCK_RECORD
  5
19C
330
1
100
AcDbSymbolTableRecord
100
AcDbBlockTableRecord
  2
Block_2
340
0
102
{BLKREFS
331
19D
102
}
 70
     0
280
     1
281
     0
  0
BLOCK_RECORD
  5
1A1
330
1
100
AcDbSymbolTableRecord
100
AcDbBlockTableRecord
  2
Block_3
340
0
102
{BLKREFS
331
1A2
102
}
 70
     0
280
     1
281
     0
  0
BLOCK_RECORD
  5
1A7
330
1
100
AcDbSymbolTableRecord
100
AcDbBlockTableRecord
  2
Block_4
340
0
102
{BLKREFS
331
1A8
102
}
 70
     0
280
     1
281
     0
  0
BLOCK_RECORD
  5
1B0
330
1
100
AcDbSymbolTableRecord
100
AcDbBlockTableRecord
  2
Block_5
340
0
102
{BLKREFS
331
1B1
102
}
 70
     0
280
     1
281
     0
  0
BLOCK_RECORD
  5
1B4
330
1
100
AcDbSymbolTableRecord
100
AcDbBlockTableRecord
  2
Block_6
340
0
102
{BLKREFS
331
1B5
102
}
 70
     0
280
     1
281
     0
  0
BLOCK_RECORD
  5
1B9
330
1
100
AcDbSymbolTableRecord
100
AcDbBlockTableRecord
  2
Block_7
340
0
102
{BLKREFS
331
1BA
102
}
 70
     0
280
     1
281
     0
  0
BLOCK_RECORD
  5
1BF
330
1
100
AcDbSymbolTableRecord
100
AcDbBlockTableRecord
  2
Block_8
340
0
102
{BLKREFS
331
1C0
102
}
 70
     0
280
     1
281
     0
  0
BLOCK_RECORD
  5
1CB
330
1
100
AcDbSymbolTableRecord
100
AcDbBlockTableRecord
  2
Block_9
340
0
102
{BLKREFS
331
1CC
102
}
 70
     0
280
     1
281
     0
  0
BLOCK_RECORD
  5
1CF
330
1
100
AcDbSymbolTableRecord
100
AcDbBlockTableRecord
  2
Block_10
340
0
102
{BLKREFS
331
1D0
102
}
 70
     0
280
     1
281
     0
  0
BLOCK_RECORD
  5
1D4
330
1
100
AcDbSymbolTableRecord
100
AcDbBlockTableRecord
  2
Block_11
340
0
102
{BLKREFS
331
1D5
102
}
 70
     0
280
     1
281
     0
  0
BLOCK_RECORD
  5
1DB
330
1
100
AcDbSymbolTableRecord
100
AcDbBlockTableRecord
  2
Block_12
340
0
102
{BLKREFS
331
1DC
102
}
 70
     0
280
     1
281
     0
  0
BLOCK_RECORD
  5
1DF
330
1
100
AcDbSymbolTableRecord
100
AcDbBlockTableRecord
  2
Block_13
340
0
102
{BLKREFS
331
1E0
102
}
 70
     0
280
     1
281
     0
  0
BLOCK_RECORD
  5
1E4
330
1
100
AcDbSymbolTableRecord
100
AcDbBlockTableRecord
  2
Block_14
340
0
102
{BLKREFS
331
1E5
102
}
 70
     0
280
     1
281
     0
  0
BLOCK_RECORD
  5
1EA
330
1
100
AcDbSymbolTableRecord
100
AcDbBlockTableRecord
  2
Block_15
340
0
102
{BLKREFS
331
1EB
102
}
 70
     0
280
     1
281
     0
  0
BLOCK_RECORD
  5
1F0
330
1
100
AcDbSymbolTableRecord
100
AcDbBlockTableRecord
  2
Block_16
340
0
102
{BLKREFS
331
1F1
102
}
 70
     0
280
     1
281
     0
  0
BLOCK_RECORD
  5
1F4
330
1
100
AcDbSymbolTableRecord
100
AcDbBlockTableRecord
  2
Block_17
340
0
102
{BLKREFS
331
1F5
102
}
 70
     0
280
     1
281
     0
  0
BLOCK_RECORD
  5
200
330
1
100
AcDbSymbolTableRecord
100
AcDbBlockTableRecord
  2
Block_18
340
0
102
{BLKREFS
331
201
102
}
 70
     0
280
     1
281
     0
  0
BLOCK_RECORD
  5
204
330
1
100
AcDbSymbolTableRecord
100
AcDbBlockTableRecord
  2
Block_19
340
0
102
{BLKREFS
331
205
102
}
 70
     0
280
     1
281
     0
  0
BLOCK_RECORD
  5
20C
330
1
100
AcDbSymbolTableRecord
100
AcDbBlockTableRecord
  2
Block_20
340
0
102
{BLKREFS
331
20D
102
}
 70
     0
280
     1
281
     0
  0
BLOCK_RECORD
  5
210
330
1
100
AcDbSymbolTableRecord
100
AcDbBlockTableRecord
  2
Block_21
340
0
102
{BLKREFS
331
211
102
}
 70
     0
280
     1
281
     0
  0
BLOCK_RECORD
  5
220
330
1
100
AcDbSymbolTableRecord
100
AcDbBlockTableRecord
  2
Block_22
340
0
102
{BLKREFS
331
221
102
}
 70
     0
280
     1
281
     0
  0
BLOCK_RECORD
  5
224
330
1
100
AcDbSymbolTableRecord
100
AcDbBlockTableRecord
  2
Block_23
340
0
102
{BLKREFS
331
225
102
}
 70
     0
280
     1
281
     0
  0
ENDTAB
  0
ENDSEC
  0
SECTION
  2
BLOCKS
  0
BLOCK
  5
71
330
70
100
AcDbEntity
  8
0
100
AcDbBlockBegin
  2
*Model_Space
 70
     0
 10
0.0
 20
0.0
 30
0.0
  3
*Model_Space
  1

  0
ENDBLK
  5
72
330
70
100
AcDbEntity
  8
0
100
AcDbBlockEnd
  0
BLOCK
  5
6D
330
6C
100
AcDbEntity
 67
     1
  8
0
100
AcDbBlockBegin
  2
*Paper_Space
 70
     0
 10
0.0
 20
0.0
 30
0.0
  3
*Paper_Space
  1

  0
ENDBLK
  5
6E
330
6C
100
AcDbEntity
 67
     1
  8
0
100
AcDbBlockEnd
  0
BLOCK
  5
75
330
74
100
AcDbEntity
 67
     1
  8
0
100
AcDbBlockBegin
  2
*Paper_Space0
 70
     0
 10
0.0
 20
0.0
 30
0.0
  3
*Paper_Space0
  1

  0
ENDBLK
  5
76
330
74
100
AcDbEntity
 67
     1
  8
0
100
AcDbBlockEnd
  0
BLOCK
  5
7B
330
79
100
AcDbEntity
  8
0
100
AcDbBlockBegin
  2
Block_0
 70
     0
 10
0.0
 20
0.0
 30
0.0
  3
Block_0
  1

  0
SPLINE
  5
7D
330
79
100
AcDbEntity
  8
Sichtbar (ISO)
100
AcDbSpline
210
0.0
220
0.0
230
1.0
 70
     8
 71
     3
 72
    38
 73
    34
 74
     0
 42
0.0000000001
 43
0.0000000001
 40
0.0
 40
0.0
 40
0.0
 40
0.0
 40
1.0
 40
1.0
 40
1.0
 40
2.0
 40
2.0
 40
2.0
 40
3.0
 40
3.0
 40
3.0
 40
4.0
 40
4.0
 40
4.0
 40
5.0
 40
5.0
 40
5.0
 40
6.0
 40
6.0
 40
6.0
 40
7.0
 40
7.0
 40
7.0
 40
8.0
 40
8.0
 40
8.0
 40
9.0
 40
9.0
 40
9.0
 40
10.0
 40
10.0
 40
10.0
 40
11.0
 40
11.0
 40
11.0
 40
11.0
 10
52.40091559689379
 20
82.78720856394611
 30
0.0
 10
52.40091559689379
 20
82.78720856394611
 30
0.0
 10
52.87080654115553
 20
82.78720856394611
 30
0.0
 10
52.87080654115553
 20
82.78720856394611
 30
0.0
 10
52.87080654115553
 20
82.78720856394611
 30
0.0
 10
52.87080654115553
 20
80.23368656517952
 30
0.0
 10
52.87080654115553
 20
80.23368656517952
 30
0.0
 10
52.87080654115553
 20
80.23368656517952
 30
0.0
 10
52.87080654115553
 20
79.97755714350851
 30
0.0
 10
52.87080654115553
 20
79.97755714350851
 30
0.0
 10
52.87080654115553
 20
79.73254751742695
 30
0.0
 10
52.55524052866419
 20
79.53392797185985
 30
0.0
 10
52.16597012476325
 20
79.53392797185985
 30
0.0
 10
52.16597012476325
 20
79.53392797185985
 30
0.0
 10
6.821494003603786
 20
79.53392797185985
 30
0.0
 10
6.821494003603786
 20
79.53392797185985
 30
0.0
 10
6.432223599706366
 20
79.53392797185985
 30
0.0
 10
6.116657587212789
 20
79.73254751742695
 30
0.0
 10
6.116657587212789
 20
79.97755714350851
 30
0.0
 10
6.116657587212789
 20
79.97755714350851
 30
0.0
 10
6.116657587212789
 20
80.23368656517952
 30
0.0
 10
6.116657587212789
 20
80.23368656517952
 30
0.0
 10
6.116657587212789
 20
80.23368656517952
 30
0.0
 10
6.116657587212789
 20
82.78720856394611
 30
0.0
 10
6.116657587212789
 20
82.78720856394611
 30
0.0
 10
6.116657587212789
 20
82.78720856394611
 30
0.0
 10
6.586548531474523
 20
82.78720856394611
 30
0.0
 10
6.586548531474523
 20
82.78720856394611
 30
0.0
 10
6.586548531474523
 20
82.78720856394611
 30
0.0
 10
6.610043078686808
 20
82.78720856394611
 30
0.0
 10
6.610043078686808
 20
82.78720856394611
 30
0.0
 10
6.610043078686808
 20
82.78720856394611
 30
0.0
 10
52.37742104968119
 20
82.78720856394611
 30
0.0
 10
52.37742104968119
 20
82.78720856394611
 30
0.0
  0
HATCH
  5
7E
330
79
100
AcDbEntity
  8
Sichtbar (ISO)
 62
   254
420
 14935011
440
 33554687
100
AcDbHatch
 10
0.0
 20
0.0
 30
0.0
210
0.0
220
0.0
230
1.0
  2
SOLID
 70
     1
 71
     1
 91
        1
 92
        1
 93
        2
 72
     4
 94
        3
 73
     0
 74
     0
 95
       38
 96
       34
 40
0.0
 40
0.0
 40
0.0
 40
0.0
 40
1.0
 40
1.0
 40
1.0
 40
2.0
 40
2.0
 40
2.0
 40
3.0
 40
3.0
 40
3.0
 40
4.0
 40
4.0
 40
4.0
 40
5.0
 40
5.0
 40
5.0
 40
6.0
 40
6.0
 40
6.0
 40
7.0
 40
7.0
 40
7.0
 40
8.0
 40
8.0
 40
8.0
 40
9.0
 40
9.0
 40
9.0
 40
10.0
 40
10.0
 40
10.0
 40
11.0
 40
11.0
 40
11.0
 40
11.0
 10
52.40091559689379
 20
82.78720856394611
 10
52.40091559689379
 20
82.78720856394611
 10
52.87080654115553
 20
82.78720856394611
 10
52.87080654115553
 20
82.78720856394611
 10
52.87080654115553
 20
82.78720856394611
 10
52.87080654115553
 20
80.23368656517952
 10
52.87080654115553
 20
80.23368656517952
 10
52.87080654115553
 20
80.23368656517952
 10
52.87080654115553
 20
79.97755714350851
 10
52.87080654115553
 20
79.97755714350851
 10
52.87080654115553
 20
79.73254751742695
 10
52.55524052866419
 20
79.53392797185985
 10
52.16597012476325
 20
79.53392797185985
 10
52.16597012476325
 20
79.53392797185985
 10
6.821494003603786
 20
79.53392797185985
 10
6.821494003603786
 20
79.53392797185985
 10
6.432223599706366
 20
79.53392797185985
 10
6.116657587212789
 20
79.73254751742695
 10
6.116657587212789
 20
79.97755714350851
 10
6.116657587212789
 20
79.97755714350851
 10
6.116657587212789
 20
80.23368656517952
 10
6.116657587212789
 20
80.23368656517952
 10
6.116657587212789
 20
80.23368656517952
 10
6.116657587212789
 20
82.78720856394611
 10
6.116657587212789
 20
82.78720856394611
 10
6.116657587212789
 20
82.78720856394611
 10
6.586548531474523
 20
82.78720856394611
 10
6.586548531474523
 20
82.78720856394611
 10
6.586548531474523
 20
82.78720856394611
 10
6.610043078686808
 20
82.78720856394611
 10
6.610043078686808
 20
82.78720856394611
 10
6.610043078686808
 20
82.78720856394611
 10
52.37742104968119
 20
82.78720856394611
 10
52.37742104968119
 20
82.78720856394611
 97
        0
 72
     1
 10
52.37742104968119
 20
82.78720856394611
 11
52.40091559689379
 21
82.78720856394611
 97
        0
 75
     2
 76
     1
 98
        1
 10
0.0
 20
0.0
450
        0
451
        0
460
0.0
461
0.0
452
        0
462
0.0
453
        0
470

  0
ENDBLK
  5
7C
330
79
100
AcDbEntity
  8
0
100
AcDbBlockEnd
  0
BLOCK
  5
19A
330
198
100
AcDbEntity
  8
0
100
AcDbBlockBegin
  2
Block_1
 70
     0
 10
0.0
 20
0.0
 30
0.0
  3
Block_1
  1

  0
INSERT
  5
19D
330
198
100
AcDbEntity
  8
Sichtbar (ISO)
100
AcDbBlockReference
  2
Block_2
 10
0.0
 20
0.0
 30
0.0
  0
ENDBLK
  5
19B
330
198
100
AcDbEntity
  8
0
100
AcDbBlockEnd
  0
BLOCK
  5
19E
330
19C
100
AcDbEntity
  8
0
100
AcDbBlockBegin
  2
Block_2
 70
     0
 10
0.0
 20
0.0
 30
0.0
  3
Block_2
  1

  0
LINE
  5
1A0
330
19C
100
AcDbEntity
  8
Sichtbar (ISO)
 62
    18
420
        0
370
     5
100
AcDbLine
 10
70.81731281629361
 20
60.55649963560415
 30
0.0
 11
70.82044570000052
 21
15.90786297718351
 31
0.0
  0
INSERT
  5
1A2
330
19C
100
AcDbEntity
  8
Sichtbar (ISO)
100
AcDbBlockReference
  2
Block_3
 10
0.0
 20
0.0
 30
0.0
  0
INSERT
  5
1A8
330
19C
100
AcDbEntity
  8
Sichtbar (ISO)
100
AcDbBlockReference
  2
Block_4
 10
0.0
 20
0.0
 30
0.0
  0
ENDBLK
  5
19F
330
19C
100
AcDbEntity
  8
0
100
AcDbBlockEnd
  0
BLOCK
  5
1A3
330
1A1
100
AcDbEntity
  8
0
100
AcDbBlockBegin
  2
Block_3
 70
     0
 10
0.0
 20
0.0
 30
0.0
  3
Block_3
  1

  0
LWPOLYLINE
  5
1A5
330
1A1
100
AcDbEntity
  8
Sichtbar (ISO)
100
AcDbPolyline
 90
        3
 70
     1
 43
0.0
 10
70.59604617579174
 20
59.92402855116754
 10
70.81655381869452
 20
61.60522438204607
 10
71.03867096714431
 20
59.92406084893771
  0
HATCH
  5
1A6
330
1A1
100
AcDbEntity
  8
Sichtbar (ISO)
 62
    18
420
        0
440
 33554687
100
AcDbHatch
 10
0.0
 20
0.0
 30
0.0
210
0.0
220
0.0
230
1.0
  2
SOLID
 70
     1
 71
     1
 91
        1
 92
        1
 93
        3
 72
     1
 10
70.59604617579174
 20
59.92402855116754
 11
70.81655381869452
 21
61.60522438204607
 72
     1
 10
70.81655381869452
 20
61.60522438204607
 11
71.03867096714431
 21
59.92406084893771
 72
     1
 10
71.03867096714431
 20
59.92406084893771
 11
70.59604617579174
 21
59.92402855116754
 97
        1
330
1A5
 75
     2
 76
     1
 98
        1
 10
0.0
 20
0.0
450
        0
451
        0
460
0.0
461
0.0
452
        0
462
0.0
453
        0
470

  0
ENDBLK
  5
1A4
330
1A1
100
AcDbEntity
  8
0
100
AcDbBlockEnd
  0
BLOCK
  5
1A9
330
1A7
100
AcDbEntity
  8
0
100
AcDbBlockBegin
  2
Block_4
 70
     0
 10
0.0
 20
0.0
 30
0.0
  3
Block_4
  1

  0
LWPOLYLINE
  5
1AB
330
1A7
100
AcDbEntity
  8
Sichtbar (ISO)
100
AcDbPolyline
 90
        3
 70
     1
 43
0.0
 10
70.59908754914982
 20
16.54030176384995
 10
70.8198320423672
 20
14.85913957648202
 10
71.04171234050238
 20
16.5403327158797
  0
HATCH
  5
1AC
330
1A7
100
AcDbEntity
  8
Sichtbar (ISO)
 62
    18
420
        0
440
 33554687
100
AcDbHatch
 10
0.0
 20
0.0
 30
0.0
210
0.0
220
0.0
230
1.0
  2
SOLID
 70
     1
 71
     1
 91
        1
 92
        1
 93
        3
 72
     1
 10
70.59908754914982
 20
16.54030176384995
 11
70.8198320423672
 21
14.85913957648202
 72
     1
 10
70.8198320423672
 20
14.85913957648202
 11
71.04171234050238
 21
16.5403327158797
 72
     1
 10
71.04171234050238
 20
16.5403327158797
 11
70.59908754914982
 21
16.54030176384995
 97
        1
330
1AB
 75
     2
 76
     1
 98
        1
 10
0.0
 20
0.0
450
        0
451
        0
460
0.0
461
0.0
452
        0
462
0.0
453
        0
470

  0
ENDBLK
  5
1AA
330
1A7
100
AcDbEntity
  8
0
100
AcDbBlockEnd
  0
BLOCK
  5
1B2
330
1B0
100
AcDbEntity
  8
0
100
AcDbBlockBegin
  2
Block_5
 70
     0
 10
0.0
 20
0.0
 30
0.0
  3
Block_5
  1

  0
INSERT
  5
1B5
330
1B0
100
AcDbEntity
  8
Sichtbar (ISO)
100
AcDbBlockReference
  2
Block_6
 10
0.0
 20
0.0
 30
0.0
  0
ENDBLK
  5
1B3
330
1B0
100
AcDbEntity
  8
0
100
AcDbBlockEnd
  0
BLOCK
  5
1B6
330
1B4
100
AcDbEntity
  8
0
100
AcDbBlockBegin
  2
Block_6
 70
     0
 10
0.0
 20
0.0
 30
0.0
  3
Block_6
  1

  0
LINE
  5
1B8
330
1B4
100
AcDbEntity
  8
Sichtbar (ISO)
 62
    18
420
        0
370
     5
100
AcDbLine
 10
77.87367581433963
 20
61.72891945885194
 30
0.0
 11
77.86592434949781
 21
14.76301199226058
 31
0.0
  0
INSERT
  5
1BA
330
1B4
100
AcDbEntity
  8
Sichtbar (ISO)
100
AcDbBlockReference
  2
Block_7
 10
0.0
 20
0.0
 30
0.0
  0
INSERT
  5
1C0
330
1B4
100
AcDbEntity
  8
Sichtbar (ISO)
100
AcDbBlockReference
  2
Block_8
 10
0.0
 20
0.0
 30
0.0
  0
ENDBLK
  5
1B7
330
1B4
100
AcDbEntity
  8
0
100
AcDbBlockEnd
  0
BLOCK
  5
1BB
330
1B9
100
AcDbEntity
  8
0
100
AcDbBlockBegin
  2
Block_7
 70
     0
 10
0.0
 20
0.0
 30
0.0
  3
Block_7
  1

  0
LWPOLYLINE
  5
1BD
330
1B9
100
AcDbEntity
  8
Sichtbar (ISO)
100
AcDbPolyline
 90
        3
 70
     1
 43
0.0
 10
77.6522584509103
 20
61.09650220403198
 10
77.87315905001685
 20
62.77764420529354
 10
78.09488324226285
 20
61.09642684256823
  0
HATCH
  5
1BE
330
1B9
100
AcDbEntity
  8
Sichtbar (ISO)
 62
    18
420
        0
440
 33554687
100
AcDbHatch
 10
0.0
 20
0.0
 30
0.0
210
0.0
220
0.0
230
1.0
  2
SOLID
 70
     1
 71
     1
 91
        1
 92
        1
 93
        3
 72
     1
 10
77.6522584509103
 20
61.09650220403198
 11
77.87315905001685
 21
62.77764420529354
 72
     1
 10
77.87315905001685
 20
62.77764420529354
 11
78.09488324226285
 21
61.09642684256823
 72
     1
 10
78.09488324226285
 20
61.09642684256823
 11
77.6522584509103
 21
61.09650220403198
 97
        1
330
1BD
 75
     2
 76
     1
 98
        1
 10
0.0
 20
0.0
450
        0
451
        0
460
0.0
461
0.0
452
        0
462
0.0
453
        0
470

  0
ENDBLK
  5
1BC
330
1B9
100
AcDbEntity
  8
0
100
AcDbBlockEnd
  0
BLOCK
  5
1C1
330
1BF
100
AcDbEntity
  8
0
100
AcDbBlockBegin
  2
Block_8
 70
     0
 10
0.0
 20
0.0
 30
0.0
  3
Block_8
  1

  0
LWPOLYLINE
  5
1C3
330
1BF
100
AcDbEntity
  8
Sichtbar (ISO)
100
AcDbPolyline
 90
        3
 70
     1
 43
0.0
 10
77.64471692157461
 20
15.39550326280355
 10
77.86506307562651
 20
13.71428859155908
 10
78.08733632996548
 20
15.39542924708023
  0
HATCH
  5
1C4
330
1BF
100
AcDbEntity
  8
Sichtbar (ISO)
 62
    18
420
        0
440
 33554687
100
AcDbHatch
 10
0.0
 20
0.0
 30
0.0
210
0.0
220
0.0
230
1.0
  2
SOLID
 70
     1
 71
     1
 91
        1
 92
        1
 93
        3
 72
     1
 10
77.64471692157461
 20
15.39550326280355
 11
77.86506307562651
 21
13.71428859155908
 72
     1
 10
77.86506307562651
 20
13.71428859155908
 11
78.08733632996548
 21
15.39542924708023
 72
     1
 10
78.08733632996548
 20
15.39542924708023
 11
77.64471692157461
 21
15.39550326280355
 97
        1
330
1C3
 75
     2
 76
     1
 98
        1
 10
0.0
 20
0.0
450
        0
451
        0
460
0.0
461
0.0
452
        0
462
0.0
453
        0
470

  0
ENDBLK
  5
1C2
330
1BF
100
AcDbEntity
  8
0
100
AcDbBlockEnd
  0
BLOCK
  5
1CD
330
1CB
100
AcDbEntity
  8
0
100
AcDbBlockBegin
  2
Block_9
 70
     0
 10
0.0
 20
0.0
 30
0.0
  3
Block_9
  1

  0
INSERT
  5
1D0
330
1CB
100
AcDbEntity
  8
Sichtbar (ISO)
100
AcDbBlockReference
  2
Block_10
 10
0.0
 20
0.0
 30
0.0
  0
ENDBLK
  5
1CE
330
1CB
100
AcDbEntity
  8
0
100
AcDbBlockEnd
  0
BLOCK
  5
1D1
330
1CF
100
AcDbEntity
  8
0
100
AcDbBlockBegin
  2
Block_10
 70
     0
 10
0.0
 20
0.0
 30
0.0
  3
Block_10
  1

  0
LINE
  5
1D3
330
1CF
100
AcDbEntity
  8
Sichtbar (ISO)
 62
    18
420
        0
370
     5
100
AcDbLine
 10
63.84069839576943
 20
78.48520717777995
 30
0.0
 11
63.84102137347117
 21
74.87264775417712
 31
0.0
  0
INSERT
  5
1D5
330
1CF
100
AcDbEntity
  8
Sichtbar (ISO)
100
AcDbBlockReference
  2
Block_11
 10
0.0
 20
0.0
 30
0.0
  0
ENDBLK
  5
1D2
330
1CF
100
AcDbEntity
  8
0
100
AcDbBlockEnd
  0
BLOCK
  5
1D6
330
1D4
100
AcDbEntity
  8
0
100
AcDbBlockBegin
  2
Block_11
 70
     0
 10
0.0
 20
0.0
 30
0.0
  3
Block_11
  1

  0
LWPOLYLINE
  5
1D8
330
1D4
100
AcDbEntity
  8
Sichtbar (ISO)
100
AcDbPolyline
 90
        3
 70
     1
 43
0.0
 10
63.61944252119095
 20
77.85273071038165
 10
63.83991248336186
 20
79.53392654126019
 10
64.06206731254352
 20
77.85276839111353
  0
HATCH
  5
1D9
330
1D4
100
AcDbEntity
  8
Sichtbar (ISO)
 62
    18
420
        0
440
 33554687
100
AcDbHatch
 10
0.0
 20
0.0
 30
0.0
210
0.0
220
0.0
230
1.0
  2
SOLID
 70
     1
 71
     1
 91
        1
 92
        1
 93
        3
 72
     1
 10
63.61944252119095
 20
77.85273071038165
 11
63.83991248336186
 21
79.53392654126019
 72
     1
 10
63.83991248336186
 20
79.53392654126019
 11
64.06206731254352
 21
77.85276839111353
 72
     1
 10
64.06206731254352
 20
77.85276839111353
 11
63.61944252119095
 21
77.85273071038165
 97
        1
330
1D8
 75
     2
 76
     1
 98
        1
 10
0.0
 20
0.0
450
        0
451
        0
460
0.0
461
0.0
452
        0
462
0.0
453
        0
470

  0
ENDBLK
  5
1D7
330
1D4
100
AcDbEntity
  8
0
100
AcDbBlockEnd
  0
BLOCK
  5
1DD
330
1DB
100
AcDbEntity
  8
0
100
AcDbBlockBegin
  2
Block_12
 70
     0
 10
0.0
 20
0.0
 30
0.0
  3
Block_12
  1

  0
INSERT
  5
1E0
330
1DB
100
AcDbEntity
  8
Sichtbar (ISO)
100
AcDbBlockReference
  2
Block_13
 10
0.0
 20
0.0
 30
0.0
  0
ENDBLK
  5
1DE
330
1DB
100
AcDbEntity
  8
0
100
AcDbBlockEnd
  0
BLOCK
  5
1E1
330
1DF
100
AcDbEntity
  8
0
100
AcDbBlockBegin
  2
Block_13
 70
     0
 10
0.0
 20
0.0
 30
0.0
  3
Block_13
  1

  0
LINE
  5
1E3
330
1DF
100
AcDbEntity
  8
Sichtbar (ISO)
 62
    18
420
        0
370
     5
100
AcDbLine
 10
77.82544986050783
 20
66.19497437411695
 30
0.0
 11
77.80765378914184
 21
81.77282950158403
 31
0.0
  0
INSERT
  5
1E5
330
1DF
100
AcDbEntity
  8
Sichtbar (ISO)
100
AcDbBlockReference
  2
Block_14
 10
0.0
 20
0.0
 30
0.0
  0
INSERT
  5
1EB
330
1DF
100
AcDbEntity
  8
Sichtbar (ISO)
100
AcDbBlockReference
  2
Block_15
 10
0.0
 20
0.0
 30
0.0
  0
ENDBLK
  5
1E2
330
1DF
100
AcDbEntity
  8
0
100
AcDbBlockEnd
  0
BLOCK
  5
1E6
330
1E4
100
AcDbEntity
  8
0
100
AcDbBlockBegin
  2
Block_14
 70
     0
 10
0.0
 20
0.0
 30
0.0
  3
Block_14
  1

  0
LWPOLYLINE
  5
1E8
330
1E4
100
AcDbEntity
  8
Sichtbar (ISO)
100
AcDbPolyline
 90
        3
 70
     1
 43
0.0
 10
78.04603824783604
 20
66.82768230886816
 10
77.82733389710132
 20
65.14625501063672
 10
77.60341345648348
 20
66.82717631046877
  0
HATCH
  5
1E9
330
1E4
100
AcDbEntity
  8
Sichtbar (ISO)
 62
    18
420
        0
440
 33554687
100
AcDbHatch
 10
0.0
 20
0.0
 30
0.0
210
0.0
220
0.0
230
1.0
  2
SOLID
 70
     1
 71
     1
 91
        1
 92
        1
 93
        3
 72
     1
 10
78.04603824783604
 20
66.82768230886816
 11
77.82733389710132
 21
65.14625501063672
 72
     1
 10
77.82733389710132
 20
65.14625501063672
 11
77.60341345648348
 21
66.82717631046877
 72
     1
 10
77.60341345648348
 20
66.82717631046877
 11
78.04603824783604
 21
66.82768230886816
 97
        1
330
1E8
 75
     2
 76
     1
 98
        1
 10
0.0
 20
0.0
450
        0
451
        0
460
0.0
461
0.0
452
        0
462
0.0
453
        0
470

  0
ENDBLK
  5
1E7
330
1E4
100
AcDbEntity
  8
0
100
AcDbBlockEnd
  0
BLOCK
  5
1EC
330
1EA
100
AcDbEntity
  8
0
100
AcDbBlockBegin
  2
Block_15
 70
     0
 10
0.0
 20
0.0
 30
0.0
  3
Block_15
  1

  0
LWPOLYLINE
  5
1EE
330
1EA
100
AcDbEntity
  8
Sichtbar (ISO)
100
AcDbPolyline
 90
        3
 70
     1
 43
0.0
 10
78.0296848102045
 20
81.14063294819358
 10
77.80714240778074
 20
82.82155424802562
 10
77.58706540181363
 20
81.14012694979418
  0
HATCH
  5
1EF
330
1EA
100
AcDbEntity
  8
Sichtbar (ISO)
 62
    18
420
        0
440
 33554687
100
AcDbHatch
 10
0.0
 20
0.0
 30
0.0
210
0.0
220
0.0
230
1.0
  2
SOLID
 70
     1
 71
     1
 91
        1
 92
        1
 93
        3
 72
     1
 10
78.0296848102045
 20
81.14063294819358
 11
77.80714240778074
 21
82.82155424802562
 72
     1
 10
77.80714240778074
 20
82.82155424802562
 11
77.58706540181363
 21
81.14012694979418
 72
     1
 10
77.58706540181363
 20
81.14012694979418
 11
78.0296848102045
 21
81.14063294819358
 97
        1
330
1EE
 75
     2
 76
     1
 98
        1
 10
0.0
 20
0.0
450
        0
451
        0
460
0.0
461
0.0
452
        0
462
0.0
453
        0
470

  0
ENDBLK
  5
1ED
330
1EA
100
AcDbEntity
  8
0
100
AcDbBlockEnd
  0
BLOCK
  5
1F2
330
1F0
100
AcDbEntity
  8
0
100
AcDbBlockBegin
  2
Block_16
 70
     0
 10
0.0
 20
0.0
 30
0.0
  3
Block_16
  1

  0
INSERT
  5
1F5
330
1F0
100
AcDbEntity
  8
Sichtbar (ISO)
100
AcDbBlockReference
  2
Block_17
 10
0.0
 20
0.0
 30
0.0
  0
ENDBLK
  5
1F3
330
1F0
100
AcDbEntity
  8
0
100
AcDbBlockEnd
  0
BLOCK
  5
1F6
330
1F4
100
AcDbEntity
  8
0
100
AcDbBlockBegin
  2
Block_17
 70
     0
 10
0.0
 20
0.0
 30
0.0
  3
Block_17
  1

  0
SPLINE
  5
1F8
330
1F4
100
AcDbEntity
  8
Sichtbar (ISO)
100
AcDbSpline
210
0.0
220
0.0
230
1.0
 70
    11
 71
     3
 72
    26
 73
    22
 74
     0
 42
0.0000000001
 43
0.0000000001
 40
0.0
 40
0.0
 40
0.0
 40
0.0
 40
1.0
 40
1.0
 40
1.0
 40
2.0
 40
2.0
 40
2.0
 40
3.0
 40
3.0
 40
3.0
 40
4.0
 40
4.0
 40
4.0
 40
5.0
 40
5.0
 40
5.0
 40
6.0
 40
6.0
 40
6.0
 40
7.0
 40
7.0
 40
7.0
 40
7.0
 10
65.24080673282175
 20
75.74524737689703
 30
0.0
 10
65.24080673282175
 20
75.74524737689703
 30
0.0
 10
65.24080673282175
 20
75.22624374204413
 30
0.0
 10
65.24080673282175
 20
75.22624374204413
 30
0.0
 10
65.24080673282175
 20
75.22624374204413
 30
0.0
 10
65.04891491429333
 20
75.22624374204413
 30
0.0
 10
65.04891491429333
 20
75.22624374204413
 30
0.0
 10
65.04891491429333
 20
75.49978432357296
 30
0.0
 10
64.97829045684571
 20
75.74800345328522
 30
0.0
 10
64.67374401594963
 20
75.80157468808086
 30
0.0
 10
64.67374401594963
 20
75.80157468808086
 30
0.0
 10
64.67374401594963
 20
75.98502602267041
 30
0.0
 10
64.67374401594963
 20
75.98502602267041
 30
0.0
 10
64.67374401594963
 20
75.98502602267041
 30
0.0
 10
66.67362194513716
 20
75.98502602267041
 30
0.0
 10
66.67362194513716
 20
75.98502602267041
 30
0.0
 10
66.67362194513716
 20
75.98502602267041
 30
0.0
 10
66.67362194513716
 20
75.74524737689703
 30
0.0
 10
66.67362194513716
 20
75.74524737689703
 30
0.0
 10
66.67362194513716
 20
75.74524737689703
 30
0.0
 10
65.24080673282175
 20
75.74524737689703
 30
0.0
 10
65.24080673282175
 20
75.74524737689703
 30
0.0
  0
HATCH
  5
1F9
330
1F4
100
AcDbEntity
  8
Sichtbar (ISO)
 62
    18
420
        0
440
 33554687
100
AcDbHatch
 10
0.0
 20
0.0
 30
0.0
210
0.0
220
0.0
230
1.0
  2
SOLID
 70
     1
 71
     1
 91
        1
 92
        1
 93
        1
 72
     4
 94
        3
 73
     0
 74
     0
 95
       26
 96
       22
 40
0.0
 40
0.0
 40
0.0
 40
0.0
 40
1.0
 40
1.0
 40
1.0
 40
2.0
 40
2.0
 40
2.0
 40
3.0
 40
3.0
 40
3.0
 40
4.0
 40
4.0
 40
4.0
 40
5.0
 40
5.0
 40
5.0
 40
6.0
 40
6.0
 40
6.0
 40
7.0
 40
7.0
 40
7.0
 40
7.0
 10
65.24080673282175
 20
75.74524737689703
 10
65.24080673282175
 20
75.74524737689703
 10
65.24080673282175
 20
75.22624374204413
 10
65.24080673282175
 20
75.22624374204413
 10
65.24080673282175
 20
75.22624374204413
 10
65.04891491429333
 20
75.22624374204413
 10
65.04891491429333
 20
75.22624374204413
 10
65.04891491429333
 20
75.49978432357296
 10
64.97829045684571
 20
75.74800345328522
 10
64.67374401594963
 20
75.80157468808086
 10
64.67374401594963
 20
75.80157468808086
 10
64.67374401594963
 20
75.98502602267041
 10
64.67374401594963
 20
75.98502602267041
 10
64.67374401594963
 20
75.98502602267041
 10
66.67362194513716
 20
75.98502602267041
 10
66.67362194513716
 20
75.98502602267041
 10
66.67362194513716
 20
75.98502602267041
 10
66.67362194513716
 20
75.74524737689703
 10
66.67362194513716
 20
75.74524737689703
 10
66.67362194513716
 20
75.74524737689703
 10
65.24080673282175
 20
75.74524737689703
 10
65.24080673282175
 20
75.74524737689703
 97
        0
 97
        1
330
1F8
 75
     2
 76
     1
 98
        1
 10
0.0
 20
0.0
450
        0
451
        0
460
0.0
461
0.0
452
        0
462
0.0
453
        0
470

  0
SPLINE
  5
1FA
330
1F4
100
AcDbEntity
  8
Sichtbar (ISO)
100
AcDbSpline
210
0.0
220
0.0
230
1.0
 70
     9
 71
     3
 72
    53
 73
    49
 74
     0
 42
0.0000000001
 43
0.0000000001
 40
0.0
 40
0.0
 40
0.0
 40
0.0
 40
1.0
 40
1.0
 40
1.0
 40
2.0
 40
2.0
 40
2.0
 40
3.0
 40
3.0
 40
3.0
 40
4.0
 40
4.0
 40
4.0
 40
5.0
 40
5.0
 40
5.0
 40
6.0
 40
6.0
 40
6.0
 40
7.0
 40
7.0
 40
7.0
 40
8.0
 40
8.0
 40
8.0
 40
9.0
 40
9.0
 40
9.0
 40
10.0
 40
10.0
 40
10.0
 40
11.0
 40
11.0
 40
11.0
 40
12.0
 40
12.0
 40
12.0
 40
13.0
 40
13.0
 40
13.0
 40
14.0
 40
14.0
 40
14.0
 40
15.0
 40
15.0
 40
15.0
 40
16.0
 40
16.0
 40
16.0
 40
16.0
 10
66.13480901124408
 20
76.88850231367718
 30
0.0
 10
66.34082572126202
 20
76.9026272051667
 30
0.0
 10
66.49585501809827
 20
77.06902531710428
 30
0.0
 10
66.49585501809827
 20
77.30880396287766
 30
0.0
 10
66.49585501809827
 20
77.53721379354972
 30
0.0
 10
66.3377251353253
 20
77.73186168846634
 30
0.0
 10
66.02180987932789
 20
77.73186168846634
 30
0.0
 10
65.75963811290037
 20
77.73186168846634
 30
0.0
 10
65.56774629437196
 20
77.55133868503925
 30
0.0
 10
65.56774629437196
 20
77.28055417989861
 30
0.0
 10
65.56774629437196
 20
77.12535262828811
 30
0.0
 10
65.64388290459598
 20
77.00132919081912
 30
0.0
 10
65.75688203651217
 20
76.90831161271737
 30
0.0
 10
65.75688203651217
 20
76.90831161271737
 30
0.0
 10
65.74551322141084
 20
76.70229490269943
 30
0.0
 10
65.74551322141084
 20
76.70229490269943
 30
0.0
 10
65.74551322141084
 20
76.70229490269943
 30
0.0
 10
64.70750595170507
 20
76.88850231367718
 30
0.0
 10
64.70750595170507
 20
76.88850231367718
 30
0.0
 10
64.70750595170507
 20
76.88850231367718
 30
0.0
 10
64.70750595170507
 20
77.87569442497552
 30
0.0
 10
64.70750595170507
 20
77.87569442497552
 30
0.0
 10
64.70750595170507
 20
77.87569442497552
 30
0.0
 10
64.91903481449941
 20
77.87569442497552
 30
0.0
 10
64.91903481449941
 20
77.87569442497552
 30
0.0
 10
64.91903481449941
 20
77.87569442497552
 30
0.0
 10
64.91903481449941
 20
77.06902531710428
 30
0.0
 10
64.91903481449941
 20
77.06902531710428
 30
0.0
 10
64.91903481449941
 20
77.06902531710428
 30
0.0
 10
65.49436576053612
 20
76.96188284751301
 30
0.0
 10
65.49436576053612
 20
76.96188284751301
 30
0.0
 10
65.49436576053612
 20
76.96188284751301
 30
0.0
 10
65.50022242286106
 20
76.96756725506367
 30
0.0
 10
65.50022242286106
 20
76.96756725506367
 30
0.0
 10
65.40134818243439
 20
77.05490042561475
 30
0.0
 10
65.35621743157761
 20
77.20441756967459
 30
0.0
 10
65.35621743157761
 20
77.33980982224491
 30
0.0
 10
65.35621743157761
 20
77.69517142154843
 30
0.0
 10
65.58187118586147
 20
77.98576522572925
 30
0.0
 10
66.04179143314233
 20
77.98576522572925
 30
0.0
 10
66.38009980979386
 20
77.98576522572925
 30
0.0
 10
66.70738388089261
 20
77.75167098750653
 30
0.0
 10
66.70738388089261
 20
77.28623858744928
 30
0.0
 10
66.70738388089261
 20
76.93931747208463
 30
0.0
 10
66.49585501809827
 20
76.65716415184265
 30
0.0
 10
66.13480901124408
 20
76.6487236679038
 30
0.0
 10
66.13480901124408
 20
76.6487236679038
 30
0.0
 10
66.13480901124408
 20
76.88850231367718
 30
0.0
 10
66.13480901124408
 20
76.88850231367718
 30
0.0
  0
HATCH
  5
1FB
330
1F4
100
AcDbEntity
  8
Sichtbar (ISO)
 62
    18
420
        0
440
 33554687
100
AcDbHatch
 10
0.0
 20
0.0
 30
0.0
210
0.0
220
0.0
230
1.0
  2
SOLID
 70
     1
 71
     1
 91
        1
 92
        1
 93
        1
 72
     4
 94
        3
 73
     0
 74
     0
 95
       53
 96
       49
 40
0.0
 40
0.0
 40
0.0
 40
0.0
 40
1.0
 40
1.0
 40
1.0
 40
2.0
 40
2.0
 40
2.0
 40
3.0
 40
3.0
 40
3.0
 40
4.0
 40
4.0
 40
4.0
 40
5.0
 40
5.0
 40
5.0
 40
6.0
 40
6.0
 40
6.0
 40
7.0
 40
7.0
 40
7.0
 40
8.0
 40
8.0
 40
8.0
 40
9.0
 40
9.0
 40
9.0
 40
10.0
 40
10.0
 40
10.0
 40
11.0
 40
11.0
 40
11.0
 40
12.0
 40
12.0
 40
12.0
 40
13.0
 40
13.0
 40
13.0
 40
14.0
 40
14.0
 40
14.0
 40
15.0
 40
15.0
 40
15.0
 40
16.0
 40
16.0
 40
16.0
 40
16.0
 10
66.13480901124408
 20
76.88850231367718
 10
66.34082572126202
 20
76.9026272051667
 10
66.49585501809827
 20
77.06902531710428
 10
66.49585501809827
 20
77.30880396287766
 10
66.49585501809827
 20
77.53721379354972
 10
66.3377251353253
 20
77.73186168846634
 10
66.02180987932789
 20
77.73186168846634
 10
65.75963811290037
 20
77.73186168846634
 10
65.56774629437196
 20
77.55133868503925
 10
65.56774629437196
 20
77.28055417989861
 10
65.56774629437196
 20
77.12535262828811
 10
65.64388290459598
 20
77.00132919081912
 10
65.75688203651217
 20
76.90831161271737
 10
65.75688203651217
 20
76.90831161271737
 10
65.74551322141084
 20
76.70229490269943
 10
65.74551322141084
 20
76.70229490269943
 10
65.74551322141084
 20
76.70229490269943
 10
64.70750595170507
 20
76.88850231367718
 10
64.70750595170507
 20
76.88850231367718
 10
64.70750595170507
 20
76.88850231367718
 10
64.70750595170507
 20
77.87569442497552
 10
64.70750595170507
 20
77.87569442497552
 10
64.70750595170507
 20
77.87569442497552
 10
64.91903481449941
 20
77.87569442497552
 10
64.91903481449941
 20
77.87569442497552
 10
64.91903481449941
 20
77.87569442497552
 10
64.91903481449941
 20
77.06902531710428
 10
64.91903481449941
 20
77.06902531710428
 10
64.91903481449941
 20
77.06902531710428
 10
65.49436576053612
 20
76.96188284751301
 10
65.49436576053612
 20
76.96188284751301
 10
65.49436576053612
 20
76.96188284751301
 10
65.50022242286106
 20
76.96756725506367
 10
65.50022242286106
 20
76.96756725506367
 10
65.40134818243439
 20
77.05490042561475
 10
65.35621743157761
 20
77.20441756967459
 10
65.35621743157761
 20
77.33980982224491
 10
65.35621743157761
 20
77.69517142154843
 10
65.58187118586147
 20
77.98576522572925
 10
66.04179143314233
 20
77.98576522572925
 10
66.38009980979386
 20
77.98576522572925
 10
66.70738388089261
 20
77.75167098750653
 10
66.70738388089261
 20
77.28623858744928
 10
66.70738388089261
 20
76.93931747208463
 10
66.49585501809827
 20
76.65716415184265
 10
66.13480901124408
 20
76.6487236679038
 10
66.13480901124408
 20
76.6487236679038
 10
66.13480901124408
 20
76.88850231367718
 10
66.13480901124408
 20
76.88850231367718
 97
        0
 97
        1
330
1FA
 75
     2
 76
     1
 98
        1
 10
0.0
 20
0.0
450
        0
451
        0
460
0.0
461
0.0
452
        0
462
0.0
453
        0
470

  0
ENDBLK
  5
1F7
330
1F4
100
AcDbEntity
  8
0
100
AcDbBlockEnd
  0
BLOCK
  5
202
330
200
100
AcDbEntity
  8
0
100
AcDbBlockBegin
  2
Block_18
 70
     0
 10
0.0
 20
0.0
 30
0.0
  3
Block_18
  1

  0
INSERT
  5
205
330
200
100
AcDbEntity
  8
Sichtbar (ISO)
100
AcDbBlockReference
  2
Block_19
 10
0.0
 20
0.0
 30
0.0
  0
ENDBLK
  5
203
330
200
100
AcDbEntity
  8
0
100
AcDbBlockEnd
  0
BLOCK
  5
206
330
204
100
AcDbEntity
  8
0
100
AcDbBlockBegin
  2
Block_19
 70
     0
 10
0.0
 20
0.0
 30
0.0
  3
Block_19
  1

  0
SPLINE
  5
208
330
204
100
AcDbEntity
  8
Sichtbar (ISO)
100
AcDbSpline
210
0.0
220
0.0
230
1.0
 70
     9
 71
     3
 72
    26
 73
    22
 74
     0
 42
0.0000000001
 43
0.0000000001
 40
0.0
 40
0.0
 40
0.0
 40
0.0
 40
1.0
 40
1.0
 40
1.0
 40
2.0
 40
2.0
 40
2.0
 40
3.0
 40
3.0
 40
3.0
 40
4.0
 40
4.0
 40
4.0
 40
5.0
 40
5.0
 40
5.0
 40
6.0
 40
6.0
 40
6.0
 40
7.0
 40
7.0
 40
7.0
 40
7.0
 10
79.07424314429395
 20
73.98962671761371
 30
0.0
 10
79.07424314429395
 20
73.98962671761371
 30
0.0
 10
79.07424314429395
 20
72.94042288758086
 30
0.0
 10
79.07424314429395
 20
72.94042288758086
 30
0.0
 10
79.07424314429395
 20
72.94042288758086
 30
0.0
 10
78.84858939001007
 20
72.94042288758086
 30
0.0
 10
78.84858939001007
 20
72.94042288758086
 30
0.0
 10
78.84858939001007
 20
72.94042288758086
 30
0.0
 10
78.84858939001007
 20
74.23508977093776
 30
0.0
 10
78.84858939001007
 20
74.23508977093776
 30
0.0
 10
78.84858939001007
 20
74.23508977093776
 30
0.0
 10
79.05460610002802
 20
74.23508977093776
 30
0.0
 10
79.05460610002802
 20
74.23508977093776
 30
0.0
 10
79.45217011902585
 20
73.831669089615
 30
0.0
 10
80.19114310061194
 20
73.50455727329053
 30
0.0
 10
80.81470538344216
 20
73.46786700637261
 30
0.0
 10
80.81470538344216
 20
73.46786700637261
 30
0.0
 10
80.81470538344216
 20
73.19983857762018
 30
0.0
 10
80.81470538344216
 20
73.19983857762018
 30
0.0
 10
80.13774412059056
 20
73.24496932847695
 30
0.0
 10
79.51728242369707
 20
73.56932506841322
 30
0.0
 10
79.07424314429395
 20
73.98962671761371
 30
0.0
  0
HATCH
  5
209
330
204
100
AcDbEntity
  8
Sichtbar (ISO)
 62
    18
420
        0
440
 33554687
100
AcDbHatch
 10
0.0
 20
0.0
 30
0.0
210
0.0
220
0.0
230
1.0
  2
SOLID
 70
     1
 71
     1
 91
        1
 92
        1
 93
        1
 72
     4
 94
        3
 73
     0
 74
     0
 95
       26
 96
       22
 40
0.0
 40
0.0
 40
0.0
 40
0.0
 40
1.0
 40
1.0
 40
1.0
 40
2.0
 40
2.0
 40
2.0
 40
3.0
 40
3.0
 40
3.0
 40
4.0
 40
4.0
 40
4.0
 40
5.0
 40
5.0
 40
5.0
 40
6.0
 40
6.0
 40
6.0
 40
7.0
 40
7.0
 40
7.0
 40
7.0
 10
79.07424314429395
 20
73.98962671761371
 10
79.07424314429395
 20
73.98962671761371
 10
79.07424314429395
 20
72.94042288758086
 10
79.07424314429395
 20
72.94042288758086
 10
79.07424314429395
 20
72.94042288758086
 10
78.84858939001007
 20
72.94042288758086
 10
78.84858939001007
 20
72.94042288758086
 10
78.84858939001007
 20
72.94042288758086
 10
78.84858939001007
 20
74.23508977093776
 10
78.84858939001007
 20
74.23508977093776
 10
78.84858939001007
 20
74.23508977093776
 10
79.05460610002802
 20
74.23508977093776
 10
79.05460610002802
 20
74.23508977093776
 10
79.45217011902585
 20
73.831669089615
 10
80.19114310061194
 20
73.50455727329053
 10
80.81470538344216
 20
73.46786700637261
 10
80.81470538344216
 20
73.46786700637261
 10
80.81470538344216
 20
73.19983857762018
 10
80.81470538344216
 20
73.19983857762018
 10
80.13774412059056
 20
73.24496932847695
 10
79.51728242369707
 20
73.56932506841322
 10
79.07424314429395
 20
73.98962671761371
 97
        0
 97
        1
330
208
 75
     2
 76
     1
 98
        1
 10
0.0
 20
0.0
450
        0
451
        0
460
0.0
461
0.0
452
        0
462
0.0
453
        0
470

  0
SPLINE
  5
20A
330
204
100
AcDbEntity
  8
Sichtbar (ISO)
100
AcDbSpline
210
0.0
220
0.0
230
1.0
 70
     9
 71
     3
 72
    26
 73
    22
 74
     0
 42
0.0000000001
 43
0.0000000001
 40
0.0
 40
0.0
 40
0.0
 40
0.0
 40
1.0
 40
1.0
 40
1.0
 40
2.0
 40
2.0
 40
2.0
 40
3.0
 40
3.0
 40
3.0
 40
4.0
 40
4.0
 40
4.0
 40
5.0
 40
5.0
 40
5.0
 40
6.0
 40
6.0
 40
6.0
 40
7.0
 40
7.0
 40
7.0
 40
7.0
 10
79.07424314429395
 20
75.55886771114501
 30
0.0
 10
79.07424314429395
 20
75.55886771114501
 30
0.0
 10
79.07424314429395
 20
74.50966388111218
 30
0.0
 10
79.07424314429395
 20
74.50966388111218
 30
0.0
 10
79.07424314429395
 20
74.50966388111218
 30
0.0
 10
78.84858939001007
 20
74.50966388111218
 30
0.0
 10
78.84858939001007
 20
74.50966388111218
 30
0.0
 10
78.84858939001007
 20
74.50966388111218
 30
0.0
 10
78.84858939001007
 20
75.80433076446905
 30
0.0
 10
78.84858939001007
 20
75.80433076446905
 30
0.0
 10
78.84858939001007
 20
75.80433076446905
 30
0.0
 10
79.05460610002802
 20
75.80433076446905
 30
0.0
 10
79.05460610002802
 20
75.80433076446905
 30
0.0
 10
79.45217011902585
 20
75.4009100831463
 30
0.0
 10
80.19114310061194
 20
75.07379826682182
 30
0.0
 10
80.81470538344216
 20
75.03710799990392
 30
0.0
 10
80.81470538344216
 20
75.03710799990392
 30
0.0
 10
80.81470538344216
 20
74.76907957115148
 30
0.0
 10
80.81470538344216
 20
74.76907957115148
 30
0.0
 10
80.13774412059056
 20
74.81421032200825
 30
0.0
 10
79.51728242369707
 20
75.13856606194453
 30
0.0
 10
79.07424314429395
 20
75.55886771114501
 30
0.0
  0
HATCH
  5
20B
330
204
100
AcDbEntity
  8
Sichtbar (ISO)
 62
    18
420
        0
440
 33554687
100
AcDbHatch
 10
0.0
 20
0.0
 30
0.0
210
0.0
220
0.0
230
1.0
  2
SOLID
 70
     1
 71
     1
 91
        1
 92
        1
 93
        1
 72
     4
 94
        3
 73
     0
 74
     0
 95
       26
 96
       22
 40
0.0
 40
0.0
 40
0.0
 40
0.0
 40
1.0
 40
1.0
 40
1.0
 40
2.0
 40
2.0
 40
2.0
 40
3.0
 40
3.0
 40
3.0
 40
4.0
 40
4.0
 40
4.0
 40
5.0
 40
5.0
 40
5.0
 40
6.0
 40
6.0
 40
6.0
 40
7.0
 40
7.0
 40
7.0
 40
7.0
 10
79.07424314429395
 20
75.55886771114501
 10
79.07424314429395
 20
75.55886771114501
 10
79.07424314429395
 20
74.50966388111218
 10
79.07424314429395
 20
74.50966388111218
 10
79.07424314429395
 20
74.50966388111218
 10
78.84858939001007
 20
74.50966388111218
 10
78.84858939001007
 20
74.50966388111218
 10
78.84858939001007
 20
74.50966388111218
 10
78.84858939001007
 20
75.80433076446905
 10
78.84858939001007
 20
75.80433076446905
 10
78.84858939001007
 20
75.80433076446905
 10
79.05460610002802
 20
75.80433076446905
 10
79.05460610002802
 20
75.80433076446905
 10
79.45217011902585
 20
75.4009100831463
 10
80.19114310061194
 20
75.07379826682182
 10
80.81470538344216
 20
75.03710799990392
 10
80.81470538344216
 20
75.03710799990392
 10
80.81470538344216
 20
74.76907957115148
 10
80.81470538344216
 20
74.76907957115148
 10
80.13774412059056
 20
74.81421032200825
 10
79.51728242369707
 20
75.13856606194453
 10
79.07424314429395
 20
75.55886771114501
 97
        0
 97
        1
330
20A
 75
     2
 76
     1
 98
        1
 10
0.0
 20
0.0
450
        0
451
        0
460
0.0
461
0.0
452
        0
462
0.0
453
        0
470

  0
ENDBLK
  5
207
330
204
100
AcDbEntity
  8
0
100
AcDbBlockEnd
  0
BLOCK
  5
20E
330
20C
100
AcDbEntity
  8
0
100
AcDbBlockBegin
  2
Block_20
 70
     0
 10
0.0
 20
0.0
 30
0.0
  3
Block_20
  1

  0
INSERT
  5
211
330
20C
100
AcDbEntity
  8
Sichtbar (ISO)
100
AcDbBlockReference
  2
Block_21
 10
0.0
 20
0.0
 30
0.0
  0
ENDBLK
  5
20F
330
20C
100
AcDbEntity
  8
0
100
AcDbBlockEnd
  0
BLOCK
  5
212
330
210
100
AcDbEntity
  8
0
100
AcDbBlockBegin
  2
Block_21
 70
     0
 10
0.0
 20
0.0
 30
0.0
  3
Block_21
  1

  0
SPLINE
  5
214
330
210
100
AcDbEntity
  8
Sichtbar (ISO)
100
AcDbSpline
210
0.0
220
0.0
230
1.0
 70
     9
 71
     3
 72
    26
 73
    22
 74
     0
 42
0.0000000001
 43
0.0000000001
 40
0.0
 40
0.0
 40
0.0
 40
0.0
 40
1.0
 40
1.0
 40
1.0
 40
2.0
 40
2.0
 40
2.0
 40
3.0
 40
3.0
 40
3.0
 40
4.0
 40
4.0
 40
4.0
 40
5.0
 40
5.0
 40
5.0
 40
6.0
 40
6.0
 40
6.0
 40
7.0
 40
7.0
 40
7.0
 40
7.0
 10
73.64408364044314
 20
36.04706759081462
 30
0.0
 10
73.66234264651497
 20
36.10012206128747
 30
0.0
 10
73.67164440432515
 20
36.1542100604059
 30
0.0
 10
73.67164440432515
 20
36.20864256907284
 30
0.0
 10
73.67164440432515
 20
36.38434243882058
 30
0.0
 10
73.58965113177621
 20
36.50905489538663
 30
0.0
 10
73.42635360577536
 20
36.58243542922245
 30
0.0
 10
73.32782387489721
 20
36.62687716098217
 30
0.0
 10
73.21482474298102
 20
36.6492702816363
 30
0.0
 10
73.08735621002677
 20
36.6492702816363
 30
0.0
 10
73.00467391838077
 20
36.6492702816363
 30
0.0
 10
72.9333604418361
 20
36.64203558111727
 30
0.0
 10
72.87376028994128
 20
36.62825519917627
 30
0.0
 10
72.84137639237994
 20
36.62067598910872
 30
0.0
 10
72.80382485159072
 20
36.6079291358133
 30
0.0
 10
72.76076115802509
 20
36.59035914883852
 30
0.0
 10
72.76076115802509
 20
36.59035914883852
 30
0.0
 10
73.53900822814303
 20
35.89927299449741
 30
0.0
 10
73.53900822814303
 20
35.89927299449741
 30
0.0
 10
73.5910291699703
 20
35.94474825490271
 30
0.0
 10
73.62616914391985
 20
35.9943576298903
 30
0.0
 10
73.64408364044314
 20
36.04706759081462
 30
0.0
  0
SPLINE
  5
215
330
210
100
AcDbEntity
  8
Sichtbar (ISO)
100
AcDbSpline
210
0.0
220
0.0
230
1.0
 70
    11
 71
     3
 72
    26
 73
    22
 74
     0
 42
0.0000000001
 43
0.0000000001
 40
0.0
 40
0.0
 40
0.0
 40
0.0
 40
1.0
 40
1.0
 40
1.0
 40
2.0
 40
2.0
 40
2.0
 40
3.0
 40
3.0
 40
3.0
 40
4.0
 40
4.0
 40
4.0
 40
5.0
 40
5.0
 40
5.0
 40
6.0
 40
6.0
 40
6.0
 40
7.0
 40
7.0
 40
7.0
 40
7.0
 10
72.57024737769078
 20
36.410869674057
 30
0.0
 10
72.54372014245435
 20
36.35333657945333
 30
0.0
 10
72.53062877961039
 20
36.28925780342769
 30
0.0
 10
72.53062877961039
 20
36.21863334598007
 30
0.0
 10
72.53062877961039
 20
36.0839301125068
 30
0.0
 10
72.58643932647145
 20
35.97609862381848
 30
0.0
 10
72.69840492974207
 20
35.89479437036658
 30
0.0
 10
72.81002602346416
 20
35.81349011691469
 30
0.0
 10
72.95368650519908
 20
35.77283799018874
 30
0.0
 10
73.12938637494681
 20
35.77283799018874
 30
0.0
 10
73.19587671781214
 20
35.77283799018874
 30
0.0
 10
73.25926647474074
 20
35.78007269070776
 30
0.0
 10
73.31990015528113
 20
35.79419758219728
 30
0.0
 10
73.3540066005851
 20
35.80281032091041
 30
0.0
 10
73.39707029415073
 20
35.81659070285141
 30
0.0
 10
73.44978025507505
 20
35.83657225666586
 30
0.0
 10
73.44978025507505
 20
35.83657225666586
 30
0.0
 10
72.66774357992334
 20
36.5362711497201
 30
0.0
 10
72.66774357992334
 20
36.5362711497201
 30
0.0
 10
72.62915851048855
 20
36.51043293358072
 30
0.0
 10
72.59677461292719
 20
36.46840276866068
 30
0.0
 10
72.57024737769078
 20
36.410869674057
 30
0.0
  0
SPLINE
  5
216
330
210
100
AcDbEntity
  8
Sichtbar (ISO)
100
AcDbSpline
210
0.0
220
0.0
230
1.0
 70
    11
 71
     3
 72
    59
 73
    55
 74
     0
 42
0.0000000001
 43
0.0000000001
 40
0.0
 40
0.0
 40
0.0
 40
0.0
 40
1.0
 40
1.0
 40
1.0
 40
2.0
 40
2.0
 40
2.0
 40
3.0
 40
3.0
 40
3.0
 40
4.0
 40
4.0
 40
4.0
 40
5.0
 40
5.0
 40
5.0
 40
6.0
 40
6.0
 40
6.0
 40
7.0
 40
7.0
 40
7.0
 40
8.0
 40
8.0
 40
8.0
 40
9.0
 40
9.0
 40
9.0
 40
10.0
 40
10.0
 40
10.0
 40
11.0
 40
11.0
 40
11.0
 40
12.0
 40
12.0
 40
12.0
 40
13.0
 40
13.0
 40
13.0
 40
14.0
 40
14.0
 40
14.0
 40
15.0
 40
15.0
 40
15.0
 40
16.0
 40
16.0
 40
16.0
 40
17.0
 40
17.0
 40
17.0
 40
18.0
 40
18.0
 40
18.0
 40
18.0
 10
73.82598468206435
 20
35.48896212220415
 30
0.0
 10
73.82598468206435
 20
35.48896212220415
 30
0.0
 10
73.64063854495789
 20
35.66569552059747
 30
0.0
 10
73.64063854495789
 20
35.66569552059747
 30
0.0
 10
73.57277016389848
 20
35.61953124109512
 30
0.0
 10
73.49628904412593
 20
35.58439126714557
 30
0.0
 10
73.41188420473731
 20
35.55958657965177
 30
0.0
 10
73.32747936534869
 20
35.53443738260945
 30
0.0
 10
73.22722708672792
 20
35.52203503886255
 30
0.0
 10
73.11181638797205
 20
35.52203503886255
 30
0.0
 10
72.90338811111443
 20
35.52203503886255
 30
0.0
 10
72.71804197400799
 20
35.5806016621118
 30
0.0
 10
72.55577797665272
 20
35.69739039906177
 30
0.0
 10
72.39385848884598
 20
35.81452364556026
 30
0.0
 10
72.31289874494262
 20
35.98505587208013
 30
0.0
 10
72.31289874494262
 20
36.20898707862137
 30
0.0
 10
72.31289874494262
 20
36.32543130602281
 30
0.0
 10
72.33356931785412
 20
36.42775064193473
 30
0.0
 10
72.37525497322564
 20
36.5156005768086
 30
0.0
 10
72.3997151511709
 20
36.56727700908735
 30
0.0
 10
72.43933374925127
 20
36.62653265143365
 30
0.0
 10
72.49445527701528
 20
36.69302299429897
 30
0.0
 10
72.49445527701528
 20
36.69302299429897
 30
0.0
 10
72.30049640119571
 20
36.86872286404671
 30
0.0
 10
72.30049640119571
 20
36.86872286404671
 30
0.0
 10
72.30049640119571
 20
36.86872286404671
 30
0.0
 10
72.37077634909481
 20
36.94003634059138
 30
0.0
 10
72.37077634909481
 20
36.94003634059138
 30
0.0
 10
72.37077634909481
 20
36.94003634059138
 30
0.0
 10
72.56818032039962
 20
36.76295843264954
 30
0.0
 10
72.56818032039962
 20
36.76295843264954
 30
0.0
 10
72.65258515978825
 20
36.82118054635026
 30
0.0
 10
72.74939234292377
 20
36.86252169217326
 30
0.0
 10
72.8589463793547
 20
36.88732637966706
 30
0.0
 10
72.92957083680232
 20
36.90317381889921
 30
0.0
 10
73.00019529424995
 20
36.91109753851529
 30
0.0
 10
73.07081975169757
 20
36.91109753851529
 30
0.0
 10
73.30784232108276
 20
36.91109753851529
 30
0.0
 10
73.50317923509642
 20
36.84667425294112
 30
0.0
 10
73.6571750032871
 20
36.71782768179277
 30
0.0
 10
73.81117077147776
 20
36.58898111064443
 30
0.0
 10
73.88799640079884
 20
36.41741535547898
 30
0.0
 10
73.88799640079884
 20
36.20313041629644
 30
0.0
 10
73.88799640079884
 20
36.10115558993304
 30
0.0
 10
73.87318249021226
 20
36.01020506912245
 30
0.0
 10
73.84321015949059
 20
35.93062336341318
 30
0.0
 10
73.81358233831744
 20
35.85104165770391
 30
0.0
 10
73.77293021159148
 20
35.78627386258121
 30
0.0
 10
73.72159828886127
 20
35.73735350669066
 30
0.0
 10
73.72159828886127
 20
35.73735350669066
 30
0.0
 10
73.89764266815753
 20
35.57026637565605
 30
0.0
 10
73.89764266815753
 20
35.57026637565605
 30
0.0
 10
73.89764266815753
 20
35.57026637565605
 30
0.0
 10
73.82598468206435
 20
35.48896212220415
 30
0.0
 10
73.82598468206435
 20
35.48896212220415
 30
0.0
  0
HATCH
  5
217
330
210
100
AcDbEntity
  8
Sichtbar (ISO)
 62
   250
420
  1842203
440
 33554687
100
AcDbHatch
 10
0.0
 20
0.0
 30
0.0
210
0.0
220
0.0
230
1.0
  2
SOLID
 70
     1
 71
     1
 91
        3
 92
        1
 93
        1
 72
     4
 94
        3
 73
     0
 74
     0
 95
       26
 96
       22
 40
0.0
 40
0.0
 40
0.0
 40
0.0
 40
1.0
 40
1.0
 40
1.0
 40
2.0
 40
2.0
 40
2.0
 40
3.0
 40
3.0
 40
3.0
 40
4.0
 40
4.0
 40
4.0
 40
5.0
 40
5.0
 40
5.0
 40
6.0
 40
6.0
 40
6.0
 40
7.0
 40
7.0
 40
7.0
 40
7.0
 10
73.64408364044314
 20
36.04706759081462
 10
73.66234264651497
 20
36.10012206128747
 10
73.67164440432515
 20
36.1542100604059
 10
73.67164440432515
 20
36.20864256907284
 10
73.67164440432515
 20
36.38434243882058
 10
73.58965113177621
 20
36.50905489538663
 10
73.42635360577536
 20
36.58243542922245
 10
73.32782387489721
 20
36.62687716098217
 10
73.21482474298102
 20
36.6492702816363
 10
73.08735621002677
 20
36.6492702816363
 10
73.00467391838077
 20
36.6492702816363
 10
72.9333604418361
 20
36.64203558111727
 10
72.87376028994128
 20
36.62825519917627
 10
72.84137639237994
 20
36.62067598910872
 10
72.80382485159072
 20
36.6079291358133
 10
72.76076115802509
 20
36.59035914883852
 10
72.76076115802509
 20
36.59035914883852
 10
73.53900822814303
 20
35.89927299449741
 10
73.53900822814303
 20
35.89927299449741
 10
73.5910291699703
 20
35.94474825490271
 10
73.62616914391985
 20
35.9943576298903
 10
73.64408364044314
 20
36.04706759081462
 97
        0
 97
        1
330
214
 92
        1
 93
        1
 72
     4
 94
        3
 73
     0
 74
     0
 95
       26
 96
       22
 40
0.0
 40
0.0
 40
0.0
 40
0.0
 40
1.0
 40
1.0
 40
1.0
 40
2.0
 40
2.0
 40
2.0
 40
3.0
 40
3.0
 40
3.0
 40
4.0
 40
4.0
 40
4.0
 40
5.0
 40
5.0
 40
5.0
 40
6.0
 40
6.0
 40
6.0
 40
7.0
 40
7.0
 40
7.0
 40
7.0
 10
72.57024737769078
 20
36.410869674057
 10
72.54372014245435
 20
36.35333657945333
 10
72.53062877961039
 20
36.28925780342769
 10
72.53062877961039
 20
36.21863334598007
 10
72.53062877961039
 20
36.0839301125068
 10
72.58643932647145
 20
35.97609862381848
 10
72.69840492974207
 20
35.89479437036658
 10
72.81002602346416
 20
35.81349011691469
 10
72.95368650519908
 20
35.77283799018874
 10
73.12938637494681
 20
35.77283799018874
 10
73.19587671781214
 20
35.77283799018874
 10
73.25926647474074
 20
35.78007269070776
 10
73.31990015528113
 20
35.79419758219728
 10
73.3540066005851
 20
35.80281032091041
 10
73.39707029415073
 20
35.81659070285141
 10
73.44978025507505
 20
35.83657225666586
 10
73.44978025507505
 20
35.83657225666586
 10
72.66774357992334
 20
36.5362711497201
 10
72.66774357992334
 20
36.5362711497201
 10
72.62915851048855
 20
36.51043293358072
 10
72.59677461292719
 20
36.46840276866068
 10
72.57024737769078
 20
36.410869674057
 97
        0
 97
        1
330
215
 92
        1
 93
        1
 72
     4
 94
        3
 73
     0
 74
     0
 95
       59
 96
       55
 40
0.0
 40
0.0
 40
0.0
 40
0.0
 40
1.0
 40
1.0
 40
1.0
 40
2.0
 40
2.0
 40
2.0
 40
3.0
 40
3.0
 40
3.0
 40
4.0
 40
4.0
 40
4.0
 40
5.0
 40
5.0
 40
5.0
 40
6.0
 40
6.0
 40
6.0
 40
7.0
 40
7.0
 40
7.0
 40
8.0
 40
8.0
 40
8.0
 40
9.0
 40
9.0
 40
9.0
 40
10.0
 40
10.0
 40
10.0
 40
11.0
 40
11.0
 40
11.0
 40
12.0
 40
12.0
 40
12.0
 40
13.0
 40
13.0
 40
13.0
 40
14.0
 40
14.0
 40
14.0
 40
15.0
 40
15.0
 40
15.0
 40
16.0
 40
16.0
 40
16.0
 40
17.0
 40
17.0
 40
17.0
 40
18.0
 40
18.0
 40
18.0
 40
18.0
 10
73.82598468206435
 20
35.48896212220415
 10
73.82598468206435
 20
35.48896212220415
 10
73.64063854495789
 20
35.66569552059747
 10
73.64063854495789
 20
35.66569552059747
 10
73.57277016389848
 20
35.61953124109512
 10
73.49628904412593
 20
35.58439126714557
 10
73.41188420473731
 20
35.55958657965177
 10
73.32747936534869
 20
35.53443738260945
 10
73.22722708672792
 20
35.52203503886255
 10
73.11181638797205
 20
35.52203503886255
 10
72.90338811111443
 20
35.52203503886255
 10
72.71804197400799
 20
35.5806016621118
 10
72.55577797665272
 20
35.69739039906177
 10
72.39385848884598
 20
35.81452364556026
 10
72.31289874494262
 20
35.98505587208013
 10
72.31289874494262
 20
36.20898707862137
 10
72.31289874494262
 20
36.32543130602281
 10
72.33356931785412
 20
36.42775064193473
 10
72.37525497322564
 20
36.5156005768086
 10
72.3997151511709
 20
36.56727700908735
 10
72.43933374925127
 20
36.62653265143365
 10
72.49445527701528
 20
36.69302299429897
 10
72.49445527701528
 20
36.69302299429897
 10
72.30049640119571
 20
36.86872286404671
 10
72.30049640119571
 20
36.86872286404671
 10
72.30049640119571
 20
36.86872286404671
 10
72.37077634909481
 20
36.94003634059138
 10
72.37077634909481
 20
36.94003634059138
 10
72.37077634909481
 20
36.94003634059138
 10
72.56818032039962
 20
36.76295843264954
 10
72.56818032039962
 20
36.76295843264954
 10
72.65258515978825
 20
36.82118054635026
 10
72.74939234292377
 20
36.86252169217326
 10
72.8589463793547
 20
36.88732637966706
 10
72.92957083680232
 20
36.90317381889921
 10
73.00019529424995
 20
36.91109753851529
 10
73.07081975169757
 20
36.91109753851529
 10
73.30784232108276
 20
36.91109753851529
 10
73.50317923509642
 20
36.84667425294112
 10
73.6571750032871
 20
36.71782768179277
 10
73.81117077147776
 20
36.58898111064443
 10
73.88799640079884
 20
36.41741535547898
 10
73.88799640079884
 20
36.20313041629644
 10
73.88799640079884
 20
36.10115558993304
 10
73.87318249021226
 20
36.01020506912245
 10
73.84321015949059
 20
35.93062336341318
 10
73.81358233831744
 20
35.85104165770391
 10
73.77293021159148
 20
35.78627386258121
 10
73.72159828886127
 20
35.73735350669066
 10
73.72159828886127
 20
35.73735350669066
 10
73.89764266815753
 20
35.57026637565605
 10
73.89764266815753
 20
35.57026637565605
 10
73.89764266815753
 20
35.57026637565605
 10
73.82598468206435
 20
35.48896212220415
 10
73.82598468206435
 20
35.48896212220415
 97
        0
 97
        1
330
216
 75
     2
 76
     1
 98
        1
 10
0.0
 20
0.0
450
        0
451
        0
460
0.0
461
0.0
452
        0
462
0.0
453
        0
470

  0
SPLINE
  5
218
330
210
100
AcDbEntity
  8
Sichtbar (ISO)
100
AcDbSpline
210
0.0
220
0.0
230
1.0
 70
     9
 71
     3
 72
    41
 73
    37
 74
     0
 42
0.0000000001
 43
0.0000000001
 40
0.0
 40
0.0
 40
0.0
 40
0.0
 40
1.0
 40
1.0
 40
1.0
 40
2.0
 40
2.0
 40
2.0
 40
3.0
 40
3.0
 40
3.0
 40
4.0
 40
4.0
 40
4.0
 40
5.0
 40
5.0
 40
5.0
 40
6.0
 40
6.0
 40
6.0
 40
7.0
 40
7.0
 40
7.0
 40
8.0
 40
8.0
 40
8.0
 40
9.0
 40
9.0
 40
9.0
 40
10.0
 40
10.0
 40
10.0
 40
11.0
 40
11.0
 40
11.0
 40
12.0
 40
12.0
 40
12.0
 40
12.0
 10
73.0132866570939
 20
37.7151828247726
 30
0.0
 10
72.80175779429956
 20
38.05383571097266
 30
0.0
 10
72.68324650960697
 20
38.22574597568662
 30
0.0
 10
72.40419377530173
 20
38.22574597568662
 30
0.0
 10
72.18680825018246
 20
38.22574597568662
 30
0.0
 10
72.04314776844755
 20
38.05073512503593
 30
0.0
 10
72.04314776844755
 20
37.83920626224159
 30
0.0
 10
72.04314776844755
 20
37.55980901838782
 30
0.0
 10
72.29980738209866
 20
37.44129773369523
 30
0.0
 10
72.53958602787204
 20
37.44991047240836
 30
0.0
 10
72.53958602787204
 20
37.44991047240836
 30
0.0
 10
72.53958602787204
 20
37.21013182663497
 30
0.0
 10
72.53958602787204
 20
37.21013182663497
 30
0.0
 10
72.13340927016109
 20
37.18773870598084
 30
0.0
 10
71.83161890565322
 20
37.43027342814244
 30
0.0
 10
71.83161890565322
 20
37.85333115373112
 30
0.0
 10
71.83161890565322
 20
38.20025226909577
 30
0.0
 10
72.03453502973443
 20
38.47964951294954
 30
0.0
 10
72.40694985168993
 20
38.47964951294954
 30
0.0
 10
72.75972762937951
 20
38.47964951294954
 30
0.0
 10
72.93439397048167
 20
38.24262694356434
 30
0.0
 10
73.09252385325464
 20
37.99458006862636
 30
0.0
 10
73.24204099731449
 20
37.74618868413984
 30
0.0
 10
73.37433266394808
 20
37.47816025538741
 30
0.0
 10
73.61996797204639
 20
37.43302950453063
 30
0.0
 10
73.61996797204639
 20
37.43302950453063
 30
0.0
 10
73.61996797204639
 20
38.45966795913508
 30
0.0
 10
73.61996797204639
 20
38.45966795913508
 30
0.0
 10
73.61996797204639
 20
38.45966795913508
 30
0.0
 10
73.83149683484074
 20
38.45966795913508
 30
0.0
 10
73.83149683484074
 20
38.45966795913508
 30
0.0
 10
73.83149683484074
 20
38.45966795913508
 30
0.0
 10
73.83149683484074
 20
37.1539767702254
 30
0.0
 10
73.83149683484074
 20
37.1539767702254
 30
0.0
 10
73.36020777245856
 20
37.19049478236904
 30
0.0
 10
73.18278535496819
 20
37.43302950453063
 30
0.0
 10
73.0132866570939
 20
37.7151828247726
 30
0.0
  0
HATCH
  5
219
330
210
100
AcDbEntity
  8
Sichtbar (ISO)
 62
    18
420
        0
440
 33554687
100
AcDbHatch
 10
0.0
 20
0.0
 30
0.0
210
0.0
220
0.0
230
1.0
  2
SOLID
 70
     1
 71
     1
 91
        1
 92
        1
 93
        1
 72
     4
 94
        3
 73
     0
 74
     0
 95
       41
 96
       37
 40
0.0
 40
0.0
 40
0.0
 40
0.0
 40
1.0
 40
1.0
 40
1.0
 40
2.0
 40
2.0
 40
2.0
 40
3.0
 40
3.0
 40
3.0
 40
4.0
 40
4.0
 40
4.0
 40
5.0
 40
5.0
 40
5.0
 40
6.0
 40
6.0
 40
6.0
 40
7.0
 40
7.0
 40
7.0
 40
8.0
 40
8.0
 40
8.0
 40
9.0
 40
9.0
 40
9.0
 40
10.0
 40
10.0
 40
10.0
 40
11.0
 40
11.0
 40
11.0
 40
12.0
 40
12.0
 40
12.0
 40
12.0
 10
73.0132866570939
 20
37.7151828247726
 10
72.80175779429956
 20
38.05383571097266
 10
72.68324650960697
 20
38.22574597568662
 10
72.40419377530173
 20
38.22574597568662
 10
72.18680825018246
 20
38.22574597568662
 10
72.04314776844755
 20
38.05073512503593
 10
72.04314776844755
 20
37.83920626224159
 10
72.04314776844755
 20
37.55980901838782
 10
72.29980738209866
 20
37.44129773369523
 10
72.53958602787204
 20
37.44991047240836
 10
72.53958602787204
 20
37.44991047240836
 10
72.53958602787204
 20
37.21013182663497
 10
72.53958602787204
 20
37.21013182663497
 10
72.13340927016109
 20
37.18773870598084
 10
71.83161890565322
 20
37.43027342814244
 10
71.83161890565322
 20
37.85333115373112
 10
71.83161890565322
 20
38.20025226909577
 10
72.03453502973443
 20
38.47964951294954
 10
72.40694985168993
 20
38.47964951294954
 10
72.75972762937951
 20
38.47964951294954
 10
72.93439397048167
 20
38.24262694356434
 10
73.09252385325464
 20
37.99458006862636
 10
73.24204099731449
 20
37.74618868413984
 10
73.37433266394808
 20
37.47816025538741
 10
73.61996797204639
 20
37.43302950453063
 10
73.61996797204639
 20
37.43302950453063
 10
73.61996797204639
 20
38.45966795913508
 10
73.61996797204639
 20
38.45966795913508
 10
73.61996797204639
 20
38.45966795913508
 10
73.83149683484074
 20
38.45966795913508
 10
73.83149683484074
 20
38.45966795913508
 10
73.83149683484074
 20
38.45966795913508
 10
73.83149683484074
 20
37.1539767702254
 10
73.83149683484074
 20
37.1539767702254
 10
73.36020777245856
 20
37.19049478236904
 10
73.18278535496819
 20
37.43302950453063
 10
73.0132866570939
 20
37.7151828247726
 97
        0
 97
        1
330
218
 75
     2
 76
     1
 98
        1
 10
0.0
 20
0.0
450
        0
451
        0
460
0.0
461
0.0
452
        0
462
0.0
453
        0
470

  0
SPLINE
  5
21A
330
210
100
AcDbEntity
  8
Sichtbar (ISO)
100
AcDbSpline
210
0.0
220
0.0
230
1.0
 70
     9
 71
     3
 72
    17
 73
    13
 74
     0
 42
0.0000000001
 43
0.0000000001
 40
0.0
 40
0.0
 40
0.0
 40
0.0
 40
1.0
 40
1.0
 40
1.0
 40
2.0
 40
2.0
 40
2.0
 40
3.0
 40
3.0
 40
3.0
 40
4.0
 40
4.0
 40
4.0
 40
4.0
 10
72.84688854515633
 20
39.85148653517602
 30
0.0
 10
72.55095484297338
 20
39.85148653517602
 30
0.0
 10
72.04314776844755
 20
39.84873045878782
 30
0.0
 10
72.04314776844755
 20
39.43945311514014
 30
0.0
 10
72.04314776844755
 20
39.03052028104099
 30
0.0
 10
72.55095484297338
 20
39.02776420465278
 30
0.0
 10
72.84688854515633
 20
39.02776420465278
 30
0.0
 10
73.14592283327602
 20
39.02776420465278
 30
0.0
 10
73.65372990780184
 20
39.03052028104099
 30
0.0
 10
73.65372990780184
 20
39.43945311514014
 30
0.0
 10
73.65372990780184
 20
39.84873045878782
 30
0.0
 10
73.14592283327602
 20
39.85148653517602
 30
0.0
 10
72.84688854515633
 20
39.85148653517602
 30
0.0
  0
SPLINE
  5
21B
330
210
100
AcDbEntity
  8
Sichtbar (ISO)
100
AcDbSpline
210
0.0
220
0.0
230
1.0
 70
     9
 71
     3
 72
    17
 73
    13
 74
     0
 42
0.0000000001
 43
0.0000000001
 40
0.0
 40
0.0
 40
0.0
 40
0.0
 40
1.0
 40
1.0
 40
1.0
 40
2.0
 40
2.0
 40
2.0
 40
3.0
 40
3.0
 40
3.0
 40
4.0
 40
4.0
 40
4.0
 40
4.0
 10
72.84998913109307
 20
38.77386066738987
 30
0.0
 10
72.40970592807814
 20
38.77386066738987
 30
0.0
 10
71.83161890565322
 20
38.81313475592172
 30
0.0
 10
71.83161890565322
 20
39.43945311514014
 30
0.0
 10
71.83161890565322
 20
40.06577147435855
 30
0.0
 10
72.40970592807814
 20
40.10504556289041
 30
0.0
 10
72.84998913109307
 20
40.10504556289041
 30
0.0
 10
73.28992782455947
 20
40.10504556289041
 30
0.0
 10
73.86525877059618
 20
40.06577147435855
 30
0.0
 10
73.86525877059618
 20
39.43945311514014
 30
0.0
 10
73.86525877059618
 20
38.81313475592172
 30
0.0
 10
73.28992782455947
 20
38.77386066738987
 30
0.0
 10
72.84998913109307
 20
38.77386066738987
 30
0.0
  0
HATCH
  5
21C
330
210
100
AcDbEntity
  8
Sichtbar (ISO)
 62
    18
420
        0
440
 33554687
100
AcDbHatch
 10
0.0
 20
0.0
 30
0.0
210
0.0
220
0.0
230
1.0
  2
SOLID
 70
     1
 71
     1
 91
        2
 92
        1
 93
        1
 72
     4
 94
        3
 73
     0
 74
     0
 95
       17
 96
       13
 40
0.0
 40
0.0
 40
0.0
 40
0.0
 40
1.0
 40
1.0
 40
1.0
 40
2.0
 40
2.0
 40
2.0
 40
3.0
 40
3.0
 40
3.0
 40
4.0
 40
4.0
 40
4.0
 40
4.0
 10
72.84688854515633
 20
39.85148653517602
 10
72.55095484297338
 20
39.85148653517602
 10
72.04314776844755
 20
39.84873045878782
 10
72.04314776844755
 20
39.43945311514014
 10
72.04314776844755
 20
39.03052028104099
 10
72.55095484297338
 20
39.02776420465278
 10
72.84688854515633
 20
39.02776420465278
 10
73.14592283327602
 20
39.02776420465278
 10
73.65372990780184
 20
39.03052028104099
 10
73.65372990780184
 20
39.43945311514014
 10
73.65372990780184
 20
39.84873045878782
 10
73.14592283327602
 20
39.85148653517602
 10
72.84688854515633
 20
39.85148653517602
 97
        0
 97
        1
330
21A
 92
        1
 93
        1
 72
     4
 94
        3
 73
     0
 74
     0
 95
       17
 96
       13
 40
0.0
 40
0.0
 40
0.0
 40
0.0
 40
1.0
 40
1.0
 40
1.0
 40
2.0
 40
2.0
 40
2.0
 40
3.0
 40
3.0
 40
3.0
 40
4.0
 40
4.0
 40
4.0
 40
4.0
 10
72.84998913109307
 20
38.77386066738987
 10
72.40970592807814
 20
38.77386066738987
 10
71.83161890565322
 20
38.81313475592172
 10
71.83161890565322
 20
39.43945311514014
 10
71.83161890565322
 20
40.06577147435855
 10
72.40970592807814
 20
40.10504556289041
 10
72.84998913109307
 20
40.10504556289041
 10
73.28992782455947
 20
40.10504556289041
 10
73.86525877059618
 20
40.06577147435855
 10
73.86525877059618
 20
39.43945311514014
 10
73.86525877059618
 20
38.81313475592172
 10
73.28992782455947
 20
38.77386066738987
 10
72.84998913109307
 20
38.77386066738987
 97
        0
 97
        1
330
21B
 75
     2
 76
     1
 98
        1
 10
0.0
 20
0.0
450
        0
451
        0
460
0.0
461
0.0
452
        0
462
0.0
453
        0
470

  0
SPLINE
  5
21D
330
210
100
AcDbEntity
  8
Sichtbar (ISO)
100
AcDbSpline
210
0.0
220
0.0
230
1.0
 70
    11
 71
     3
 72
    17
 73
    13
 74
     0
 42
0.0000000001
 43
0.0000000001
 40
0.0
 40
0.0
 40
0.0
 40
0.0
 40
1.0
 40
1.0
 40
1.0
 40
2.0
 40
2.0
 40
2.0
 40
3.0
 40
3.0
 40
3.0
 40
4.0
 40
4.0
 40
4.0
 40
4.0
 10
73.15177949560094
 20
41.18060437338541
 30
0.0
 10
73.15177949560094
 20
41.18060437338541
 30
0.0
 10
72.17302786824146
 20
41.18060437338541
 30
0.0
 10
72.17302786824146
 20
41.18060437338541
 30
0.0
 10
72.17302786824146
 20
41.18060437338541
 30
0.0
 10
72.17302786824146
 20
41.17509222060901
 30
0.0
 10
72.17302786824146
 20
41.17509222060901
 30
0.0
 10
72.17302786824146
 20
41.17509222060901
 30
0.0
 10
73.15177949560094
 20
40.50949977285873
 30
0.0
 10
73.15177949560094
 20
40.50949977285873
 30
0.0
 10
73.15177949560094
 20
40.50949977285873
 30
0.0
 10
73.15177949560094
 20
41.18060437338541
 30
0.0
 10
73.15177949560094
 20
41.18060437338541
 30
0.0
  0
SPLINE
  5
21E
330
210
100
AcDbEntity
  8
Sichtbar (ISO)
100
AcDbSpline
210
0.0
220
0.0
230
1.0
 70
    11
 71
     3
 72
    38
 73
    34
 74
     0
 42
0.0000000001
 43
0.0000000001
 40
0.0
 40
0.0
 40
0.0
 40
0.0
 40
1.0
 40
1.0
 40
1.0
 40
2.0
 40
2.0
 40
2.0
 40
3.0
 40
3.0
 40
3.0
 40
4.0
 40
4.0
 40
4.0
 40
5.0
 40
5.0
 40
5.0
 40
6.0
 40
6.0
 40
6.0
 40
7.0
 40
7.0
 40
7.0
 40
8.0
 40
8.0
 40
8.0
 40
9.0
 40
9.0
 40
9.0
 40
10.0
 40
10.0
 40
10.0
 40
11.0
 40
11.0
 40
11.0
 40
11.0
 10
73.1317979417865
 20
40.30348306284079
 30
0.0
 10
73.1317979417865
 20
40.30348306284079
 30
0.0
 10
71.83161890565322
 20
41.21471081868938
 30
0.0
 10
71.83161890565322
 20
41.21471081868938
 30
0.0
 10
71.83161890565322
 20
41.21471081868938
 30
0.0
 10
71.83161890565322
 20
41.40660263721779
 30
0.0
 10
71.83161890565322
 20
41.40660263721779
 30
0.0
 10
71.83161890565322
 20
41.40660263721779
 30
0.0
 10
73.15177949560094
 20
41.40660263721779
 30
0.0
 10
73.15177949560094
 20
41.40660263721779
 30
0.0
 10
73.15177949560094
 20
41.40660263721779
 30
0.0
 10
73.15177949560094
 20
41.67738714235843
 30
0.0
 10
73.15177949560094
 20
41.67738714235843
 30
0.0
 10
73.15177949560094
 20
41.67738714235843
 30
0.0
 10
73.36330835839529
 20
41.67738714235843
 30
0.0
 10
73.36330835839529
 20
41.67738714235843
 30
0.0
 10
73.36330835839529
 20
41.67738714235843
 30
0.0
 10
73.36330835839529
 20
41.40660263721779
 30
0.0
 10
73.36330835839529
 20
41.40660263721779
 30
0.0
 10
73.36330835839529
 20
41.40660263721779
 30
0.0
 10
73.83149683484074
 20
41.40660263721779
 30
0.0
 10
73.83149683484074
 20
41.40660263721779
 30
0.0
 10
73.83149683484074
 20
41.40660263721779
 30
0.0
 10
73.83149683484074
 20
41.18060437338541
 30
0.0
 10
73.83149683484074
 20
41.18060437338541
 30
0.0
 10
73.83149683484074
 20
41.18060437338541
 30
0.0
 10
73.36330835839529
 20
41.18060437338541
 30
0.0
 10
73.36330835839529
 20
41.18060437338541
 30
0.0
 10
73.36330835839529
 20
41.18060437338541
 30
0.0
 10
73.36330835839529
 20
40.30348306284079
 30
0.0
 10
73.36330835839529
 20
40.30348306284079
 30
0.0
 10
73.36330835839529
 20
40.30348306284079
 30
0.0
 10
73.1317979417865
 20
40.30348306284079
 30
0.0
 10
73.1317979417865
 20
40.30348306284079
 30
0.0
  0
HATCH
  5
21F
330
210
100
AcDbEntity
  8
Sichtbar (ISO)
 62
    18
420
        0
440
 33554687
100
AcDbHatch
 10
0.0
 20
0.0
 30
0.0
210
0.0
220
0.0
230
1.0
  2
SOLID
 70
     1
 71
     1
 91
        2
 92
        1
 93
        1
 72
     4
 94
        3
 73
     0
 74
     0
 95
       17
 96
       13
 40
0.0
 40
0.0
 40
0.0
 40
0.0
 40
1.0
 40
1.0
 40
1.0
 40
2.0
 40
2.0
 40
2.0
 40
3.0
 40
3.0
 40
3.0
 40
4.0
 40
4.0
 40
4.0
 40
4.0
 10
73.15177949560094
 20
41.18060437338541
 10
73.15177949560094
 20
41.18060437338541
 10
72.17302786824146
 20
41.18060437338541
 10
72.17302786824146
 20
41.18060437338541
 10
72.17302786824146
 20
41.18060437338541
 10
72.17302786824146
 20
41.17509222060901
 10
72.17302786824146
 20
41.17509222060901
 10
72.17302786824146
 20
41.17509222060901
 10
73.15177949560094
 20
40.50949977285873
 10
73.15177949560094
 20
40.50949977285873
 10
73.15177949560094
 20
40.50949977285873
 10
73.15177949560094
 20
41.18060437338541
 10
73.15177949560094
 20
41.18060437338541
 97
        0
 97
        1
330
21D
 92
        1
 93
        1
 72
     4
 94
        3
 73
     0
 74
     0
 95
       38
 96
       34
 40
0.0
 40
0.0
 40
0.0
 40
0.0
 40
1.0
 40
1.0
 40
1.0
 40
2.0
 40
2.0
 40
2.0
 40
3.0
 40
3.0
 40
3.0
 40
4.0
 40
4.0
 40
4.0
 40
5.0
 40
5.0
 40
5.0
 40
6.0
 40
6.0
 40
6.0
 40
7.0
 40
7.0
 40
7.0
 40
8.0
 40
8.0
 40
8.0
 40
9.0
 40
9.0
 40
9.0
 40
10.0
 40
10.0
 40
10.0
 40
11.0
 40
11.0
 40
11.0
 40
11.0
 10
73.1317979417865
 20
40.30348306284079
 10
73.1317979417865
 20
40.30348306284079
 10
71.83161890565322
 20
41.21471081868938
 10
71.83161890565322
 20
41.21471081868938
 10
71.83161890565322
 20
41.21471081868938
 10
71.83161890565322
 20
41.40660263721779
 10
71.83161890565322
 20
41.40660263721779
 10
71.83161890565322
 20
41.40660263721779
 10
73.15177949560094
 20
41.40660263721779
 10
73.15177949560094
 20
41.40660263721779
 10
73.15177949560094
 20
41.40660263721779
 10
73.15177949560094
 20
41.67738714235843
 10
73.15177949560094
 20
41.67738714235843
 10
73.15177949560094
 20
41.67738714235843
 10
73.36330835839529
 20
41.67738714235843
 10
73.36330835839529
 20
41.67738714235843
 10
73.36330835839529
 20
41.67738714235843
 10
73.36330835839529
 20
41.40660263721779
 10
73.36330835839529
 20
41.40660263721779
 10
73.36330835839529
 20
41.40660263721779
 10
73.83149683484074
 20
41.40660263721779
 10
73.83149683484074
 20
41.40660263721779
 10
73.83149683484074
 20
41.40660263721779
 10
73.83149683484074
 20
41.18060437338541
 10
73.83149683484074
 20
41.18060437338541
 10
73.83149683484074
 20
41.18060437338541
 10
73.36330835839529
 20
41.18060437338541
 10
73.36330835839529
 20
41.18060437338541
 10
73.36330835839529
 20
41.18060437338541
 10
73.36330835839529
 20
40.30348306284079
 10
73.36330835839529
 20
40.30348306284079
 10
73.36330835839529
 20
40.30348306284079
 10
73.1317979417865
 20
40.30348306284079
 10
73.1317979417865
 20
40.30348306284079
 97
        0
 97
        1
330
21E
 75
     2
 76
     1
 98
        1
 10
0.0
 20
0.0
450
        0
451
        0
460
0.0
461
0.0
452
        0
462
0.0
453
        0
470

  0
ENDBLK
  5
213
330
210
100
AcDbEntity
  8
0
100
AcDbBlockEnd
  0
BLOCK
  5
222
330
220
100
AcDbEntity
  8
0
100
AcDbBlockBegin
  2
Block_22
 70
     0
 10
0.0
 20
0.0
 30
0.0
  3
Block_22
  1

  0
INSERT
  5
225
330
220
100
AcDbEntity
  8
Sichtbar (ISO)
100
AcDbBlockReference
  2
Block_23
 10
0.0
 20
0.0
 30
0.0
  0
ENDBLK
  5
223
330
220
100
AcDbEntity
  8
0
100
AcDbBlockEnd
  0
BLOCK
  5
226
330
224
100
AcDbEntity
  8
0
100
AcDbBlockBegin
  2
Block_23
 70
     0
 10
0.0
 20
0.0
 30
0.0
  3
Block_23
  1

  0
SPLINE
  5
228
330
224
100
AcDbEntity
  8
Sichtbar (ISO)
100
AcDbSpline
210
0.0
220
0.0
230
1.0
 70
     9
 71
     3
 72
    26
 73
    22
 74
     0
 42
0.0000000001
 43
0.0000000001
 40
0.0
 40
0.0
 40
0.0
 40
0.0
 40
1.0
 40
1.0
 40
1.0
 40
2.0
 40
2.0
 40
2.0
 40
3.0
 40
3.0
 40
3.0
 40
4.0
 40
4.0
 40
4.0
 40
5.0
 40
5.0
 40
5.0
 40
6.0
 40
6.0
 40
6.0
 40
7.0
 40
7.0
 40
7.0
 40
7.0
 10
80.68379175500266
 20
36.06015895365857
 30
0.0
 10
80.70205076107448
 20
36.11321342413142
 30
0.0
 10
80.71135251888467
 20
36.16730142324985
 30
0.0
 10
80.71135251888467
 20
36.22173393191679
 30
0.0
 10
80.71135251888467
 20
36.39743380166454
 30
0.0
 10
80.62935924633572
 20
36.52214625823058
 30
0.0
 10
80.46606172033488
 20
36.59552679206639
 30
0.0
 10
80.36753198945673
 20
36.63996852382612
 30
0.0
 10
80.25453285754053
 20
36.66236164448025
 30
0.0
 10
80.1270643245863
 20
36.66236164448025
 30
0.0
 10
80.04438203294029
 20
36.66236164448025
 30
0.0
 10
79.97306855639563
 20
36.65512694396122
 30
0.0
 10
79.91346840450081
 20
36.64134656202022
 30
0.0
 10
79.88108450693946
 20
36.63376735195267
 30
0.0
 10
79.84353296615023
 20
36.62102049865725
 30
0.0
 10
79.8004692725846
 20
36.60345051168248
 30
0.0
 10
79.8004692725846
 20
36.60345051168248
 30
0.0
 10
80.57871634270254
 20
35.91236435734135
 30
0.0
 10
80.57871634270254
 20
35.91236435734135
 30
0.0
 10
80.63073728452982
 20
35.95783961774665
 30
0.0
 10
80.66587725847936
 20
36.00744899273426
 30
0.0
 10
80.68379175500266
 20
36.06015895365857
 30
0.0
  0
SPLINE
  5
229
330
224
100
AcDbEntity
  8
Sichtbar (ISO)
100
AcDbSpline
210
0.0
220
0.0
230
1.0
 70
    11
 71
     3
 72
    26
 73
    22
 74
     0
 42
0.0000000001
 43
0.0000000001
 40
0.0
 40
0.0
 40
0.0
 40
0.0
 40
1.0
 40
1.0
 40
1.0
 40
2.0
 40
2.0
 40
2.0
 40
3.0
 40
3.0
 40
3.0
 40
4.0
 40
4.0
 40
4.0
 40
5.0
 40
5.0
 40
5.0
 40
6.0
 40
6.0
 40
6.0
 40
7.0
 40
7.0
 40
7.0
 40
7.0
 10
79.60995549225029
 20
36.42396103690096
 30
0.0
 10
79.58342825701386
 20
36.36642794229729
 30
0.0
 10
79.57033689416991
 20
36.30234916627164
 30
0.0
 10
79.57033689416991
 20
36.23172470882402
 30
0.0
 10
79.57033689416991
 20
36.09702147535074
 30
0.0
 10
79.62614744103096
 20
35.98918998666242
 30
0.0
 10
79.73811304430158
 20
35.90788573321053
 30
0.0
 10
79.84973413802368
 20
35.82658147975864
 30
0.0
 10
79.99339461975861
 20
35.78592935303269
 30
0.0
 10
80.16909448950633
 20
35.78592935303269
 30
0.0
 10
80.23558483237165
 20
35.78592935303269
 30
0.0
 10
80.29897458930026
 20
35.79316405355172
 30
0.0
 10
80.35960826984066
 20
35.80728894504124
 30
0.0
 10
80.39371471514462
 20
35.81590168375436
 30
0.0
 10
80.43677840871024
 20
35.82968206569536
 30
0.0
 10
80.48948836963457
 20
35.84966361950981
 30
0.0
 10
80.48948836963457
 20
35.84966361950981
 30
0.0
 10
79.70745169448285
 20
36.54936251256405
 30
0.0
 10
79.70745169448285
 20
36.54936251256405
 30
0.0
 10
79.66886662504807
 20
36.52352429642468
 30
0.0
 10
79.63648272748672
 20
36.48149413150463
 30
0.0
 10
79.60995549225029
 20
36.42396103690096
 30
0.0
  0
SPLINE
  5
22A
330
224
100
AcDbEntity
  8
Sichtbar (ISO)
100
AcDbSpline
210
0.0
220
0.0
230
1.0
 70
    11
 71
     3
 72
    59
 73
    55
 74
     0
 42
0.0000000001
 43
0.0000000001
 40
0.0
 40
0.0
 40
0.0
 40
0.0
 40
1.0
 40
1.0
 40
1.0
 40
2.0
 40
2.0
 40
2.0
 40
3.0
 40
3.0
 40
3.0
 40
4.0
 40
4.0
 40
4.0
 40
5.0
 40
5.0
 40
5.0
 40
6.0
 40
6.0
 40
6.0
 40
7.0
 40
7.0
 40
7.0
 40
8.0
 40
8.0
 40
8.0
 40
9.0
 40
9.0
 40
9.0
 40
10.0
 40
10.0
 40
10.0
 40
11.0
 40
11.0
 40
11.0
 40
12.0
 40
12.0
 40
12.0
 40
13.0
 40
13.0
 40
13.0
 40
14.0
 40
14.0
 40
14.0
 40
15.0
 40
15.0
 40
15.0
 40
16.0
 40
16.0
 40
16.0
 40
17.0
 40
17.0
 40
17.0
 40
18.0
 40
18.0
 40
18.0
 40
18.0
 10
80.86569279662386
 20
35.5020534850481
 30
0.0
 10
80.86569279662386
 20
35.5020534850481
 30
0.0
 10
80.6803466595174
 20
35.67878688344142
 30
0.0
 10
80.6803466595174
 20
35.67878688344142
 30
0.0
 10
80.612478278458
 20
35.63262260393907
 30
0.0
 10
80.53599715868545
 20
35.59748262998952
 30
0.0
 10
80.45159231929682
 20
35.57267794249572
 30
0.0
 10
80.36718747990821
 20
35.5475287454534
 30
0.0
 10
80.26693520128743
 20
35.5351264017065
 30
0.0
 10
80.15152450253157
 20
35.5351264017065
 30
0.0
 10
79.94309622567396
 20
35.5351264017065
 30
0.0
 10
79.7577500885675
 20
35.59369302495575
 30
0.0
 10
79.59548609121224
 20
35.71048176190571
 30
0.0
 10
79.43356660340549
 20
35.82761500840421
 30
0.0
 10
79.35260685950213
 20
35.99814723492408
 30
0.0
 10
79.35260685950213
 20
36.22207844146532
 30
0.0
 10
79.35260685950213
 20
36.33852266886676
 30
0.0
 10
79.37327743241363
 20
36.44084200477868
 30
0.0
 10
79.41496308778515
 20
36.52869193965255
 30
0.0
 10
79.43942326573043
 20
36.5803683719313
 30
0.0
 10
79.47904186381079
 20
36.6396240142776
 30
0.0
 10
79.53416339157479
 20
36.70611435714292
 30
0.0
 10
79.53416339157479
 20
36.70611435714292
 30
0.0
 10
79.34020451575523
 20
36.88181422689066
 30
0.0
 10
79.34020451575523
 20
36.88181422689066
 30
0.0
 10
79.34020451575523
 20
36.88181422689066
 30
0.0
 10
79.41048446365432
 20
36.95312770343533
 30
0.0
 10
79.41048446365432
 20
36.95312770343533
 30
0.0
 10
79.41048446365432
 20
36.95312770343533
 30
0.0
 10
79.60788843495913
 20
36.77604979549349
 30
0.0
 10
79.60788843495913
 20
36.77604979549349
 30
0.0
 10
79.69229327434776
 20
36.83427190919422
 30
0.0
 10
79.78910045748328
 20
36.87561305501721
 30
0.0
 10
79.89865449391422
 20
36.90041774251101
 30
0.0
 10
79.96927895136185
 20
36.91626518174316
 30
0.0
 10
80.03990340880946
 20
36.92418890135923
 30
0.0
 10
80.11052786625709
 20
36.92418890135923
 30
0.0
 10
80.34755043564228
 20
36.92418890135923
 30
0.0
 10
80.54288734965593
 20
36.85976561578506
 30
0.0
 10
80.69688311784661
 20
36.73091904463671
 30
0.0
 10
80.85087888603728
 20
36.60207247348837
 30
0.0
 10
80.92770451535836
 20
36.43050671832293
 30
0.0
 10
80.92770451535836
 20
36.21622177914039
 30
0.0
 10
80.92770451535836
 20
36.114246952777
 30
0.0
 10
80.91289060477178
 20
36.0232964319664
 30
0.0
 10
80.88291827405011
 20
35.94371472625713
 30
0.0
 10
80.85329045287696
 20
35.86413302054785
 30
0.0
 10
80.81263832615102
 20
35.79936522542516
 30
0.0
 10
80.76130640342078
 20
35.75044486953461
 30
0.0
 10
80.76130640342078
 20
35.75044486953461
 30
0.0
 10
80.93735078271706
 20
35.5833577385
 30
0.0
 10
80.93735078271706
 20
35.5833577385
 30
0.0
 10
80.93735078271706
 20
35.5833577385
 30
0.0
 10
80.86569279662386
 20
35.5020534850481
 30
0.0
 10
80.86569279662386
 20
35.5020534850481
 30
0.0
  0
HATCH
  5
22B
330
224
100
AcDbEntity
  8
Sichtbar (ISO)
 62
   250
420
  1842203
440
 33554687
100
AcDbHatch
 10
0.0
 20
0.0
 30
0.0
210
0.0
220
0.0
230
1.0
  2
SOLID
 70
     1
 71
     1
 91
        3
 92
        1
 93
        1
 72
     4
 94
        3
 73
     0
 74
     0
 95
       26
 96
       22
 40
0.0
 40
0.0
 40
0.0
 40
0.0
 40
1.0
 40
1.0
 40
1.0
 40
2.0
 40
2.0
 40
2.0
 40
3.0
 40
3.0
 40
3.0
 40
4.0
 40
4.0
 40
4.0
 40
5.0
 40
5.0
 40
5.0
 40
6.0
 40
6.0
 40
6.0
 40
7.0
 40
7.0
 40
7.0
 40
7.0
 10
80.68379175500266
 20
36.06015895365857
 10
80.70205076107448
 20
36.11321342413142
 10
80.71135251888467
 20
36.16730142324985
 10
80.71135251888467
 20
36.22173393191679
 10
80.71135251888467
 20
36.39743380166454
 10
80.62935924633572
 20
36.52214625823058
 10
80.46606172033488
 20
36.59552679206639
 10
80.36753198945673
 20
36.63996852382612
 10
80.25453285754053
 20
36.66236164448025
 10
80.1270643245863
 20
36.66236164448025
 10
80.04438203294029
 20
36.66236164448025
 10
79.97306855639563
 20
36.65512694396122
 10
79.91346840450081
 20
36.64134656202022
 10
79.88108450693946
 20
36.63376735195267
 10
79.84353296615023
 20
36.62102049865725
 10
79.8004692725846
 20
36.60345051168248
 10
79.8004692725846
 20
36.60345051168248
 10
80.57871634270254
 20
35.91236435734135
 10
80.57871634270254
 20
35.91236435734135
 10
80.63073728452982
 20
35.95783961774665
 10
80.66587725847936
 20
36.00744899273426
 10
80.68379175500266
 20
36.06015895365857
 97
        0
 97
        1
330
228
 92
        1
 93
        1
 72
     4
 94
        3
 73
     0
 74
     0
 95
       26
 96
       22
 40
0.0
 40
0.0
 40
0.0
 40
0.0
 40
1.0
 40
1.0
 40
1.0
 40
2.0
 40
2.0
 40
2.0
 40
3.0
 40
3.0
 40
3.0
 40
4.0
 40
4.0
 40
4.0
 40
5.0
 40
5.0
 40
5.0
 40
6.0
 40
6.0
 40
6.0
 40
7.0
 40
7.0
 40
7.0
 40
7.0
 10
79.60995549225029
 20
36.42396103690096
 10
79.58342825701386
 20
36.36642794229729
 10
79.57033689416991
 20
36.30234916627164
 10
79.57033689416991
 20
36.23172470882402
 10
79.57033689416991
 20
36.09702147535074
 10
79.62614744103096
 20
35.98918998666242
 10
79.73811304430158
 20
35.90788573321053
 10
79.84973413802368
 20
35.82658147975864
 10
79.99339461975861
 20
35.78592935303269
 10
80.16909448950633
 20
35.78592935303269
 10
80.23558483237165
 20
35.78592935303269
 10
80.29897458930026
 20
35.79316405355172
 10
80.35960826984066
 20
35.80728894504124
 10
80.39371471514462
 20
35.81590168375436
 10
80.43677840871024
 20
35.82968206569536
 10
80.48948836963457
 20
35.84966361950981
 10
80.48948836963457
 20
35.84966361950981
 10
79.70745169448285
 20
36.54936251256405
 10
79.70745169448285
 20
36.54936251256405
 10
79.66886662504807
 20
36.52352429642468
 10
79.63648272748672
 20
36.48149413150463
 10
79.60995549225029
 20
36.42396103690096
 97
        0
 97
        1
330
229
 92
        1
 93
        1
 72
     4
 94
        3
 73
     0
 74
     0
 95
       59
 96
       55
 40
0.0
 40
0.0
 40
0.0
 40
0.0
 40
1.0
 40
1.0
 40
1.0
 40
2.0
 40
2.0
 40
2.0
 40
3.0
 40
3.0
 40
3.0
 40
4.0
 40
4.0
 40
4.0
 40
5.0
 40
5.0
 40
5.0
 40
6.0
 40
6.0
 40
6.0
 40
7.0
 40
7.0
 40
7.0
 40
8.0
 40
8.0
 40
8.0
 40
9.0
 40
9.0
 40
9.0
 40
10.0
 40
10.0
 40
10.0
 40
11.0
 40
11.0
 40
11.0
 40
12.0
 40
12.0
 40
12.0
 40
13.0
 40
13.0
 40
13.0
 40
14.0
 40
14.0
 40
14.0
 40
15.0
 40
15.0
 40
15.0
 40
16.0
 40
16.0
 40
16.0
 40
17.0
 40
17.0
 40
17.0
 40
18.0
 40
18.0
 40
18.0
 40
18.0
 10
80.86569279662386
 20
35.5020534850481
 10
80.86569279662386
 20
35.5020534850481
 10
80.6803466595174
 20
35.67878688344142
 10
80.6803466595174
 20
35.67878688344142
 10
80.612478278458
 20
35.63262260393907
 10
80.53599715868545
 20
35.59748262998952
 10
80.45159231929682
 20
35.57267794249572
 10
80.36718747990821
 20
35.5475287454534
 10
80.26693520128743
 20
35.5351264017065
 10
80.15152450253157
 20
35.5351264017065
 10
79.94309622567396
 20
35.5351264017065
 10
79.7577500885675
 20
35.59369302495575
 10
79.59548609121224
 20
35.71048176190571
 10
79.43356660340549
 20
35.82761500840421
 10
79.35260685950213
 20
35.99814723492408
 10
79.35260685950213
 20
36.22207844146532
 10
79.35260685950213
 20
36.33852266886676
 10
79.37327743241363
 20
36.44084200477868
 10
79.41496308778515
 20
36.52869193965255
 10
79.43942326573043
 20
36.5803683719313
 10
79.47904186381079
 20
36.6396240142776
 10
79.53416339157479
 20
36.70611435714292
 10
79.53416339157479
 20
36.70611435714292
 10
79.34020451575523
 20
36.88181422689066
 10
79.34020451575523
 20
36.88181422689066
 10
79.34020451575523
 20
36.88181422689066
 10
79.41048446365432
 20
36.95312770343533
 10
79.41048446365432
 20
36.95312770343533
 10
79.41048446365432
 20
36.95312770343533
 10
79.60788843495913
 20
36.77604979549349
 10
79.60788843495913
 20
36.77604979549349
 10
79.69229327434776
 20
36.83427190919422
 10
79.78910045748328
 20
36.87561305501721
 10
79.89865449391422
 20
36.90041774251101
 10
79.96927895136185
 20
36.91626518174316
 10
80.03990340880946
 20
36.92418890135923
 10
80.11052786625709
 20
36.92418890135923
 10
80.34755043564228
 20
36.92418890135923
 10
80.54288734965593
 20
36.85976561578506
 10
80.69688311784661
 20
36.73091904463671
 10
80.85087888603728
 20
36.60207247348837
 10
80.92770451535836
 20
36.43050671832293
 10
80.92770451535836
 20
36.21622177914039
 10
80.92770451535836
 20
36.114246952777
 10
80.91289060477178
 20
36.0232964319664
 10
80.88291827405011
 20
35.94371472625713
 10
80.85329045287696
 20
35.86413302054785
 10
80.81263832615102
 20
35.79936522542516
 10
80.76130640342078
 20
35.75044486953461
 10
80.76130640342078
 20
35.75044486953461
 10
80.93735078271706
 20
35.5833577385
 10
80.93735078271706
 20
35.5833577385
 10
80.93735078271706
 20
35.5833577385
 10
80.86569279662386
 20
35.5020534850481
 10
80.86569279662386
 20
35.5020534850481
 97
        0
 97
        1
330
22A
 75
     2
 76
     1
 98
        1
 10
0.0
 20
0.0
450
        0
451
        0
460
0.0
461
0.0
452
        0
462
0.0
453
        0
470

  0
SPLINE
  5
22C
330
224
100
AcDbEntity
  8
Sichtbar (ISO)
100
AcDbSpline
210
0.0
220
0.0
230
1.0
 70
     9
 71
     3
 72
    41
 73
    37
 74
     0
 42
0.0000000001
 43
0.0000000001
 40
0.0
 40
0.0
 40
0.0
 40
0.0
 40
1.0
 40
1.0
 40
1.0
 40
2.0
 40
2.0
 40
2.0
 40
3.0
 40
3.0
 40
3.0
 40
4.0
 40
4.0
 40
4.0
 40
5.0
 40
5.0
 40
5.0
 40
6.0
 40
6.0
 40
6.0
 40
7.0
 40
7.0
 40
7.0
 40
8.0
 40
8.0
 40
8.0
 40
9.0
 40
9.0
 40
9.0
 40
10.0
 40
10.0
 40
10.0
 40
11.0
 40
11.0
 40
11.0
 40
12.0
 40
12.0
 40
12.0
 40
12.0
 10
80.05299477165342
 20
37.72827418761654
 30
0.0
 10
79.84146590885908
 20
38.0669270738166
 30
0.0
 10
79.72295462416649
 20
38.23883733853057
 30
0.0
 10
79.44390188986125
 20
38.23883733853057
 30
0.0
 10
79.22651636474198
 20
38.23883733853057
 30
0.0
 10
79.08285588300707
 20
38.06382648787988
 30
0.0
 10
79.08285588300707
 20
37.85229762508554
 30
0.0
 10
79.08285588300707
 20
37.57290038123178
 30
0.0
 10
79.33951549665818
 20
37.45438909653918
 30
0.0
 10
79.57929414243157
 20
37.46300183525231
 30
0.0
 10
79.57929414243157
 20
37.46300183525231
 30
0.0
 10
79.57929414243157
 20
37.22322318947892
 30
0.0
 10
79.57929414243157
 20
37.22322318947892
 30
0.0
 10
79.17311738472061
 20
37.20083006882479
 30
0.0
 10
78.87132702021273
 20
37.44336479098638
 30
0.0
 10
78.87132702021273
 20
37.86642251657506
 30
0.0
 10
78.87132702021273
 20
38.21334363193972
 30
0.0
 10
79.07424314429395
 20
38.49274087579348
 30
0.0
 10
79.44665796624945
 20
38.49274087579348
 30
0.0
 10
79.79943574393903
 20
38.49274087579348
 30
0.0
 10
79.9741020850412
 20
38.2557183064083
 30
0.0
 10
80.13223196781416
 20
38.00767143147031
 30
0.0
 10
80.28174911187401
 20
37.75928004698379
 30
0.0
 10
80.4140407785076
 20
37.49125161823136
 30
0.0
 10
80.6596760866059
 20
37.44612086737458
 30
0.0
 10
80.6596760866059
 20
37.44612086737458
 30
0.0
 10
80.6596760866059
 20
38.47275932197904
 30
0.0
 10
80.6596760866059
 20
38.47275932197904
 30
0.0
 10
80.6596760866059
 20
38.47275932197904
 30
0.0
 10
80.87120494940025
 20
38.47275932197904
 30
0.0
 10
80.87120494940025
 20
38.47275932197904
 30
0.0
 10
80.87120494940025
 20
38.47275932197904
 30
0.0
 10
80.87120494940025
 20
37.16706813306934
 30
0.0
 10
80.87120494940025
 20
37.16706813306934
 30
0.0
 10
80.39991588701807
 20
37.203586145213
 30
0.0
 10
80.22249346952772
 20
37.44612086737458
 30
0.0
 10
80.05299477165342
 20
37.72827418761654
 30
0.0
  0
HATCH
  5
22D
330
224
100
AcDbEntity
  8
Sichtbar (ISO)
 62
    18
420
        0
440
 33554687
100
AcDbHatch
 10
0.0
 20
0.0
 30
0.0
210
0.0
220
0.0
230
1.0
  2
SOLID
 70
     1
 71
     1
 91
        1
 92
        1
 93
        1
 72
     4
 94
        3
 73
     0
 74
     0
 95
       41
 96
       37
 40
0.0
 40
0.0
 40
0.0
 40
0.0
 40
1.0
 40
1.0
 40
1.0
 40
2.0
 40
2.0
 40
2.0
 40
3.0
 40
3.0
 40
3.0
 40
4.0
 40
4.0
 40
4.0
 40
5.0
 40
5.0
 40
5.0
 40
6.0
 40
6.0
 40
6.0
 40
7.0
 40
7.0
 40
7.0
 40
8.0
 40
8.0
 40
8.0
 40
9.0
 40
9.0
 40
9.0
 40
10.0
 40
10.0
 40
10.0
 40
11.0
 40
11.0
 40
11.0
 40
12.0
 40
12.0
 40
12.0
 40
12.0
 10
80.05299477165342
 20
37.72827418761654
 10
79.84146590885908
 20
38.0669270738166
 10
79.72295462416649
 20
38.23883733853057
 10
79.44390188986125
 20
38.23883733853057
 10
79.22651636474198
 20
38.23883733853057
 10
79.08285588300707
 20
38.06382648787988
 10
79.08285588300707
 20
37.85229762508554
 10
79.08285588300707
 20
37.57290038123178
 10
79.33951549665818
 20
37.45438909653918
 10
79.57929414243157
 20
37.46300183525231
 10
79.57929414243157
 20
37.46300183525231
 10
79.57929414243157
 20
37.22322318947892
 10
79.57929414243157
 20
37.22322318947892
 10
79.17311738472061
 20
37.20083006882479
 10
78.87132702021273
 20
37.44336479098638
 10
78.87132702021273
 20
37.86642251657506
 10
78.87132702021273
 20
38.21334363193972
 10
79.07424314429395
 20
38.49274087579348
 10
79.44665796624945
 20
38.49274087579348
 10
79.79943574393903
 20
38.49274087579348
 10
79.9741020850412
 20
38.2557183064083
 10
80.13223196781416
 20
38.00767143147031
 10
80.28174911187401
 20
37.75928004698379
 10
80.4140407785076
 20
37.49125161823136
 10
80.6596760866059
 20
37.44612086737458
 10
80.6596760866059
 20
37.44612086737458
 10
80.6596760866059
 20
38.47275932197904
 10
80.6596760866059
 20
38.47275932197904
 10
80.6596760866059
 20
38.47275932197904
 10
80.87120494940025
 20
38.47275932197904
 10
80.87120494940025
 20
38.47275932197904
 10
80.87120494940025
 20
38.47275932197904
 10
80.87120494940025
 20
37.16706813306934
 10
80.87120494940025
 20
37.16706813306934
 10
80.39991588701807
 20
37.203586145213
 10
80.22249346952772
 20
37.44612086737458
 10
80.05299477165342
 20
37.72827418761654
 97
        0
 97
        1
330
22C
 75
     2
 76
     1
 98
        1
 10
0.0
 20
0.0
450
        0
451
        0
460
0.0
461
0.0
452
        0
462
0.0
453
        0
470

  0
SPLINE
  5
22E
330
224
100
AcDbEntity
  8
Sichtbar (ISO)
100
AcDbSpline
210
0.0
220
0.0
230
1.0
 70
    11
 71
     3
 72
    26
 73
    22
 74
     0
 42
0.0000000001
 43
0.0000000001
 40
0.0
 40
0.0
 40
0.0
 40
0.0
 40
1.0
 40
1.0
 40
1.0
 40
2.0
 40
2.0
 40
2.0
 40
3.0
 40
3.0
 40
3.0
 40
4.0
 40
4.0
 40
4.0
 40
5.0
 40
5.0
 40
5.0
 40
6.0
 40
6.0
 40
6.0
 40
7.0
 40
7.0
 40
7.0
 40
7.0
 10
79.43838973708484
 20
39.43290743371817
 30
0.0
 10
79.43838973708484
 20
39.43290743371817
 30
0.0
 10
79.43838973708484
 20
38.91373154409102
 30
0.0
 10
79.43838973708484
 20
38.91373154409102
 30
0.0
 10
79.43838973708484
 20
38.91373154409102
 30
0.0
 10
79.24649791855642
 20
38.91373154409102
 30
0.0
 10
79.24649791855642
 20
38.91373154409102
 30
0.0
 10
79.24649791855642
 20
39.18727212561985
 30
0.0
 10
79.17587346110881
 20
39.43566351010637
 30
0.0
 10
78.87132702021273
 20
39.48906249012774
 30
0.0
 10
78.87132702021273
 20
39.48906249012774
 30
0.0
 10
78.87132702021273
 20
39.67268607949156
 30
0.0
 10
78.87132702021273
 20
39.67268607949156
 30
0.0
 10
78.87132702021273
 20
39.67268607949156
 30
0.0
 10
80.87120494940025
 20
39.67268607949156
 30
0.0
 10
80.87120494940025
 20
39.67268607949156
 30
0.0
 10
80.87120494940025
 20
39.67268607949156
 30
0.0
 10
80.87120494940025
 20
39.43290743371817
 30
0.0
 10
80.87120494940025
 20
39.43290743371817
 30
0.0
 10
80.87120494940025
 20
39.43290743371817
 30
0.0
 10
79.43838973708484
 20
39.43290743371817
 30
0.0
 10
79.43838973708484
 20
39.43290743371817
 30
0.0
  0
HATCH
  5
22F
330
224
100
AcDbEntity
  8
Sichtbar (ISO)
 62
    18
420
        0
440
 33554687
100
AcDbHatch
 10
0.0
 20
0.0
 30
0.0
210
0.0
220
0.0
230
1.0
  2
SOLID
 70
     1
 71
     1
 91
        1
 92
        1
 93
        1
 72
     4
 94
        3
 73
     0
 74
     0
 95
       26
 96
       22
 40
0.0
 40
0.0
 40
0.0
 40
0.0
 40
1.0
 40
1.0
 40
1.0
 40
2.0
 40
2.0
 40
2.0
 40
3.0
 40
3.0
 40
3.0
 40
4.0
 40
4.0
 40
4.0
 40
5.0
 40
5.0
 40
5.0
 40
6.0
 40
6.0
 40
6.0
 40
7.0
 40
7.0
 40
7.0
 40
7.0
 10
79.43838973708484
 20
39.43290743371817
 10
79.43838973708484
 20
39.43290743371817
 10
79.43838973708484
 20
38.91373154409102
 10
79.43838973708484
 20
38.91373154409102
 10
79.43838973708484
 20
38.91373154409102
 10
79.24649791855642
 20
38.91373154409102
 10
79.24649791855642
 20
38.91373154409102
 10
79.24649791855642
 20
39.18727212561985
 10
79.17587346110881
 20
39.43566351010637
 10
78.87132702021273
 20
39.48906249012774
 10
78.87132702021273
 20
39.48906249012774
 10
78.87132702021273
 20
39.67268607949156
 10
78.87132702021273
 20
39.67268607949156
 10
78.87132702021273
 20
39.67268607949156
 10
80.87120494940025
 20
39.67268607949156
 10
80.87120494940025
 20
39.67268607949156
 10
80.87120494940025
 20
39.67268607949156
 10
80.87120494940025
 20
39.43290743371817
 10
80.87120494940025
 20
39.43290743371817
 10
80.87120494940025
 20
39.43290743371817
 10
79.43838973708484
 20
39.43290743371817
 10
79.43838973708484
 20
39.43290743371817
 97
        0
 97
        1
330
22E
 75
     2
 76
     1
 98
        1
 10
0.0
 20
0.0
450
        0
451
        0
460
0.0
461
0.0
452
        0
462
0.0
453
        0
470

  0
SPLINE
  5
230
330
224
100
AcDbEntity
  8
Sichtbar (ISO)
100
AcDbSpline
210
0.0
220
0.0
230
1.0
 70
    11
 71
     3
 72
    17
 73
    13
 74
     0
 42
0.0000000001
 43
0.0000000001
 40
0.0
 40
0.0
 40
0.0
 40
0.0
 40
1.0
 40
1.0
 40
1.0
 40
2.0
 40
2.0
 40
2.0
 40
3.0
 40
3.0
 40
3.0
 40
4.0
 40
4.0
 40
4.0
 40
4.0
 10
80.19148761016046
 20
41.19369573622935
 30
0.0
 10
80.19148761016046
 20
41.19369573622935
 30
0.0
 10
79.21273598280099
 20
41.19369573622935
 30
0.0
 10
79.21273598280099
 20
41.19369573622935
 30
0.0
 10
79.21273598280099
 20
41.19369573622935
 30
0.0
 10
79.21273598280099
 20
41.18818358345295
 30
0.0
 10
79.21273598280099
 20
41.18818358345295
 30
0.0
 10
79.21273598280099
 20
41.18818358345295
 30
0.0
 10
80.19148761016046
 20
40.52259113570269
 30
0.0
 10
80.19148761016046
 20
40.52259113570269
 30
0.0
 10
80.19148761016046
 20
40.52259113570269
 30
0.0
 10
80.19148761016046
 20
41.19369573622935
 30
0.0
 10
80.19148761016046
 20
41.19369573622935
 30
0.0
  0
SPLINE
  5
231
330
224
100
AcDbEntity
  8
Sichtbar (ISO)
100
AcDbSpline
210
0.0
220
0.0
230
1.0
 70
    11
 71
     3
 72
    38
 73
    34
 74
     0
 42
0.0000000001
 43
0.0000000001
 40
0.0
 40
0.0
 40
0.0
 40
0.0
 40
1.0
 40
1.0
 40
1.0
 40
2.0
 40
2.0
 40
2.0
 40
3.0
 40
3.0
 40
3.0
 40
4.0
 40
4.0
 40
4.0
 40
5.0
 40
5.0
 40
5.0
 40
6.0
 40
6.0
 40
6.0
 40
7.0
 40
7.0
 40
7.0
 40
8.0
 40
8.0
 40
8.0
 40
9.0
 40
9.0
 40
9.0
 40
10.0
 40
10.0
 40
10.0
 40
11.0
 40
11.0
 40
11.0
 40
11.0
 10
80.17150605634602
 20
40.31657442568475
 30
0.0
 10
80.17150605634602
 20
40.31657442568475
 30
0.0
 10
78.87132702021273
 20
41.22780218153333
 30
0.0
 10
78.87132702021273
 20
41.22780218153333
 30
0.0
 10
78.87132702021273
 20
41.22780218153333
 30
0.0
 10
78.87132702021273
 20
41.41969400006174
 30
0.0
 10
78.87132702021273
 20
41.41969400006174
 30
0.0
 10
78.87132702021273
 20
41.41969400006174
 30
0.0
 10
80.19148761016046
 20
41.41969400006174
 30
0.0
 10
80.19148761016046
 20
41.41969400006174
 30
0.0
 10
80.19148761016046
 20
41.41969400006174
 30
0.0
 10
80.19148761016046
 20
41.69047850520239
 30
0.0
 10
80.19148761016046
 20
41.69047850520239
 30
0.0
 10
80.19148761016046
 20
41.69047850520239
 30
0.0
 10
80.4030164729548
 20
41.69047850520239
 30
0.0
 10
80.4030164729548
 20
41.69047850520239
 30
0.0
 10
80.4030164729548
 20
41.69047850520239
 30
0.0
 10
80.4030164729548
 20
41.41969400006174
 30
0.0
 10
80.4030164729548
 20
41.41969400006174
 30
0.0
 10
80.4030164729548
 20
41.41969400006174
 30
0.0
 10
80.87120494940025
 20
41.41969400006174
 30
0.0
 10
80.87120494940025
 20
41.41969400006174
 30
0.0
 10
80.87120494940025
 20
41.41969400006174
 30
0.0
 10
80.87120494940025
 20
41.19369573622935
 30
0.0
 10
80.87120494940025
 20
41.19369573622935
 30
0.0
 10
80.87120494940025
 20
41.19369573622935
 30
0.0
 10
80.4030164729548
 20
41.19369573622935
 30
0.0
 10
80.4030164729548
 20
41.19369573622935
 30
0.0
 10
80.4030164729548
 20
41.19369573622935
 30
0.0
 10
80.4030164729548
 20
40.31657442568475
 30
0.0
 10
80.4030164729548
 20
40.31657442568475
 30
0.0
 10
80.4030164729548
 20
40.31657442568475
 30
0.0
 10
80.17150605634602
 20
40.31657442568475
 30
0.0
 10
80.17150605634602
 20
40.31657442568475
 30
0.0
  0
HATCH
  5
232
330
224
100
AcDbEntity
  8
Sichtbar (ISO)
 62
    18
420
        0
440
 33554687
100
AcDbHatch
 10
0.0
 20
0.0
 30
0.0
210
0.0
220
0.0
230
1.0
  2
SOLID
 70
     1
 71
     1
 91
        2
 92
        1
 93
        1
 72
     4
 94
        3
 73
     0
 74
     0
 95
       17
 96
       13
 40
0.0
 40
0.0
 40
0.0
 40
0.0
 40
1.0
 40
1.0
 40
1.0
 40
2.0
 40
2.0
 40
2.0
 40
3.0
 40
3.0
 40
3.0
 40
4.0
 40
4.0
 40
4.0
 40
4.0
 10
80.19148761016046
 20
41.19369573622935
 10
80.19148761016046
 20
41.19369573622935
 10
79.21273598280099
 20
41.19369573622935
 10
79.21273598280099
 20
41.19369573622935
 10
79.21273598280099
 20
41.19369573622935
 10
79.21273598280099
 20
41.18818358345295
 10
79.21273598280099
 20
41.18818358345295
 10
79.21273598280099
 20
41.18818358345295
 10
80.19148761016046
 20
40.52259113570269
 10
80.19148761016046
 20
40.52259113570269
 10
80.19148761016046
 20
40.52259113570269
 10
80.19148761016046
 20
41.19369573622935
 10
80.19148761016046
 20
41.19369573622935
 97
        0
 97
        1
330
230
 92
        1
 93
        1
 72
     4
 94
        3
 73
     0
 74
     0
 95
       38
 96
       34
 40
0.0
 40
0.0
 40
0.0
 40
0.0
 40
1.0
 40
1.0
 40
1.0
 40
2.0
 40
2.0
 40
2.0
 40
3.0
 40
3.0
 40
3.0
 40
4.0
 40
4.0
 40
4.0
 40
5.0
 40
5.0
 40
5.0
 40
6.0
 40
6.0
 40
6.0
 40
7.0
 40
7.0
 40
7.0
 40
8.0
 40
8.0
 40
8.0
 40
9.0
 40
9.0
 40
9.0
 40
10.0
 40
10.0
 40
10.0
 40
11.0
 40
11.0
 40
11.0
 40
11.0
 10
80.17150605634602
 20
40.31657442568475
 10
80.17150605634602
 20
40.31657442568475
 10
78.87132702021273
 20
41.22780218153333
 10
78.87132702021273
 20
41.22780218153333
 10
78.87132702021273
 20
41.22780218153333
 10
78.87132702021273
 20
41.41969400006174
 10
78.87132702021273
 20
41.41969400006174
 10
78.87132702021273
 20
41.41969400006174
 10
80.19148761016046
 20
41.41969400006174
 10
80.19148761016046
 20
41.41969400006174
 10
80.19148761016046
 20
41.41969400006174
 10
80.19148761016046
 20
41.69047850520239
 10
80.19148761016046
 20
41.69047850520239
 10
80.19148761016046
 20
41.69047850520239
 10
80.4030164729548
 20
41.69047850520239
 10
80.4030164729548
 20
41.69047850520239
 10
80.4030164729548
 20
41.69047850520239
 10
80.4030164729548
 20
41.41969400006174
 10
80.4030164729548
 20
41.41969400006174
 10
80.4030164729548
 20
41.41969400006174
 10
80.87120494940025
 20
41.41969400006174
 10
80.87120494940025
 20
41.41969400006174
 10
80.87120494940025
 20
41.41969400006174
 10
80.87120494940025
 20
41.19369573622935
 10
80.87120494940025
 20
41.19369573622935
 10
80.87120494940025
 20
41.19369573622935
 10
80.4030164729548
 20
41.19369573622935
 10
80.4030164729548
 20
41.19369573622935
 10
80.4030164729548
 20
41.19369573622935
 10
80.4030164729548
 20
40.31657442568475
 10
80.4030164729548
 20
40.31657442568475
 10
80.4030164729548
 20
40.31657442568475
 10
80.17150605634602
 20
40.31657442568475
 10
80.17150605634602
 20
40.31657442568475
 97
        0
 97
        1
330
231
 75
     2
 76
     1
 98
        1
 10
0.0
 20
0.0
450
        0
451
        0
460
0.0
461
0.0
452
        0
462
0.0
453
        0
470

  0
ENDBLK
  5
227
330
224
100
AcDbEntity
  8
0
100
AcDbBlockEnd
  0
ENDSEC
  0
SECTION
  2
ENTITIES
  0
INSERT
  5
7A
330
70
100
AcDbEntity
  8
Sichtbar (ISO)
100
AcDbBlockReference
  2
Block_0
 10
0.0
 20
0.0
 30
0.0
  0
LINE
  5
7F
330
70
100
AcDbEntity
  8
Sichtbar (ISO)
 62
    18
420
        0
370
     5
100
AcDbLine
 10
4.97071344909709
 20
77.7450935220965
 30
0.0
 11
26.92824623755976
 21
77.74509352209713
 31
0.0
  0
LINE
  5
80
330
70
100
AcDbEntity
  8
Sichtbar (ISO)
 62
    18
420
        0
370
     5
100
AcDbLine
 10
26.9303745411413
 20
77.74509352209713
 30
0.0
 11
54.01674158345461
 21
77.74509352209617
 31
0.0
  0
LINE
  5
81
330
70
100
AcDbEntity
  8
Sichtbar (ISO)
 62
    18
420
        0
370
     5
100
AcDbLine
 10
4.97071344909709
 20
82.78720856394611
 30
0.0
 11
26.92824623755976
 21
82.78720856394675
 31
0.0
  0
LINE
  5
82
330
70
100
AcDbEntity
  8
Sichtbar (ISO)
 62
    18
420
        0
370
     5
100
AcDbLine
 10
26.9303745411413
 20
82.78720856394675
 30
0.0
 11
54.01674158345461
 21
82.78720856394611
 31
0.0
  0
LINE
  5
83
330
70
100
AcDbEntity
  8
Sichtbar (ISO)
 62
    18
420
        0
370
     5
100
AcDbLine
 10
26.9282462375588
 20
77.7450935220965
 30
0.0
 11
26.9303745411413
 21
77.7450935220965
 31
0.0
  0
LINE
  5
84
330
70
100
AcDbEntity
  8
Sichtbar (ISO)
 62
    18
420
        0
370
     5
100
AcDbLine
 10
26.9282462375588
 20
82.78720856394675
 30
0.0
 11
26.9303745411413
 21
82.78720856394675
 31
0.0
  0
LINE
  5
85
330
70
100
AcDbEntity
  8
Sichtbar (ISO)
 62
    18
420
        0
370
     5
100
AcDbLine
 10
54.01674158345461
 20
82.78720856394611
 30
0.0
 11
54.01674158345461
 21
77.74509352209617
 31
0.0
  0
LINE
  5
86
330
70
100
AcDbEntity
  8
Sichtbar (ISO)
 62
    18
420
        0
370
     5
100
AcDbLine
 10
4.97071344909709
 20
82.78720856394611
 30
0.0
 11
4.97071344909709
 21
77.7450935220965
 31
0.0
  0
LINE
  5
87
330
70
100
AcDbEntity
  8
Sichtbar (ISO)
 62
    18
420
        0
370
     5
100
AcDbLine
 10
50.69352939678059
 20
65.13980591747054
 30
0.0
 11
53.44377396506168
 21
65.13980591747054
 31
0.0
  0
LINE
  5
88
330
70
100
AcDbEntity
  8
Sichtbar (ISO)
 62
    18
420
        0
370
     5
100
AcDbLine
 10
53.44377396506168
 20
77.74509352209586
 30
0.0
 11
53.44377396506168
 21
65.13980591747054
 31
0.0
  0
LINE
  5
89
330
70
100
AcDbEntity
  8
Sichtbar (ISO)
 62
    18
420
        0
370
     5
100
AcDbLine
 10
50.69352939678059
 20
77.74509352209586
 30
0.0
 11
50.69352939678059
 21
65.13980591747054
 31
0.0
  0
LINE
  5
8A
330
70
100
AcDbEntity
  8
Sichtbar (ISO)
 62
    18
420
        0
370
     5
100
AcDbLine
 10
28.11860523213515
 20
65.13980591747054
 30
0.0
 11
30.86884980041687
 21
65.13980591747054
 31
0.0
  0
LINE
  5
8B
330
70
100
AcDbEntity
  8
Sichtbar (ISO)
 62
    18
420
        0
370
     5
100
AcDbLine
 10
30.86884980041687
 20
77.74509352209586
 30
0.0
 11
30.86884980041687
 21
65.13980591747054
 31
0.0
  0
LINE
  5
8C
330
70
100
AcDbEntity
  8
Sichtbar (ISO)
 62
    18
420
        0
370
     5
100
AcDbLine
 10
28.11860523213515
 20
77.74509352209586
 30
0.0
 11
28.11860523213515
 21
65.13980591747054
 31
0.0
  0
LINE
  5
8D
330
70
100
AcDbEntity
  8
Sichtbar (ISO)
 62
    18
420
        0
370
     5
100
AcDbLine
 10
5.543681067489383
 20
65.13980591747054
 30
0.0
 11
8.293925635770465
 21
65.13980591747054
 31
0.0
  0
LINE
  5
8E
330
70
100
AcDbEntity
  8
Sichtbar (ISO)
 62
    18
420
        0
370
     5
100
AcDbLine
 10
8.293925635770465
 20
77.74509352209586
 30
0.0
 11
8.293925635770465
 21
65.13980591747054
 31
0.0
  0
LINE
  5
8F
330
70
100
AcDbEntity
  8
Sichtbar (ISO)
 62
    18
420
        0
370
     5
100
AcDbLine
 10
5.543681067489383
 20
77.74509352209586
 30
0.0
 11
5.543681067489383
 21
65.13980591747054
 31
0.0
  0
LINE
  5
90
330
70
100
AcDbEntity
  8
Sichtbar (ISO)
 62
    18
420
        0
370
     5
100
AcDbLine
 10
28.11860523213515
 20
68.34842458046672
 30
0.0
 11
27.72898725162832
 21
68.34842458046672
 31
0.0
  0
LINE
  5
91
330
70
100
AcDbEntity
  8
Sichtbar (ISO)
 62
    18
420
        0
370
     5
100
AcDbLine
 10
27.72898725162832
 20
68.34842458046672
 30
0.0
 11
27.43104409006408
 21
68.34842458046672
 31
0.0
  0
LINE
  5
92
330
70
100
AcDbEntity
  8
Sichtbar (ISO)
 62
    18
420
        0
370
     5
100
AcDbLine
 10
26.51429590063705
 20
68.34842458046672
 30
0.0
 11
27.43104409006408
 21
68.34842458046672
 31
0.0
  0
LINE
  5
93
330
70
100
AcDbEntity
  8
Sichtbar (ISO)
 62
    18
420
        0
370
     5
100
AcDbLine
 10
26.51429590063705
 20
68.34842458046672
 30
0.0
 11
25.36836066385311
 21
68.34842458046672
 31
0.0
  0
LINE
  5
94
330
70
100
AcDbEntity
  8
Sichtbar (ISO)
 62
    18
420
        0
370
     5
100
AcDbLine
 10
24.45161247442575
 20
68.34842458046672
 30
0.0
 11
25.36836066385311
 21
68.34842458046672
 31
0.0
  0
LINE
  5
95
330
70
100
AcDbEntity
  8
Sichtbar (ISO)
 62
    18
420
        0
370
     5
100
AcDbLine
 10
24.45161247442575
 20
68.34842458046672
 30
0.0
 11
16.65925286429409
 21
68.34842458046672
 31
0.0
  0
LINE
  5
96
330
70
100
AcDbEntity
  8
Sichtbar (ISO)
 62
    18
420
        0
370
     5
100
AcDbLine
 10
16.65925286429409
 20
68.34842458046672
 30
0.0
 11
16.040447836431
 21
68.34842458046672
 31
0.0
  0
LINE
  5
97
330
70
100
AcDbEntity
  8
Sichtbar (ISO)
 62
    18
420
        0
370
     5
100
AcDbLine
 10
16.040447836431
 20
68.34842458046672
 30
0.0
 11
15.710551107918
 21
68.34842458046672
 31
0.0
  0
LINE
  5
98
330
70
100
AcDbEntity
  8
Sichtbar (ISO)
 62
    18
420
        0
370
     5
100
AcDbLine
 10
11.6171378224448
 20
68.34842458046672
 30
0.0
 11
15.71055110791832
 21
68.34842458046672
 31
0.0
  0
LINE
  5
99
330
70
100
AcDbEntity
  8
Sichtbar (ISO)
 62
    18
420
        0
370
     5
100
AcDbLine
 10
11.45670688929586
 20
68.34842458046672
 30
0.0
 11
11.6171378224448
 21
68.34842458046672
 31
0.0
  0
LINE
  5
9A
330
70
100
AcDbEntity
  8
Sichtbar (ISO)
 62
    18
420
        0
370
     5
100
AcDbLine
 10
11.04417020405283
 20
68.34842458046672
 30
0.0
 11
11.45670688929586
 21
68.34842458046672
 31
0.0
  0
LINE
  5
9B
330
70
100
AcDbEntity
  8
Sichtbar (ISO)
 62
    18
420
        0
370
     5
100
AcDbLine
 10
47.53074814325487
 20
68.34842458046672
 30
0.0
 11
47.94328482849823
 21
68.34842458046672
 31
0.0
  0
LINE
  5
9C
330
70
100
AcDbEntity
  8
Sichtbar (ISO)
 62
    18
420
        0
370
     5
100
AcDbLine
 10
47.37031721010529
 20
68.34842458046672
 30
0.0
 11
47.53074814325487
 21
68.34842458046672
 31
0.0
  0
LINE
  5
9D
330
70
100
AcDbEntity
  8
Sichtbar (ISO)
 62
    18
420
        0
370
     5
100
AcDbLine
 10
47.37031721010529
 20
68.34842458046672
 30
0.0
 11
43.27690392463305
 21
68.34842458046672
 31
0.0
  0
LINE
  5
9E
330
70
100
AcDbEntity
  8
Sichtbar (ISO)
 62
    18
420
        0
370
     5
100
AcDbLine
 10
42.94700719612006
 20
68.34842458046672
 30
0.0
 11
43.27690392463305
 21
68.34842458046672
 31
0.0
  0
LINE
  5
9F
330
70
100
AcDbEntity
  8
Sichtbar (ISO)
 62
    18
420
        0
370
     5
100
AcDbLine
 10
42.32820216825696
 20
68.34842458046672
 30
0.0
 11
42.94700719612006
 21
68.34842458046672
 31
0.0
  0
LINE
  5
A0
330
70
100
AcDbEntity
  8
Sichtbar (ISO)
 62
    18
420
        0
370
     5
100
AcDbLine
 10
34.53584255812562
 20
68.34842458046672
 30
0.0
 11
42.32820216825696
 21
68.34842458046672
 31
0.0
  0
LINE
  5
A1
330
70
100
AcDbEntity
  8
Sichtbar (ISO)
 62
    18
420
        0
370
     5
100
AcDbLine
 10
34.53584255812562
 20
68.34842458046672
 30
0.0
 11
33.61909436869828
 21
68.34842458046672
 31
0.0
  0
LINE
  5
A2
330
70
100
AcDbEntity
  8
Sichtbar (ISO)
 62
    18
420
        0
370
     5
100
AcDbLine
 10
32.47315913191401
 20
68.34842458046672
 30
0.0
 11
33.61909436869828
 21
68.34842458046672
 31
0.0
  0
LINE
  5
A3
330
70
100
AcDbEntity
  8
Sichtbar (ISO)
 62
    18
420
        0
370
     5
100
AcDbLine
 10
32.47315913191401
 20
68.34842458046672
 30
0.0
 11
31.55641094248666
 21
68.34842458046672
 31
0.0
  0
LINE
  5
A4
330
70
100
AcDbEntity
  8
Sichtbar (ISO)
 62
    18
420
        0
370
     5
100
AcDbLine
 10
31.25846778092338
 20
68.34842458046672
 30
0.0
 11
31.55641094248666
 21
68.34842458046672
 31
0.0
  0
LINE
  5
A5
330
70
100
AcDbEntity
  8
Sichtbar (ISO)
 62
    18
420
        0
370
     5
100
AcDbLine
 10
30.86884980041687
 20
68.34842458046672
 30
0.0
 11
31.25846778092338
 21
68.34842458046672
 31
0.0
  0
LINE
  5
A6
330
70
100
AcDbEntity
  8
Sichtbar (ISO)
 62
    18
420
        0
370
     5
100
AcDbLine
 10
27.72898725162832
 20
73.3905396223157
 30
0.0
 11
27.72898725162832
 21
68.34842458046672
 31
0.0
  0
LINE
  5
A7
330
70
100
AcDbEntity
  8
Sichtbar (ISO)
 62
    18
420
        0
370
     5
100
AcDbLine
 10
16.040447836431
 20
76.14078419059743
 30
0.0
 11
16.040447836431
 21
68.34842458046672
 31
0.0
  0
LINE
  5
A8
330
70
100
AcDbEntity
  8
Sichtbar (ISO)
 62
    18
420
        0
370
     5
100
AcDbLine
 10
16.65925286429409
 20
76.14078419059743
 30
0.0
 11
16.65925286429409
 21
68.34842458046672
 31
0.0
  0
LINE
  5
A9
330
70
100
AcDbEntity
  8
Sichtbar (ISO)
 62
    18
420
        0
370
     5
100
AcDbLine
 10
20.54487613093426
 20
75.5678165722061
 30
0.0
 11
20.54487613093426
 21
76.14078419059743
 31
0.0
  0
LINE
  5
AA
330
70
100
AcDbEntity
  8
Sichtbar (ISO)
 62
    18
420
        0
370
     5
100
AcDbLine
 10
21.58677438246558
 20
75.5678165722061
 30
0.0
 11
20.54487613093426
 21
75.5678165722061
 31
0.0
  0
LINE
  5
AB
330
70
100
AcDbEntity
  8
Sichtbar (ISO)
 62
    18
420
        0
370
     5
100
AcDbLine
 10
21.58677438246558
 20
75.33862952484918
 30
0.0
 11
21.58677438246558
 21
75.5678165722061
 31
0.0
  0
LINE
  5
AC
330
70
100
AcDbEntity
  8
Sichtbar (ISO)
 62
    18
420
        0
370
     5
100
AcDbLine
 10
24.1078319033907
 20
75.33862952484918
 30
0.0
 11
21.58677438246558
 21
75.33862952484918
 31
0.0
  0
SPLINE
  5
AD
330
70
100
AcDbEntity
  8
Sichtbar (ISO)
 62
    18
420
        0
370
     5
100
AcDbSpline
210
0.0
220
0.0
230
1.0
 70
     8
 71
     3
 72
     8
 73
     4
 74
     0
 42
0.0000000001
 43
0.0000000001
 40
0.0
 40
0.0
 40
0.0
 40
0.0
 40
1.0
 40
1.0
 40
1.0
 40
1.0
 10
24.3370189507473
 20
75.10944247749257
 30
0.0
 10
24.3370189507473
 20
75.23601898860606
 30
0.0
 10
24.2344084145045
 20
75.33862952484918
 30
0.0
 10
24.1078319033907
 20
75.33862952484918
 30
0.0
  0
LINE
  5
AE
330
70
100
AcDbEntity
  8
Sichtbar (ISO)
 62
    18
420
        0
370
     5
100
AcDbLine
 10
24.3370189507473
 20
74.91463348723901
 30
0.0
 11
24.3370189507473
 21
75.10944247749257
 31
0.0
  0
SPLINE
  5
AF
330
70
100
AcDbEntity
  8
Sichtbar (ISO)
 62
    18
420
        0
370
     5
100
AcDbSpline
210
0.0
220
0.0
230
1.0
 70
     8
 71
     3
 72
     8
 73
     4
 74
     0
 42
0.0000000001
 43
0.0000000001
 40
0.0
 40
0.0
 40
0.0
 40
0.0
 40
1.0
 40
1.0
 40
1.0
 40
1.0
 10
24.1078319033907
 20
74.68544643988209
 30
0.0
 10
24.2344084145045
 20
74.68544643988209
 30
0.0
 10
24.3370189507473
 20
74.78805697612489
 30
0.0
 10
24.3370189507473
 20
74.91463348723901
 30
0.0
  0
LINE
  5
B0
330
70
100
AcDbEntity
  8
Sichtbar (ISO)
 62
    18
420
        0
370
     5
100
AcDbLine
 10
21.59823373483368
 20
74.68544643988209
 30
0.0
 11
24.1078319033907
 21
74.68544643988209
 31
0.0
  0
LINE
  5
B1
330
70
100
AcDbEntity
  8
Sichtbar (ISO)
 62
    18
420
        0
370
     5
100
AcDbLine
 10
21.59823373483368
 20
74.91463348723901
 30
0.0
 11
21.59823373483368
 21
74.68544643988209
 31
0.0
  0
LINE
  5
B2
330
70
100
AcDbEntity
  8
Sichtbar (ISO)
 62
    18
420
        0
370
     5
100
AcDbLine
 10
20.20019274595693
 20
74.91463348723901
 30
0.0
 11
21.59823373483368
 21
74.91463348723901
 31
0.0
  0
LINE
  5
B3
330
70
100
AcDbEntity
  8
Sichtbar (ISO)
 62
    18
420
        0
370
     5
100
AcDbLine
 10
20.20019274595693
 20
74.68544643988209
 30
0.0
 11
20.20019274595693
 21
74.91463348723901
 31
0.0
  0
LINE
  5
B4
330
70
100
AcDbEntity
  8
Sichtbar (ISO)
 62
    18
420
        0
370
     5
100
AcDbLine
 10
17.6905945773999
 20
74.68544643988209
 30
0.0
 11
20.20019274595693
 21
74.68544643988209
 31
0.0
  0
SPLINE
  5
B5
330
70
100
AcDbEntity
  8
Sichtbar (ISO)
 62
    18
420
        0
370
     5
100
AcDbSpline
210
0.0
220
0.0
230
1.0
 70
     8
 71
     3
 72
     8
 73
     4
 74
     0
 42
0.0000000001
 43
0.0000000001
 40
0.0
 40
0.0
 40
0.0
 40
0.0
 40
1.0
 40
1.0
 40
1.0
 40
1.0
 10
17.46140753004298
 20
74.91463348723901
 30
0.0
 10
17.46140753004298
 20
74.78805697612489
 30
0.0
 10
17.56401806628643
 20
74.68544643988209
 30
0.0
 10
17.6905945773999
 20
74.68544643988209
 30
0.0
  0
LINE
  5
B6
330
70
100
AcDbEntity
  8
Sichtbar (ISO)
 62
    18
420
        0
370
     5
100
AcDbLine
 10
17.46140753004298
 20
75.10944247749257
 30
0.0
 11
17.46140753004298
 21
74.91463348723901
 31
0.0
  0
SPLINE
  5
B7
330
70
100
AcDbEntity
  8
Sichtbar (ISO)
 62
    18
420
        0
370
     5
100
AcDbSpline
210
0.0
220
0.0
230
1.0
 70
     8
 71
     3
 72
     8
 73
     4
 74
     0
 42
0.0000000001
 43
0.0000000001
 40
0.0
 40
0.0
 40
0.0
 40
0.0
 40
1.0
 40
1.0
 40
1.0
 40
1.0
 10
17.6905945773999
 20
75.33862952484918
 30
0.0
 10
17.56401806628643
 20
75.33862952484918
 30
0.0
 10
17.46140753004298
 20
75.23601898860606
 30
0.0
 10
17.46140753004298
 20
75.10944247749257
 30
0.0
  0
LINE
  5
B8
330
70
100
AcDbEntity
  8
Sichtbar (ISO)
 62
    18
420
        0
370
     5
100
AcDbLine
 10
20.21165209832503
 20
75.33862952484918
 30
0.0
 11
17.6905945773999
 21
75.33862952484918
 31
0.0
  0
LINE
  5
B9
330
70
100
AcDbEntity
  8
Sichtbar (ISO)
 62
    18
420
        0
370
     5
100
AcDbLine
 10
20.21165209832503
 20
75.45322304852732
 30
0.0
 11
20.21165209832503
 21
75.33862952484918
 31
0.0
  0
LINE
  5
BA
330
70
100
AcDbEntity
  8
Sichtbar (ISO)
 62
    18
420
        0
370
     5
100
AcDbLine
 10
20.10761511307208
 20
75.37074428846686
 30
0.0
 11
20.10761511307208
 21
76.14078419059743
 31
0.0
  0
LINE
  5
BB
330
70
100
AcDbEntity
  8
Sichtbar (ISO)
 62
    18
420
        0
370
     5
100
AcDbLine
 10
15.710551107918
 20
77.63049999841675
 30
0.0
 11
15.710551107918
 21
77.74509352209586
 31
0.0
  0
LINE
  5
BC
330
70
100
AcDbEntity
  8
Sichtbar (ISO)
 62
    18
420
        0
370
     5
100
AcDbLine
 10
15.710551107918
 20
77.63049999841675
 30
0.0
 11
15.710551107918
 21
68.34842458046672
 31
0.0
  0
LINE
  5
BD
330
70
100
AcDbEntity
  8
Sichtbar (ISO)
 62
    18
420
        0
370
     5
100
AcDbLine
 10
21.59823373483368
 20
69.41414435067525
 30
0.0
 11
21.59823373483368
 21
69.18495730331833
 31
0.0
  0
LINE
  5
BE
330
70
100
AcDbEntity
  8
Sichtbar (ISO)
 62
    18
420
        0
370
     5
100
AcDbLine
 10
20.20019274595693
 20
69.41414435067525
 30
0.0
 11
21.59823373483368
 21
69.41414435067525
 31
0.0
  0
LINE
  5
BF
330
70
100
AcDbEntity
  8
Sichtbar (ISO)
 62
    18
420
        0
370
     5
100
AcDbLine
 10
20.20019274595693
 20
69.18495730331833
 30
0.0
 11
20.20019274595693
 21
69.41414435067525
 31
0.0
  0
LINE
  5
C0
330
70
100
AcDbEntity
  8
Sichtbar (ISO)
 62
    18
420
        0
370
     5
100
AcDbLine
 10
17.6905945773999
 20
69.18495730331833
 30
0.0
 11
20.20019274595693
 21
69.18495730331833
 31
0.0
  0
SPLINE
  5
C1
330
70
100
AcDbEntity
  8
Sichtbar (ISO)
 62
    18
420
        0
370
     5
100
AcDbSpline
210
0.0
220
0.0
230
1.0
 70
     8
 71
     3
 72
     8
 73
     4
 74
     0
 42
0.0000000001
 43
0.0000000001
 40
0.0
 40
0.0
 40
0.0
 40
0.0
 40
1.0
 40
1.0
 40
1.0
 40
1.0
 10
17.46140753004298
 20
69.41414435067525
 30
0.0
 10
17.46140753004298
 20
69.28756783956145
 30
0.0
 10
17.56401806628643
 20
69.18495730331833
 30
0.0
 10
17.6905945773999
 20
69.18495730331833
 30
0.0
  0
LINE
  5
C2
330
70
100
AcDbEntity
  8
Sichtbar (ISO)
 62
    18
420
        0
370
     5
100
AcDbLine
 10
17.46140753004298
 20
69.6089533409285
 30
0.0
 11
17.46140753004298
 21
69.41414435067525
 31
0.0
  0
SPLINE
  5
C3
330
70
100
AcDbEntity
  8
Sichtbar (ISO)
 62
    18
420
        0
370
     5
100
AcDbSpline
210
0.0
220
0.0
230
1.0
 70
     8
 71
     3
 72
     8
 73
     4
 74
     0
 42
0.0000000001
 43
0.0000000001
 40
0.0
 40
0.0
 40
0.0
 40
0.0
 40
1.0
 40
1.0
 40
1.0
 40
1.0
 10
17.6905945773999
 20
69.83814038828541
 30
0.0
 10
17.56401806628643
 20
69.83814038828541
 30
0.0
 10
17.46140753004298
 20
69.73552985204293
 30
0.0
 10
17.46140753004298
 20
69.6089533409285
 30
0.0
  0
LINE
  5
C4
330
70
100
AcDbEntity
  8
Sichtbar (ISO)
 62
    18
420
        0
370
     5
100
AcDbLine
 10
20.21165209832503
 20
69.83814038828541
 30
0.0
 11
17.6905945773999
 21
69.83814038828541
 31
0.0
  0
LINE
  5
C5
330
70
100
AcDbEntity
  8
Sichtbar (ISO)
 62
    18
420
        0
370
     5
100
AcDbLine
 10
20.21165209832503
 20
70.06732743564201
 30
0.0
 11
20.21165209832503
 21
69.83814038828541
 31
0.0
  0
LINE
  5
C6
330
70
100
AcDbEntity
  8
Sichtbar (ISO)
 62
    18
420
        0
370
     5
100
AcDbLine
 10
21.58677438246558
 20
70.06732743564201
 30
0.0
 11
20.21165209832503
 21
70.06732743564201
 31
0.0
  0
LINE
  5
C7
330
70
100
AcDbEntity
  8
Sichtbar (ISO)
 62
    18
420
        0
370
     5
100
AcDbLine
 10
21.58677438246558
 20
69.83814038828541
 30
0.0
 11
21.58677438246558
 21
70.06732743564201
 31
0.0
  0
LINE
  5
C8
330
70
100
AcDbEntity
  8
Sichtbar (ISO)
 62
    18
420
        0
370
     5
100
AcDbLine
 10
24.1078319033907
 20
69.83814038828541
 30
0.0
 11
21.58677438246558
 21
69.83814038828541
 31
0.0
  0
SPLINE
  5
C9
330
70
100
AcDbEntity
  8
Sichtbar (ISO)
 62
    18
420
        0
370
     5
100
AcDbSpline
210
0.0
220
0.0
230
1.0
 70
     8
 71
     3
 72
     8
 73
     4
 74
     0
 42
0.0000000001
 43
0.0000000001
 40
0.0
 40
0.0
 40
0.0
 40
0.0
 40
1.0
 40
1.0
 40
1.0
 40
1.0
 10
24.3370189507473
 20
69.6089533409285
 30
0.0
 10
24.3370189507473
 20
69.73552985204293
 30
0.0
 10
24.2344084145045
 20
69.83814038828541
 30
0.0
 10
24.1078319033907
 20
69.83814038828541
 30
0.0
  0
LINE
  5
CA
330
70
100
AcDbEntity
  8
Sichtbar (ISO)
 62
    18
420
        0
370
     5
100
AcDbLine
 10
24.3370189507473
 20
69.41414435067525
 30
0.0
 11
24.3370189507473
 21
69.60895334092882
 31
0.0
  0
SPLINE
  5
CB
330
70
100
AcDbEntity
  8
Sichtbar (ISO)
 62
    18
420
        0
370
     5
100
AcDbSpline
210
0.0
220
0.0
230
1.0
 70
     8
 71
     3
 72
     8
 73
     4
 74
     0
 42
0.0000000001
 43
0.0000000001
 40
0.0
 40
0.0
 40
0.0
 40
0.0
 40
1.0
 40
1.0
 40
1.0
 40
1.0
 10
24.1078319033907
 20
69.18495730331833
 30
0.0
 10
24.2344084145045
 20
69.18495730331833
 30
0.0
 10
24.3370189507473
 20
69.28756783956145
 30
0.0
 10
24.3370189507473
 20
69.41414435067525
 30
0.0
  0
LINE
  5
CC
330
70
100
AcDbEntity
  8
Sichtbar (ISO)
 62
    18
420
        0
370
     5
100
AcDbLine
 10
21.59823373483368
 20
69.18495730331833
 30
0.0
 11
24.1078319033907
 21
69.18495730331833
 31
0.0
  0
LINE
  5
CD
330
70
100
AcDbEntity
  8
Sichtbar (ISO)
 62
    18
420
        0
370
     5
100
AcDbLine
 10
21.59823373483368
 20
70.7892666348161
 30
0.0
 11
21.59823373483368
 21
70.56007958745919
 31
0.0
  0
LINE
  5
CE
330
70
100
AcDbEntity
  8
Sichtbar (ISO)
 62
    18
420
        0
370
     5
100
AcDbLine
 10
20.20019274595693
 20
70.7892666348161
 30
0.0
 11
21.59823373483368
 21
70.7892666348161
 31
0.0
  0
LINE
  5
CF
330
70
100
AcDbEntity
  8
Sichtbar (ISO)
 62
    18
420
        0
370
     5
100
AcDbLine
 10
20.20019274595693
 20
70.56007958745919
 30
0.0
 11
20.20019274595693
 21
70.7892666348161
 31
0.0
  0
LINE
  5
D0
330
70
100
AcDbEntity
  8
Sichtbar (ISO)
 62
    18
420
        0
370
     5
100
AcDbLine
 10
17.6905945773999
 20
70.56007958745919
 30
0.0
 11
20.20019274595693
 21
70.56007958745919
 31
0.0
  0
SPLINE
  5
D1
330
70
100
AcDbEntity
  8
Sichtbar (ISO)
 62
    18
420
        0
370
     5
100
AcDbSpline
210
0.0
220
0.0
230
1.0
 70
     8
 71
     3
 72
     8
 73
     4
 74
     0
 42
0.0000000001
 43
0.0000000001
 40
0.0
 40
0.0
 40
0.0
 40
0.0
 40
1.0
 40
1.0
 40
1.0
 40
1.0
 10
17.46140753004298
 20
70.7892666348161
 30
0.0
 10
17.46140753004298
 20
70.66269012370263
 30
0.0
 10
17.56401806628643
 20
70.56007958745919
 30
0.0
 10
17.6905945773999
 20
70.56007958745919
 30
0.0
  0
LINE
  5
D2
330
70
100
AcDbEntity
  8
Sichtbar (ISO)
 62
    18
420
        0
370
     5
100
AcDbLine
 10
17.46140753004298
 20
70.98407562506871
 30
0.0
 11
17.46140753004298
 21
70.7892666348161
 31
0.0
  0
SPLINE
  5
D3
330
70
100
AcDbEntity
  8
Sichtbar (ISO)
 62
    18
420
        0
370
     5
100
AcDbSpline
210
0.0
220
0.0
230
1.0
 70
     8
 71
     3
 72
     8
 73
     4
 74
     0
 42
0.0000000001
 43
0.0000000001
 40
0.0
 40
0.0
 40
0.0
 40
0.0
 40
1.0
 40
1.0
 40
1.0
 40
1.0
 10
17.6905945773999
 20
71.21326267242626
 30
0.0
 10
17.56401806628643
 20
71.21326267242626
 30
0.0
 10
17.46140753004298
 20
71.11065213618347
 30
0.0
 10
17.46140753004298
 20
70.98407562506871
 30
0.0
  0
LINE
  5
D4
330
70
100
AcDbEntity
  8
Sichtbar (ISO)
 62
    18
420
        0
370
     5
100
AcDbLine
 10
20.21165209832503
 20
71.21326267242626
 30
0.0
 11
17.6905945773999
 21
71.21326267242626
 31
0.0
  0
LINE
  5
D5
330
70
100
AcDbEntity
  8
Sichtbar (ISO)
 62
    18
420
        0
370
     5
100
AcDbLine
 10
20.21165209832503
 20
71.4424497197832
 30
0.0
 11
20.21165209832503
 21
71.21326267242626
 31
0.0
  0
LINE
  5
D6
330
70
100
AcDbEntity
  8
Sichtbar (ISO)
 62
    18
420
        0
370
     5
100
AcDbLine
 10
21.58677438246558
 20
71.4424497197832
 30
0.0
 11
20.21165209832503
 21
71.4424497197832
 31
0.0
  0
LINE
  5
D7
330
70
100
AcDbEntity
  8
Sichtbar (ISO)
 62
    18
420
        0
370
     5
100
AcDbLine
 10
21.58677438246558
 20
71.21326267242626
 30
0.0
 11
21.58677438246558
 21
71.4424497197832
 31
0.0
  0
LINE
  5
D8
330
70
100
AcDbEntity
  8
Sichtbar (ISO)
 62
    18
420
        0
370
     5
100
AcDbLine
 10
24.1078319033907
 20
71.21326267242626
 30
0.0
 11
21.58677438246558
 21
71.21326267242626
 31
0.0
  0
SPLINE
  5
D9
330
70
100
AcDbEntity
  8
Sichtbar (ISO)
 62
    18
420
        0
370
     5
100
AcDbSpline
210
0.0
220
0.0
230
1.0
 70
     8
 71
     3
 72
     8
 73
     4
 74
     0
 42
0.0000000001
 43
0.0000000001
 40
0.0
 40
0.0
 40
0.0
 40
0.0
 40
1.0
 40
1.0
 40
1.0
 40
1.0
 10
24.3370189507473
 20
70.98407562506871
 30
0.0
 10
24.3370189507473
 20
71.11065213618347
 30
0.0
 10
24.2344084145045
 20
71.21326267242626
 30
0.0
 10
24.1078319033907
 20
71.21326267242626
 30
0.0
  0
LINE
  5
DA
330
70
100
AcDbEntity
  8
Sichtbar (ISO)
 62
    18
420
        0
370
     5
100
AcDbLine
 10
24.3370189507473
 20
70.7892666348161
 30
0.0
 11
24.3370189507473
 21
70.98407562506871
 31
0.0
  0
SPLINE
  5
DB
330
70
100
AcDbEntity
  8
Sichtbar (ISO)
 62
    18
420
        0
370
     5
100
AcDbSpline
210
0.0
220
0.0
230
1.0
 70
     8
 71
     3
 72
     8
 73
     4
 74
     0
 42
0.0000000001
 43
0.0000000001
 40
0.0
 40
0.0
 40
0.0
 40
0.0
 40
1.0
 40
1.0
 40
1.0
 40
1.0
 10
24.1078319033907
 20
70.56007958745919
 30
0.0
 10
24.2344084145045
 20
70.56007958745919
 30
0.0
 10
24.3370189507473
 20
70.66269012370263
 30
0.0
 10
24.3370189507473
 20
70.7892666348161
 30
0.0
  0
LINE
  5
DC
330
70
100
AcDbEntity
  8
Sichtbar (ISO)
 62
    18
420
        0
370
     5
100
AcDbLine
 10
21.59823373483368
 20
70.56007958745919
 30
0.0
 11
24.1078319033907
 21
70.56007958745919
 31
0.0
  0
LINE
  5
DD
330
70
100
AcDbEntity
  8
Sichtbar (ISO)
 62
    18
420
        0
370
     5
100
AcDbLine
 10
21.59823373483368
 20
72.16438891895697
 30
0.0
 11
21.59823373483368
 21
71.93520187160006
 31
0.0
  0
LINE
  5
DE
330
70
100
AcDbEntity
  8
Sichtbar (ISO)
 62
    18
420
        0
370
     5
100
AcDbLine
 10
20.20019274595693
 20
72.16438891895697
 30
0.0
 11
21.59823373483368
 21
72.16438891895697
 31
0.0
  0
LINE
  5
DF
330
70
100
AcDbEntity
  8
Sichtbar (ISO)
 62
    18
420
        0
370
     5
100
AcDbLine
 10
20.20019274595693
 20
71.93520187160006
 30
0.0
 11
20.20019274595693
 21
72.16438891895697
 31
0.0
  0
LINE
  5
E0
330
70
100
AcDbEntity
  8
Sichtbar (ISO)
 62
    18
420
        0
370
     5
100
AcDbLine
 10
17.6905945773999
 20
71.93520187160006
 30
0.0
 11
20.20019274595693
 21
71.93520187160006
 31
0.0
  0
SPLINE
  5
E1
330
70
100
AcDbEntity
  8
Sichtbar (ISO)
 62
    18
420
        0
370
     5
100
AcDbSpline
210
0.0
220
0.0
230
1.0
 70
     8
 71
     3
 72
     8
 73
     4
 74
     0
 42
0.0000000001
 43
0.0000000001
 40
0.0
 40
0.0
 40
0.0
 40
0.0
 40
1.0
 40
1.0
 40
1.0
 40
1.0
 10
17.46140753004298
 20
72.16438891895697
 30
0.0
 10
17.46140753004298
 20
72.03781240784318
 30
0.0
 10
17.56401806628643
 20
71.93520187160006
 30
0.0
 10
17.6905945773999
 20
71.93520187160006
 30
0.0
  0
LINE
  5
E2
330
70
100
AcDbEntity
  8
Sichtbar (ISO)
 62
    18
420
        0
370
     5
100
AcDbLine
 10
17.46140753004298
 20
72.35919790921022
 30
0.0
 11
17.46140753004298
 21
72.16438891895697
 31
0.0
  0
SPLINE
  5
E3
330
70
100
AcDbEntity
  8
Sichtbar (ISO)
 62
    18
420
        0
370
     5
100
AcDbSpline
210
0.0
220
0.0
230
1.0
 70
     8
 71
     3
 72
     8
 73
     4
 74
     0
 42
0.0000000001
 43
0.0000000001
 40
0.0
 40
0.0
 40
0.0
 40
0.0
 40
1.0
 40
1.0
 40
1.0
 40
1.0
 10
17.6905945773999
 20
72.58838495656681
 30
0.0
 10
17.56401806628643
 20
72.58838495656681
 30
0.0
 10
17.46140753004298
 20
72.48577442032433
 30
0.0
 10
17.46140753004298
 20
72.35919790921022
 30
0.0
  0
LINE
  5
E4
330
70
100
AcDbEntity
  8
Sichtbar (ISO)
 62
    18
420
        0
370
     5
100
AcDbLine
 10
20.21165209832503
 20
72.58838495656681
 30
0.0
 11
17.6905945773999
 21
72.58838495656681
 31
0.0
  0
LINE
  5
E5
330
70
100
AcDbEntity
  8
Sichtbar (ISO)
 62
    18
420
        0
370
     5
100
AcDbLine
 10
20.21165209832503
 20
72.81757200392341
 30
0.0
 11
20.21165209832503
 21
72.58838495656681
 31
0.0
  0
LINE
  5
E6
330
70
100
AcDbEntity
  8
Sichtbar (ISO)
 62
    18
420
        0
370
     5
100
AcDbLine
 10
21.58677438246558
 20
72.81757200392341
 30
0.0
 11
20.21165209832503
 21
72.81757200392341
 31
0.0
  0
LINE
  5
E7
330
70
100
AcDbEntity
  8
Sichtbar (ISO)
 62
    18
420
        0
370
     5
100
AcDbLine
 10
21.58677438246558
 20
72.58838495656681
 30
0.0
 11
21.58677438246558
 21
72.81757200392341
 31
0.0
  0
LINE
  5
E8
330
70
100
AcDbEntity
  8
Sichtbar (ISO)
 62
    18
420
        0
370
     5
100
AcDbLine
 10
24.1078319033907
 20
72.58838495656681
 30
0.0
 11
21.58677438246558
 21
72.58838495656681
 31
0.0
  0
SPLINE
  5
E9
330
70
100
AcDbEntity
  8
Sichtbar (ISO)
 62
    18
420
        0
370
     5
100
AcDbSpline
210
0.0
220
0.0
230
1.0
 70
     8
 71
     3
 72
     8
 73
     4
 74
     0
 42
0.0000000001
 43
0.0000000001
 40
0.0
 40
0.0
 40
0.0
 40
0.0
 40
1.0
 40
1.0
 40
1.0
 40
1.0
 10
24.3370189507473
 20
72.35919790921022
 30
0.0
 10
24.3370189507473
 20
72.48577442032433
 30
0.0
 10
24.2344084145045
 20
72.58838495656681
 30
0.0
 10
24.1078319033907
 20
72.58838495656681
 30
0.0
  0
LINE
  5
EA
330
70
100
AcDbEntity
  8
Sichtbar (ISO)
 62
    18
420
        0
370
     5
100
AcDbLine
 10
24.3370189507473
 20
72.16438891895697
 30
0.0
 11
24.3370189507473
 21
72.35919790921022
 31
0.0
  0
SPLINE
  5
EB
330
70
100
AcDbEntity
  8
Sichtbar (ISO)
 62
    18
420
        0
370
     5
100
AcDbSpline
210
0.0
220
0.0
230
1.0
 70
     8
 71
     3
 72
     8
 73
     4
 74
     0
 42
0.0000000001
 43
0.0000000001
 40
0.0
 40
0.0
 40
0.0
 40
0.0
 40
1.0
 40
1.0
 40
1.0
 40
1.0
 10
24.1078319033907
 20
71.93520187160006
 30
0.0
 10
24.2344084145045
 20
71.93520187160006
 30
0.0
 10
24.3370189507473
 20
72.03781240784318
 30
0.0
 10
24.3370189507473
 20
72.16438891895697
 30
0.0
  0
LINE
  5
EC
330
70
100
AcDbEntity
  8
Sichtbar (ISO)
 62
    18
420
        0
370
     5
100
AcDbLine
 10
21.59823373483368
 20
71.93520187160006
 30
0.0
 11
24.1078319033907
 21
71.93520187160006
 31
0.0
  0
LINE
  5
ED
330
70
100
AcDbEntity
  8
Sichtbar (ISO)
 62
    18
420
        0
370
     5
100
AcDbLine
 10
21.59823373483368
 20
73.5395112030975
 30
0.0
 11
21.59823373483368
 21
73.31032415574123
 31
0.0
  0
LINE
  5
EE
330
70
100
AcDbEntity
  8
Sichtbar (ISO)
 62
    18
420
        0
370
     5
100
AcDbLine
 10
20.20019274595693
 20
73.5395112030975
 30
0.0
 11
21.59823373483368
 21
73.5395112030975
 31
0.0
  0
LINE
  5
EF
330
70
100
AcDbEntity
  8
Sichtbar (ISO)
 62
    18
420
        0
370
     5
100
AcDbLine
 10
20.20019274595693
 20
73.31032415574123
 30
0.0
 11
20.20019274595693
 21
73.5395112030975
 31
0.0
  0
LINE
  5
F0
330
70
100
AcDbEntity
  8
Sichtbar (ISO)
 62
    18
420
        0
370
     5
100
AcDbLine
 10
17.6905945773999
 20
73.31032415574123
 30
0.0
 11
20.20019274595693
 21
73.31032415574123
 31
0.0
  0
SPLINE
  5
F1
330
70
100
AcDbEntity
  8
Sichtbar (ISO)
 62
    18
420
        0
370
     5
100
AcDbSpline
210
0.0
220
0.0
230
1.0
 70
     8
 71
     3
 72
     8
 73
     4
 74
     0
 42
0.0000000001
 43
0.0000000001
 40
0.0
 40
0.0
 40
0.0
 40
0.0
 40
1.0
 40
1.0
 40
1.0
 40
1.0
 10
17.46140753004298
 20
73.5395112030975
 30
0.0
 10
17.46140753004298
 20
73.41293469198371
 30
0.0
 10
17.56401806628643
 20
73.31032415574123
 30
0.0
 10
17.6905945773999
 20
73.31032415574123
 30
0.0
  0
LINE
  5
F2
330
70
100
AcDbEntity
  8
Sichtbar (ISO)
 62
    18
420
        0
370
     5
100
AcDbLine
 10
17.46140753004298
 20
73.73432019335108
 30
0.0
 11
17.46140753004298
 21
73.5395112030975
 31
0.0
  0
SPLINE
  5
F3
330
70
100
AcDbEntity
  8
Sichtbar (ISO)
 62
    18
420
        0
370
     5
100
AcDbSpline
210
0.0
220
0.0
230
1.0
 70
     8
 71
     3
 72
     8
 73
     4
 74
     0
 42
0.0000000001
 43
0.0000000001
 40
0.0
 40
0.0
 40
0.0
 40
0.0
 40
1.0
 40
1.0
 40
1.0
 40
1.0
 10
17.6905945773999
 20
73.96350724070799
 30
0.0
 10
17.56401806628643
 20
73.96350724070799
 30
0.0
 10
17.46140753004298
 20
73.86089670446487
 30
0.0
 10
17.46140753004298
 20
73.73432019335108
 30
0.0
  0
LINE
  5
F4
330
70
100
AcDbEntity
  8
Sichtbar (ISO)
 62
    18
420
        0
370
     5
100
AcDbLine
 10
20.21165209832503
 20
73.96350724070799
 30
0.0
 11
17.6905945773999
 21
73.96350724070799
 31
0.0
  0
LINE
  5
F5
330
70
100
AcDbEntity
  8
Sichtbar (ISO)
 62
    18
420
        0
370
     5
100
AcDbLine
 10
20.21165209832503
 20
74.19269428806491
 30
0.0
 11
20.21165209832503
 21
73.96350724070799
 31
0.0
  0
LINE
  5
F6
330
70
100
AcDbEntity
  8
Sichtbar (ISO)
 62
    18
420
        0
370
     5
100
AcDbLine
 10
21.58677438246558
 20
74.19269428806491
 30
0.0
 11
20.21165209832503
 21
74.19269428806491
 31
0.0
  0
LINE
  5
F7
330
70
100
AcDbEntity
  8
Sichtbar (ISO)
 62
    18
420
        0
370
     5
100
AcDbLine
 10
21.58677438246558
 20
73.96350724070799
 30
0.0
 11
21.58677438246558
 21
74.19269428806491
 31
0.0
  0
LINE
  5
F8
330
70
100
AcDbEntity
  8
Sichtbar (ISO)
 62
    18
420
        0
370
     5
100
AcDbLine
 10
24.1078319033907
 20
73.96350724070799
 30
0.0
 11
21.58677438246558
 21
73.96350724070799
 31
0.0
  0
SPLINE
  5
F9
330
70
100
AcDbEntity
  8
Sichtbar (ISO)
 62
    18
420
        0
370
     5
100
AcDbSpline
210
0.0
220
0.0
230
1.0
 70
     8
 71
     3
 72
     8
 73
     4
 74
     0
 42
0.0000000001
 43
0.0000000001
 40
0.0
 40
0.0
 40
0.0
 40
0.0
 40
1.0
 40
1.0
 40
1.0
 40
1.0
 10
24.3370189507473
 20
73.73432019335108
 30
0.0
 10
24.3370189507473
 20
73.86089670446487
 30
0.0
 10
24.2344084145045
 20
73.96350724070799
 30
0.0
 10
24.1078319033907
 20
73.96350724070799
 30
0.0
  0
LINE
  5
FA
330
70
100
AcDbEntity
  8
Sichtbar (ISO)
 62
    18
420
        0
370
     5
100
AcDbLine
 10
24.3370189507473
 20
73.5395112030975
 30
0.0
 11
24.3370189507473
 21
73.73432019335108
 31
0.0
  0
SPLINE
  5
FB
330
70
100
AcDbEntity
  8
Sichtbar (ISO)
 62
    18
420
        0
370
     5
100
AcDbSpline
210
0.0
220
0.0
230
1.0
 70
     8
 71
     3
 72
     8
 73
     4
 74
     0
 42
0.0000000001
 43
0.0000000001
 40
0.0
 40
0.0
 40
0.0
 40
0.0
 40
1.0
 40
1.0
 40
1.0
 40
1.0
 10
24.1078319033907
 20
73.31032415574123
 30
0.0
 10
24.2344084145045
 20
73.31032415574123
 30
0.0
 10
24.3370189507473
 20
73.41293469198371
 30
0.0
 10
24.3370189507473
 20
73.5395112030975
 30
0.0
  0
LINE
  5
FC
330
70
100
AcDbEntity
  8
Sichtbar (ISO)
 62
    18
420
        0
370
     5
100
AcDbLine
 10
21.59823373483368
 20
73.31032415574123
 30
0.0
 11
24.1078319033907
 21
73.31032415574123
 31
0.0
  0
LINE
  5
FD
330
70
100
AcDbEntity
  8
Sichtbar (ISO)
 62
    18
420
        0
370
     5
100
AcDbLine
 10
26.51429590063705
 20
71.28201878663329
 30
0.0
 11
25.36836066385311
 21
71.28201878663329
 31
0.0
  0
LINE
  5
FE
330
70
100
AcDbEntity
  8
Sichtbar (ISO)
 62
    18
420
        0
370
     5
100
AcDbLine
 10
25.36836066385311
 20
69.4485224077789
 30
0.0
 11
26.51429590063705
 21
69.4485224077789
 31
0.0
  0
LINE
  5
FF
330
70
100
AcDbEntity
  8
Sichtbar (ISO)
 62
    18
420
        0
370
     5
100
AcDbLine
 10
33.61909436869828
 20
69.4485224077789
 30
0.0
 11
32.47315913191401
 21
69.4485224077789
 31
0.0
  0
LINE
  5
100
330
70
100
AcDbEntity
  8
Sichtbar (ISO)
 62
    18
420
        0
370
     5
100
AcDbLine
 10
32.47315913191401
 20
71.28201878663329
 30
0.0
 11
33.61909436869828
 21
71.28201878663329
 31
0.0
  0
LINE
  5
101
330
70
100
AcDbEntity
  8
Sichtbar (ISO)
 62
    18
420
        0
370
     5
100
AcDbLine
 10
42.94700719612006
 20
76.14078419059807
 30
0.0
 11
42.94700719612006
 21
68.34842458046672
 31
0.0
  0
LINE
  5
102
330
70
100
AcDbEntity
  8
Sichtbar (ISO)
 62
    18
420
        0
370
     5
100
AcDbLine
 10
43.27690392463305
 20
77.74509352209586
 30
0.0
 11
43.27690392463305
 21
68.34842458046672
 31
0.0
  0
LINE
  5
103
330
70
100
AcDbEntity
  8
Sichtbar (ISO)
 62
    18
420
        0
370
     5
100
AcDbLine
 10
38.87983991947898
 20
75.37645573585208
 30
0.0
 11
38.87983991947898
 21
76.14078419059807
 31
0.0
  0
LINE
  5
104
330
70
100
AcDbEntity
  8
Sichtbar (ISO)
 62
    18
420
        0
370
     5
100
AcDbLine
 10
38.77580293422603
 20
75.45322304852732
 30
0.0
 11
38.77580293422603
 21
75.33862952484918
 31
0.0
  0
LINE
  5
105
330
70
100
AcDbEntity
  8
Sichtbar (ISO)
 62
    18
420
        0
370
     5
100
AcDbLine
 10
38.77580293422603
 20
75.33862952484918
 30
0.0
 11
41.29686045515115
 21
75.33862952484918
 31
0.0
  0
SPLINE
  5
106
330
70
100
AcDbEntity
  8
Sichtbar (ISO)
 62
    18
420
        0
370
     5
100
AcDbSpline
210
0.0
220
0.0
230
1.0
 70
     8
 71
     3
 72
     8
 73
     4
 74
     0
 42
0.0000000001
 43
0.0000000001
 40
0.0
 40
0.0
 40
0.0
 40
0.0
 40
1.0
 40
1.0
 40
1.0
 40
1.0
 10
41.52604750250775
 20
75.10944247749257
 30
0.0
 10
41.52604750250775
 20
75.23601898860606
 30
0.0
 10
41.42343696626495
 20
75.33862952484918
 30
0.0
 10
41.29686045515115
 20
75.33862952484918
 30
0.0
  0
LINE
  5
107
330
70
100
AcDbEntity
  8
Sichtbar (ISO)
 62
    18
420
        0
370
     5
100
AcDbLine
 10
41.52604750250775
 20
75.10944247749257
 30
0.0
 11
41.52604750250775
 21
74.91463348723901
 31
0.0
  0
SPLINE
  5
108
330
70
100
AcDbEntity
  8
Sichtbar (ISO)
 62
    18
420
        0
370
     5
100
AcDbSpline
210
0.0
220
0.0
230
1.0
 70
     8
 71
     3
 72
     8
 73
     4
 74
     0
 42
0.0000000001
 43
0.0000000001
 40
0.0
 40
0.0
 40
0.0
 40
0.0
 40
1.0
 40
1.0
 40
1.0
 40
1.0
 10
41.29686045515115
 20
74.68544643988209
 30
0.0
 10
41.42343696626495
 20
74.68544643988209
 30
0.0
 10
41.52604750250775
 20
74.78805697612489
 30
0.0
 10
41.52604750250775
 20
74.91463348723901
 30
0.0
  0
LINE
  5
109
330
70
100
AcDbEntity
  8
Sichtbar (ISO)
 62
    18
420
        0
370
     5
100
AcDbLine
 10
41.29686045515115
 20
74.68544643988209
 30
0.0
 11
38.78726228659381
 21
74.68544643988209
 31
0.0
  0
LINE
  5
10A
330
70
100
AcDbEntity
  8
Sichtbar (ISO)
 62
    18
420
        0
370
     5
100
AcDbLine
 10
38.78726228659381
 20
74.68544643988209
 30
0.0
 11
38.78726228659381
 21
74.91463348723901
 31
0.0
  0
LINE
  5
10B
330
70
100
AcDbEntity
  8
Sichtbar (ISO)
 62
    18
420
        0
370
     5
100
AcDbLine
 10
38.78726228659381
 20
74.91463348723901
 30
0.0
 11
37.38922129771771
 21
74.91463348723901
 31
0.0
  0
LINE
  5
10C
330
70
100
AcDbEntity
  8
Sichtbar (ISO)
 62
    18
420
        0
370
     5
100
AcDbLine
 10
37.38922129771771
 20
74.91463348723901
 30
0.0
 11
37.38922129771771
 21
74.68544643988209
 31
0.0
  0
LINE
  5
10D
330
70
100
AcDbEntity
  8
Sichtbar (ISO)
 62
    18
420
        0
370
     5
100
AcDbLine
 10
37.38922129771771
 20
74.68544643988209
 30
0.0
 11
34.87962312916068
 21
74.68544643988209
 31
0.0
  0
SPLINE
  5
10E
330
70
100
AcDbEntity
  8
Sichtbar (ISO)
 62
    18
420
        0
370
     5
100
AcDbSpline
210
0.0
220
0.0
230
1.0
 70
     8
 71
     3
 72
     8
 73
     4
 74
     0
 42
0.0000000001
 43
0.0000000001
 40
0.0
 40
0.0
 40
0.0
 40
0.0
 40
1.0
 40
1.0
 40
1.0
 40
1.0
 10
34.65043608180376
 20
74.91463348723901
 30
0.0
 10
34.65043608180376
 20
74.78805697612489
 30
0.0
 10
34.75304661804656
 20
74.68544643988209
 30
0.0
 10
34.87962312916068
 20
74.68544643988209
 30
0.0
  0
LINE
  5
10F
330
70
100
AcDbEntity
  8
Sichtbar (ISO)
 62
    18
420
        0
370
     5
100
AcDbLine
 10
34.65043608180376
 20
74.91463348723901
 30
0.0
 11
34.65043608180376
 21
75.10944247749257
 31
0.0
  0
SPLINE
  5
110
330
70
100
AcDbEntity
  8
Sichtbar (ISO)
 62
    18
420
        0
370
     5
100
AcDbSpline
210
0.0
220
0.0
230
1.0
 70
     8
 71
     3
 72
     8
 73
     4
 74
     0
 42
0.0000000001
 43
0.0000000001
 40
0.0
 40
0.0
 40
0.0
 40
0.0
 40
1.0
 40
1.0
 40
1.0
 40
1.0
 10
34.87962312916068
 20
75.33862952484918
 30
0.0
 10
34.75304661804656
 20
75.33862952484918
 30
0.0
 10
34.65043608180376
 20
75.23601898860606
 30
0.0
 10
34.65043608180376
 20
75.10944247749257
 30
0.0
  0
LINE
  5
111
330
70
100
AcDbEntity
  8
Sichtbar (ISO)
 62
    18
420
        0
370
     5
100
AcDbLine
 10
34.87962312916068
 20
75.33862952484918
 30
0.0
 11
37.40068065008549
 21
75.33862952484918
 31
0.0
  0
LINE
  5
112
330
70
100
AcDbEntity
  8
Sichtbar (ISO)
 62
    18
420
        0
370
     5
100
AcDbLine
 10
37.40068065008549
 20
75.33862952484918
 30
0.0
 11
37.40068065008549
 21
75.5678165722061
 31
0.0
  0
LINE
  5
113
330
70
100
AcDbEntity
  8
Sichtbar (ISO)
 62
    18
420
        0
370
     5
100
AcDbLine
 10
37.40068065008549
 20
75.5678165722061
 30
0.0
 11
38.44257890161681
 21
75.5678165722061
 31
0.0
  0
LINE
  5
114
330
70
100
AcDbEntity
  8
Sichtbar (ISO)
 62
    18
420
        0
370
     5
100
AcDbLine
 10
38.44257890161681
 20
75.5678165722061
 30
0.0
 11
38.44257890161681
 21
76.14078419059807
 31
0.0
  0
LINE
  5
115
330
70
100
AcDbEntity
  8
Sichtbar (ISO)
 62
    18
420
        0
370
     5
100
AcDbLine
 10
42.32820216825696
 20
76.14078419059807
 30
0.0
 11
42.32820216825696
 21
68.34842458046672
 31
0.0
  0
LINE
  5
116
330
70
100
AcDbEntity
  8
Sichtbar (ISO)
 62
    18
420
        0
370
     5
100
AcDbLine
 10
37.38922129771771
 20
73.5395112030975
 30
0.0
 11
37.38922129771771
 21
73.31032415574123
 31
0.0
  0
LINE
  5
117
330
70
100
AcDbEntity
  8
Sichtbar (ISO)
 62
    18
420
        0
370
     5
100
AcDbLine
 10
37.38922129771771
 20
73.31032415574123
 30
0.0
 11
34.87962312916068
 21
73.31032415574123
 31
0.0
  0
SPLINE
  5
118
330
70
100
AcDbEntity
  8
Sichtbar (ISO)
 62
    18
420
        0
370
     5
100
AcDbSpline
210
0.0
220
0.0
230
1.0
 70
     8
 71
     3
 72
     8
 73
     4
 74
     0
 42
0.0000000001
 43
0.0000000001
 40
0.0
 40
0.0
 40
0.0
 40
0.0
 40
1.0
 40
1.0
 40
1.0
 40
1.0
 10
34.65043608180376
 20
73.5395112030975
 30
0.0
 10
34.65043608180376
 20
73.41293469198371
 30
0.0
 10
34.75304661804656
 20
73.31032415574123
 30
0.0
 10
34.87962312916068
 20
73.31032415574123
 30
0.0
  0
LINE
  5
119
330
70
100
AcDbEntity
  8
Sichtbar (ISO)
 62
    18
420
        0
370
     5
100
AcDbLine
 10
34.65043608180376
 20
73.5395112030975
 30
0.0
 11
34.65043608180376
 21
73.73432019335108
 31
0.0
  0
SPLINE
  5
11A
330
70
100
AcDbEntity
  8
Sichtbar (ISO)
 62
    18
420
        0
370
     5
100
AcDbSpline
210
0.0
220
0.0
230
1.0
 70
     8
 71
     3
 72
     8
 73
     4
 74
     0
 42
0.0000000001
 43
0.0000000001
 40
0.0
 40
0.0
 40
0.0
 40
0.0
 40
1.0
 40
1.0
 40
1.0
 40
1.0
 10
34.87962312916068
 20
73.96350724070799
 30
0.0
 10
34.75304661804656
 20
73.96350724070799
 30
0.0
 10
34.65043608180376
 20
73.86089670446487
 30
0.0
 10
34.65043608180376
 20
73.73432019335108
 30
0.0
  0
LINE
  5
11B
330
70
100
AcDbEntity
  8
Sichtbar (ISO)
 62
    18
420
        0
370
     5
100
AcDbLine
 10
34.87962312916068
 20
73.96350724070799
 30
0.0
 11
37.40068065008549
 21
73.96350724070799
 31
0.0
  0
LINE
  5
11C
330
70
100
AcDbEntity
  8
Sichtbar (ISO)
 62
    18
420
        0
370
     5
100
AcDbLine
 10
37.40068065008549
 20
73.96350724070799
 30
0.0
 11
37.40068065008549
 21
74.19269428806491
 31
0.0
  0
LINE
  5
11D
330
70
100
AcDbEntity
  8
Sichtbar (ISO)
 62
    18
420
        0
370
     5
100
AcDbLine
 10
37.40068065008549
 20
74.19269428806491
 30
0.0
 11
38.77580293422603
 21
74.19269428806491
 31
0.0
  0
LINE
  5
11E
330
70
100
AcDbEntity
  8
Sichtbar (ISO)
 62
    18
420
        0
370
     5
100
AcDbLine
 10
38.77580293422603
 20
74.19269428806491
 30
0.0
 11
38.77580293422603
 21
73.96350724070799
 31
0.0
  0
LINE
  5
11F
330
70
100
AcDbEntity
  8
Sichtbar (ISO)
 62
    18
420
        0
370
     5
100
AcDbLine
 10
38.77580293422603
 20
73.96350724070799
 30
0.0
 11
41.29686045515115
 21
73.96350724070799
 31
0.0
  0
SPLINE
  5
120
330
70
100
AcDbEntity
  8
Sichtbar (ISO)
 62
    18
420
        0
370
     5
100
AcDbSpline
210
0.0
220
0.0
230
1.0
 70
     8
 71
     3
 72
     8
 73
     4
 74
     0
 42
0.0000000001
 43
0.0000000001
 40
0.0
 40
0.0
 40
0.0
 40
0.0
 40
1.0
 40
1.0
 40
1.0
 40
1.0
 10
41.52604750250775
 20
73.73432019335108
 30
0.0
 10
41.52604750250775
 20
73.86089670446487
 30
0.0
 10
41.42343696626495
 20
73.96350724070799
 30
0.0
 10
41.29686045515115
 20
73.96350724070799
 30
0.0
  0
LINE
  5
121
330
70
100
AcDbEntity
  8
Sichtbar (ISO)
 62
    18
420
        0
370
     5
100
AcDbLine
 10
41.52604750250775
 20
73.73432019335108
 30
0.0
 11
41.52604750250775
 21
73.5395112030975
 31
0.0
  0
SPLINE
  5
122
330
70
100
AcDbEntity
  8
Sichtbar (ISO)
 62
    18
420
        0
370
     5
100
AcDbSpline
210
0.0
220
0.0
230
1.0
 70
     8
 71
     3
 72
     8
 73
     4
 74
     0
 42
0.0000000001
 43
0.0000000001
 40
0.0
 40
0.0
 40
0.0
 40
0.0
 40
1.0
 40
1.0
 40
1.0
 40
1.0
 10
41.29686045515115
 20
73.31032415574123
 30
0.0
 10
41.42343696626495
 20
73.31032415574123
 30
0.0
 10
41.52604750250775
 20
73.41293469198371
 30
0.0
 10
41.52604750250775
 20
73.5395112030975
 30
0.0
  0
LINE
  5
123
330
70
100
AcDbEntity
  8
Sichtbar (ISO)
 62
    18
420
        0
370
     5
100
AcDbLine
 10
41.29686045515115
 20
73.31032415574123
 30
0.0
 11
38.78726228659381
 21
73.31032415574123
 31
0.0
  0
LINE
  5
124
330
70
100
AcDbEntity
  8
Sichtbar (ISO)
 62
    18
420
        0
370
     5
100
AcDbLine
 10
38.78726228659381
 20
73.31032415574123
 30
0.0
 11
38.78726228659381
 21
73.5395112030975
 31
0.0
  0
LINE
  5
125
330
70
100
AcDbEntity
  8
Sichtbar (ISO)
 62
    18
420
        0
370
     5
100
AcDbLine
 10
38.78726228659381
 20
73.5395112030975
 30
0.0
 11
37.38922129771771
 21
73.5395112030975
 31
0.0
  0
LINE
  5
126
330
70
100
AcDbEntity
  8
Sichtbar (ISO)
 62
    18
420
        0
370
     5
100
AcDbLine
 10
37.38922129771771
 20
72.16438891895697
 30
0.0
 11
37.38922129771771
 21
71.93520187160006
 31
0.0
  0
LINE
  5
127
330
70
100
AcDbEntity
  8
Sichtbar (ISO)
 62
    18
420
        0
370
     5
100
AcDbLine
 10
37.38922129771771
 20
71.93520187160006
 30
0.0
 11
34.87962312916068
 21
71.93520187160006
 31
0.0
  0
SPLINE
  5
128
330
70
100
AcDbEntity
  8
Sichtbar (ISO)
 62
    18
420
        0
370
     5
100
AcDbSpline
210
0.0
220
0.0
230
1.0
 70
     8
 71
     3
 72
     8
 73
     4
 74
     0
 42
0.0000000001
 43
0.0000000001
 40
0.0
 40
0.0
 40
0.0
 40
0.0
 40
1.0
 40
1.0
 40
1.0
 40
1.0
 10
34.65043608180376
 20
72.16438891895697
 30
0.0
 10
34.65043608180376
 20
72.03781240784318
 30
0.0
 10
34.75304661804656
 20
71.93520187160006
 30
0.0
 10
34.87962312916068
 20
71.93520187160006
 30
0.0
  0
LINE
  5
129
330
70
100
AcDbEntity
  8
Sichtbar (ISO)
 62
    18
420
        0
370
     5
100
AcDbLine
 10
34.65043608180376
 20
72.16438891895697
 30
0.0
 11
34.65043608180376
 21
72.35919790921022
 31
0.0
  0
SPLINE
  5
12A
330
70
100
AcDbEntity
  8
Sichtbar (ISO)
 62
    18
420
        0
370
     5
100
AcDbSpline
210
0.0
220
0.0
230
1.0
 70
     8
 71
     3
 72
     8
 73
     4
 74
     0
 42
0.0000000001
 43
0.0000000001
 40
0.0
 40
0.0
 40
0.0
 40
0.0
 40
1.0
 40
1.0
 40
1.0
 40
1.0
 10
34.87962312916068
 20
72.58838495656681
 30
0.0
 10
34.75304661804656
 20
72.58838495656681
 30
0.0
 10
34.65043608180376
 20
72.48577442032433
 30
0.0
 10
34.65043608180376
 20
72.35919790921022
 30
0.0
  0
LINE
  5
12B
330
70
100
AcDbEntity
  8
Sichtbar (ISO)
 62
    18
420
        0
370
     5
100
AcDbLine
 10
34.87962312916068
 20
72.58838495656681
 30
0.0
 11
37.40068065008549
 21
72.58838495656681
 31
0.0
  0
LINE
  5
12C
330
70
100
AcDbEntity
  8
Sichtbar (ISO)
 62
    18
420
        0
370
     5
100
AcDbLine
 10
37.40068065008549
 20
72.58838495656681
 30
0.0
 11
37.40068065008549
 21
72.81757200392341
 31
0.0
  0
LINE
  5
12D
330
70
100
AcDbEntity
  8
Sichtbar (ISO)
 62
    18
420
        0
370
     5
100
AcDbLine
 10
37.40068065008549
 20
72.81757200392341
 30
0.0
 11
38.77580293422603
 21
72.81757200392341
 31
0.0
  0
LINE
  5
12E
330
70
100
AcDbEntity
  8
Sichtbar (ISO)
 62
    18
420
        0
370
     5
100
AcDbLine
 10
38.77580293422603
 20
72.81757200392341
 30
0.0
 11
38.77580293422603
 21
72.58838495656681
 31
0.0
  0
LINE
  5
12F
330
70
100
AcDbEntity
  8
Sichtbar (ISO)
 62
    18
420
        0
370
     5
100
AcDbLine
 10
38.77580293422603
 20
72.58838495656681
 30
0.0
 11
41.29686045515115
 21
72.58838495656681
 31
0.0
  0
SPLINE
  5
130
330
70
100
AcDbEntity
  8
Sichtbar (ISO)
 62
    18
420
        0
370
     5
100
AcDbSpline
210
0.0
220
0.0
230
1.0
 70
     8
 71
     3
 72
     8
 73
     4
 74
     0
 42
0.0000000001
 43
0.0000000001
 40
0.0
 40
0.0
 40
0.0
 40
0.0
 40
1.0
 40
1.0
 40
1.0
 40
1.0
 10
41.52604750250775
 20
72.35919790921022
 30
0.0
 10
41.52604750250775
 20
72.48577442032433
 30
0.0
 10
41.42343696626495
 20
72.58838495656681
 30
0.0
 10
41.29686045515115
 20
72.58838495656681
 30
0.0
  0
LINE
  5
131
330
70
100
AcDbEntity
  8
Sichtbar (ISO)
 62
    18
420
        0
370
     5
100
AcDbLine
 10
41.52604750250775
 20
72.35919790921022
 30
0.0
 11
41.52604750250775
 21
72.16438891895697
 31
0.0
  0
SPLINE
  5
132
330
70
100
AcDbEntity
  8
Sichtbar (ISO)
 62
    18
420
        0
370
     5
100
AcDbSpline
210
0.0
220
0.0
230
1.0
 70
     8
 71
     3
 72
     8
 73
     4
 74
     0
 42
0.0000000001
 43
0.0000000001
 40
0.0
 40
0.0
 40
0.0
 40
0.0
 40
1.0
 40
1.0
 40
1.0
 40
1.0
 10
41.29686045515115
 20
71.93520187160006
 30
0.0
 10
41.42343696626495
 20
71.93520187160006
 30
0.0
 10
41.52604750250775
 20
72.03781240784318
 30
0.0
 10
41.52604750250775
 20
72.16438891895697
 30
0.0
  0
LINE
  5
133
330
70
100
AcDbEntity
  8
Sichtbar (ISO)
 62
    18
420
        0
370
     5
100
AcDbLine
 10
41.29686045515115
 20
71.93520187160006
 30
0.0
 11
38.78726228659381
 21
71.93520187160006
 31
0.0
  0
LINE
  5
134
330
70
100
AcDbEntity
  8
Sichtbar (ISO)
 62
    18
420
        0
370
     5
100
AcDbLine
 10
38.78726228659381
 20
71.93520187160006
 30
0.0
 11
38.78726228659381
 21
72.16438891895697
 31
0.0
  0
LINE
  5
135
330
70
100
AcDbEntity
  8
Sichtbar (ISO)
 62
    18
420
        0
370
     5
100
AcDbLine
 10
38.78726228659381
 20
72.16438891895697
 30
0.0
 11
37.38922129771771
 21
72.16438891895697
 31
0.0
  0
LINE
  5
136
330
70
100
AcDbEntity
  8
Sichtbar (ISO)
 62
    18
420
        0
370
     5
100
AcDbLine
 10
37.38922129771771
 20
70.7892666348161
 30
0.0
 11
37.38922129771771
 21
70.56007958745919
 31
0.0
  0
LINE
  5
137
330
70
100
AcDbEntity
  8
Sichtbar (ISO)
 62
    18
420
        0
370
     5
100
AcDbLine
 10
37.38922129771771
 20
70.56007958745919
 30
0.0
 11
34.87962312916068
 21
70.56007958745919
 31
0.0
  0
SPLINE
  5
138
330
70
100
AcDbEntity
  8
Sichtbar (ISO)
 62
    18
420
        0
370
     5
100
AcDbSpline
210
0.0
220
0.0
230
1.0
 70
     8
 71
     3
 72
     8
 73
     4
 74
     0
 42
0.0000000001
 43
0.0000000001
 40
0.0
 40
0.0
 40
0.0
 40
0.0
 40
1.0
 40
1.0
 40
1.0
 40
1.0
 10
34.65043608180376
 20
70.7892666348161
 30
0.0
 10
34.65043608180376
 20
70.66269012370263
 30
0.0
 10
34.75304661804656
 20
70.56007958745919
 30
0.0
 10
34.87962312916068
 20
70.56007958745919
 30
0.0
  0
LINE
  5
139
330
70
100
AcDbEntity
  8
Sichtbar (ISO)
 62
    18
420
        0
370
     5
100
AcDbLine
 10
34.65043608180376
 20
70.7892666348161
 30
0.0
 11
34.65043608180376
 21
70.98407562506871
 31
0.0
  0
SPLINE
  5
13A
330
70
100
AcDbEntity
  8
Sichtbar (ISO)
 62
    18
420
        0
370
     5
100
AcDbSpline
210
0.0
220
0.0
230
1.0
 70
     8
 71
     3
 72
     8
 73
     4
 74
     0
 42
0.0000000001
 43
0.0000000001
 40
0.0
 40
0.0
 40
0.0
 40
0.0
 40
1.0
 40
1.0
 40
1.0
 40
1.0
 10
34.87962312916068
 20
71.21326267242626
 30
0.0
 10
34.75304661804656
 20
71.21326267242626
 30
0.0
 10
34.65043608180376
 20
71.11065213618347
 30
0.0
 10
34.65043608180376
 20
70.98407562506871
 30
0.0
  0
LINE
  5
13B
330
70
100
AcDbEntity
  8
Sichtbar (ISO)
 62
    18
420
        0
370
     5
100
AcDbLine
 10
34.87962312916068
 20
71.21326267242626
 30
0.0
 11
37.40068065008549
 21
71.21326267242626
 31
0.0
  0
LINE
  5
13C
330
70
100
AcDbEntity
  8
Sichtbar (ISO)
 62
    18
420
        0
370
     5
100
AcDbLine
 10
37.40068065008549
 20
71.21326267242626
 30
0.0
 11
37.40068065008549
 21
71.4424497197832
 31
0.0
  0
LINE
  5
13D
330
70
100
AcDbEntity
  8
Sichtbar (ISO)
 62
    18
420
        0
370
     5
100
AcDbLine
 10
37.40068065008549
 20
71.4424497197832
 30
0.0
 11
38.77580293422603
 21
71.4424497197832
 31
0.0
  0
LINE
  5
13E
330
70
100
AcDbEntity
  8
Sichtbar (ISO)
 62
    18
420
        0
370
     5
100
AcDbLine
 10
38.77580293422603
 20
71.4424497197832
 30
0.0
 11
38.77580293422603
 21
71.21326267242626
 31
0.0
  0
LINE
  5
13F
330
70
100
AcDbEntity
  8
Sichtbar (ISO)
 62
    18
420
        0
370
     5
100
AcDbLine
 10
38.77580293422603
 20
71.21326267242626
 30
0.0
 11
41.29686045515115
 21
71.21326267242626
 31
0.0
  0
SPLINE
  5
140
330
70
100
AcDbEntity
  8
Sichtbar (ISO)
 62
    18
420
        0
370
     5
100
AcDbSpline
210
0.0
220
0.0
230
1.0
 70
     8
 71
     3
 72
     8
 73
     4
 74
     0
 42
0.0000000001
 43
0.0000000001
 40
0.0
 40
0.0
 40
0.0
 40
0.0
 40
1.0
 40
1.0
 40
1.0
 40
1.0
 10
41.52604750250775
 20
70.98407562506871
 30
0.0
 10
41.52604750250775
 20
71.11065213618347
 30
0.0
 10
41.42343696626495
 20
71.21326267242626
 30
0.0
 10
41.29686045515115
 20
71.21326267242626
 30
0.0
  0
LINE
  5
141
330
70
100
AcDbEntity
  8
Sichtbar (ISO)
 62
    18
420
        0
370
     5
100
AcDbLine
 10
41.52604750250775
 20
70.98407562506871
 30
0.0
 11
41.52604750250775
 21
70.7892666348161
 31
0.0
  0
SPLINE
  5
142
330
70
100
AcDbEntity
  8
Sichtbar (ISO)
 62
    18
420
        0
370
     5
100
AcDbSpline
210
0.0
220
0.0
230
1.0
 70
     8
 71
     3
 72
     8
 73
     4
 74
     0
 42
0.0000000001
 43
0.0000000001
 40
0.0
 40
0.0
 40
0.0
 40
0.0
 40
1.0
 40
1.0
 40
1.0
 40
1.0
 10
41.29686045515115
 20
70.56007958745919
 30
0.0
 10
41.42343696626495
 20
70.56007958745919
 30
0.0
 10
41.52604750250775
 20
70.66269012370263
 30
0.0
 10
41.52604750250775
 20
70.7892666348161
 30
0.0
  0
LINE
  5
143
330
70
100
AcDbEntity
  8
Sichtbar (ISO)
 62
    18
420
        0
370
     5
100
AcDbLine
 10
41.29686045515115
 20
70.56007958745919
 30
0.0
 11
38.78726228659381
 21
70.56007958745919
 31
0.0
  0
LINE
  5
144
330
70
100
AcDbEntity
  8
Sichtbar (ISO)
 62
    18
420
        0
370
     5
100
AcDbLine
 10
38.78726228659381
 20
70.56007958745919
 30
0.0
 11
38.78726228659381
 21
70.7892666348161
 31
0.0
  0
LINE
  5
145
330
70
100
AcDbEntity
  8
Sichtbar (ISO)
 62
    18
420
        0
370
     5
100
AcDbLine
 10
38.78726228659381
 20
70.7892666348161
 30
0.0
 11
37.38922129771771
 21
70.7892666348161
 31
0.0
  0
LINE
  5
146
330
70
100
AcDbEntity
  8
Sichtbar (ISO)
 62
    18
420
        0
370
     5
100
AcDbLine
 10
37.38922129771771
 20
69.41414435067525
 30
0.0
 11
37.38922129771771
 21
69.18495730331833
 31
0.0
  0
LINE
  5
147
330
70
100
AcDbEntity
  8
Sichtbar (ISO)
 62
    18
420
        0
370
     5
100
AcDbLine
 10
37.38922129771771
 20
69.18495730331833
 30
0.0
 11
34.87962312916068
 21
69.18495730331833
 31
0.0
  0
SPLINE
  5
148
330
70
100
AcDbEntity
  8
Sichtbar (ISO)
 62
    18
420
        0
370
     5
100
AcDbSpline
210
0.0
220
0.0
230
1.0
 70
     8
 71
     3
 72
     8
 73
     4
 74
     0
 42
0.0000000001
 43
0.0000000001
 40
0.0
 40
0.0
 40
0.0
 40
0.0
 40
1.0
 40
1.0
 40
1.0
 40
1.0
 10
34.65043608180376
 20
69.41414435067525
 30
0.0
 10
34.65043608180376
 20
69.28756783956145
 30
0.0
 10
34.75304661804656
 20
69.18495730331833
 30
0.0
 10
34.87962312916068
 20
69.18495730331833
 30
0.0
  0
LINE
  5
149
330
70
100
AcDbEntity
  8
Sichtbar (ISO)
 62
    18
420
        0
370
     5
100
AcDbLine
 10
34.65043608180376
 20
69.41414435067525
 30
0.0
 11
34.65043608180376
 21
69.60895334092882
 31
0.0
  0
SPLINE
  5
14A
330
70
100
AcDbEntity
  8
Sichtbar (ISO)
 62
    18
420
        0
370
     5
100
AcDbSpline
210
0.0
220
0.0
230
1.0
 70
     8
 71
     3
 72
     8
 73
     4
 74
     0
 42
0.0000000001
 43
0.0000000001
 40
0.0
 40
0.0
 40
0.0
 40
0.0
 40
1.0
 40
1.0
 40
1.0
 40
1.0
 10
34.87962312916068
 20
69.83814038828541
 30
0.0
 10
34.75304661804656
 20
69.83814038828541
 30
0.0
 10
34.65043608180376
 20
69.73552985204293
 30
0.0
 10
34.65043608180376
 20
69.60895334092882
 30
0.0
  0
LINE
  5
14B
330
70
100
AcDbEntity
  8
Sichtbar (ISO)
 62
    18
420
        0
370
     5
100
AcDbLine
 10
34.87962312916068
 20
69.83814038828541
 30
0.0
 11
37.40068065008549
 21
69.83814038828541
 31
0.0
  0
LINE
  5
14C
330
70
100
AcDbEntity
  8
Sichtbar (ISO)
 62
    18
420
        0
370
     5
100
AcDbLine
 10
37.40068065008549
 20
69.83814038828541
 30
0.0
 11
37.40068065008549
 21
70.06732743564201
 31
0.0
  0
LINE
  5
14D
330
70
100
AcDbEntity
  8
Sichtbar (ISO)
 62
    18
420
        0
370
     5
100
AcDbLine
 10
37.40068065008549
 20
70.06732743564201
 30
0.0
 11
38.77580293422603
 21
70.06732743564201
 31
0.0
  0
LINE
  5
14E
330
70
100
AcDbEntity
  8
Sichtbar (ISO)
 62
    18
420
        0
370
     5
100
AcDbLine
 10
38.77580293422603
 20
70.06732743564201
 30
0.0
 11
38.77580293422603
 21
69.83814038828541
 31
0.0
  0
LINE
  5
14F
330
70
100
AcDbEntity
  8
Sichtbar (ISO)
 62
    18
420
        0
370
     5
100
AcDbLine
 10
38.77580293422603
 20
69.83814038828541
 30
0.0
 11
41.29686045515115
 21
69.83814038828541
 31
0.0
  0
SPLINE
  5
150
330
70
100
AcDbEntity
  8
Sichtbar (ISO)
 62
    18
420
        0
370
     5
100
AcDbSpline
210
0.0
220
0.0
230
1.0
 70
     8
 71
     3
 72
     8
 73
     4
 74
     0
 42
0.0000000001
 43
0.0000000001
 40
0.0
 40
0.0
 40
0.0
 40
0.0
 40
1.0
 40
1.0
 40
1.0
 40
1.0
 10
41.52604750250775
 20
69.60895334092882
 30
0.0
 10
41.52604750250775
 20
69.73552985204293
 30
0.0
 10
41.42343696626495
 20
69.83814038828541
 30
0.0
 10
41.29686045515115
 20
69.83814038828541
 30
0.0
  0
LINE
  5
151
330
70
100
AcDbEntity
  8
Sichtbar (ISO)
 62
    18
420
        0
370
     5
100
AcDbLine
 10
41.52604750250775
 20
69.60895334092882
 30
0.0
 11
41.52604750250775
 21
69.41414435067525
 31
0.0
  0
SPLINE
  5
152
330
70
100
AcDbEntity
  8
Sichtbar (ISO)
 62
    18
420
        0
370
     5
100
AcDbSpline
210
0.0
220
0.0
230
1.0
 70
     8
 71
     3
 72
     8
 73
     4
 74
     0
 42
0.0000000001
 43
0.0000000001
 40
0.0
 40
0.0
 40
0.0
 40
0.0
 40
1.0
 40
1.0
 40
1.0
 40
1.0
 10
41.29686045515115
 20
69.18495730331833
 30
0.0
 10
41.42343696626495
 20
69.18495730331833
 30
0.0
 10
41.52604750250775
 20
69.28756783956145
 30
0.0
 10
41.52604750250775
 20
69.41414435067525
 30
0.0
  0
LINE
  5
153
330
70
100
AcDbEntity
  8
Sichtbar (ISO)
 62
    18
420
        0
370
     5
100
AcDbLine
 10
41.29686045515115
 20
69.18495730331833
 30
0.0
 11
38.78726228659381
 21
69.18495730331833
 31
0.0
  0
LINE
  5
154
330
70
100
AcDbEntity
  8
Sichtbar (ISO)
 62
    18
420
        0
370
     5
100
AcDbLine
 10
38.78726228659381
 20
69.18495730331833
 30
0.0
 11
38.78726228659381
 21
69.41414435067525
 31
0.0
  0
LINE
  5
155
330
70
100
AcDbEntity
  8
Sichtbar (ISO)
 62
    18
420
        0
370
     5
100
AcDbLine
 10
38.78726228659381
 20
69.41414435067525
 30
0.0
 11
37.38922129771771
 21
69.41414435067525
 31
0.0
  0
LINE
  5
156
330
70
100
AcDbEntity
  8
Sichtbar (ISO)
 62
    18
420
        0
370
     5
100
AcDbLine
 10
31.25846778092338
 20
73.3905396223157
 30
0.0
 11
31.25846778092338
 21
68.34842458046672
 31
0.0
  0
LINE
  5
157
330
70
100
AcDbEntity
  8
Sichtbar (ISO)
 62
    18
420
        0
370
     5
100
AcDbLine
 10
31.55641094248666
 20
73.84891371702986
 30
0.0
 11
30.86884980041687
 21
73.84891371702986
 31
0.0
  0
LINE
  5
158
330
70
100
AcDbEntity
  8
Sichtbar (ISO)
 62
    18
420
        0
370
     5
100
AcDbLine
 10
28.11860523213515
 20
73.84891371702986
 30
0.0
 11
27.43104409006408
 21
73.84891371702986
 31
0.0
  0
LINE
  5
159
330
70
100
AcDbEntity
  8
Sichtbar (ISO)
 62
    18
420
        0
370
     5
100
AcDbLine
 10
27.43104409006408
 20
73.3905396223157
 30
0.0
 11
28.11860523213515
 21
73.3905396223157
 31
0.0
  0
LINE
  5
15A
330
70
100
AcDbEntity
  8
Sichtbar (ISO)
 62
    18
420
        0
370
     5
100
AcDbLine
 10
30.86884980041687
 20
73.3905396223157
 30
0.0
 11
31.55641094248666
 21
73.3905396223157
 31
0.0
  0
LINE
  5
15B
330
70
100
AcDbEntity
  8
Sichtbar (ISO)
 62
    18
420
        0
370
     5
100
AcDbLine
 10
31.55641094248666
 20
73.3905396223157
 30
0.0
 11
31.55641094248666
 21
68.34842458046672
 31
0.0
  0
LINE
  5
15C
330
70
100
AcDbEntity
  8
Sichtbar (ISO)
 62
    18
420
        0
370
     5
100
AcDbLine
 10
32.47315913191401
 20
68.34842458046672
 30
0.0
 11
32.47315913191401
 21
76.14078419059743
 31
0.0
  0
LINE
  5
15D
330
70
100
AcDbEntity
  8
Sichtbar (ISO)
 62
    18
420
        0
370
     5
100
AcDbLine
 10
32.47315913191401
 20
76.14078419059743
 30
0.0
 11
33.61909436869828
 21
76.14078419059743
 31
0.0
  0
LINE
  5
15E
330
70
100
AcDbEntity
  8
Sichtbar (ISO)
 62
    18
420
        0
370
     5
100
AcDbLine
 10
33.61909436869828
 20
68.34842458046672
 30
0.0
 11
33.61909436869828
 21
76.14078419059743
 31
0.0
  0
LINE
  5
15F
330
70
100
AcDbEntity
  8
Sichtbar (ISO)
 62
    18
420
        0
370
     5
100
AcDbLine
 10
34.53584255812562
 20
68.34842458046672
 30
0.0
 11
34.53584255812562
 21
76.14078419059743
 31
0.0
  0
LINE
  5
160
330
70
100
AcDbEntity
  8
Sichtbar (ISO)
 62
    18
420
        0
370
     5
100
AcDbLine
 10
34.53584255812562
 20
76.14078419059743
 30
0.0
 11
41.55813368913709
 21
76.14078419059807
 31
0.0
  0
LINE
  5
161
330
70
100
AcDbEntity
  8
Sichtbar (ISO)
 62
    18
420
        0
370
     5
100
AcDbLine
 10
31.55641094248666
 20
76.59915828531159
 30
0.0
 11
41.90191426017342
 21
76.59915828531159
 31
0.0
  0
LINE
  5
162
330
70
100
AcDbEntity
  8
Sichtbar (ISO)
 62
    18
420
        0
370
     5
100
AcDbLine
 10
31.55641094248666
 20
76.59915828531159
 30
0.0
 11
31.55641094248666
 21
73.84891371702986
 31
0.0
  0
LINE
  5
163
330
70
100
AcDbEntity
  8
Sichtbar (ISO)
 62
    18
420
        0
370
     5
100
AcDbLine
 10
27.43104409006408
 20
76.59915828531159
 30
0.0
 11
27.43104409006408
 21
73.84891371702986
 31
0.0
  0
LINE
  5
164
330
70
100
AcDbEntity
  8
Sichtbar (ISO)
 62
    18
420
        0
370
     5
100
AcDbLine
 10
27.43104409006408
 20
76.59915828531159
 30
0.0
 11
17.42932134341333
 21
76.59915828531159
 31
0.0
  0
LINE
  5
165
330
70
100
AcDbEntity
  8
Sichtbar (ISO)
 62
    18
420
        0
370
     5
100
AcDbLine
 10
24.45161247442575
 20
76.14078419059743
 30
0.0
 11
17.42932134341333
 21
76.14078419059743
 31
0.0
  0
LINE
  5
166
330
70
100
AcDbEntity
  8
Sichtbar (ISO)
 62
    18
420
        0
370
     5
100
AcDbLine
 10
24.45161247442575
 20
68.34842458046672
 30
0.0
 11
24.45161247442575
 21
76.14078419059743
 31
0.0
  0
LINE
  5
167
330
70
100
AcDbEntity
  8
Sichtbar (ISO)
 62
    18
420
        0
370
     5
100
AcDbLine
 10
25.36836066385311
 20
68.34842458046672
 30
0.0
 11
25.36836066385311
 21
76.14078419059743
 31
0.0
  0
LINE
  5
168
330
70
100
AcDbEntity
  8
Sichtbar (ISO)
 62
    18
420
        0
370
     5
100
AcDbLine
 10
26.51429590063705
 20
76.14078419059743
 30
0.0
 11
25.36836066385311
 21
76.14078419059743
 31
0.0
  0
LINE
  5
169
330
70
100
AcDbEntity
  8
Sichtbar (ISO)
 62
    18
420
        0
370
     5
100
AcDbLine
 10
26.51429590063705
 20
68.34842458046672
 30
0.0
 11
26.51429590063705
 21
76.14078419059743
 31
0.0
  0
LINE
  5
16A
330
70
100
AcDbEntity
  8
Sichtbar (ISO)
 62
    18
420
        0
370
     5
100
AcDbLine
 10
27.43104409006408
 20
73.3905396223157
 30
0.0
 11
27.43104409006408
 21
68.34842458046672
 31
0.0
  0
LINE
  5
16B
330
70
100
AcDbEntity
  8
Sichtbar (ISO)
 62
    18
420
        0
370
     5
100
AcDbLine
 10
17.08554077237795
 20
76.59915828531159
 30
0.0
 11
17.42932134341333
 21
76.59915828531159
 31
0.0
  0
LINE
  5
16C
330
70
100
AcDbEntity
  8
Sichtbar (ISO)
 62
    18
420
        0
370
     5
100
AcDbLine
 10
21.01380676407393
 20
77.74509352209586
 30
0.0
 11
21.01380676407393
 21
76.59915828531159
 31
0.0
  0
LINE
  5
16D
330
70
100
AcDbEntity
  8
Sichtbar (ISO)
 62
    18
420
        0
370
     5
100
AcDbLine
 10
19.63868447993306
 20
77.74509352209586
 30
0.0
 11
19.63868447993306
 21
76.59915828531159
 31
0.0
  0
LINE
  5
16E
330
70
100
AcDbEntity
  8
Sichtbar (ISO)
 62
    18
420
        0
370
     5
100
AcDbLine
 10
17.42932134341333
 20
76.14078419059743
 30
0.0
 11
17.08554077237795
 21
76.14078419059743
 31
0.0
  0
LINE
  5
16F
330
70
100
AcDbEntity
  8
Sichtbar (ISO)
 62
    18
420
        0
370
     5
100
AcDbLine
 10
17.08554077237795
 20
76.59915828531159
 30
0.0
 11
17.08554077237795
 21
76.14078419059743
 31
0.0
  0
LINE
  5
170
330
70
100
AcDbEntity
  8
Sichtbar (ISO)
 62
    18
420
        0
370
     5
100
AcDbLine
 10
11.6171378224448
 20
77.63049999841675
 30
0.0
 11
11.6171378224448
 21
68.34842458046672
 31
0.0
  0
LINE
  5
171
330
70
100
AcDbEntity
  8
Sichtbar (ISO)
 62
    18
420
        0
370
     5
100
AcDbLine
 10
11.6171378224448
 20
77.74509352209586
 30
0.0
 11
11.6171378224448
 21
77.63049999841675
 31
0.0
  0
LINE
  5
172
330
70
100
AcDbEntity
  8
Sichtbar (ISO)
 62
    18
420
        0
370
     5
100
AcDbLine
 10
11.04417020405283
 20
77.74509352209586
 30
0.0
 11
11.04417020405283
 21
68.34842458046672
 31
0.0
  0
LINE
  5
173
330
70
100
AcDbEntity
  8
Sichtbar (ISO)
 62
    18
420
        0
370
     5
100
AcDbLine
 10
47.37031721010658
 20
77.74509352209586
 30
0.0
 11
47.37031721010658
 21
68.34842458046672
 31
0.0
  0
LINE
  5
174
330
70
100
AcDbEntity
  8
Sichtbar (ISO)
 62
    18
420
        0
370
     5
100
AcDbLine
 10
47.94328482849823
 20
75.45322304852732
 30
0.0
 11
47.94328482849823
 21
68.34842458046672
 31
0.0
  0
LINE
  5
175
330
70
100
AcDbEntity
  8
Sichtbar (ISO)
 62
    18
420
        0
370
     5
100
AcDbLine
 10
47.94328482849823
 20
77.74509352209586
 30
0.0
 11
47.94328482849823
 21
75.45322304852732
 31
0.0
  0
LINE
  5
176
330
70
100
AcDbEntity
  8
Sichtbar (ISO)
 62
    18
420
        0
370
     5
100
AcDbLine
 10
20.21165209832503
 20
75.45322304852732
 30
0.0
 11
20.21165209832503
 21
75.5678165722061
 31
0.0
  0
LINE
  5
177
330
70
100
AcDbEntity
  8
Sichtbar (ISO)
 62
    18
420
        0
370
     5
100
AcDbLine
 10
20.21165209832471
 20
75.5678165722061
 30
0.0
 11
20.54487613093361
 21
75.5678165722061
 31
0.0
  0
LINE
  5
178
330
70
100
AcDbEntity
  8
Sichtbar (ISO)
 62
    18
420
        0
370
     5
100
AcDbLine
 10
38.77580293422667
 20
75.5678165722061
 30
0.0
 11
38.44257890161745
 21
75.5678165722061
 31
0.0
  0
LINE
  5
179
330
70
100
AcDbEntity
  8
Sichtbar (ISO)
 62
    18
420
        0
370
     5
100
AcDbLine
 10
38.77580293422603
 20
75.45322304852732
 30
0.0
 11
38.77580293422603
 21
75.5678165722061
 31
0.0
  0
LINE
  5
17A
330
70
100
AcDbEntity
  8
Sichtbar (ISO)
 62
    18
420
        0
370
     5
100
AcDbLine
 10
41.55813368913709
 20
76.14078419059807
 30
0.0
 11
41.90191426017342
 21
76.14078419059807
 31
0.0
  0
LINE
  5
17B
330
70
100
AcDbEntity
  8
Sichtbar (ISO)
 62
    18
420
        0
370
     5
100
AcDbLine
 10
41.90191426017342
 20
76.59915828531159
 30
0.0
 11
41.90191426017342
 21
76.14078419059807
 31
0.0
  0
LINE
  5
17C
330
70
100
AcDbEntity
  8
Sichtbar (ISO)
 62
    18
420
        0
370
     5
100
AcDbLine
 10
37.97364826847714
 20
77.74509352209586
 30
0.0
 11
37.97364826847714
 21
76.59915828531159
 31
0.0
  0
LINE
  5
17D
330
70
100
AcDbEntity
  8
Sichtbar (ISO)
 62
    18
420
        0
370
     5
100
AcDbLine
 10
39.34877055261864
 20
77.74509352209586
 30
0.0
 11
39.34877055261864
 21
76.59915828531159
 31
0.0
  0
LINE
  5
17E
330
70
100
AcDbEntity
  8
Sichtbar (ISO)
 62
    18
420
        0
370
     5
100
AcDbLine
 10
16.65925286429409
 20
76.14078419059743
 30
0.0
 11
16.040447836431
 21
76.14078419059743
 31
0.0
  0
LINE
  5
17F
330
70
100
AcDbEntity
  8
Sichtbar (ISO)
 62
    18
420
        0
370
     5
100
AcDbLine
 10
42.32820216825696
 20
76.14078419059807
 30
0.0
 11
42.94700719612006
 21
76.14078419059807
 31
0.0
  0
LINE
  5
180
330
70
100
AcDbEntity
  8
Sichtbar (ISO)
 62
    18
420
        0
370
     5
100
AcDbLine
 10
38.4981992833633
 20
76.14078419400036
 30
0.0
 11
38.49826689769561
 21
76.14068356279293
 31
0.0
  0
LINE
  5
181
330
70
100
AcDbEntity
  8
Sichtbar (ISO)
 62
    18
420
        0
370
     5
100
AcDbLine
 10
20.16323549481826
 20
76.14078419400036
 30
0.0
 11
20.16330310915121
 21
76.14068356279293
 31
0.0
  0
LINE
  5
182
330
70
100
AcDbEntity
  8
Sichtbar (ISO)
 62
    18
420
        0
370
     5
100
AcDbLine
 10
48.94344817190042
 20
75.41884499142398
 30
0.0
 11
47.37031721010658
 21
75.41884499142398
 31
0.0
  0
LINE
  5
183
330
70
100
AcDbEntity
  8
Sichtbar (ISO)
 62
    18
420
        0
370
     5
100
AcDbLine
 10
48.94344817190042
 20
76.86272338977217
 30
0.0
 11
48.94344817190042
 21
75.41884499142398
 31
0.0
  0
LINE
  5
184
330
70
100
AcDbEntity
  8
Sichtbar (ISO)
 62
    18
420
        0
370
     5
100
AcDbLine
 10
47.94328482849823
 20
76.86272338977217
 30
0.0
 11
48.94344817190042
 21
76.86272338977217
 31
0.0
  0
ELLIPSE
  5
185
330
70
100
AcDbEntity
  8
Sichtbar (ISO)
 62
    18
420
        0
370
     5
100
AcDbEllipse
 10
48.42161588848518
 20
76.14078419059783
 30
0.0
 11
0.0
 21
0.2005386664377037
 31
0.0
210
0.0
220
0.0
230
1.0
 40
0.7071067811859195
 41
0.0
 42
6.283185307179586
  0
LINE
  5
186
330
70
100
AcDbEntity
  8
Sichtbar (ISO)
 62
    18
420
        0
370
     5
100
AcDbLine
 10
48.94344817190042
 20
75.41884499142398
 30
0.0
 11
49.06661355556249
 21
75.41884499142398
 31
0.0
  0
LINE
  5
187
330
70
100
AcDbEntity
  8
Sichtbar (ISO)
 62
    18
420
        0
370
     5
100
AcDbLine
 10
49.06661355556249
 20
76.86272338977217
 30
0.0
 11
48.94344817190042
 21
76.86272338977217
 31
0.0
  0
LINE
  5
188
330
70
100
AcDbEntity
  8
Sichtbar (ISO)
 62
    18
420
        0
370
     5
100
AcDbLine
 10
49.06661355556249
 20
76.86272338977217
 30
0.0
 11
49.18524950105736
 21
76.63353634241461
 31
0.0
  0
LINE
  5
189
330
70
100
AcDbEntity
  8
Sichtbar (ISO)
 62
    18
420
        0
370
     5
100
AcDbLine
 10
49.18524950105736
 20
76.63353634241461
 30
0.0
 11
49.18524950105736
 21
75.6480320387812
 31
0.0
  0
LINE
  5
18A
330
70
100
AcDbEntity
  8
Sichtbar (ISO)
 62
    18
420
        0
370
     5
100
AcDbLine
 10
49.18524950105736
 20
75.6480320387812
 30
0.0
 11
49.06661355556249
 21
75.41884499142398
 31
0.0
  0
SPLINE
  5
18B
330
70
100
AcDbEntity
  8
Sichtbar (ISO)
 62
    18
420
        0
370
     5
100
AcDbSpline
210
0.0
220
0.0
230
1.0
 70
     8
 71
     3
 72
    17
 73
    13
 74
     0
 42
0.0000000001
 43
0.0000000001
 40
0.0
 40
0.0
 40
0.0
 40
0.0
 40
1.0
 40
1.0
 40
1.0
 40
2.0
 40
2.0
 40
2.0
 40
3.0
 40
3.0
 40
3.0
 40
4.0
 40
4.0
 40
4.0
 40
4.0
 10
5.105053086043257
 20
40.79564174293627
 30
0.0
 10
3.689352329443207
 20
27.32614878653115
 30
0.0
 10
13.46088158473618
 20
15.25931509416885
 30
0.0
 10
26.93037454114227
 20
13.84361433756977
 30
0.0
 10
40.39986749754802
 20
12.4279135809694
 30
0.0
 10
52.46670118991
 20
22.19944283626173
 30
0.0
 10
53.88240194650908
 20
35.66893579266813
 30
0.0
 10
55.29810270310946
 20
49.13842874907517
 30
0.0
 10
45.52657344781584
 20
61.20526244143523
 30
0.0
 10
32.05708049141072
 20
62.62096319803496
 30
0.0
 10
18.58841868555591
 20
64.036576597192
 30
0.0
 10
6.522065629891608
 20
54.26630826551497
 30
0.0
 10
5.105276873654687
 20
40.79777004651717
 30
0.0
  0
LINE
  5
18C
330
70
100
AcDbEntity
  8
Sichtbar (ISO)
 62
    18
420
        0
370
     5
100
AcDbLine
 10
5.105053086043257
 20
40.79564174293627
 30
0.0
 11
5.560916159505174
 21
40.74772860321362
 31
0.0
  0
LINE
  5
18D
330
70
100
AcDbEntity
  8
Sichtbar (ISO)
 62
    18
420
        0
370
     5
100
AcDbLine
 10
5.378792207964435
 20
40.76899829386053
 30
0.0
 11
5.378644658794417
 21
40.76759534057825
 31
0.0
  0
SPLINE
  5
18E
330
70
100
AcDbEntity
  8
Sichtbar (ISO)
 62
    18
420
        0
370
     5
100
AcDbSpline
210
0.0
220
0.0
230
1.0
 70
     8
 71
     3
 72
     8
 73
     4
 74
     0
 42
0.0000000001
 43
0.0000000001
 40
0.0
 40
0.0
 40
0.0
 40
0.0
 40
1.0
 40
1.0
 40
1.0
 40
1.0
 10
6.116657587212789
 20
38.25268911496853
 30
0.0
 10
6.116645718771519
 20
38.23908888611335
 30
0.0
 10
6.116645718771519
 20
38.2254886494949
 30
0.0
 10
6.116657587212789
 20
38.21188842063972
 30
0.0
  0
SPLINE
  5
18F
330
70
100
AcDbEntity
  8
Sichtbar (ISO)
 62
    18
420
        0
370
     5
100
AcDbSpline
210
0.0
220
0.0
230
1.0
 70
     8
 71
     3
 72
    17
 73
    13
 74
     0
 42
0.0000000001
 43
0.0000000001
 40
0.0
 40
0.0
 40
0.0
 40
0.0
 40
1.0
 40
1.0
 40
1.0
 40
2.0
 40
2.0
 40
2.0
 40
3.0
 40
3.0
 40
3.0
 40
4.0
 40
4.0
 40
4.0
 40
4.0
 10
5.658283667035318
 20
38.21148841383191
 30
0.0
 10
5.669771385325401
 20
25.04753627044815
 30
0.0
 10
16.35057572686479
 20
14.38535720027367
 30
0.0
 10
29.51452787024855
 20
14.39684491856343
 30
0.0
 10
42.67848001363231
 20
14.40833263685319
 30
0.0
 10
53.34065908380775
 20
25.08913697839258
 30
0.0
 10
53.32917136551799
 20
38.25308912177763
 30
0.0
 10
53.31768364722694
 20
51.41704126516106
 30
0.0
 10
42.63687930568788
 20
62.07922033533522
 30
0.0
 10
29.47292716230379
 20
62.06773261704578
 30
0.0
 10
16.32521816712934
 20
62.05625907358011
 30
0.0
 10
5.669757210497465
 20
51.40079811694437
 30
0.0
 10
5.658283667035318
 20
38.25308912177121
 30
0.0
  0
LINE
  5
190
330
70
100
AcDbEntity
  8
Sichtbar (ISO)
 62
    18
420
        0
370
     5
100
AcDbLine
 10
5.658283667031147
 20
38.25308912177378
 30
0.0
 11
6.116657587202522
 21
38.25268911496853
 31
0.0
  0
SPLINE
  5
191
330
70
100
AcDbEntity
  8
Sichtbar (ISO)
 62
    18
420
        0
370
     5
100
AcDbSpline
210
0.0
220
0.0
230
1.0
 70
     8
 71
     3
 72
    17
 73
    13
 74
     0
 42
0.0000000001
 43
0.0000000001
 40
0.0
 40
0.0
 40
0.0
 40
0.0
 40
1.0
 40
1.0
 40
1.0
 40
2.0
 40
2.0
 40
2.0
 40
3.0
 40
3.0
 40
3.0
 40
4.0
 40
4.0
 40
4.0
 40
4.0
 10
6.116657587212789
 20
38.21188842063972
 30
0.0
 10
6.127924387842269
 20
25.30108920309074
 30
0.0
 10
16.60332864588854
 20
14.84395203811078
 30
0.0
 10
29.51412786343849
 20
14.85521883873898
 30
0.0
 10
42.42492708098844
 20
14.86648563936846
 30
0.0
 10
52.88206424596808
 20
25.34188989741569
 30
0.0
 10
52.87079744533987
 20
38.25268911496597
 30
0.0
 10
52.8595306447104
 20
51.16348833251463
 30
0.0
 10
42.38412638666412
 20
61.62062549749522
 30
0.0
 10
29.47332716911385
 20
61.60935869686607
 30
0.0
 10
16.57845873153868
 20
61.5981057984682
 30
0.0
 10
6.127910485610331
 20
51.14755755253952
 30
0.0
 10
6.116657587212789
 20
38.25268911496597
 30
0.0
  0
LINE
  5
192
330
70
100
AcDbEntity
  8
Sichtbar (ISO)
 62
    18
420
        0
370
     5
100
AcDbLine
 10
52.59578188984262
 20
41.67009447815467
 30
0.0
 11
52.59578188984262
 21
34.79448305744972
 31
0.0
  0
LINE
  5
193
330
70
100
AcDbEntity
  8
Sichtbar (ISO)
 62
    18
420
        0
370
     5
100
AcDbLine
 10
20.91992740793365
 20
16.50641994550777
 30
0.0
 11
14.96547325105304
 21
19.94422565586025
 31
0.0
  0
LINE
  5
194
330
70
100
AcDbEntity
  8
Sichtbar (ISO)
 62
    18
420
        0
370
     5
100
AcDbLine
 10
14.96547325105304
 20
56.52035187974384
 30
0.0
 11
20.91992740793365
 21
59.95815759009663
 31
0.0
  0
LINE
  5
195
330
70
100
AcDbEntity
  8
Sichtbar (ISO)
 62
    18
420
        0
370
     5
100
AcDbLine
 10
5.445795974512585
 20
40.76195000235254
 30
0.0
 11
5.445648835311249
 21
40.76055094720841
 31
0.0
  0
LINE
  5
196
330
70
100
AcDbEntity
  8
Sichtbar (ISO)
 62
    18
420
        0
370
     5
100
AcDbLine
 10
5.391176224960669
 20
40.76769558856558
 30
0.0
 11
5.391028751562794
 21
40.76629335575474
 31
0.0
  0
LINE
  5
197
330
70
100
AcDbEntity
  8
Sichtbar (ISO)
 62
    18
420
        0
370
     5
100
AcDbLine
 10
5.381541373452265
 20
40.76870910236143
 30
0.0
 11
5.381393841102141
 21
40.76730630900467
 31
0.0
  0
INSERT
  5
199
330
70
100
AcDbEntity
  8
Sichtbar (ISO)
100
AcDbBlockReference
  2
Block_1
 10
0.0
 20
0.0
 30
0.0
  0
LINE
  5
1AD
330
70
100
AcDbEntity
  8
Sichtbar (ISO)
 62
    18
420
        0
370
     5
100
AcDbLine
 10
29.51412786343849
 20
14.84977313616716
 30
0.0
 11
72.91293111858987
 21
14.86064634967821
 31
0.0
  0
LINE
  5
1AE
330
70
100
AcDbEntity
  8
Sichtbar (ISO)
 62
    18
420
        0
370
     5
100
AcDbLine
 10
29.89688420416205
 20
61.60163143726816
 30
0.0
 11
72.72351715246819
 21
61.61710414809527
 31
0.0
  0
LINE
  5
1AF
330
70
100
AcDbEntity
  8
Sichtbar (ISO)
 62
    18
420
        0
370
     5
100
AcDbLine
 10
29.51412786343849
 20
13.70272492549415
 30
0.0
 11
79.84051541745528
 21
13.71456323697045
 31
0.0
  0
INSERT
  5
1B1
330
70
100
AcDbEntity
  8
Sichtbar (ISO)
100
AcDbBlockReference
  2
Block_5
 10
0.0
 20
0.0
 30
0.0
  0
LINE
  5
1C5
330
70
100
AcDbEntity
  8
Sichtbar (ISO)
 62
    18
420
        0
370
     5
100
AcDbLine
 10
29.49735035861685
 20
62.75052714550731
 30
0.0
 11
79.85140212263729
 21
62.72424082930553
 31
0.0
  0
LWPOLYLINE
  5
1C6
330
70
100
AcDbEntity
  8
Sichtbar (ISO)
 62
    18
420
        0
370
     5
100
AcDbPolyline
 90
        1
 70
     0
 43
0.0
 10
82.94692184379481
 20
69.67610974922478
  0
LINE
  5
1C7
330
70
100
AcDbEntity
  8
Sichtbar (ISO)
 62
    18
420
        0
370
     5
100
AcDbLine
 10
53.44377396506168
 20
65.13980591747054
 30
0.0
 11
79.89961742741899
 21
65.14548988451855
 31
0.0
  0
LWPOLYLINE
  5
1C8
330
70
100
AcDbEntity
  8
Sichtbar (ISO)
 62
    18
420
        0
370
     5
100
AcDbPolyline
 90
        1
 70
     0
 43
0.0
 10
74.90755101542153
 20
69.48925226280427
  0
LINE
  5
1C9
330
70
100
AcDbEntity
  8
Sichtbar (ISO)
  6
AI-Linetype-0
 62
    18
420
        0
370
     5
100
AcDbLine
 10
65.83756727137805
 20
79.53972891027226
 30
0.0
 11
52.87080654115553
 21
79.52812703344777
 31
0.0
  0
INSERT
  5
1CC
330
70
100
AcDbEntity
  8
Sichtbar (ISO)
100
AcDbBlockReference
  2
Block_9
 10
0.0
 20
0.0
 30
0.0
  0
LWPOLYLINE
  5
1DA
330
70
100
AcDbEntity
  8
Sichtbar (ISO)
 62
    18
420
        0
370
     5
100
AcDbPolyline
 90
        1
 70
     0
 43
0.0
 10
63.33889061691065
 20
77.17941555058003
  0
INSERT
  5
1DC
330
70
100
AcDbEntity
  8
Sichtbar (ISO)
100
AcDbBlockReference
  2
Block_12
 10
0.0
 20
0.0
 30
0.0
  0
INSERT
  5
1F1
330
70
100
AcDbEntity
  8
Sichtbar (ISO)
100
AcDbBlockReference
  2
Block_16
 10
0.0
 20
0.0
 30
0.0
  0
LINE
  5
1FC
330
70
100
AcDbEntity
  8
Sichtbar (ISO)
 62
    18
420
        0
370
     5
100
AcDbLine
 10
54.01674158345461
 20
82.80149167695135
 30
0.0
 11
79.95719316360084
 21
82.82079162323682
 31
0.0
  0
LINE
  5
1FD
330
70
100
AcDbEntity
  8
Sichtbar (ISO)
  6
AI-Linetype-1
 62
    18
420
        0
370
     5
100
AcDbLine
 10
63.84489183592331
 20
82.77918265315609
 30
0.0
 11
63.84125078821495
 21
79.53392797186018
 31
0.0
  0
LWPOLYLINE
  5
1FF
330
70
100
AcDbEntity
  8
Sichtbar (ISO)
 62
    18
420
        0
370
     5
100
AcDbPolyline
 90
        1
 70
     0
 43
0.0
 10
70.18050545108964
 20
77.75116887153327
  0
INSERT
  5
201
330
70
100
AcDbEntity
  8
Sichtbar (ISO)
100
AcDbBlockReference
  2
Block_18
 10
0.0
 20
0.0
 30
0.0
  0
INSERT
  5
20D
330
70
100
AcDbEntity
  8
Sichtbar (ISO)
100
AcDbBlockReference
  2
Block_20
 10
0.0
 20
0.0
 30
0.0
  0
INSERT
  5
221
330
70
100
AcDbEntity
  8
Sichtbar (ISO)
100
AcDbBlockReference
  2
Block_22
 10
0.0
 20
0.0
 30
0.0
  0
LINE
  5
234
330
70
100
AcDbEntity
  8
Sichtbar schmal (ISO)
 62
    18
420
        0
370
     5
100
AcDbLine
 10
9.531003145777637
 20
14.64151042386887
 30
0.0
 11
9.542481047642334
 21
14.64151042386887
 31
0.0
  0
LINE
  5
235
330
70
100
AcDbEntity
  8
Sichtbar schmal (ISO)
 62
    18
420
        0
370
     5
100
AcDbLine
 10
9.531003145777637
 20
58.94621162373261
 30
0.0
 11
9.542481047642334
 21
58.94621162373261
 31
0.0
  0
LINE
  5
236
330
70
100
AcDbEntity
  8
Sichtbar schmal (ISO)
 62
    18
420
        0
370
     5
100
AcDbLine
 10
9.760561183082485
 20
58.25753751181775
 30
0.0
 11
9.760561183082485
 21
15.33018453578405
 31
0.0
  0
LINE
  5
237
330
70
100
AcDbEntity
  8
Sichtbar schmal (ISO)
 62
    18
420
        0
370
     5
100
AcDbLine
 10
52.68791415911618
 20
15.33018453578405
 30
0.0
 11
52.68791415911618
 21
58.25753751181775
 31
0.0
  0
LINE
  5
238
330
70
100
AcDbEntity
  8
Sichtbar schmal (ISO)
 62
    18
420
        0
370
     5
100
AcDbLine
 10
52.68791415911618
 20
58.25753751181775
 30
0.0
 11
9.760561183082485
 21
58.25753751181775
 31
0.0
  0
LINE
  5
239
330
70
100
AcDbEntity
  8
Sichtbar schmal (ISO)
 62
    18
420
        0
370
     5
100
AcDbLine
 10
52.68791415911618
 20
15.33018453578405
 30
0.0
 11
9.760561183082485
 21
15.33018453578405
 31
0.0
  0
LINE
  5
23A
330
70
100
AcDbEntity
  8
Sichtbar schmal (ISO)
 62
    18
420
        0
370
     5
100
AcDbLine
 10
54.06526238294654
 20
59.1528138573071
 30
0.0
 11
54.06526238294654
 21
14.43490819029406
 31
0.0
  0
LINE
  5
23B
330
70
100
AcDbEntity
  8
Sichtbar schmal (ISO)
 62
    18
420
        0
370
     5
100
AcDbLine
 10
8.383212959252759
 20
14.43490819029406
 30
0.0
 11
8.383212959252759
 21
59.1528138573071
 31
0.0
  0
LWPOLYLINE
  5
23C
330
70
100
AcDbEntity
  8
Sichtbar schmal (ISO)
 62
    18
420
        0
370
     5
100
AcDbPolyline
 90
        1
 70
     0
 43
0.0
 10
8.383212959252759
 20
14.43490819029406
  0
LINE
  5
23D
330
70
100
AcDbEntity
  8
Sichtbar schmal (ISO)
 62
    18
420
        0
370
     5
100
AcDbLine
 10
54.06526238294654
 20
59.63488573564779
 30
0.0
 11
8.383212959252759
 21
59.63488573564779
 31
0.0
  0
LINE
  5
23E
330
70
100
AcDbEntity
  8
Sichtbar schmal (ISO)
 62
    18
420
        0
370
     5
100
AcDbLine
 10
54.06526238294654
 20
59.63488573564779
 30
0.0
 11
54.06526238294654
 21
59.17576966103777
 31
0.0
  0
LINE
  5
23F
330
70
100
AcDbEntity
  8
Sichtbar schmal (ISO)
 62
    18
420
        0
370
     5
100
AcDbLine
 10
8.383212959252759
 20
59.63488573564779
 30
0.0
 11
8.383212959252759
 21
59.17576966103777
 31
0.0
  0
LINE
  5
240
330
70
100
AcDbEntity
  8
Sichtbar schmal (ISO)
 62
    18
420
        0
370
     5
100
AcDbLine
 10
54.06526238294654
 20
13.95283631195369
 30
0.0
 11
8.383212959252759
 21
13.95283631195369
 31
0.0
  0
LINE
  5
241
330
70
100
AcDbEntity
  8
Sichtbar schmal (ISO)
 62
    18
420
        0
370
     5
100
AcDbLine
 10
8.383212959252759
 20
13.95283631195369
 30
0.0
 11
8.383212959252759
 21
14.41195238656466
 31
0.0
  0
LINE
  5
242
330
70
100
AcDbEntity
  8
Sichtbar schmal (ISO)
 62
    18
420
        0
370
     5
100
AcDbLine
 10
54.06526238294654
 20
13.95283631195369
 30
0.0
 11
54.06526238294654
 21
14.41195238656466
 31
0.0
  0
LINE
  5
243
330
70
100
AcDbEntity
  8
Sichtbar schmal (ISO)
 62
    18
420
        0
370
     5
100
AcDbLine
 10
9.071887071168264
 20
14.64151042386887
 30
0.0
 11
9.071887071168264
 21
58.94621162373261
 31
0.0
  0
LINE
  5
244
330
70
100
AcDbEntity
  8
Sichtbar schmal (ISO)
 62
    18
420
        0
370
     5
100
AcDbLine
 10
9.071887071168264
 20
58.94621162373261
 30
0.0
 11
9.531003145777637
 21
58.94621162373261
 31
0.0
  0
LINE
  5
245
330
70
100
AcDbEntity
  8
Sichtbar schmal (ISO)
 62
    18
420
        0
370
     5
100
AcDbLine
 10
9.071887071168264
 20
14.64151042386887
 30
0.0
 11
9.531003145777637
 21
14.64151042386887
 31
0.0
  0
LINE
  5
246
330
70
100
AcDbEntity
  8
Sichtbar schmal (ISO)
 62
    18
420
        0
370
     5
100
AcDbLine
 10
53.37658827103201
 20
58.94621162373261
 30
0.0
 11
53.37658827103201
 21
14.64151042386887
 31
0.0
  0
LINE
  5
247
330
70
100
AcDbEntity
  8
Sichtbar schmal (ISO)
 62
    18
420
        0
370
     5
100
AcDbLine
 10
9.542481047642334
 20
14.64151042386887
 30
0.0
 11
53.37658827103201
 21
14.64151042386887
 31
0.0
  0
LINE
  5
248
330
70
100
AcDbEntity
  8
Sichtbar schmal (ISO)
 62
    18
420
        0
370
     5
100
AcDbLine
 10
9.542481047642334
 20
58.94621162373261
 30
0.0
 11
53.37658827103201
 21
58.94621162373261
 31
0.0
  0
LINE
  5
249
330
70
100
AcDbEntity
  8
Sichtbar schmal (ISO)
 62
    18
420
        0
370
     5
100
AcDbLine
 10
21.41950028614546
 20
77.75121485624119
 30
0.0
 11
21.41950028614546
 21
76.60342466971695
 31
0.0
  0
LINE
  5
24A
330
70
100
AcDbEntity
  8
Sichtbar schmal (ISO)
 62
    18
420
        0
370
     5
100
AcDbLine
 10
53.32806747153878
 20
77.75121485624119
 30
0.0
 11
9.023366271675689
 21
77.75121485624119
 31
0.0
  0
LINE
  5
24B
330
70
100
AcDbEntity
  8
Sichtbar schmal (ISO)
 62
    18
420
        0
370
     5
100
AcDbLine
 10
53.5346697051136
 20
82.80149167695135
 30
0.0
 11
8.816764038101197
 21
82.80149167695135
 31
0.0
  0
SPLINE
  5
24C
330
70
100
AcDbEntity
  8
Sichtbar schmal (ISO)
 62
    18
420
        0
370
     5
100
AcDbSpline
210
0.0
220
0.0
230
1.0
 70
     8
 71
     3
 72
     8
 73
     4
 74
     0
 42
0.0000000001
 43
0.0000000001
 40
0.0
 40
0.0
 40
0.0
 40
0.0
 40
1.0
 40
1.0
 40
1.0
 40
1.0
 10
8.334692159760505
 20
78.4398889681567
 30
0.0
 10
8.334692159760505
 20
78.05954475854284
 30
0.0
 10
8.643022062062158
 20
77.75121485624119
 30
0.0
 10
9.023366271675689
 20
77.75121485624119
 30
0.0
  0
LINE
  5
24D
330
70
100
AcDbEntity
  8
Sichtbar schmal (ISO)
 62
    18
420
        0
370
     5
100
AcDbLine
 10
8.334692159760505
 20
78.83749515205424
 30
0.0
 11
8.334692159760505
 21
78.4398889681567
 31
0.0
  0
LINE
  5
24E
330
70
100
AcDbEntity
  8
Sichtbar schmal (ISO)
 62
    18
420
        0
370
     5
100
AcDbLine
 10
8.334692159760505
 20
82.80149167695135
 30
0.0
 11
8.334692159760505
 21
78.83749515205424
 31
0.0
  0
LINE
  5
24F
330
70
100
AcDbEntity
  8
Sichtbar schmal (ISO)
 62
    18
420
        0
370
     5
100
AcDbLine
 10
8.334692159760505
 20
82.80149167695135
 30
0.0
 11
8.793808234371162
 21
82.80149167695135
 31
0.0
  0
SPLINE
  5
250
330
70
100
AcDbEntity
  8
Sichtbar schmal (ISO)
 62
    18
420
        0
370
     5
100
AcDbSpline
210
0.0
220
0.0
230
1.0
 70
     8
 71
     3
 72
     8
 73
     4
 74
     0
 42
0.0000000001
 43
0.0000000001
 40
0.0
 40
0.0
 40
0.0
 40
0.0
 40
1.0
 40
1.0
 40
1.0
 40
1.0
 10
53.32806747153878
 20
77.75121485624119
 30
0.0
 10
53.70841168115328
 20
77.75121485624119
 30
0.0
 10
54.01674158345461
 20
78.05954475854284
 30
0.0
 10
54.01674158345461
 20
78.4398889681567
 30
0.0
  0
LINE
  5
251
330
70
100
AcDbEntity
  8
Sichtbar schmal (ISO)
 62
    18
420
        0
370
     5
100
AcDbLine
 10
54.01674158345461
 20
82.80149167695135
 30
0.0
 11
54.01674158345461
 21
78.83749515205424
 31
0.0
  0
LINE
  5
252
330
70
100
AcDbEntity
  8
Sichtbar schmal (ISO)
 62
    18
420
        0
370
     5
100
AcDbLine
 10
54.01674158345461
 20
78.83749515205424
 30
0.0
 11
54.01674158345461
 21
78.4398889681567
 31
0.0
  0
LINE
  5
253
330
70
100
AcDbEntity
  8
Sichtbar schmal (ISO)
 62
    18
420
        0
370
     5
100
AcDbLine
 10
54.01674158345461
 20
82.80149167695135
 30
0.0
 11
53.55762550884428
 21
82.80149167695135
 31
0.0
  0
LINE
  5
254
330
70
100
AcDbEntity
  8
Sichtbar schmal (ISO)
 62
    18
420
        0
370
     5
100
AcDbLine
 10
49.42558083735382
 20
65.12552280446657
 30
0.0
 11
52.1802772850139
 21
65.12552280446657
 31
0.0
  0
LINE
  5
255
330
70
100
AcDbEntity
  8
Sichtbar schmal (ISO)
 62
    18
420
        0
370
     5
100
AcDbLine
 10
52.1802772850139
 20
77.75121485624119
 30
0.0
 11
52.1802772850139
 21
65.12552280446657
 31
0.0
  0
LINE
  5
256
330
70
100
AcDbEntity
  8
Sichtbar schmal (ISO)
 62
    18
420
        0
370
     5
100
AcDbLine
 10
49.42558083735382
 20
77.75121485624119
 30
0.0
 11
49.42558083735382
 21
65.12552280446657
 31
0.0
  0
LINE
  5
257
330
70
100
AcDbEntity
  8
Sichtbar schmal (ISO)
 62
    18
420
        0
370
     5
100
AcDbLine
 10
10.17115645820024
 20
65.12552280446657
 30
0.0
 11
12.92585290586066
 21
65.12552280446657
 31
0.0
  0
LINE
  5
258
330
70
100
AcDbEntity
  8
Sichtbar schmal (ISO)
 62
    18
420
        0
370
     5
100
AcDbLine
 10
12.92585290586066
 20
77.75121485624119
 30
0.0
 11
12.92585290586066
 21
65.12552280446657
 31
0.0
  0
LINE
  5
259
330
70
100
AcDbEntity
  8
Sichtbar schmal (ISO)
 62
    18
420
        0
370
     5
100
AcDbLine
 10
10.17115645820024
 20
77.75121485624119
 30
0.0
 11
10.17115645820024
 21
65.12552280446657
 31
0.0
  0
LINE
  5
25A
330
70
100
AcDbEntity
  8
Sichtbar schmal (ISO)
 62
    18
420
        0
370
     5
100
AcDbLine
 10
21.77441096862136
 20
75.45563448319143
 30
0.0
 11
21.77441096862136
 21
76.14430859510661
 31
0.0
  0
LINE
  5
25B
330
70
100
AcDbEntity
  8
Sichtbar schmal (ISO)
 62
    18
420
        0
370
     5
100
AcDbLine
 10
21.87861636075547
 20
75.45563448319143
 30
0.0
 11
21.87861636075547
 21
75.57041350184386
 31
0.0
  0
LINE
  5
25C
330
70
100
AcDbEntity
  8
Sichtbar schmal (ISO)
 62
    18
420
        0
370
     5
100
AcDbLine
 10
21.87861636075451
 20
75.57041350184386
 30
0.0
 11
22.21237979019347
 21
75.57041350184386
 31
0.0
  0
LINE
  5
25D
330
70
100
AcDbEntity
  8
Sichtbar schmal (ISO)
 62
    18
420
        0
370
     5
100
AcDbLine
 10
22.21237979019411
 20
75.57041350184386
 30
0.0
 11
22.21237979019411
 21
76.14430859510661
 31
0.0
  0
LINE
  5
25E
330
70
100
AcDbEntity
  8
Sichtbar schmal (ISO)
 62
    18
420
        0
370
     5
100
AcDbLine
 10
28.1914623866423
 20
76.14430859510661
 30
0.0
 11
27.04367220011774
 21
76.14430859510661
 31
0.0
  0
LINE
  5
25F
330
70
100
AcDbEntity
  8
Sichtbar schmal (ISO)
 62
    18
420
        0
370
     5
100
AcDbLine
 10
26.12544005089739
 20
76.14430859510661
 30
0.0
 11
19.09178178787295
 21
76.14430859510661
 31
0.0
  0
LINE
  5
260
330
70
100
AcDbEntity
  8
Sichtbar schmal (ISO)
 62
    18
420
        0
370
     5
100
AcDbLine
 10
19.09178178787295
 20
76.14430859510661
 30
0.0
 11
18.74744473191471
 21
76.14430859510661
 31
0.0
  0
LINE
  5
261
330
70
100
AcDbEntity
  8
Sichtbar schmal (ISO)
 62
    18
420
        0
370
     5
100
AcDbLine
 10
29.86429314539181
 20
76.00948871818999
 30
0.0
 11
32.48714059782331
 21
76.00948871818999
 31
0.0
  0
SPLINE
  5
262
330
70
100
AcDbEntity
  8
Sichtbar schmal (ISO)
 62
    18
420
        0
370
     5
100
AcDbSpline
210
0.0
220
0.0
230
1.0
 70
     8
 71
     3
 72
     8
 73
     4
 74
     0
 42
0.0000000001
 43
0.0000000001
 40
0.0
 40
0.0
 40
0.0
 40
0.0
 40
1.0
 40
1.0
 40
1.0
 40
1.0
 10
32.53302423717278
 20
75.96360507883925
 30
0.0
 10
32.53302423717278
 20
75.98895494809212
 30
0.0
 10
32.51249046707555
 20
76.00948871818967
 30
0.0
 10
32.48714059782331
 20
76.00948871818967
 30
0.0
  0
LINE
  5
263
330
70
100
AcDbEntity
  8
Sichtbar schmal (ISO)
 62
    18
420
        0
370
     5
100
AcDbLine
 10
32.5330242371731
 20
75.06244290619507
 30
0.0
 11
32.5330242371731
 21
75.96360507883925
 31
0.0
  0
SPLINE
  5
264
330
70
100
AcDbEntity
  8
Sichtbar schmal (ISO)
 62
    18
420
        0
370
     5
100
AcDbSpline
210
0.0
220
0.0
230
1.0
 70
     8
 71
     3
 72
     8
 73
     4
 74
     0
 42
0.0000000001
 43
0.0000000001
 40
0.0
 40
0.0
 40
0.0
 40
0.0
 40
1.0
 40
1.0
 40
1.0
 40
1.0
 10
32.48714059782331
 20
75.0165592668456
 30
0.0
 10
32.51249046707555
 20
75.01655926684624
 30
0.0
 10
32.53302423717245
 20
75.0370930369425
 30
0.0
 10
32.53302423717278
 20
75.06244290619507
 30
0.0
  0
LINE
  5
265
330
70
100
AcDbEntity
  8
Sichtbar schmal (ISO)
 62
    18
420
        0
370
     5
100
AcDbLine
 10
31.94762327393439
 20
75.0165592668456
 30
0.0
 11
32.48714059782331
 21
75.0165592668456
 31
0.0
  0
SPLINE
  5
266
330
70
100
AcDbEntity
  8
Sichtbar schmal (ISO)
 62
    18
420
        0
370
     5
100
AcDbSpline
210
0.0
220
0.0
230
1.0
 70
     8
 71
     3
 72
     8
 73
     4
 74
     0
 42
0.0000000001
 43
0.0000000001
 40
0.0
 40
0.0
 40
0.0
 40
0.0
 40
1.0
 40
1.0
 40
1.0
 40
1.0
 10
31.94762327393439
 20
75.01655926684463
 30
0.0
 10
31.92227340468247
 20
75.01655926684463
 30
0.0
 10
31.90173963458621
 20
74.99602549674903
 30
0.0
 10
31.90173963458525
 20
74.97067562749646
 30
0.0
  0
LINE
  5
267
330
70
100
AcDbEntity
  8
Sichtbar schmal (ISO)
 62
    18
420
        0
370
     5
100
AcDbLine
 10
31.9017396345846
 20
74.02943173832294
 30
0.0
 11
31.9017396345846
 21
74.97067562749646
 31
0.0
  0
SPLINE
  5
268
330
70
100
AcDbEntity
  8
Sichtbar schmal (ISO)
 62
    18
420
        0
370
     5
100
AcDbSpline
210
0.0
220
0.0
230
1.0
 70
     8
 71
     3
 72
     8
 73
     4
 74
     0
 42
0.0000000001
 43
0.0000000001
 40
0.0
 40
0.0
 40
0.0
 40
0.0
 40
1.0
 40
1.0
 40
1.0
 40
1.0
 10
31.85585599523418
 20
73.98354809897347
 30
0.0
 10
31.88120586448642
 20
73.98354809897347
 30
0.0
 10
31.90173963458396
 20
74.00408186907005
 30
0.0
 10
31.90173963458428
 20
74.02943173832294
 30
0.0
  0
LINE
  5
269
330
70
100
AcDbEntity
  8
Sichtbar schmal (ISO)
 62
    18
420
        0
370
     5
100
AcDbLine
 10
31.85585599523418
 20
73.98354809897347
 30
0.0
 11
30.49557774798062
 21
73.98354809897347
 31
0.0
  0
SPLINE
  5
26A
330
70
100
AcDbEntity
  8
Sichtbar schmal (ISO)
 62
    18
420
        0
370
     5
100
AcDbSpline
210
0.0
220
0.0
230
1.0
 70
     8
 71
     3
 72
     8
 73
     4
 74
     0
 42
0.0000000001
 43
0.0000000001
 40
0.0
 40
0.0
 40
0.0
 40
0.0
 40
1.0
 40
1.0
 40
1.0
 40
1.0
 10
30.44969410863052
 20
74.02943173832294
 30
0.0
 10
30.44969410863084
 20
74.00408186907005
 30
0.0
 10
30.47022787872806
 20
73.98354809897347
 30
0.0
 10
30.49557774798062
 20
73.98354809897347
 30
0.0
  0
LINE
  5
26B
330
70
100
AcDbEntity
  8
Sichtbar schmal (ISO)
 62
    18
420
        0
370
     5
100
AcDbLine
 10
30.4496941086302
 20
74.02943173832294
 30
0.0
 11
30.4496941086302
 21
74.97067562749646
 31
0.0
  0
SPLINE
  5
26C
330
70
100
AcDbEntity
  8
Sichtbar schmal (ISO)
 62
    18
420
        0
370
     5
100
AcDbSpline
210
0.0
220
0.0
230
1.0
 70
     8
 71
     3
 72
     8
 73
     4
 74
     0
 42
0.0000000001
 43
0.0000000001
 40
0.0
 40
0.0
 40
0.0
 40
0.0
 40
1.0
 40
1.0
 40
1.0
 40
1.0
 10
30.4496941086302
 20
74.97067562749646
 30
0.0
 10
30.44969410862859
 20
74.99602549674903
 30
0.0
 10
30.42916033853233
 20
75.01655926684463
 30
0.0
 10
30.40381046928041
 20
75.01655926684463
 30
0.0
  0
LINE
  5
26D
330
70
100
AcDbEntity
  8
Sichtbar schmal (ISO)
 62
    18
420
        0
370
     5
100
AcDbLine
 10
30.40381046928041
 20
75.0165592668456
 30
0.0
 11
29.86429314539181
 21
75.0165592668456
 31
0.0
  0
SPLINE
  5
26E
330
70
100
AcDbEntity
  8
Sichtbar schmal (ISO)
 62
    18
420
        0
370
     5
100
AcDbSpline
210
0.0
220
0.0
230
1.0
 70
     8
 71
     3
 72
     8
 73
     4
 74
     0
 42
0.0000000001
 43
0.0000000001
 40
0.0
 40
0.0
 40
0.0
 40
0.0
 40
1.0
 40
1.0
 40
1.0
 40
1.0
 10
29.81840950604203
 20
75.06244290619507
 30
0.0
 10
29.81840950604299
 20
75.0370930369425
 30
0.0
 10
29.83894327613957
 20
75.01655926684624
 30
0.0
 10
29.86429314539181
 20
75.0165592668456
 30
0.0
  0
LINE
  5
26F
330
70
100
AcDbEntity
  8
Sichtbar schmal (ISO)
 62
    18
420
        0
370
     5
100
AcDbLine
 10
29.81840950604203
 20
75.06244290619507
 30
0.0
 11
29.81840950604203
 21
75.96360507883925
 31
0.0
  0
SPLINE
  5
270
330
70
100
AcDbEntity
  8
Sichtbar schmal (ISO)
 62
    18
420
        0
370
     5
100
AcDbSpline
210
0.0
220
0.0
230
1.0
 70
     8
 71
     3
 72
     8
 73
     4
 74
     0
 42
0.0000000001
 43
0.0000000001
 40
0.0
 40
0.0
 40
0.0
 40
0.0
 40
1.0
 40
1.0
 40
1.0
 40
1.0
 10
29.86429314539181
 20
76.00948871818967
 30
0.0
 10
29.83894327613925
 20
76.00948871818967
 30
0.0
 10
29.81840950604235
 20
75.98895494809212
 30
0.0
 10
29.81840950604203
 20
75.96360507883925
 30
0.0
  0
LINE
  5
271
330
70
100
AcDbEntity
  8
Sichtbar schmal (ISO)
 62
    18
420
        0
370
     5
100
AcDbLine
 10
29.40811998435921
 20
73.38961214744653
 30
0.0
 11
29.40811998435921
 21
68.33933532673636
 31
0.0
  0
LINE
  5
272
330
70
100
AcDbEntity
  8
Sichtbar schmal (ISO)
 62
    18
420
        0
370
     5
100
AcDbLine
 10
29.40811998435921
 20
68.33933532673636
 30
0.0
 11
29.10969453586233
 21
68.33933532673636
 31
0.0
  0
LINE
  5
273
330
70
100
AcDbEntity
  8
Sichtbar schmal (ISO)
 62
    18
420
        0
370
     5
100
AcDbLine
 10
17.7006600818043
 20
76.14430859510661
 30
0.0
 11
17.7006600818043
 21
68.33933532673636
 31
0.0
  0
LINE
  5
274
330
70
100
AcDbEntity
  8
Sichtbar schmal (ISO)
 62
    18
420
        0
370
     5
100
AcDbLine
 10
18.32046678252745
 20
76.14430859510661
 30
0.0
 11
18.32046678252745
 21
68.33933532673636
 31
0.0
  0
LINE
  5
275
330
70
100
AcDbEntity
  8
Sichtbar schmal (ISO)
 62
    18
420
        0
370
     5
100
AcDbLine
 10
26.12544005089739
 20
68.33933532673636
 30
0.0
 11
18.32046678252745
 21
68.33933532673636
 31
0.0
  0
LINE
  5
276
330
70
100
AcDbEntity
  8
Sichtbar schmal (ISO)
 62
    18
420
        0
370
     5
100
AcDbLine
 10
23.2559645845852
 20
75.57041350184386
 30
0.0
 11
22.21237979019411
 21
75.57041350184386
 31
0.0
  0
LINE
  5
277
330
70
100
AcDbEntity
  8
Sichtbar schmal (ISO)
 62
    18
420
        0
370
     5
100
AcDbLine
 10
23.2559645845852
 20
75.340855464539
 30
0.0
 11
23.2559645845852
 21
75.57041350184386
 31
0.0
  0
LINE
  5
278
330
70
100
AcDbEntity
  8
Sichtbar schmal (ISO)
 62
    18
420
        0
370
     5
100
AcDbLine
 10
25.78110299494044
 20
75.340855464539
 30
0.0
 11
23.2559645845852
 21
75.340855464539
 31
0.0
  0
SPLINE
  5
279
330
70
100
AcDbEntity
  8
Sichtbar schmal (ISO)
 62
    18
420
        0
370
     5
100
AcDbSpline
210
0.0
220
0.0
230
1.0
 70
     8
 71
     3
 72
     8
 73
     4
 74
     0
 42
0.0000000001
 43
0.0000000001
 40
0.0
 40
0.0
 40
0.0
 40
0.0
 40
1.0
 40
1.0
 40
1.0
 40
1.0
 10
26.01066103224529
 20
75.11129742723352
 30
0.0
 10
26.01066103224529
 20
75.23807883043845
 30
0.0
 10
25.90788439814506
 20
75.340855464539
 30
0.0
 10
25.78110299494044
 20
75.340855464539
 30
0.0
  0
LINE
  5
27A
330
70
100
AcDbEntity
  8
Sichtbar schmal (ISO)
 62
    18
420
        0
370
     5
100
AcDbLine
 10
26.01066103224529
 20
74.91617309552468
 30
0.0
 11
26.01066103224529
 21
75.11129742723352
 31
0.0
  0
SPLINE
  5
27B
330
70
100
AcDbEntity
  8
Sichtbar schmal (ISO)
 62
    18
420
        0
370
     5
100
AcDbSpline
210
0.0
220
0.0
230
1.0
 70
     8
 71
     3
 72
     8
 73
     4
 74
     0
 42
0.0000000001
 43
0.0000000001
 40
0.0
 40
0.0
 40
0.0
 40
0.0
 40
1.0
 40
1.0
 40
1.0
 40
1.0
 10
25.78110299494044
 20
74.68661505821984
 30
0.0
 10
25.90788439814506
 20
74.68661505821984
 30
0.0
 10
26.01066103224529
 20
74.78939169232006
 30
0.0
 10
26.01066103224529
 20
74.91617309552468
 30
0.0
  0
LINE
  5
27C
330
70
100
AcDbEntity
  8
Sichtbar schmal (ISO)
 62
    18
420
        0
370
     5
100
AcDbLine
 10
23.26744248645022
 20
74.68661505821984
 30
0.0
 11
25.78110299494044
 21
74.68661505821984
 31
0.0
  0
LINE
  5
27D
330
70
100
AcDbEntity
  8
Sichtbar schmal (ISO)
 62
    18
420
        0
370
     5
100
AcDbLine
 10
23.26744248645022
 20
74.91617309552468
 30
0.0
 11
23.26744248645022
 21
74.68661505821984
 31
0.0
  0
LINE
  5
27E
330
70
100
AcDbEntity
  8
Sichtbar schmal (ISO)
 62
    18
420
        0
370
     5
100
AcDbLine
 10
21.86713845888981
 20
74.91617309552468
 30
0.0
 11
23.26744248645022
 21
74.91617309552468
 31
0.0
  0
LINE
  5
27F
330
70
100
AcDbEntity
  8
Sichtbar schmal (ISO)
 62
    18
420
        0
370
     5
100
AcDbLine
 10
21.86713845888981
 20
74.68661505821984
 30
0.0
 11
21.86713845888981
 21
74.91617309552468
 31
0.0
  0
LINE
  5
280
330
70
100
AcDbEntity
  8
Sichtbar schmal (ISO)
 62
    18
420
        0
370
     5
100
AcDbLine
 10
19.35347795040023
 20
74.68661505821984
 30
0.0
 11
21.86713845888981
 21
74.68661505821984
 31
0.0
  0
SPLINE
  5
281
330
70
100
AcDbEntity
  8
Sichtbar schmal (ISO)
 62
    18
420
        0
370
     5
100
AcDbSpline
210
0.0
220
0.0
230
1.0
 70
     8
 71
     3
 72
     8
 73
     4
 74
     0
 42
0.0000000001
 43
0.0000000001
 40
0.0
 40
0.0
 40
0.0
 40
0.0
 40
1.0
 40
1.0
 40
1.0
 40
1.0
 10
19.12391991309538
 20
74.91617309552468
 30
0.0
 10
19.12391991309538
 20
74.78939169232006
 30
0.0
 10
19.22669654719561
 20
74.68661505821984
 30
0.0
 10
19.35347795040023
 20
74.68661505821984
 30
0.0
  0
LINE
  5
282
330
70
100
AcDbEntity
  8
Sichtbar schmal (ISO)
 62
    18
420
        0
370
     5
100
AcDbLine
 10
19.12391991309538
 20
75.11129742723352
 30
0.0
 11
19.12391991309538
 21
74.91617309552468
 31
0.0
  0
SPLINE
  5
283
330
70
100
AcDbEntity
  8
Sichtbar schmal (ISO)
 62
    18
420
        0
370
     5
100
AcDbSpline
210
0.0
220
0.0
230
1.0
 70
     8
 71
     3
 72
     8
 73
     4
 74
     0
 42
0.0000000001
 43
0.0000000001
 40
0.0
 40
0.0
 40
0.0
 40
0.0
 40
1.0
 40
1.0
 40
1.0
 40
1.0
 10
19.35347795040023
 20
75.340855464539
 30
0.0
 10
19.22669654719561
 20
75.340855464539
 30
0.0
 10
19.12391991309538
 20
75.23807883043845
 30
0.0
 10
19.12391991309538
 20
75.11129742723352
 30
0.0
  0
LINE
  5
284
330
70
100
AcDbEntity
  8
Sichtbar schmal (ISO)
 62
    18
420
        0
370
     5
100
AcDbLine
 10
21.87861636075547
 20
75.340855464539
 30
0.0
 11
19.35347795040023
 21
75.340855464539
 31
0.0
  0
LINE
  5
285
330
70
100
AcDbEntity
  8
Sichtbar schmal (ISO)
 62
    18
420
        0
370
     5
100
AcDbLine
 10
21.87861636075547
 20
75.45563448319143
 30
0.0
 11
21.87861636075547
 21
75.340855464539
 31
0.0
  0
LINE
  5
286
330
70
100
AcDbEntity
  8
Sichtbar schmal (ISO)
 62
    18
420
        0
370
     5
100
AcDbLine
 10
21.77441096862136
 20
75.45563448319143
 30
0.0
 11
21.87861636075547
 21
75.45563448319143
 31
0.0
  0
LINE
  5
287
330
70
100
AcDbEntity
  8
Sichtbar schmal (ISO)
 62
    18
420
        0
370
     5
100
AcDbLine
 10
17.37022934243989
 20
77.63643583758876
 30
0.0
 11
17.37022934243989
 21
77.75121485624119
 31
0.0
  0
LINE
  5
288
330
70
100
AcDbEntity
  8
Sichtbar schmal (ISO)
 62
    18
420
        0
370
     5
100
AcDbLine
 10
17.37022934243989
 20
77.63643583758876
 30
0.0
 11
17.37022934243989
 21
68.33933532673636
 31
0.0
  0
LINE
  5
289
330
70
100
AcDbEntity
  8
Sichtbar schmal (ISO)
 62
    18
420
        0
370
     5
100
AcDbLine
 10
17.7006600818043
 20
68.33933532673636
 30
0.0
 11
17.37022934243989
 21
68.33933532673636
 31
0.0
  0
LINE
  5
28A
330
70
100
AcDbEntity
  8
Sichtbar schmal (ISO)
 62
    18
420
        0
370
     5
100
AcDbLine
 10
23.26744248645022
 20
69.40678020020515
 30
0.0
 11
23.26744248645022
 21
69.17722216290029
 31
0.0
  0
LINE
  5
28B
330
70
100
AcDbEntity
  8
Sichtbar schmal (ISO)
 62
    18
420
        0
370
     5
100
AcDbLine
 10
21.86713845888981
 20
69.40678020020515
 30
0.0
 11
23.26744248645022
 21
69.40678020020515
 31
0.0
  0
LINE
  5
28C
330
70
100
AcDbEntity
  8
Sichtbar schmal (ISO)
 62
    18
420
        0
370
     5
100
AcDbLine
 10
21.86713845888981
 20
69.17722216290029
 30
0.0
 11
21.86713845888981
 21
69.40678020020515
 31
0.0
  0
LINE
  5
28D
330
70
100
AcDbEntity
  8
Sichtbar schmal (ISO)
 62
    18
420
        0
370
     5
100
AcDbLine
 10
19.35347795040023
 20
69.17722216290029
 30
0.0
 11
21.86713845888981
 21
69.17722216290029
 31
0.0
  0
SPLINE
  5
28E
330
70
100
AcDbEntity
  8
Sichtbar schmal (ISO)
 62
    18
420
        0
370
     5
100
AcDbSpline
210
0.0
220
0.0
230
1.0
 70
     8
 71
     3
 72
     8
 73
     4
 74
     0
 42
0.0000000001
 43
0.0000000001
 40
0.0
 40
0.0
 40
0.0
 40
0.0
 40
1.0
 40
1.0
 40
1.0
 40
1.0
 10
19.12391991309538
 20
69.40678020020515
 30
0.0
 10
19.12391991309538
 20
69.27999879700021
 30
0.0
 10
19.22669654719561
 20
69.17722216290029
 30
0.0
 10
19.35347795040023
 20
69.17722216290029
 30
0.0
  0
LINE
  5
28F
330
70
100
AcDbEntity
  8
Sichtbar schmal (ISO)
 62
    18
420
        0
370
     5
100
AcDbLine
 10
19.12391991309538
 20
69.60190453191462
 30
0.0
 11
19.12391991309538
 21
69.40678020020515
 31
0.0
  0
SPLINE
  5
290
330
70
100
AcDbEntity
  8
Sichtbar schmal (ISO)
 62
    18
420
        0
370
     5
100
AcDbSpline
210
0.0
220
0.0
230
1.0
 70
     8
 71
     3
 72
     8
 73
     4
 74
     0
 42
0.0000000001
 43
0.0000000001
 40
0.0
 40
0.0
 40
0.0
 40
0.0
 40
1.0
 40
1.0
 40
1.0
 40
1.0
 10
19.35347795040023
 20
69.83146256921947
 30
0.0
 10
19.22669654719561
 20
69.83146256921947
 30
0.0
 10
19.12391991309538
 20
69.72868593511923
 30
0.0
 10
19.12391991309538
 20
69.60190453191462
 30
0.0
  0
LINE
  5
291
330
70
100
AcDbEntity
  8
Sichtbar schmal (ISO)
 62
    18
420
        0
370
     5
100
AcDbLine
 10
21.87861636075547
 20
69.83146256921947
 30
0.0
 11
19.35347795040023
 21
69.83146256921947
 31
0.0
  0
LINE
  5
292
330
70
100
AcDbEntity
  8
Sichtbar schmal (ISO)
 62
    18
420
        0
370
     5
100
AcDbLine
 10
21.87861636075547
 20
70.06102060652399
 30
0.0
 11
21.87861636075547
 21
69.83146256921947
 31
0.0
  0
LINE
  5
293
330
70
100
AcDbEntity
  8
Sichtbar schmal (ISO)
 62
    18
420
        0
370
     5
100
AcDbLine
 10
23.2559645845852
 20
70.06102060652399
 30
0.0
 11
21.87861636075547
 21
70.06102060652399
 31
0.0
  0
LINE
  5
294
330
70
100
AcDbEntity
  8
Sichtbar schmal (ISO)
 62
    18
420
        0
370
     5
100
AcDbLine
 10
23.2559645845852
 20
69.83146256921947
 30
0.0
 11
23.2559645845852
 21
70.06102060652399
 31
0.0
  0
LINE
  5
295
330
70
100
AcDbEntity
  8
Sichtbar schmal (ISO)
 62
    18
420
        0
370
     5
100
AcDbLine
 10
25.78110299494044
 20
69.83146256921947
 30
0.0
 11
23.2559645845852
 21
69.83146256921947
 31
0.0
  0
SPLINE
  5
296
330
70
100
AcDbEntity
  8
Sichtbar schmal (ISO)
 62
    18
420
        0
370
     5
100
AcDbSpline
210
0.0
220
0.0
230
1.0
 70
     8
 71
     3
 72
     8
 73
     4
 74
     0
 42
0.0000000001
 43
0.0000000001
 40
0.0
 40
0.0
 40
0.0
 40
0.0
 40
1.0
 40
1.0
 40
1.0
 40
1.0
 10
26.01066103224529
 20
69.60190453191462
 30
0.0
 10
26.01066103224529
 20
69.72868593511923
 30
0.0
 10
25.90788439814506
 20
69.83146256921947
 30
0.0
 10
25.78110299494044
 20
69.83146256921947
 30
0.0
  0
LINE
  5
297
330
70
100
AcDbEntity
  8
Sichtbar schmal (ISO)
 62
    18
420
        0
370
     5
100
AcDbLine
 10
26.01066103224529
 20
69.40678020020515
 30
0.0
 11
26.01066103224529
 21
69.60190453191462
 31
0.0
  0
SPLINE
  5
298
330
70
100
AcDbEntity
  8
Sichtbar schmal (ISO)
 62
    18
420
        0
370
     5
100
AcDbSpline
210
0.0
220
0.0
230
1.0
 70
     8
 71
     3
 72
     8
 73
     4
 74
     0
 42
0.0000000001
 43
0.0000000001
 40
0.0
 40
0.0
 40
0.0
 40
0.0
 40
1.0
 40
1.0
 40
1.0
 40
1.0
 10
25.78110299494044
 20
69.17722216290029
 30
0.0
 10
25.90788439814506
 20
69.17722216290029
 30
0.0
 10
26.01066103224529
 20
69.27999879700021
 30
0.0
 10
26.01066103224529
 20
69.40678020020515
 30
0.0
  0
LINE
  5
299
330
70
100
AcDbEntity
  8
Sichtbar schmal (ISO)
 62
    18
420
        0
370
     5
100
AcDbLine
 10
23.26744248645022
 20
69.17722216290029
 30
0.0
 11
25.78110299494044
 21
69.17722216290029
 31
0.0
  0
LINE
  5
29A
330
70
100
AcDbEntity
  8
Sichtbar schmal (ISO)
 62
    18
420
        0
370
     5
100
AcDbLine
 10
23.26744248645022
 20
70.78412842403487
 30
0.0
 11
23.26744248645022
 21
70.55457038672971
 31
0.0
  0
LINE
  5
29B
330
70
100
AcDbEntity
  8
Sichtbar schmal (ISO)
 62
    18
420
        0
370
     5
100
AcDbLine
 10
21.86713845888981
 20
70.78412842403487
 30
0.0
 11
23.26744248645022
 21
70.78412842403487
 31
0.0
  0
LINE
  5
29C
330
70
100
AcDbEntity
  8
Sichtbar schmal (ISO)
 62
    18
420
        0
370
     5
100
AcDbLine
 10
21.86713845888981
 20
70.55457038672971
 30
0.0
 11
21.86713845888981
 21
70.78412842403487
 31
0.0
  0
LINE
  5
29D
330
70
100
AcDbEntity
  8
Sichtbar schmal (ISO)
 62
    18
420
        0
370
     5
100
AcDbLine
 10
19.35347795040023
 20
70.55457038672971
 30
0.0
 11
21.86713845888981
 21
70.55457038672971
 31
0.0
  0
SPLINE
  5
29E
330
70
100
AcDbEntity
  8
Sichtbar schmal (ISO)
 62
    18
420
        0
370
     5
100
AcDbSpline
210
0.0
220
0.0
230
1.0
 70
     8
 71
     3
 72
     8
 73
     4
 74
     0
 42
0.0000000001
 43
0.0000000001
 40
0.0
 40
0.0
 40
0.0
 40
0.0
 40
1.0
 40
1.0
 40
1.0
 40
1.0
 10
19.12391991309538
 20
70.78412842403487
 30
0.0
 10
19.12391991309538
 20
70.65734702082993
 30
0.0
 10
19.22669654719561
 20
70.55457038672971
 30
0.0
 10
19.35347795040023
 20
70.55457038672971
 30
0.0
  0
LINE
  5
29F
330
70
100
AcDbEntity
  8
Sichtbar schmal (ISO)
 62
    18
420
        0
370
     5
100
AcDbLine
 10
19.12391991309538
 20
70.97925275574434
 30
0.0
 11
19.12391991309538
 21
70.78412842403487
 31
0.0
  0
SPLINE
  5
2A0
330
70
100
AcDbEntity
  8
Sichtbar schmal (ISO)
 62
    18
420
        0
370
     5
100
AcDbSpline
210
0.0
220
0.0
230
1.0
 70
     8
 71
     3
 72
     8
 73
     4
 74
     0
 42
0.0000000001
 43
0.0000000001
 40
0.0
 40
0.0
 40
0.0
 40
0.0
 40
1.0
 40
1.0
 40
1.0
 40
1.0
 10
19.35347795040023
 20
71.20881079304919
 30
0.0
 10
19.22669654719561
 20
71.20881079304919
 30
0.0
 10
19.12391991309538
 20
71.10603415894864
 30
0.0
 10
19.12391991309538
 20
70.97925275574434
 30
0.0
  0
LINE
  5
2A1
330
70
100
AcDbEntity
  8
Sichtbar schmal (ISO)
 62
    18
420
        0
370
     5
100
AcDbLine
 10
21.87861636075547
 20
71.20881079304919
 30
0.0
 11
19.35347795040023
 21
71.20881079304919
 31
0.0
  0
LINE
  5
2A2
330
70
100
AcDbEntity
  8
Sichtbar schmal (ISO)
 62
    18
420
        0
370
     5
100
AcDbLine
 10
21.87861636075547
 20
71.43836883035437
 30
0.0
 11
21.87861636075547
 21
71.20881079304919
 31
0.0
  0
LINE
  5
2A3
330
70
100
AcDbEntity
  8
Sichtbar schmal (ISO)
 62
    18
420
        0
370
     5
100
AcDbLine
 10
23.2559645845852
 20
71.43836883035437
 30
0.0
 11
21.87861636075547
 21
71.43836883035437
 31
0.0
  0
LINE
  5
2A4
330
70
100
AcDbEntity
  8
Sichtbar schmal (ISO)
 62
    18
420
        0
370
     5
100
AcDbLine
 10
23.2559645845852
 20
71.20881079304919
 30
0.0
 11
23.2559645845852
 21
71.43836883035437
 31
0.0
  0
LINE
  5
2A5
330
70
100
AcDbEntity
  8
Sichtbar schmal (ISO)
 62
    18
420
        0
370
     5
100
AcDbLine
 10
25.78110299494044
 20
71.20881079304919
 30
0.0
 11
23.2559645845852
 21
71.20881079304919
 31
0.0
  0
SPLINE
  5
2A6
330
70
100
AcDbEntity
  8
Sichtbar schmal (ISO)
 62
    18
420
        0
370
     5
100
AcDbSpline
210
0.0
220
0.0
230
1.0
 70
     8
 71
     3
 72
     8
 73
     4
 74
     0
 42
0.0000000001
 43
0.0000000001
 40
0.0
 40
0.0
 40
0.0
 40
0.0
 40
1.0
 40
1.0
 40
1.0
 40
1.0
 10
26.01066103224529
 20
70.97925275574434
 30
0.0
 10
26.01066103224529
 20
71.10603415894864
 30
0.0
 10
25.90788439814506
 20
71.20881079304919
 30
0.0
 10
25.78110299494044
 20
71.20881079304919
 30
0.0
  0
LINE
  5
2A7
330
70
100
AcDbEntity
  8
Sichtbar schmal (ISO)
 62
    18
420
        0
370
     5
100
AcDbLine
 10
26.01066103224529
 20
70.78412842403487
 30
0.0
 11
26.01066103224529
 21
70.97925275574434
 31
0.0
  0
SPLINE
  5
2A8
330
70
100
AcDbEntity
  8
Sichtbar schmal (ISO)
 62
    18
420
        0
370
     5
100
AcDbSpline
210
0.0
220
0.0
230
1.0
 70
     8
 71
     3
 72
     8
 73
     4
 74
     0
 42
0.0000000001
 43
0.0000000001
 40
0.0
 40
0.0
 40
0.0
 40
0.0
 40
1.0
 40
1.0
 40
1.0
 40
1.0
 10
25.78110299494044
 20
70.55457038672971
 30
0.0
 10
25.90788439814506
 20
70.55457038672971
 30
0.0
 10
26.01066103224529
 20
70.65734702082993
 30
0.0
 10
26.01066103224529
 20
70.78412842403487
 30
0.0
  0
LINE
  5
2A9
330
70
100
AcDbEntity
  8
Sichtbar schmal (ISO)
 62
    18
420
        0
370
     5
100
AcDbLine
 10
23.26744248645022
 20
70.55457038672971
 30
0.0
 11
25.78110299494044
 21
70.55457038672971
 31
0.0
  0
LINE
  5
2AA
330
70
100
AcDbEntity
  8
Sichtbar schmal (ISO)
 62
    18
420
        0
370
     5
100
AcDbLine
 10
23.26744248645022
 20
72.16147664786524
 30
0.0
 11
23.26744248645022
 21
71.93191861055942
 31
0.0
  0
LINE
  5
2AB
330
70
100
AcDbEntity
  8
Sichtbar schmal (ISO)
 62
    18
420
        0
370
     5
100
AcDbLine
 10
21.86713845888981
 20
72.16147664786524
 30
0.0
 11
23.26744248645022
 21
72.16147664786524
 31
0.0
  0
LINE
  5
2AC
330
70
100
AcDbEntity
  8
Sichtbar schmal (ISO)
 62
    18
420
        0
370
     5
100
AcDbLine
 10
21.86713845888981
 20
71.93191861055942
 30
0.0
 11
21.86713845888981
 21
72.16147664786524
 31
0.0
  0
LINE
  5
2AD
330
70
100
AcDbEntity
  8
Sichtbar schmal (ISO)
 62
    18
420
        0
370
     5
100
AcDbLine
 10
19.35347795040023
 20
71.93191861055942
 30
0.0
 11
21.86713845888981
 21
71.93191861055942
 31
0.0
  0
SPLINE
  5
2AE
330
70
100
AcDbEntity
  8
Sichtbar schmal (ISO)
 62
    18
420
        0
370
     5
100
AcDbSpline
210
0.0
220
0.0
230
1.0
 70
     8
 71
     3
 72
     8
 73
     4
 74
     0
 42
0.0000000001
 43
0.0000000001
 40
0.0
 40
0.0
 40
0.0
 40
0.0
 40
1.0
 40
1.0
 40
1.0
 40
1.0
 10
19.12391991309538
 20
72.16147664786524
 30
0.0
 10
19.12391991309538
 20
72.03469524466029
 30
0.0
 10
19.22669654719561
 20
71.93191861055942
 30
0.0
 10
19.35347795040023
 20
71.93191861055942
 30
0.0
  0
LINE
  5
2AF
330
70
100
AcDbEntity
  8
Sichtbar schmal (ISO)
 62
    18
420
        0
370
     5
100
AcDbLine
 10
19.12391991309538
 20
72.35660097957439
 30
0.0
 11
19.12391991309538
 21
72.16147664786524
 31
0.0
  0
SPLINE
  5
2B0
330
70
100
AcDbEntity
  8
Sichtbar schmal (ISO)
 62
    18
420
        0
370
     5
100
AcDbSpline
210
0.0
220
0.0
230
1.0
 70
     8
 71
     3
 72
     8
 73
     4
 74
     0
 42
0.0000000001
 43
0.0000000001
 40
0.0
 40
0.0
 40
0.0
 40
0.0
 40
1.0
 40
1.0
 40
1.0
 40
1.0
 10
19.35347795040023
 20
72.58615901687924
 30
0.0
 10
19.22669654719561
 20
72.58615901687924
 30
0.0
 10
19.12391991309538
 20
72.48338238277868
 30
0.0
 10
19.12391991309538
 20
72.35660097957439
 30
0.0
  0
LINE
  5
2B1
330
70
100
AcDbEntity
  8
Sichtbar schmal (ISO)
 62
    18
420
        0
370
     5
100
AcDbLine
 10
21.87861636075547
 20
72.58615901687924
 30
0.0
 11
19.35347795040023
 21
72.58615901687924
 31
0.0
  0
LINE
  5
2B2
330
70
100
AcDbEntity
  8
Sichtbar schmal (ISO)
 62
    18
420
        0
370
     5
100
AcDbLine
 10
21.87861636075547
 20
72.8157170541844
 30
0.0
 11
21.87861636075547
 21
72.58615901687924
 31
0.0
  0
LINE
  5
2B3
330
70
100
AcDbEntity
  8
Sichtbar schmal (ISO)
 62
    18
420
        0
370
     5
100
AcDbLine
 10
23.2559645845852
 20
72.8157170541844
 30
0.0
 11
21.87861636075547
 21
72.8157170541844
 31
0.0
  0
LINE
  5
2B4
330
70
100
AcDbEntity
  8
Sichtbar schmal (ISO)
 62
    18
420
        0
370
     5
100
AcDbLine
 10
23.2559645845852
 20
72.58615901687924
 30
0.0
 11
23.2559645845852
 21
72.8157170541844
 31
0.0
  0
LINE
  5
2B5
330
70
100
AcDbEntity
  8
Sichtbar schmal (ISO)
 62
    18
420
        0
370
     5
100
AcDbLine
 10
25.78110299494044
 20
72.58615901687924
 30
0.0
 11
23.2559645845852
 21
72.58615901687924
 31
0.0
  0
SPLINE
  5
2B6
330
70
100
AcDbEntity
  8
Sichtbar schmal (ISO)
 62
    18
420
        0
370
     5
100
AcDbSpline
210
0.0
220
0.0
230
1.0
 70
     8
 71
     3
 72
     8
 73
     4
 74
     0
 42
0.0000000001
 43
0.0000000001
 40
0.0
 40
0.0
 40
0.0
 40
0.0
 40
1.0
 40
1.0
 40
1.0
 40
1.0
 10
26.01066103224529
 20
72.35660097957439
 30
0.0
 10
26.01066103224529
 20
72.48338238277868
 30
0.0
 10
25.90788439814506
 20
72.58615901687924
 30
0.0
 10
25.78110299494044
 20
72.58615901687924
 30
0.0
  0
LINE
  5
2B7
330
70
100
AcDbEntity
  8
Sichtbar schmal (ISO)
 62
    18
420
        0
370
     5
100
AcDbLine
 10
26.01066103224529
 20
72.16147664786524
 30
0.0
 11
26.01066103224529
 21
72.35660097957439
 31
0.0
  0
SPLINE
  5
2B8
330
70
100
AcDbEntity
  8
Sichtbar schmal (ISO)
 62
    18
420
        0
370
     5
100
AcDbSpline
210
0.0
220
0.0
230
1.0
 70
     8
 71
     3
 72
     8
 73
     4
 74
     0
 42
0.0000000001
 43
0.0000000001
 40
0.0
 40
0.0
 40
0.0
 40
0.0
 40
1.0
 40
1.0
 40
1.0
 40
1.0
 10
25.78110299494044
 20
71.93191861055942
 30
0.0
 10
25.90788439814506
 20
71.93191861055942
 30
0.0
 10
26.01066103224529
 20
72.03469524466029
 30
0.0
 10
26.01066103224529
 20
72.16147664786524
 30
0.0
  0
LINE
  5
2B9
330
70
100
AcDbEntity
  8
Sichtbar schmal (ISO)
 62
    18
420
        0
370
     5
100
AcDbLine
 10
23.26744248645022
 20
71.93191861055942
 30
0.0
 11
25.78110299494044
 21
71.93191861055942
 31
0.0
  0
LINE
  5
2BA
330
70
100
AcDbEntity
  8
Sichtbar schmal (ISO)
 62
    18
420
        0
370
     5
100
AcDbLine
 10
23.26744248645022
 20
73.53882487169496
 30
0.0
 11
23.26744248645022
 21
73.30926683439011
 31
0.0
  0
LINE
  5
2BB
330
70
100
AcDbEntity
  8
Sichtbar schmal (ISO)
 62
    18
420
        0
370
     5
100
AcDbLine
 10
21.86713845888981
 20
73.53882487169496
 30
0.0
 11
23.26744248645022
 21
73.53882487169496
 31
0.0
  0
LINE
  5
2BC
330
70
100
AcDbEntity
  8
Sichtbar schmal (ISO)
 62
    18
420
        0
370
     5
100
AcDbLine
 10
21.86713845888981
 20
73.30926683439011
 30
0.0
 11
21.86713845888981
 21
73.53882487169496
 31
0.0
  0
LINE
  5
2BD
330
70
100
AcDbEntity
  8
Sichtbar schmal (ISO)
 62
    18
420
        0
370
     5
100
AcDbLine
 10
19.35347795040023
 20
73.30926683439011
 30
0.0
 11
21.86713845888981
 21
73.30926683439011
 31
0.0
  0
SPLINE
  5
2BE
330
70
100
AcDbEntity
  8
Sichtbar schmal (ISO)
 62
    18
420
        0
370
     5
100
AcDbSpline
210
0.0
220
0.0
230
1.0
 70
     8
 71
     3
 72
     8
 73
     4
 74
     0
 42
0.0000000001
 43
0.0000000001
 40
0.0
 40
0.0
 40
0.0
 40
0.0
 40
1.0
 40
1.0
 40
1.0
 40
1.0
 10
19.12391991309538
 20
73.53882487169496
 30
0.0
 10
19.12391991309538
 20
73.41204346849034
 30
0.0
 10
19.22669654719561
 20
73.30926683439011
 30
0.0
 10
19.35347795040023
 20
73.30926683439011
 30
0.0
  0
LINE
  5
2BF
330
70
100
AcDbEntity
  8
Sichtbar schmal (ISO)
 62
    18
420
        0
370
     5
100
AcDbLine
 10
19.12391991309538
 20
73.73394920340411
 30
0.0
 11
19.12391991309538
 21
73.53882487169496
 31
0.0
  0
SPLINE
  5
2C0
330
70
100
AcDbEntity
  8
Sichtbar schmal (ISO)
 62
    18
420
        0
370
     5
100
AcDbSpline
210
0.0
220
0.0
230
1.0
 70
     8
 71
     3
 72
     8
 73
     4
 74
     0
 42
0.0000000001
 43
0.0000000001
 40
0.0
 40
0.0
 40
0.0
 40
0.0
 40
1.0
 40
1.0
 40
1.0
 40
1.0
 10
19.35347795040023
 20
73.96350724070863
 30
0.0
 10
19.22669654719561
 20
73.96350724070863
 30
0.0
 10
19.12391991309538
 20
73.86073060660841
 30
0.0
 10
19.12391991309538
 20
73.73394920340411
 30
0.0
  0
LINE
  5
2C1
330
70
100
AcDbEntity
  8
Sichtbar schmal (ISO)
 62
    18
420
        0
370
     5
100
AcDbLine
 10
21.87861636075547
 20
73.96350724070863
 30
0.0
 11
19.35347795040023
 21
73.96350724070863
 31
0.0
  0
LINE
  5
2C2
330
70
100
AcDbEntity
  8
Sichtbar schmal (ISO)
 62
    18
420
        0
370
     5
100
AcDbLine
 10
21.87861636075547
 20
74.19306527801413
 30
0.0
 11
21.87861636075547
 21
73.96350724070863
 31
0.0
  0
LINE
  5
2C3
330
70
100
AcDbEntity
  8
Sichtbar schmal (ISO)
 62
    18
420
        0
370
     5
100
AcDbLine
 10
23.2559645845852
 20
74.19306527801413
 30
0.0
 11
21.87861636075547
 21
74.19306527801413
 31
0.0
  0
LINE
  5
2C4
330
70
100
AcDbEntity
  8
Sichtbar schmal (ISO)
 62
    18
420
        0
370
     5
100
AcDbLine
 10
23.2559645845852
 20
73.96350724070863
 30
0.0
 11
23.2559645845852
 21
74.19306527801413
 31
0.0
  0
LINE
  5
2C5
330
70
100
AcDbEntity
  8
Sichtbar schmal (ISO)
 62
    18
420
        0
370
     5
100
AcDbLine
 10
25.78110299494044
 20
73.96350724070863
 30
0.0
 11
23.2559645845852
 21
73.96350724070863
 31
0.0
  0
SPLINE
  5
2C6
330
70
100
AcDbEntity
  8
Sichtbar schmal (ISO)
 62
    18
420
        0
370
     5
100
AcDbSpline
210
0.0
220
0.0
230
1.0
 70
     8
 71
     3
 72
     8
 73
     4
 74
     0
 42
0.0000000001
 43
0.0000000001
 40
0.0
 40
0.0
 40
0.0
 40
0.0
 40
1.0
 40
1.0
 40
1.0
 40
1.0
 10
26.01066103224529
 20
73.73394920340411
 30
0.0
 10
26.01066103224529
 20
73.86073060660841
 30
0.0
 10
25.90788439814506
 20
73.96350724070863
 30
0.0
 10
25.78110299494044
 20
73.96350724070863
 30
0.0
  0
LINE
  5
2C7
330
70
100
AcDbEntity
  8
Sichtbar schmal (ISO)
 62
    18
420
        0
370
     5
100
AcDbLine
 10
26.01066103224529
 20
73.53882487169496
 30
0.0
 11
26.01066103224529
 21
73.73394920340411
 31
0.0
  0
SPLINE
  5
2C8
330
70
100
AcDbEntity
  8
Sichtbar schmal (ISO)
 62
    18
420
        0
370
     5
100
AcDbSpline
210
0.0
220
0.0
230
1.0
 70
     8
 71
     3
 72
     8
 73
     4
 74
     0
 42
0.0000000001
 43
0.0000000001
 40
0.0
 40
0.0
 40
0.0
 40
0.0
 40
1.0
 40
1.0
 40
1.0
 40
1.0
 10
25.78110299494044
 20
73.30926683439011
 30
0.0
 10
25.90788439814506
 20
73.30926683439011
 30
0.0
 10
26.01066103224529
 20
73.41204346849034
 30
0.0
 10
26.01066103224529
 20
73.53882487169496
 30
0.0
  0
LINE
  5
2C9
330
70
100
AcDbEntity
  8
Sichtbar schmal (ISO)
 62
    18
420
        0
370
     5
100
AcDbLine
 10
23.26744248645022
 20
73.30926683439011
 30
0.0
 11
25.78110299494044
 21
73.30926683439011
 31
0.0
  0
LINE
  5
2CA
330
70
100
AcDbEntity
  8
Sichtbar schmal (ISO)
 62
    18
420
        0
370
     5
100
AcDbLine
 10
28.1914623866423
 20
71.27767820424089
 30
0.0
 11
27.04367220011774
 21
71.27767820424089
 31
0.0
  0
LINE
  5
2CB
330
70
100
AcDbEntity
  8
Sichtbar schmal (ISO)
 62
    18
420
        0
370
     5
100
AcDbLine
 10
27.04367220011774
 20
69.44121390580019
 30
0.0
 11
28.1914623866423
 21
69.44121390580019
 31
0.0
  0
LINE
  5
2CC
330
70
100
AcDbEntity
  8
Sichtbar schmal (ISO)
 62
    18
420
        0
370
     5
100
AcDbLine
 10
28.1914623866423
 20
68.33933532673636
 30
0.0
 11
27.04367220011774
 21
68.33933532673636
 31
0.0
  0
LINE
  5
2CD
330
70
100
AcDbEntity
  8
Sichtbar schmal (ISO)
 62
    18
420
        0
370
     5
100
AcDbLine
 10
35.30776154309705
 20
69.44121390580019
 30
0.0
 11
34.15997135657282
 21
69.44121390580019
 31
0.0
  0
LINE
  5
2CE
330
70
100
AcDbEntity
  8
Sichtbar schmal (ISO)
 62
    18
420
        0
370
     5
100
AcDbLine
 10
34.15997135657282
 20
68.33933532673636
 30
0.0
 11
35.30776154309705
 21
68.33933532673636
 31
0.0
  0
LINE
  5
2CF
330
70
100
AcDbEntity
  8
Sichtbar schmal (ISO)
 62
    18
420
        0
370
     5
100
AcDbLine
 10
34.15997135657282
 20
71.27767820424089
 30
0.0
 11
35.30776154309705
 21
71.27767820424089
 31
0.0
  0
LINE
  5
2D0
330
70
100
AcDbEntity
  8
Sichtbar schmal (ISO)
 62
    18
420
        0
370
     5
100
AcDbLine
 10
44.65077366141081
 20
76.14430859510661
 30
0.0
 11
44.65077366141081
 21
68.33933532673636
 31
0.0
  0
LINE
  5
2D1
330
70
100
AcDbEntity
  8
Sichtbar schmal (ISO)
 62
    18
420
        0
370
     5
100
AcDbLine
 10
44.65077366141081
 20
68.33933532673636
 30
0.0
 11
44.98120440077554
 21
68.33933532673636
 31
0.0
  0
LINE
  5
2D2
330
70
100
AcDbEntity
  8
Sichtbar schmal (ISO)
 62
    18
420
        0
370
     5
100
AcDbLine
 10
44.98120440077554
 20
77.63643583758876
 30
0.0
 11
44.98120440077554
 21
68.33933532673636
 31
0.0
  0
LINE
  5
2D3
330
70
100
AcDbEntity
  8
Sichtbar schmal (ISO)
 62
    18
420
        0
370
     5
100
AcDbLine
 10
44.98120440077554
 20
77.63643583758876
 30
0.0
 11
44.98120440077554
 21
77.75121485624119
 31
0.0
  0
LINE
  5
2D4
330
70
100
AcDbEntity
  8
Sichtbar schmal (ISO)
 62
    18
420
        0
370
     5
100
AcDbLine
 10
40.57702277459375
 20
75.45563448319143
 30
0.0
 11
40.57702277459375
 21
76.14430859510661
 31
0.0
  0
LINE
  5
2D5
330
70
100
AcDbEntity
  8
Sichtbar schmal (ISO)
 62
    18
420
        0
370
     5
100
AcDbLine
 10
40.57702277459375
 20
75.45563448319143
 30
0.0
 11
40.47281738245964
 21
75.45563448319143
 31
0.0
  0
LINE
  5
2D6
330
70
100
AcDbEntity
  8
Sichtbar schmal (ISO)
 62
    18
420
        0
370
     5
100
AcDbLine
 10
40.47281738245964
 20
75.45563448319143
 30
0.0
 11
40.47281738245964
 21
75.340855464539
 31
0.0
  0
LINE
  5
2D7
330
70
100
AcDbEntity
  8
Sichtbar schmal (ISO)
 62
    18
420
        0
370
     5
100
AcDbLine
 10
40.47281738245964
 20
75.340855464539
 30
0.0
 11
42.99795579281489
 21
75.340855464539
 31
0.0
  0
SPLINE
  5
2D8
330
70
100
AcDbEntity
  8
Sichtbar schmal (ISO)
 62
    18
420
        0
370
     5
100
AcDbSpline
210
0.0
220
0.0
230
1.0
 70
     8
 71
     3
 72
     8
 73
     4
 74
     0
 42
0.0000000001
 43
0.0000000001
 40
0.0
 40
0.0
 40
0.0
 40
0.0
 40
1.0
 40
1.0
 40
1.0
 40
1.0
 10
43.22751383012005
 20
75.11129742723352
 30
0.0
 10
43.22751383012005
 20
75.23807883043845
 30
0.0
 10
43.1247371960195
 20
75.340855464539
 30
0.0
 10
42.99795579281489
 20
75.340855464539
 30
0.0
  0
LINE
  5
2D9
330
70
100
AcDbEntity
  8
Sichtbar schmal (ISO)
 62
    18
420
        0
370
     5
100
AcDbLine
 10
43.22751383012005
 20
75.11129742723352
 30
0.0
 11
43.22751383012005
 21
74.91617309552468
 31
0.0
  0
SPLINE
  5
2DA
330
70
100
AcDbEntity
  8
Sichtbar schmal (ISO)
 62
    18
420
        0
370
     5
100
AcDbSpline
210
0.0
220
0.0
230
1.0
 70
     8
 71
     3
 72
     8
 73
     4
 74
     0
 42
0.0000000001
 43
0.0000000001
 40
0.0
 40
0.0
 40
0.0
 40
0.0
 40
1.0
 40
1.0
 40
1.0
 40
1.0
 10
42.99795579281489
 20
74.68661505821984
 30
0.0
 10
43.1247371960195
 20
74.68661505821984
 30
0.0
 10
43.22751383012005
 20
74.78939169232006
 30
0.0
 10
43.22751383012005
 20
74.91617309552468
 30
0.0
  0
LINE
  5
2DB
330
70
100
AcDbEntity
  8
Sichtbar schmal (ISO)
 62
    18
420
        0
370
     5
100
AcDbLine
 10
42.99795579281489
 20
74.68661505821984
 30
0.0
 11
40.48429528432499
 21
74.68661505821984
 31
0.0
  0
LINE
  5
2DC
330
70
100
AcDbEntity
  8
Sichtbar schmal (ISO)
 62
    18
420
        0
370
     5
100
AcDbLine
 10
40.48429528432499
 20
74.68661505821984
 30
0.0
 11
40.48429528432499
 21
74.91617309552468
 31
0.0
  0
LINE
  5
2DD
330
70
100
AcDbEntity
  8
Sichtbar schmal (ISO)
 62
    18
420
        0
370
     5
100
AcDbLine
 10
40.48429528432499
 20
74.91617309552468
 30
0.0
 11
39.08399125676459
 21
74.91617309552468
 31
0.0
  0
LINE
  5
2DE
330
70
100
AcDbEntity
  8
Sichtbar schmal (ISO)
 62
    18
420
        0
370
     5
100
AcDbLine
 10
39.08399125676459
 20
74.91617309552468
 30
0.0
 11
39.08399125676459
 21
74.68661505821984
 31
0.0
  0
LINE
  5
2DF
330
70
100
AcDbEntity
  8
Sichtbar schmal (ISO)
 62
    18
420
        0
370
     5
100
AcDbLine
 10
39.08399125676459
 20
74.68661505821984
 30
0.0
 11
36.570330748275
 21
74.68661505821984
 31
0.0
  0
SPLINE
  5
2E0
330
70
100
AcDbEntity
  8
Sichtbar schmal (ISO)
 62
    18
420
        0
370
     5
100
AcDbSpline
210
0.0
220
0.0
230
1.0
 70
     8
 71
     3
 72
     8
 73
     4
 74
     0
 42
0.0000000001
 43
0.0000000001
 40
0.0
 40
0.0
 40
0.0
 40
0.0
 40
1.0
 40
1.0
 40
1.0
 40
1.0
 10
36.34077271096951
 20
74.91617309552468
 30
0.0
 10
36.34077271096951
 20
74.78939169232006
 30
0.0
 10
36.44354934507038
 20
74.68661505821984
 30
0.0
 10
36.570330748275
 20
74.68661505821984
 30
0.0
  0
LINE
  5
2E1
330
70
100
AcDbEntity
  8
Sichtbar schmal (ISO)
 62
    18
420
        0
370
     5
100
AcDbLine
 10
36.34077271096951
 20
74.91617309552468
 30
0.0
 11
36.34077271096951
 21
75.11129742723352
 31
0.0
  0
SPLINE
  5
2E2
330
70
100
AcDbEntity
  8
Sichtbar schmal (ISO)
 62
    18
420
        0
370
     5
100
AcDbSpline
210
0.0
220
0.0
230
1.0
 70
     8
 71
     3
 72
     8
 73
     4
 74
     0
 42
0.0000000001
 43
0.0000000001
 40
0.0
 40
0.0
 40
0.0
 40
0.0
 40
1.0
 40
1.0
 40
1.0
 40
1.0
 10
36.570330748275
 20
75.340855464539
 30
0.0
 10
36.44354934507038
 20
75.340855464539
 30
0.0
 10
36.34077271096951
 20
75.23807883043845
 30
0.0
 10
36.34077271096951
 20
75.11129742723352
 30
0.0
  0
LINE
  5
2E3
330
70
100
AcDbEntity
  8
Sichtbar schmal (ISO)
 62
    18
420
        0
370
     5
100
AcDbLine
 10
36.570330748275
 20
75.340855464539
 30
0.0
 11
39.09546915862992
 21
75.340855464539
 31
0.0
  0
LINE
  5
2E4
330
70
100
AcDbEntity
  8
Sichtbar schmal (ISO)
 62
    18
420
        0
370
     5
100
AcDbLine
 10
39.09546915862992
 20
75.340855464539
 30
0.0
 11
39.09546915862992
 21
75.57041350184386
 31
0.0
  0
LINE
  5
2E5
330
70
100
AcDbEntity
  8
Sichtbar schmal (ISO)
 62
    18
420
        0
370
     5
100
AcDbLine
 10
39.09546915862992
 20
75.57041350184386
 30
0.0
 11
40.13905395302036
 21
75.57041350184386
 31
0.0
  0
LINE
  5
2E6
330
70
100
AcDbEntity
  8
Sichtbar schmal (ISO)
 62
    18
420
        0
370
     5
100
AcDbLine
 10
40.13905395302036
 20
75.57041350184386
 30
0.0
 11
40.13905395302036
 21
76.14430859510661
 31
0.0
  0
LINE
  5
2E7
330
70
100
AcDbEntity
  8
Sichtbar schmal (ISO)
 62
    18
420
        0
370
     5
100
AcDbLine
 10
36.2259936923174
 20
68.33933532673636
 30
0.0
 11
44.03096696068734
 21
68.33933532673636
 31
0.0
  0
LINE
  5
2E8
330
70
100
AcDbEntity
  8
Sichtbar schmal (ISO)
 62
    18
420
        0
370
     5
100
AcDbLine
 10
44.03096696068734
 20
76.14430859510661
 30
0.0
 11
44.03096696068734
 21
68.33933532673636
 31
0.0
  0
LINE
  5
2E9
330
70
100
AcDbEntity
  8
Sichtbar schmal (ISO)
 62
    18
420
        0
370
     5
100
AcDbLine
 10
39.08399125676459
 20
73.53882487169496
 30
0.0
 11
39.08399125676459
 21
73.30926683439011
 31
0.0
  0
LINE
  5
2EA
330
70
100
AcDbEntity
  8
Sichtbar schmal (ISO)
 62
    18
420
        0
370
     5
100
AcDbLine
 10
39.08399125676459
 20
73.30926683439011
 30
0.0
 11
36.570330748275
 21
73.30926683439011
 31
0.0
  0
SPLINE
  5
2EB
330
70
100
AcDbEntity
  8
Sichtbar schmal (ISO)
 62
    18
420
        0
370
     5
100
AcDbSpline
210
0.0
220
0.0
230
1.0
 70
     8
 71
     3
 72
     8
 73
     4
 74
     0
 42
0.0000000001
 43
0.0000000001
 40
0.0
 40
0.0
 40
0.0
 40
0.0
 40
1.0
 40
1.0
 40
1.0
 40
1.0
 10
36.34077271096951
 20
73.53882487169496
 30
0.0
 10
36.34077271096951
 20
73.41204346849034
 30
0.0
 10
36.44354934507038
 20
73.30926683439011
 30
0.0
 10
36.570330748275
 20
73.30926683439011
 30
0.0
  0
LINE
  5
2EC
330
70
100
AcDbEntity
  8
Sichtbar schmal (ISO)
 62
    18
420
        0
370
     5
100
AcDbLine
 10
36.34077271096951
 20
73.53882487169496
 30
0.0
 11
36.34077271096951
 21
73.73394920340411
 31
0.0
  0
SPLINE
  5
2ED
330
70
100
AcDbEntity
  8
Sichtbar schmal (ISO)
 62
    18
420
        0
370
     5
100
AcDbSpline
210
0.0
220
0.0
230
1.0
 70
     8
 71
     3
 72
     8
 73
     4
 74
     0
 42
0.0000000001
 43
0.0000000001
 40
0.0
 40
0.0
 40
0.0
 40
0.0
 40
1.0
 40
1.0
 40
1.0
 40
1.0
 10
36.570330748275
 20
73.96350724070863
 30
0.0
 10
36.44354934507038
 20
73.96350724070863
 30
0.0
 10
36.34077271096951
 20
73.86073060660841
 30
0.0
 10
36.34077271096951
 20
73.73394920340411
 30
0.0
  0
LINE
  5
2EE
330
70
100
AcDbEntity
  8
Sichtbar schmal (ISO)
 62
    18
420
        0
370
     5
100
AcDbLine
 10
36.570330748275
 20
73.96350724070863
 30
0.0
 11
39.09546915862992
 21
73.96350724070863
 31
0.0
  0
LINE
  5
2EF
330
70
100
AcDbEntity
  8
Sichtbar schmal (ISO)
 62
    18
420
        0
370
     5
100
AcDbLine
 10
39.09546915862992
 20
73.96350724070863
 30
0.0
 11
39.09546915862992
 21
74.19306527801413
 31
0.0
  0
LINE
  5
2F0
330
70
100
AcDbEntity
  8
Sichtbar schmal (ISO)
 62
    18
420
        0
370
     5
100
AcDbLine
 10
39.09546915862992
 20
74.19306527801413
 30
0.0
 11
40.47281738245964
 21
74.19306527801413
 31
0.0
  0
LINE
  5
2F1
330
70
100
AcDbEntity
  8
Sichtbar schmal (ISO)
 62
    18
420
        0
370
     5
100
AcDbLine
 10
40.47281738245964
 20
74.19306527801413
 30
0.0
 11
40.47281738245964
 21
73.96350724070863
 31
0.0
  0
LINE
  5
2F2
330
70
100
AcDbEntity
  8
Sichtbar schmal (ISO)
 62
    18
420
        0
370
     5
100
AcDbLine
 10
40.47281738245964
 20
73.96350724070863
 30
0.0
 11
42.99795579281489
 21
73.96350724070863
 31
0.0
  0
SPLINE
  5
2F3
330
70
100
AcDbEntity
  8
Sichtbar schmal (ISO)
 62
    18
420
        0
370
     5
100
AcDbSpline
210
0.0
220
0.0
230
1.0
 70
     8
 71
     3
 72
     8
 73
     4
 74
     0
 42
0.0000000001
 43
0.0000000001
 40
0.0
 40
0.0
 40
0.0
 40
0.0
 40
1.0
 40
1.0
 40
1.0
 40
1.0
 10
43.22751383012005
 20
73.73394920340411
 30
0.0
 10
43.22751383012005
 20
73.86073060660841
 30
0.0
 10
43.1247371960195
 20
73.96350724070863
 30
0.0
 10
42.99795579281489
 20
73.96350724070863
 30
0.0
  0
LINE
  5
2F4
330
70
100
AcDbEntity
  8
Sichtbar schmal (ISO)
 62
    18
420
        0
370
     5
100
AcDbLine
 10
43.22751383012005
 20
73.73394920340411
 30
0.0
 11
43.22751383012005
 21
73.53882487169496
 31
0.0
  0
SPLINE
  5
2F5
330
70
100
AcDbEntity
  8
Sichtbar schmal (ISO)
 62
    18
420
        0
370
     5
100
AcDbSpline
210
0.0
220
0.0
230
1.0
 70
     8
 71
     3
 72
     8
 73
     4
 74
     0
 42
0.0000000001
 43
0.0000000001
 40
0.0
 40
0.0
 40
0.0
 40
0.0
 40
1.0
 40
1.0
 40
1.0
 40
1.0
 10
42.99795579281489
 20
73.30926683439011
 30
0.0
 10
43.1247371960195
 20
73.30926683439011
 30
0.0
 10
43.22751383012005
 20
73.41204346849034
 30
0.0
 10
43.22751383012005
 20
73.53882487169496
 30
0.0
  0
LINE
  5
2F6
330
70
100
AcDbEntity
  8
Sichtbar schmal (ISO)
 62
    18
420
        0
370
     5
100
AcDbLine
 10
42.99795579281489
 20
73.30926683439011
 30
0.0
 11
40.48429528432499
 21
73.30926683439011
 31
0.0
  0
LINE
  5
2F7
330
70
100
AcDbEntity
  8
Sichtbar schmal (ISO)
 62
    18
420
        0
370
     5
100
AcDbLine
 10
40.48429528432499
 20
73.30926683439011
 30
0.0
 11
40.48429528432499
 21
73.53882487169496
 31
0.0
  0
LINE
  5
2F8
330
70
100
AcDbEntity
  8
Sichtbar schmal (ISO)
 62
    18
420
        0
370
     5
100
AcDbLine
 10
40.48429528432499
 20
73.53882487169496
 30
0.0
 11
39.08399125676459
 21
73.53882487169496
 31
0.0
  0
LINE
  5
2F9
330
70
100
AcDbEntity
  8
Sichtbar schmal (ISO)
 62
    18
420
        0
370
     5
100
AcDbLine
 10
39.08399125676459
 20
72.16147664786524
 30
0.0
 11
39.08399125676459
 21
71.93191861055942
 31
0.0
  0
LINE
  5
2FA
330
70
100
AcDbEntity
  8
Sichtbar schmal (ISO)
 62
    18
420
        0
370
     5
100
AcDbLine
 10
39.08399125676459
 20
71.93191861055942
 30
0.0
 11
36.570330748275
 21
71.93191861055942
 31
0.0
  0
SPLINE
  5
2FB
330
70
100
AcDbEntity
  8
Sichtbar schmal (ISO)
 62
    18
420
        0
370
     5
100
AcDbSpline
210
0.0
220
0.0
230
1.0
 70
     8
 71
     3
 72
     8
 73
     4
 74
     0
 42
0.0000000001
 43
0.0000000001
 40
0.0
 40
0.0
 40
0.0
 40
0.0
 40
1.0
 40
1.0
 40
1.0
 40
1.0
 10
36.34077271096951
 20
72.16147664786524
 30
0.0
 10
36.34077271096951
 20
72.03469524466029
 30
0.0
 10
36.44354934507038
 20
71.93191861055942
 30
0.0
 10
36.570330748275
 20
71.93191861055942
 30
0.0
  0
LINE
  5
2FC
330
70
100
AcDbEntity
  8
Sichtbar schmal (ISO)
 62
    18
420
        0
370
     5
100
AcDbLine
 10
36.34077271096951
 20
72.16147664786524
 30
0.0
 11
36.34077271096951
 21
72.35660097957439
 31
0.0
  0
SPLINE
  5
2FD
330
70
100
AcDbEntity
  8
Sichtbar schmal (ISO)
 62
    18
420
        0
370
     5
100
AcDbSpline
210
0.0
220
0.0
230
1.0
 70
     8
 71
     3
 72
     8
 73
     4
 74
     0
 42
0.0000000001
 43
0.0000000001
 40
0.0
 40
0.0
 40
0.0
 40
0.0
 40
1.0
 40
1.0
 40
1.0
 40
1.0
 10
36.570330748275
 20
72.58615901687924
 30
0.0
 10
36.44354934507038
 20
72.58615901687924
 30
0.0
 10
36.34077271096951
 20
72.48338238277868
 30
0.0
 10
36.34077271096951
 20
72.35660097957439
 30
0.0
  0
LINE
  5
2FE
330
70
100
AcDbEntity
  8
Sichtbar schmal (ISO)
 62
    18
420
        0
370
     5
100
AcDbLine
 10
36.570330748275
 20
72.58615901687924
 30
0.0
 11
39.09546915862992
 21
72.58615901687924
 31
0.0
  0
LINE
  5
2FF
330
70
100
AcDbEntity
  8
Sichtbar schmal (ISO)
 62
    18
420
        0
370
     5
100
AcDbLine
 10
39.09546915862992
 20
72.58615901687924
 30
0.0
 11
39.09546915862992
 21
72.8157170541844
 31
0.0
  0
LINE
  5
300
330
70
100
AcDbEntity
  8
Sichtbar schmal (ISO)
 62
    18
420
        0
370
     5
100
AcDbLine
 10
39.09546915862992
 20
72.8157170541844
 30
0.0
 11
40.47281738245964
 21
72.8157170541844
 31
0.0
  0
LINE
  5
301
330
70
100
AcDbEntity
  8
Sichtbar schmal (ISO)
 62
    18
420
        0
370
     5
100
AcDbLine
 10
40.47281738245964
 20
72.8157170541844
 30
0.0
 11
40.47281738245964
 21
72.58615901687924
 31
0.0
  0
LINE
  5
302
330
70
100
AcDbEntity
  8
Sichtbar schmal (ISO)
 62
    18
420
        0
370
     5
100
AcDbLine
 10
40.47281738245964
 20
72.58615901687924
 30
0.0
 11
42.99795579281489
 21
72.58615901687924
 31
0.0
  0
SPLINE
  5
303
330
70
100
AcDbEntity
  8
Sichtbar schmal (ISO)
 62
    18
420
        0
370
     5
100
AcDbSpline
210
0.0
220
0.0
230
1.0
 70
     8
 71
     3
 72
     8
 73
     4
 74
     0
 42
0.0000000001
 43
0.0000000001
 40
0.0
 40
0.0
 40
0.0
 40
0.0
 40
1.0
 40
1.0
 40
1.0
 40
1.0
 10
43.22751383012005
 20
72.35660097957439
 30
0.0
 10
43.22751383012005
 20
72.48338238277868
 30
0.0
 10
43.1247371960195
 20
72.58615901687924
 30
0.0
 10
42.99795579281489
 20
72.58615901687924
 30
0.0
  0
LINE
  5
304
330
70
100
AcDbEntity
  8
Sichtbar schmal (ISO)
 62
    18
420
        0
370
     5
100
AcDbLine
 10
43.22751383012005
 20
72.35660097957439
 30
0.0
 11
43.22751383012005
 21
72.16147664786524
 31
0.0
  0
SPLINE
  5
305
330
70
100
AcDbEntity
  8
Sichtbar schmal (ISO)
 62
    18
420
        0
370
     5
100
AcDbSpline
210
0.0
220
0.0
230
1.0
 70
     8
 71
     3
 72
     8
 73
     4
 74
     0
 42
0.0000000001
 43
0.0000000001
 40
0.0
 40
0.0
 40
0.0
 40
0.0
 40
1.0
 40
1.0
 40
1.0
 40
1.0
 10
42.99795579281489
 20
71.93191861055942
 30
0.0
 10
43.1247371960195
 20
71.93191861055942
 30
0.0
 10
43.22751383012005
 20
72.03469524466029
 30
0.0
 10
43.22751383012005
 20
72.16147664786524
 30
0.0
  0
LINE
  5
306
330
70
100
AcDbEntity
  8
Sichtbar schmal (ISO)
 62
    18
420
        0
370
     5
100
AcDbLine
 10
42.99795579281489
 20
71.93191861055942
 30
0.0
 11
40.48429528432499
 21
71.93191861055942
 31
0.0
  0
LINE
  5
307
330
70
100
AcDbEntity
  8
Sichtbar schmal (ISO)
 62
    18
420
        0
370
     5
100
AcDbLine
 10
40.48429528432499
 20
71.93191861055942
 30
0.0
 11
40.48429528432499
 21
72.16147664786524
 31
0.0
  0
LINE
  5
308
330
70
100
AcDbEntity
  8
Sichtbar schmal (ISO)
 62
    18
420
        0
370
     5
100
AcDbLine
 10
40.48429528432499
 20
72.16147664786524
 30
0.0
 11
39.08399125676459
 21
72.16147664786524
 31
0.0
  0
LINE
  5
309
330
70
100
AcDbEntity
  8
Sichtbar schmal (ISO)
 62
    18
420
        0
370
     5
100
AcDbLine
 10
39.08399125676459
 20
70.78412842403487
 30
0.0
 11
39.08399125676459
 21
70.55457038672971
 31
0.0
  0
LINE
  5
30A
330
70
100
AcDbEntity
  8
Sichtbar schmal (ISO)
 62
    18
420
        0
370
     5
100
AcDbLine
 10
39.08399125676459
 20
70.55457038672971
 30
0.0
 11
36.570330748275
 21
70.55457038672971
 31
0.0
  0
SPLINE
  5
30B
330
70
100
AcDbEntity
  8
Sichtbar schmal (ISO)
 62
    18
420
        0
370
     5
100
AcDbSpline
210
0.0
220
0.0
230
1.0
 70
     8
 71
     3
 72
     8
 73
     4
 74
     0
 42
0.0000000001
 43
0.0000000001
 40
0.0
 40
0.0
 40
0.0
 40
0.0
 40
1.0
 40
1.0
 40
1.0
 40
1.0
 10
36.34077271096951
 20
70.78412842403487
 30
0.0
 10
36.34077271096951
 20
70.65734702082993
 30
0.0
 10
36.44354934507038
 20
70.55457038672971
 30
0.0
 10
36.570330748275
 20
70.55457038672971
 30
0.0
  0
LINE
  5
30C
330
70
100
AcDbEntity
  8
Sichtbar schmal (ISO)
 62
    18
420
        0
370
     5
100
AcDbLine
 10
36.34077271096951
 20
70.78412842403487
 30
0.0
 11
36.34077271096951
 21
70.97925275574434
 31
0.0
  0
SPLINE
  5
30D
330
70
100
AcDbEntity
  8
Sichtbar schmal (ISO)
 62
    18
420
        0
370
     5
100
AcDbSpline
210
0.0
220
0.0
230
1.0
 70
     8
 71
     3
 72
     8
 73
     4
 74
     0
 42
0.0000000001
 43
0.0000000001
 40
0.0
 40
0.0
 40
0.0
 40
0.0
 40
1.0
 40
1.0
 40
1.0
 40
1.0
 10
36.570330748275
 20
71.20881079304919
 30
0.0
 10
36.44354934507038
 20
71.20881079304919
 30
0.0
 10
36.34077271096951
 20
71.10603415894864
 30
0.0
 10
36.34077271096951
 20
70.97925275574434
 30
0.0
  0
LINE
  5
30E
330
70
100
AcDbEntity
  8
Sichtbar schmal (ISO)
 62
    18
420
        0
370
     5
100
AcDbLine
 10
36.570330748275
 20
71.20881079304919
 30
0.0
 11
39.09546915862992
 21
71.20881079304919
 31
0.0
  0
LINE
  5
30F
330
70
100
AcDbEntity
  8
Sichtbar schmal (ISO)
 62
    18
420
        0
370
     5
100
AcDbLine
 10
39.09546915862992
 20
71.20881079304919
 30
0.0
 11
39.09546915862992
 21
71.43836883035437
 31
0.0
  0
LINE
  5
310
330
70
100
AcDbEntity
  8
Sichtbar schmal (ISO)
 62
    18
420
        0
370
     5
100
AcDbLine
 10
39.09546915862992
 20
71.43836883035437
 30
0.0
 11
40.47281738245964
 21
71.43836883035437
 31
0.0
  0
LINE
  5
311
330
70
100
AcDbEntity
  8
Sichtbar schmal (ISO)
 62
    18
420
        0
370
     5
100
AcDbLine
 10
40.47281738245964
 20
71.43836883035437
 30
0.0
 11
40.47281738245964
 21
71.20881079304919
 31
0.0
  0
LINE
  5
312
330
70
100
AcDbEntity
  8
Sichtbar schmal (ISO)
 62
    18
420
        0
370
     5
100
AcDbLine
 10
40.47281738245964
 20
71.20881079304919
 30
0.0
 11
42.99795579281489
 21
71.20881079304919
 31
0.0
  0
SPLINE
  5
313
330
70
100
AcDbEntity
  8
Sichtbar schmal (ISO)
 62
    18
420
        0
370
     5
100
AcDbSpline
210
0.0
220
0.0
230
1.0
 70
     8
 71
     3
 72
     8
 73
     4
 74
     0
 42
0.0000000001
 43
0.0000000001
 40
0.0
 40
0.0
 40
0.0
 40
0.0
 40
1.0
 40
1.0
 40
1.0
 40
1.0
 10
43.22751383012005
 20
70.97925275574434
 30
0.0
 10
43.22751383012005
 20
71.10603415894864
 30
0.0
 10
43.1247371960195
 20
71.20881079304919
 30
0.0
 10
42.99795579281489
 20
71.20881079304919
 30
0.0
  0
LINE
  5
314
330
70
100
AcDbEntity
  8
Sichtbar schmal (ISO)
 62
    18
420
        0
370
     5
100
AcDbLine
 10
43.22751383012005
 20
70.97925275574434
 30
0.0
 11
43.22751383012005
 21
70.78412842403487
 31
0.0
  0
SPLINE
  5
315
330
70
100
AcDbEntity
  8
Sichtbar schmal (ISO)
 62
    18
420
        0
370
     5
100
AcDbSpline
210
0.0
220
0.0
230
1.0
 70
     8
 71
     3
 72
     8
 73
     4
 74
     0
 42
0.0000000001
 43
0.0000000001
 40
0.0
 40
0.0
 40
0.0
 40
0.0
 40
1.0
 40
1.0
 40
1.0
 40
1.0
 10
42.99795579281489
 20
70.55457038672971
 30
0.0
 10
43.1247371960195
 20
70.55457038672971
 30
0.0
 10
43.22751383012005
 20
70.65734702082993
 30
0.0
 10
43.22751383012005
 20
70.78412842403487
 30
0.0
  0
LINE
  5
316
330
70
100
AcDbEntity
  8
Sichtbar schmal (ISO)
 62
    18
420
        0
370
     5
100
AcDbLine
 10
42.99795579281489
 20
70.55457038672971
 30
0.0
 11
40.48429528432499
 21
70.55457038672971
 31
0.0
  0
LINE
  5
317
330
70
100
AcDbEntity
  8
Sichtbar schmal (ISO)
 62
    18
420
        0
370
     5
100
AcDbLine
 10
40.48429528432499
 20
70.55457038672971
 30
0.0
 11
40.48429528432499
 21
70.78412842403487
 31
0.0
  0
LINE
  5
318
330
70
100
AcDbEntity
  8
Sichtbar schmal (ISO)
 62
    18
420
        0
370
     5
100
AcDbLine
 10
40.48429528432499
 20
70.78412842403487
 30
0.0
 11
39.08399125676459
 21
70.78412842403487
 31
0.0
  0
LINE
  5
319
330
70
100
AcDbEntity
  8
Sichtbar schmal (ISO)
 62
    18
420
        0
370
     5
100
AcDbLine
 10
39.08399125676459
 20
69.40678020020515
 30
0.0
 11
39.08399125676459
 21
69.17722216290029
 31
0.0
  0
LINE
  5
31A
330
70
100
AcDbEntity
  8
Sichtbar schmal (ISO)
 62
    18
420
        0
370
     5
100
AcDbLine
 10
39.08399125676459
 20
69.17722216290029
 30
0.0
 11
36.570330748275
 21
69.17722216290029
 31
0.0
  0
SPLINE
  5
31B
330
70
100
AcDbEntity
  8
Sichtbar schmal (ISO)
 62
    18
420
        0
370
     5
100
AcDbSpline
210
0.0
220
0.0
230
1.0
 70
     8
 71
     3
 72
     8
 73
     4
 74
     0
 42
0.0000000001
 43
0.0000000001
 40
0.0
 40
0.0
 40
0.0
 40
0.0
 40
1.0
 40
1.0
 40
1.0
 40
1.0
 10
36.34077271096951
 20
69.40678020020515
 30
0.0
 10
36.34077271096951
 20
69.27999879700021
 30
0.0
 10
36.44354934507038
 20
69.17722216290029
 30
0.0
 10
36.570330748275
 20
69.17722216290029
 30
0.0
  0
LINE
  5
31C
330
70
100
AcDbEntity
  8
Sichtbar schmal (ISO)
 62
    18
420
        0
370
     5
100
AcDbLine
 10
36.34077271096951
 20
69.40678020020515
 30
0.0
 11
36.34077271096951
 21
69.60190453191462
 31
0.0
  0
SPLINE
  5
31D
330
70
100
AcDbEntity
  8
Sichtbar schmal (ISO)
 62
    18
420
        0
370
     5
100
AcDbSpline
210
0.0
220
0.0
230
1.0
 70
     8
 71
     3
 72
     8
 73
     4
 74
     0
 42
0.0000000001
 43
0.0000000001
 40
0.0
 40
0.0
 40
0.0
 40
0.0
 40
1.0
 40
1.0
 40
1.0
 40
1.0
 10
36.570330748275
 20
69.83146256921947
 30
0.0
 10
36.44354934507038
 20
69.83146256921947
 30
0.0
 10
36.34077271096951
 20
69.72868593511923
 30
0.0
 10
36.34077271096951
 20
69.60190453191462
 30
0.0
  0
LINE
  5
31E
330
70
100
AcDbEntity
  8
Sichtbar schmal (ISO)
 62
    18
420
        0
370
     5
100
AcDbLine
 10
36.570330748275
 20
69.83146256921947
 30
0.0
 11
39.09546915862992
 21
69.83146256921947
 31
0.0
  0
LINE
  5
31F
330
70
100
AcDbEntity
  8
Sichtbar schmal (ISO)
 62
    18
420
        0
370
     5
100
AcDbLine
 10
39.09546915862992
 20
69.83146256921947
 30
0.0
 11
39.09546915862992
 21
70.06102060652399
 31
0.0
  0
LINE
  5
320
330
70
100
AcDbEntity
  8
Sichtbar schmal (ISO)
 62
    18
420
        0
370
     5
100
AcDbLine
 10
39.09546915862992
 20
70.06102060652399
 30
0.0
 11
40.47281738245964
 21
70.06102060652399
 31
0.0
  0
LINE
  5
321
330
70
100
AcDbEntity
  8
Sichtbar schmal (ISO)
 62
    18
420
        0
370
     5
100
AcDbLine
 10
40.47281738245964
 20
70.06102060652399
 30
0.0
 11
40.47281738245964
 21
69.83146256921947
 31
0.0
  0
LINE
  5
322
330
70
100
AcDbEntity
  8
Sichtbar schmal (ISO)
 62
    18
420
        0
370
     5
100
AcDbLine
 10
40.47281738245964
 20
69.83146256921947
 30
0.0
 11
42.99795579281489
 21
69.83146256921947
 31
0.0
  0
SPLINE
  5
323
330
70
100
AcDbEntity
  8
Sichtbar schmal (ISO)
 62
    18
420
        0
370
     5
100
AcDbSpline
210
0.0
220
0.0
230
1.0
 70
     8
 71
     3
 72
     8
 73
     4
 74
     0
 42
0.0000000001
 43
0.0000000001
 40
0.0
 40
0.0
 40
0.0
 40
0.0
 40
1.0
 40
1.0
 40
1.0
 40
1.0
 10
43.22751383012005
 20
69.60190453191462
 30
0.0
 10
43.22751383012005
 20
69.72868593511923
 30
0.0
 10
43.1247371960195
 20
69.83146256921947
 30
0.0
 10
42.99795579281489
 20
69.83146256921947
 30
0.0
  0
LINE
  5
324
330
70
100
AcDbEntity
  8
Sichtbar schmal (ISO)
 62
    18
420
        0
370
     5
100
AcDbLine
 10
43.22751383012005
 20
69.60190453191462
 30
0.0
 11
43.22751383012005
 21
69.40678020020515
 31
0.0
  0
SPLINE
  5
325
330
70
100
AcDbEntity
  8
Sichtbar schmal (ISO)
 62
    18
420
        0
370
     5
100
AcDbSpline
210
0.0
220
0.0
230
1.0
 70
     8
 71
     3
 72
     8
 73
     4
 74
     0
 42
0.0000000001
 43
0.0000000001
 40
0.0
 40
0.0
 40
0.0
 40
0.0
 40
1.0
 40
1.0
 40
1.0
 40
1.0
 10
42.99795579281489
 20
69.17722216290029
 30
0.0
 10
43.1247371960195
 20
69.17722216290029
 30
0.0
 10
43.22751383012005
 20
69.27999879700021
 30
0.0
 10
43.22751383012005
 20
69.40678020020515
 30
0.0
  0
LINE
  5
326
330
70
100
AcDbEntity
  8
Sichtbar schmal (ISO)
 62
    18
420
        0
370
     5
100
AcDbLine
 10
42.99795579281489
 20
69.17722216290029
 30
0.0
 11
40.48429528432499
 21
69.17722216290029
 31
0.0
  0
LINE
  5
327
330
70
100
AcDbEntity
  8
Sichtbar schmal (ISO)
 62
    18
420
        0
370
     5
100
AcDbLine
 10
40.48429528432499
 20
69.17722216290029
 30
0.0
 11
40.48429528432499
 21
69.40678020020515
 31
0.0
  0
LINE
  5
328
330
70
100
AcDbEntity
  8
Sichtbar schmal (ISO)
 62
    18
420
        0
370
     5
100
AcDbLine
 10
40.48429528432499
 20
69.40678020020515
 30
0.0
 11
39.08399125676459
 21
69.40678020020515
 31
0.0
  0
LINE
  5
329
330
70
100
AcDbEntity
  8
Sichtbar schmal (ISO)
 62
    18
420
        0
370
     5
100
AcDbLine
 10
32.94331375885591
 20
73.38961214744653
 30
0.0
 11
32.94331375885591
 21
68.33933532673636
 31
0.0
  0
LINE
  5
32A
330
70
100
AcDbEntity
  8
Sichtbar schmal (ISO)
 62
    18
420
        0
370
     5
100
AcDbLine
 10
32.94331375885591
 20
68.33933532673636
 30
0.0
 11
33.24173920735215
 21
68.33933532673636
 31
0.0
  0
LINE
  5
32B
330
70
100
AcDbEntity
  8
Sichtbar schmal (ISO)
 62
    18
420
        0
370
     5
100
AcDbLine
 10
32.32350705813244
 20
68.33933532673636
 30
0.0
 11
30.02792668508268
 21
68.33933532673636
 31
0.0
  0
LINE
  5
32C
330
70
100
AcDbEntity
  8
Sichtbar schmal (ISO)
 62
    18
420
        0
370
     5
100
AcDbLine
 10
32.32350705813244
 20
73.38961214744653
 30
0.0
 11
32.32350705813244
 21
68.33933532673636
 31
0.0
  0
LINE
  5
32D
330
70
100
AcDbEntity
  8
Sichtbar schmal (ISO)
 62
    18
420
        0
370
     5
100
AcDbLine
 10
30.02792668508268
 20
73.38961214744653
 30
0.0
 11
30.02792668508268
 21
68.33933532673636
 31
0.0
  0
LINE
  5
32E
330
70
100
AcDbEntity
  8
Sichtbar schmal (ISO)
 62
    18
420
        0
370
     5
100
AcDbLine
 10
33.24173920735215
 20
73.8487282220559
 30
0.0
 11
29.10969453586233
 21
73.8487282220559
 31
0.0
  0
LINE
  5
32F
330
70
100
AcDbEntity
  8
Sichtbar schmal (ISO)
 62
    18
420
        0
370
     5
100
AcDbLine
 10
33.24173920735215
 20
73.38961214744653
 30
0.0
 11
33.24173920735215
 21
68.33933532673636
 31
0.0
  0
LINE
  5
330
330
70
100
AcDbEntity
  8
Sichtbar schmal (ISO)
 62
    18
420
        0
370
     5
100
AcDbLine
 10
33.24173920735215
 20
76.60342466971695
 30
0.0
 11
33.24173920735215
 21
73.8487282220559
 31
0.0
  0
LINE
  5
331
330
70
100
AcDbEntity
  8
Sichtbar schmal (ISO)
 62
    18
420
        0
370
     5
100
AcDbLine
 10
29.10969453586233
 20
73.38961214744653
 30
0.0
 11
33.24173920735215
 21
73.38961214744653
 31
0.0
  0
LINE
  5
332
330
70
100
AcDbEntity
  8
Sichtbar schmal (ISO)
 62
    18
420
        0
370
     5
100
AcDbLine
 10
34.15997135657282
 20
68.33933532673636
 30
0.0
 11
33.24173920735215
 21
68.33933532673636
 31
0.0
  0
LINE
  5
333
330
70
100
AcDbEntity
  8
Sichtbar schmal (ISO)
 62
    18
420
        0
370
     5
100
AcDbLine
 10
34.15997135657282
 20
68.33933532673636
 30
0.0
 11
34.15997135657282
 21
76.14430859510661
 31
0.0
  0
LINE
  5
334
330
70
100
AcDbEntity
  8
Sichtbar schmal (ISO)
 62
    18
420
        0
370
     5
100
AcDbLine
 10
34.15997135657282
 20
76.14430859510661
 30
0.0
 11
35.30776154309705
 21
76.14430859510661
 31
0.0
  0
LINE
  5
335
330
70
100
AcDbEntity
  8
Sichtbar schmal (ISO)
 62
    18
420
        0
370
     5
100
AcDbLine
 10
35.30776154309705
 20
68.33933532673636
 30
0.0
 11
35.30776154309705
 21
76.14430859510661
 31
0.0
  0
LINE
  5
336
330
70
100
AcDbEntity
  8
Sichtbar schmal (ISO)
 62
    18
420
        0
370
     5
100
AcDbLine
 10
36.2259936923174
 20
68.33933532673636
 30
0.0
 11
35.30776154309705
 21
68.33933532673636
 31
0.0
  0
LINE
  5
337
330
70
100
AcDbEntity
  8
Sichtbar schmal (ISO)
 62
    18
420
        0
370
     5
100
AcDbLine
 10
36.2259936923174
 20
68.33933532673636
 30
0.0
 11
36.2259936923174
 21
76.14430859510661
 31
0.0
  0
LINE
  5
338
330
70
100
AcDbEntity
  8
Sichtbar schmal (ISO)
 62
    18
420
        0
370
     5
100
AcDbLine
 10
36.2259936923174
 20
76.14430859510661
 30
0.0
 11
43.25965195534313
 21
76.14430859510661
 31
0.0
  0
LINE
  5
339
330
70
100
AcDbEntity
  8
Sichtbar schmal (ISO)
 62
    18
420
        0
370
     5
100
AcDbLine
 10
33.24173920735215
 20
76.60342466971695
 30
0.0
 11
43.25965195534313
 21
76.60342466971695
 31
0.0
  0
LINE
  5
33A
330
70
100
AcDbEntity
  8
Sichtbar schmal (ISO)
 62
    18
420
        0
370
     5
100
AcDbLine
 10
29.10969453586233
 20
76.60342466971695
 30
0.0
 11
29.10969453586233
 21
73.8487282220559
 31
0.0
  0
LINE
  5
33B
330
70
100
AcDbEntity
  8
Sichtbar schmal (ISO)
 62
    18
420
        0
370
     5
100
AcDbLine
 10
29.10969453586233
 20
76.60342466971695
 30
0.0
 11
19.09178178787295
 21
76.60342466971695
 31
0.0
  0
LINE
  5
33C
330
70
100
AcDbEntity
  8
Sichtbar schmal (ISO)
 62
    18
420
        0
370
     5
100
AcDbLine
 10
26.12544005089739
 20
68.33933532673636
 30
0.0
 11
26.12544005089739
 21
76.14430859510661
 31
0.0
  0
LINE
  5
33D
330
70
100
AcDbEntity
  8
Sichtbar schmal (ISO)
 62
    18
420
        0
370
     5
100
AcDbLine
 10
26.12544005089739
 20
68.33933532673636
 30
0.0
 11
27.04367220011774
 21
68.33933532673636
 31
0.0
  0
LINE
  5
33E
330
70
100
AcDbEntity
  8
Sichtbar schmal (ISO)
 62
    18
420
        0
370
     5
100
AcDbLine
 10
27.04367220011774
 20
68.33933532673636
 30
0.0
 11
27.04367220011774
 21
76.14430859510661
 31
0.0
  0
LINE
  5
33F
330
70
100
AcDbEntity
  8
Sichtbar schmal (ISO)
 62
    18
420
        0
370
     5
100
AcDbLine
 10
28.1914623866423
 20
68.33933532673636
 30
0.0
 11
28.1914623866423
 21
76.14430859510661
 31
0.0
  0
LINE
  5
340
330
70
100
AcDbEntity
  8
Sichtbar schmal (ISO)
 62
    18
420
        0
370
     5
100
AcDbLine
 10
28.1914623866423
 20
68.33933532673636
 30
0.0
 11
29.10969453586233
 21
68.33933532673636
 31
0.0
  0
LINE
  5
341
330
70
100
AcDbEntity
  8
Sichtbar schmal (ISO)
 62
    18
420
        0
370
     5
100
AcDbLine
 10
29.10969453586233
 20
73.38961214744653
 30
0.0
 11
29.10969453586233
 21
68.33933532673636
 31
0.0
  0
LINE
  5
342
330
70
100
AcDbEntity
  8
Sichtbar schmal (ISO)
 62
    18
420
        0
370
     5
100
AcDbLine
 10
49.24193440750968
 20
68.33933532673636
 30
0.0
 11
49.42558083735382
 21
68.33933532673636
 31
0.0
  0
LINE
  5
343
330
70
100
AcDbEntity
  8
Sichtbar schmal (ISO)
 62
    18
420
        0
370
     5
100
AcDbLine
 10
49.08124378139622
 20
68.33933532673636
 30
0.0
 11
49.24193440750968
 21
68.33933532673636
 31
0.0
  0
LINE
  5
344
330
70
100
AcDbEntity
  8
Sichtbar schmal (ISO)
 62
    18
420
        0
370
     5
100
AcDbLine
 10
49.08124378139622
 20
68.33933532673636
 30
0.0
 11
44.98120440077426
 21
68.33933532673636
 31
0.0
  0
LINE
  5
345
330
70
100
AcDbEntity
  8
Sichtbar schmal (ISO)
 62
    18
420
        0
370
     5
100
AcDbLine
 10
44.03096696068734
 20
68.33933532673636
 30
0.0
 11
44.65077366141081
 21
68.33933532673636
 31
0.0
  0
LINE
  5
346
330
70
100
AcDbEntity
  8
Sichtbar schmal (ISO)
 62
    18
420
        0
370
     5
100
AcDbLine
 10
32.32350705813244
 20
68.33933532673636
 30
0.0
 11
32.94331375885591
 21
68.33933532673636
 31
0.0
  0
LINE
  5
347
330
70
100
AcDbEntity
  8
Sichtbar schmal (ISO)
 62
    18
420
        0
370
     5
100
AcDbLine
 10
30.02792668508268
 20
68.33933532673636
 30
0.0
 11
29.40811998435921
 21
68.33933532673636
 31
0.0
  0
LINE
  5
348
330
70
100
AcDbEntity
  8
Sichtbar schmal (ISO)
 62
    18
420
        0
370
     5
100
AcDbLine
 10
18.32046678252745
 20
68.33933532673636
 30
0.0
 11
17.7006600818043
 21
68.33933532673636
 31
0.0
  0
LINE
  5
349
330
70
100
AcDbEntity
  8
Sichtbar schmal (ISO)
 62
    18
420
        0
370
     5
100
AcDbLine
 10
13.27018996181825
 20
68.33933532673636
 30
0.0
 11
17.37022934243989
 21
68.33933532673636
 31
0.0
  0
LINE
  5
34A
330
70
100
AcDbEntity
  8
Sichtbar schmal (ISO)
 62
    18
420
        0
370
     5
100
AcDbLine
 10
13.10949933570511
 20
68.33933532673636
 30
0.0
 11
13.27018996181825
 21
68.33933532673636
 31
0.0
  0
LINE
  5
34B
330
70
100
AcDbEntity
  8
Sichtbar schmal (ISO)
 62
    18
420
        0
370
     5
100
AcDbLine
 10
12.92585290586066
 20
68.33933532673636
 30
0.0
 11
13.10949933570511
 21
68.33933532673636
 31
0.0
  0
LINE
  5
34C
330
70
100
AcDbEntity
  8
Sichtbar schmal (ISO)
 62
    18
420
        0
370
     5
100
AcDbLine
 10
45.00456435977575
 20
77.63643583758876
 30
0.0
 11
45.00456435977575
 21
77.75121485624119
 31
0.0
  0
LINE
  5
34D
330
70
100
AcDbEntity
  8
Sichtbar schmal (ISO)
 62
    18
420
        0
370
     5
100
AcDbLine
 10
40.47281738246028
 20
75.57041350184386
 30
0.0
 11
40.13905395302133
 21
75.57041350184386
 31
0.0
  0
LINE
  5
34E
330
70
100
AcDbEntity
  8
Sichtbar schmal (ISO)
 62
    18
420
        0
370
     5
100
AcDbLine
 10
40.47281738245964
 20
75.45563448319143
 30
0.0
 11
40.47281738245964
 21
75.57041350184386
 31
0.0
  0
LINE
  5
34F
330
70
100
AcDbEntity
  8
Sichtbar schmal (ISO)
 62
    18
420
        0
370
     5
100
AcDbLine
 10
43.25965195534313
 20
76.14430859510661
 30
0.0
 11
43.60398901129975
 21
76.14430859510661
 31
0.0
  0
LINE
  5
350
330
70
100
AcDbEntity
  8
Sichtbar schmal (ISO)
 62
    18
420
        0
370
     5
100
AcDbLine
 10
43.60398901129975
 20
76.60342466971695
 30
0.0
 11
43.60398901129975
 21
76.14430859510661
 31
0.0
  0
LINE
  5
351
330
70
100
AcDbEntity
  8
Sichtbar schmal (ISO)
 62
    18
420
        0
370
     5
100
AcDbLine
 10
43.60398901129975
 20
76.60342466971695
 30
0.0
 11
43.25965195534313
 21
76.60342466971695
 31
0.0
  0
LINE
  5
352
330
70
100
AcDbEntity
  8
Sichtbar schmal (ISO)
 62
    18
420
        0
370
     5
100
AcDbLine
 10
39.66936425189236
 20
77.75121485624119
 30
0.0
 11
39.66936425189236
 21
76.60342466971695
 31
0.0
  0
LINE
  5
353
330
70
100
AcDbEntity
  8
Sichtbar schmal (ISO)
 62
    18
420
        0
370
     5
100
AcDbLine
 10
41.04671247572208
 20
77.75121485624119
 30
0.0
 11
41.04671247572208
 21
76.60342466971695
 31
0.0
  0
LINE
  5
354
330
70
100
AcDbEntity
  8
Sichtbar schmal (ISO)
 62
    18
420
        0
370
     5
100
AcDbLine
 10
18.32046678252745
 20
76.14430859510661
 30
0.0
 11
17.7006600818043
 21
76.14430859510661
 31
0.0
  0
LINE
  5
355
330
70
100
AcDbEntity
  8
Sichtbar schmal (ISO)
 62
    18
420
        0
370
     5
100
AcDbLine
 10
44.03096696068734
 20
76.14430859510661
 30
0.0
 11
44.65077366141081
 21
76.14430859510661
 31
0.0
  0
LINE
  5
356
330
70
100
AcDbEntity
  8
Sichtbar schmal (ISO)
 62
    18
420
        0
370
     5
100
AcDbLine
 10
18.74744473191471
 20
76.60342466971695
 30
0.0
 11
19.09178178787295
 21
76.60342466971695
 31
0.0
  0
LINE
  5
357
330
70
100
AcDbEntity
  8
Sichtbar schmal (ISO)
 62
    18
420
        0
370
     5
100
AcDbLine
 10
22.68206949132244
 20
77.75121485624119
 30
0.0
 11
22.68206949132244
 21
76.60342466971695
 31
0.0
  0
LINE
  5
358
330
70
100
AcDbEntity
  8
Sichtbar schmal (ISO)
 62
    18
420
        0
370
     5
100
AcDbLine
 10
18.74744473191471
 20
76.60342466971695
 30
0.0
 11
18.74744473191471
 21
76.14430859510661
 31
0.0
  0
LINE
  5
359
330
70
100
AcDbEntity
  8
Sichtbar schmal (ISO)
 62
    18
420
        0
370
     5
100
AcDbLine
 10
40.20645987124125
 20
76.14311797171975
 30
0.0
 11
40.20758649665717
 21
76.14391138386868
 31
0.0
  0
SPLINE
  5
35A
330
70
100
AcDbEntity
  8
Sichtbar schmal (ISO)
 62
    18
420
        0
370
     5
100
AcDbSpline
210
0.0
220
0.0
230
1.0
 70
     8
 71
     3
 72
    14
 73
    10
 74
     0
 42
0.0000000001
 43
0.0000000001
 40
0.0
 40
0.0
 40
0.0
 40
0.0
 40
1.0
 40
1.0
 40
1.0
 40
2.0
 40
2.0
 40
2.0
 40
3.0
 40
3.0
 40
3.0
 40
3.0
 10
21.84355239716889
 20
76.14430861935129
 30
0.0
 10
21.8430250371106
 20
76.14395567831566
 30
0.0
 10
21.84250872232976
 20
76.14360246342887
 30
0.0
 10
21.84200362322119
 20
76.14324901423147
 30
0.0
 10
21.83213036263099
 20
76.13634008096461
 30
0.0
 10
21.82863355608501
 20
76.13081614976545
 30
0.0
 10
21.82721890815249
 20
76.12668616010799
 30
0.0
 10
21.8266074428817
 20
76.12490101965916
 30
0.0
 10
21.82629989520651
 20
76.12308555216144
 30
0.0
 10
21.82629939483367
 20
76.12124605723685
 30
0.0
  0
LWPOLYLINE
  5
35B
330
70
100
AcDbEntity
  8
Sichtbar schmal (ISO)
 62
    18
420
        0
370
     5
100
AcDbPolyline
 90
        1
 70
     0
 43
0.0
 10
22.0278344748719
 20
76.11280963957316
  0
LWPOLYLINE
  5
35C
330
70
100
AcDbEntity
  8
Sichtbar schmal (ISO)
 62
    18
420
        0
370
     5
100
AcDbPolyline
 90
        1
 70
     0
 43
0.0
 10
22.09068856700799
 20
76.14431974432389
  0
SPLINE
  5
35D
330
70
100
AcDbEntity
  8
Sichtbar schmal (ISO)
 62
    18
420
        0
370
     5
100
AcDbSpline
210
0.0
220
0.0
230
1.0
 70
     8
 71
     3
 72
     8
 73
     4
 74
     0
 42
0.0000000001
 43
0.0000000001
 40
0.0
 40
0.0
 40
0.0
 40
0.0
 40
1.0
 40
1.0
 40
1.0
 40
1.0
 10
24.76756448462151
 20
25.66647877403039
 30
0.0
 10
24.76931325330666
 20
25.66546494645205
 30
0.0
 10
24.7711883358156
 20
25.66468667360308
 30
0.0
 10
24.77314103311126
 20
25.6641641685361
 30
0.0
  0
CIRCLE
  5
35E
330
70
100
AcDbEntity
  8
Sichtbar schmal (ISO)
 62
    18
420
        0
370
     5
100
AcDbCircle
 10
31.21148902232246
 20
36.78171540550289
 30
0.0
 40
13.19221983544236
  0
LINE
  5
35F
330
70
100
AcDbEntity
  8
Sichtbar schmal (ISO)
 62
    18
420
        0
370
     5
100
AcDbLine
 10
24.76756448462151
 20
25.66647877403039
 30
0.0
 11
24.76796125753633
 21
25.66716546944153
 31
0.0
  0
LINE
  5
360
330
70
100
AcDbEntity
  8
Sichtbar schmal (ISO)
 62
    18
420
        0
370
     5
100
AcDbLine
 10
24.79562170465467
 20
25.65026018243051
 30
0.0
 11
24.79760608436289
 21
25.64942438112662
 31
0.0
  0
CIRCLE
  5
361
330
70
100
AcDbEntity
  8
Sichtbar schmal (ISO)
 62
    18
420
        0
370
     5
100
AcDbCircle
 10
31.21148902232262
 20
36.78171540550265
 30
0.0
 40
12.79497351325005
  0
SPLINE
  5
362
330
70
100
AcDbEntity
  8
Sichtbar schmal (ISO)
 62
    18
420
        0
370
     5
100
AcDbSpline
210
0.0
220
0.0
230
1.0
 70
     8
 71
     3
 72
     8
 73
     4
 74
     0
 42
0.0000000001
 43
0.0000000001
 40
0.0
 40
0.0
 40
0.0
 40
0.0
 40
1.0
 40
1.0
 40
1.0
 40
1.0
 10
31.52108396757443
 20
34.00570830889481
 30
0.0
 10
31.55896926628103
 20
34.00572158091925
 30
0.0
 10
31.58945798007573
 20
34.03891678221073
 30
0.0
 10
31.58945290931666
 20
34.08014637140027
 30
0.0
  0
LINE
  5
363
330
70
100
AcDbEntity
  8
Sichtbar schmal (ISO)
 62
    18
420
        0
370
     5
100
AcDbLine
 10
31.52108396763668
 20
34.00570830889481
 30
0.0
 11
30.9018940771109
 21
34.0057083019266
 31
0.0
  0
SPLINE
  5
364
330
70
100
AcDbEntity
  8
Sichtbar schmal (ISO)
 62
    18
420
        0
370
     5
100
AcDbSpline
210
0.0
220
0.0
230
1.0
 70
     8
 71
     3
 72
     8
 73
     4
 74
     0
 42
0.0000000001
 43
0.0000000001
 40
0.0
 40
0.0
 40
0.0
 40
0.0
 40
1.0
 40
1.0
 40
1.0
 40
1.0
 10
30.83352513532857
 20
34.08014632956663
 30
0.0
 10
30.83351708916025
 20
34.03892006989223
 30
0.0
 10
30.86401351392536
 20
34.00571648870369
 30
0.0
 10
30.90189407712245
 20
34.0057083019266
 30
0.0
  0
LINE
  5
365
330
70
100
AcDbEntity
  8
Sichtbar schmal (ISO)
 62
    18
420
        0
370
     5
100
AcDbLine
 10
30.83352513532857
 20
34.08014632956663
 30
0.0
 11
30.83352513532857
 21
39.48328443960502
 31
0.0
  0
SPLINE
  5
366
330
70
100
AcDbEntity
  8
Sichtbar schmal (ISO)
 62
    18
420
        0
370
     5
100
AcDbSpline
210
0.0
220
0.0
230
1.0
 70
     8
 71
     3
 72
     8
 73
     4
 74
     0
 42
0.0000000001
 43
0.0000000001
 40
0.0
 40
0.0
 40
0.0
 40
0.0
 40
1.0
 40
1.0
 40
1.0
 40
1.0
 10
30.9018940770708
 20
39.55772250211048
 30
0.0
 10
30.86400877836484
 20
39.55770923008604
 30
0.0
 10
30.8335200645695
 20
39.5245140287952
 30
0.0
 10
30.83352513532857
 20
39.48328443960502
 30
0.0
  0
LINE
  5
367
330
70
100
AcDbEntity
  8
Sichtbar schmal (ISO)
 62
    18
420
        0
370
     5
100
AcDbLine
 10
30.90189407700855
 20
39.55772250211048
 30
0.0
 11
31.52108396753465
 21
39.55772250907934
 31
0.0
  0
SPLINE
  5
368
330
70
100
AcDbEntity
  8
Sichtbar schmal (ISO)
 62
    18
420
        0
370
     5
100
AcDbSpline
210
0.0
220
0.0
230
1.0
 70
     8
 71
     3
 72
     8
 73
     4
 74
     0
 42
0.0000000001
 43
0.0000000001
 40
0.0
 40
0.0
 40
0.0
 40
0.0
 40
1.0
 40
1.0
 40
1.0
 40
1.0
 10
31.58945290931666
 20
39.48328448143995
 30
0.0
 10
31.58946095548851
 20
39.52451074110985
 30
0.0
 10
31.55896453071923
 20
39.55771432230224
 30
0.0
 10
31.52108396752342
 20
39.55772250907934
 30
0.0
  0
LINE
  5
369
330
70
100
AcDbEntity
  8
Sichtbar schmal (ISO)
 62
    18
420
        0
370
     5
100
AcDbLine
 10
31.58945290931666
 20
39.48328448143995
 30
0.0
 11
31.58945290931666
 21
34.08014637140027
 31
0.0
  0
ENDSEC
  0
SECTION
  2
OBJECTS
  0
DICTIONARY
  5
C
330
0
100
AcDbDictionary
281
     1
  3
ACAD_COLOR
350
63
  3
ACAD_DETAILVIEWSTYLE
350
6A
  3
ACAD_GROUP
350
D
  3
ACAD_LAYOUT
350
62
  3
ACAD_MATERIAL
350
10
  3
ACAD_MLEADERSTYLE
350
66
  3
ACAD_MLINESTYLE
350
5F
  3
ACAD_PLOTSETTINGS
350
61
  3
ACAD_PLOTSTYLENAME
350
E
  3
ACAD_SCALELIST
350
42
  3
ACAD_SECTIONVIEWSTYLE
350
68
  3
ACAD_TABLESTYLE
350
64
  3
ACAD_VISUALSTYLE
350
29
  3
ACDB_RECOMPOSE_DATA
350
372
  3
AcDbVariableDictionary
350
36A
  0
DICTIONARY
  5
63
102
{ACAD_REACTORS
330
C
102
}
330
C
100
AcDbDictionary
281
     1
  0
DICTIONARY
  5
6A
102
{ACAD_REACTORS
330
C
102
}
330
C
100
AcDbDictionary
281
     1
  3
Imperial24
350
6B
  0
DICTIONARY
  5
D
102
{ACAD_REACTORS
330
C
102
}
330
C
100
AcDbDictionary
281
     1
  0
DICTIONARY
  5
62
102
{ACAD_REACTORS
330
C
102
}
330
C
100
AcDbDictionary
281
     1
  3
Layout1
350
6F
  3
Layout2
350
77
  3
Model
350
73
  0
DICTIONARY
  5
10
102
{ACAD_REACTORS
330
C
102
}
330
C
100
AcDbDictionary
281
     1
  3
ByBlock
350
19
  3
ByLayer
350
11
  3
Global
350
21
  0
DICTIONARY
  5
66
102
{ACAD_REACTORS
330
C
102
}
330
C
100
AcDbDictionary
281
     1
  3
Standard
350
67
  0
DICTIONARY
  5
5F
102
{ACAD_REACTORS
330
C
102
}
330
C
100
AcDbDictionary
281
     1
  3
Standard
350
60
  0
DICTIONARY
  5
61
102
{ACAD_REACTORS
330
C
102
}
330
C
100
AcDbDictionary
281
     1
  0
ACDBDICTIONARYWDFLT
  5
E
102
{ACAD_REACTORS
330
C
102
}
330
C
100
AcDbDictionary
281
     1
  3
Normal
350
F
100
AcDbDictionaryWithDefault
340
F
  0
DICTIONARY
  5
42
102
{ACAD_REACTORS
330
C
102
}
330
C
100
AcDbDictionary
281
     1
  3
A0
350
43
  3
A1
350
44
  3
A2
350
45
  3
A3
350
46
  3
A4
350
47
  3
A5
350
48
  3
A6
350
49
  3
A7
350
4A
  3
A8
350
4B
  3
A9
350
4C
  3
B0
350
4D
  3
B1
350
4E
  3
B2
350
4F
  3
B3
350
50
  3
B4
350
51
  3
B5
350
52
  3
B6
350
53
  0
DICTIONARY
  5
68
102
{ACAD_REACTORS
330
C
102
}
330
C
100
AcDbDictionary
281
     1
  3
Imperial24
350
69
  0
DICTIONARY
  5
64
102
{ACAD_REACTORS
330
C
102
}
330
C
100
AcDbDictionary
281
     1
  3
Standard
350
65
  0
DICTIONARY
  5
29
102
{ACAD_REACTORS
330
C
102
}
330
C
100
AcDbDictionary
281
     1
  3
2dWireframe
350
2F
  3
Basic
350
2E
  3
Brighten
350
35
  3
ColorChange
350
39
  3
Conceptual
350
32
  3
Dim
350
34
  3
EdgeColorOff
350
41
  3
Facepattern
350
38
  3
Flat
350
2A
  3
FlatWithEdges
350
2B
  3
Gouraud
350
2C
  3
GouraudWithEdges
350
2D
  3
Hidden
350
31
  3
JitterOff
350
3F
  3
Linepattern
350
37
  3
OverhangOff
350
40
  3
Realistic
350
33
  3
Shaded
350
3E
  3
Shaded with edges
350
3D
  3
Shades of Gray
350
3A
  3
Sketchy
350
3B
  3
Thicken
350
36
  3
Wireframe
350
30
  3
X-Ray
350
3C
  0
XRECORD
  5
372
102
{ACAD_REACTORS
330
C
102
}
330
C
100
AcDbXrecord
280
     1
 90
        1
330
65
  0
DICTIONARY
  5
36A
102
{ACAD_REACTORS
330
C
102
}
330
C
100
AcDbDictionary
281
     1
  3
CANNOSCALE
350
36F
  3
CMLEADERSTYLE
350
36C
  3
CTABLESTYLE
350
36B
  3
CVIEWDETAILSTYLE
350
36D
  3
CVIEWSECTIONSTYLE
350
36E
  0
ACDBDETAILVIEWSTYLE
  5
6B
102
{ACAD_REACTORS
330
6A
102
}
330
6A
100
AcDbModelDocViewStyle
 70
     0
  3
Imperial24
290
     1
300
Imperial24
 90
        0
100
AcDbDetailViewStyle
 70
     0
 71
     0
 90
        3
 71
     1
340
55
 62
   256
 40
0.24
340
0
 62
   256
 40
0.24
300

 40
0.36
280
     3
 71
     2
340
5D
 90
       25
 62
   256
 71
     3
340
55
 62
   256
 40
0.24
 90
        1
 40
0.75
 90
        1
300
%<\AcVar ViewType \f "%tc1">% %<\AcVar ViewDetailId>%\PSCALE %<\AcVar ViewScale \f "%sn">%
 71
     4
340
5D
 90
       25
 62
   256
340
5D
 90
       25
 62
   256
280
     0
  0
LAYOUT
  5
6F
102
{ACAD_REACTORS
330
62
102
}
330
62
100
AcDbPlotSettings
  1

  2

  4

  6

 40
0.0
 41
0.0
 42
0.0
 43
0.0
 44
0.0
 45
0.0
 46
0.0
 47
0.0
 48
0.0
 49
0.0
140
0.0
141
0.0
142
1.0
143
1.0
 70
   688
 72
     0
 73
     0
 74
     5
  7

 75
    16
147
1.0
 76
     0
 77
     2
 78
   300
148
0.0
149
0.0
100
AcDbLayout
  1
Layout1
 70
     1
 71
     1
 10
0.0
 20
0.0
 11
12.0
 21
9.0
 12
0.0
 22
0.0
 32
0.0
 14
0.0
 24
0.0
 34
0.0
 15
0.0
 25
0.0
 35
0.0
146
0.0
 13
0.0
 23
0.0
 33
0.0
 16
1.0
 26
0.0
 36
0.0
 17
0.0
 27
1.0
 37
0.0
 76
     0
330
6C
  0
LAYOUT
  5
77
102
{ACAD_REACTORS
330
62
102
}
330
62
100
AcDbPlotSettings
  1

  2

  4

  6

 40
0.0
 41
0.0
 42
0.0
 43
0.0
 44
0.0
 45
0.0
 46
0.0
 47
0.0
 48
0.0
 49
0.0
140
0.0
141
0.0
142
1.0
143
1.0
 70
   688
 72
     0
 73
     0
 74
     5
  7

 75
    16
147
1.0
 76
     0
 77
     2
 78
   300
148
0.0
149
0.0
100
AcDbLayout
  1
Layout2
 70
     1
 71
     2
 10
0.0
 20
0.0
 11
12.0
 21
9.0
 12
0.0
 22
0.0
 32
0.0
 14
0.0
 24
0.0
 34
0.0
 15
0.0
 25
0.0
 35
0.0
146
0.0
 13
0.0
 23
0.0
 33
0.0
 16
1.0
 26
0.0
 36
0.0
 17
0.0
 27
1.0
 37
0.0
 76
     0
330
74
  0
LAYOUT
  5
73
102
{ACAD_REACTORS
330
62
102
}
330
62
100
AcDbPlotSettings
  1

  2

  4

  6

 40
0.0
 41
0.0
 42
0.0
 43
0.0
 44
0.0
 45
0.0
 46
0.0
 47
0.0
 48
0.0
 49
0.0
140
0.0
141
0.0
142
1.0
143
1.0
 70
  1712
 72
     0
 73
     0
 74
     0
  7

 75
     0
147
1.0
 76
     0
 77
     2
 78
   300
148
0.0
149
0.0
100
AcDbLayout
  1
Model
 70
     1
 71
     0
 10
0.0
 20
0.0
 11
12.0
 21
9.0
 12
0.0
 22
0.0
 32
0.0
 14
0.0
 24
0.0
 34
0.0
 15
0.0
 25
0.0
 35
0.0
146
0.0
 13
0.0
 23
0.0
 33
0.0
 16
1.0
 26
0.0
 36
0.0
 17
0.0
 27
1.0
 37
0.0
 76
     0
330
70
  0
MATERIAL
  5
19
102
{ACAD_XDICTIONARY
360
1A
102
}
102
{ACAD_REACTORS
330
10
102
}
330
10
100
AcDbMaterial
  1
ByBlock
 72
     0
 43
0.0208333333333333
 43
0.0
 43
0.0
 43
0.0
 43
0.0
 43
0.0208333333333333
 43
0.0
 43
0.0
 43
0.0
 43
0.0
 43
1.0
 43
0.0
 43
0.0
 43
0.0
 43
0.0
 43
1.0
 77
     0
 47
0.0208333333333333
 47
0.0
 47
0.0
 47
0.0
 47
0.0
 47
0.0208333333333333
 47
0.0
 47
0.0
 47
0.0
 47
0.0
 47
1.0
 47
0.0
 47
0.0
 47
0.0
 47
0.0
 47
1.0
171
     0
 49
0.0208333333333333
 49
0.0
 49
0.0
 49
0.0
 49
0.0
 49
0.0208333333333333
 49
0.0
 49
0.0
 49
0.0
 49
0.0
 49
1.0
 49
0.0
 49
0.0
 49
0.0
 49
0.0
 49
1.0
175
     0
142
0.0208333333333333
142
0.0
142
0.0
142
0.0
142
0.0
142
0.0208333333333333
142
0.0
142
0.0
142
0.0
142
0.0
142
1.0
142
0.0
142
0.0
142
0.0
142
0.0
142
1.0
179
     0
144
0.0208333333333333
144
0.0
144
0.0
144
0.0
144
0.0
144
0.0208333333333333
144
0.0
144
0.0
144
0.0
144
0.0
144
1.0
144
0.0
144
0.0
144
0.0
144
0.0
144
1.0
147
0.0208333333333333
147
0.0
147
0.0
147
0.0
147
0.0
147
0.0208333333333333
147
0.0
147
0.0
147
0.0
147
0.0
147
1.0
147
0.0
147
0.0
147
0.0
147
0.0
147
1.0
  0
MATERIAL
  5
11
102
{ACAD_XDICTIONARY
360
12
102
}
102
{ACAD_REACTORS
330
10
102
}
330
10
100
AcDbMaterial
  1
ByLayer
 72
     0
 43
0.0208333333333333
 43
0.0
 43
0.0
 43
0.0
 43
0.0
 43
0.0208333333333333
 43
0.0
 43
0.0
 43
0.0
 43
0.0
 43
1.0
 43
0.0
 43
0.0
 43
0.0
 43
0.0
 43
1.0
 77
     0
 47
0.0208333333333333
 47
0.0
 47
0.0
 47
0.0
 47
0.0
 47
0.0208333333333333
 47
0.0
 47
0.0
 47
0.0
 47
0.0
 47
1.0
 47
0.0
 47
0.0
 47
0.0
 47
0.0
 47
1.0
171
     0
 49
0.0208333333333333
 49
0.0
 49
0.0
 49
0.0
 49
0.0
 49
0.0208333333333333
 49
0.0
 49
0.0
 49
0.0
 49
0.0
 49
1.0
 49
0.0
 49
0.0
 49
0.0
 49
0.0
 49
1.0
175
     0
142
0.0208333333333333
142
0.0
142
0.0
142
0.0
142
0.0
142
0.0208333333333333
142
0.0
142
0.0
142
0.0
142
0.0
142
1.0
142
0.0
142
0.0
142
0.0
142
0.0
142
1.0
179
     0
144
0.0208333333333333
144
0.0
144
0.0
144
0.0
144
0.0
144
0.0208333333333333
144
0.0
144
0.0
144
0.0
144
0.0
144
1.0
144
0.0
144
0.0
144
0.0
144
0.0
144
1.0
147
0.0208333333333333
147
0.0
147
0.0
147
0.0
147
0.0
147
0.0208333333333333
147
0.0
147
0.0
147
0.0
147
0.0
147
1.0
147
0.0
147
0.0
147
0.0
147
0.0
147
1.0
  0
MATERIAL
  5
21
102
{ACAD_XDICTIONARY
360
22
102
}
102
{ACAD_REACTORS
330
10
102
}
330
10
100
AcDbMaterial
  1
Global
 72
     0
 43
0.0208333333333333
 43
0.0
 43
0.0
 43
0.0
 43
0.0
 43
0.0208333333333333
 43
0.0
 43
0.0
 43
0.0
 43
0.0
 43
1.0
 43
0.0
 43
0.0
 43
0.0
 43
0.0
 43
1.0
 77
     0
 47
0.0208333333333333
 47
0.0
 47
0.0
 47
0.0
 47
0.0
 47
0.0208333333333333
 47
0.0
 47
0.0
 47
0.0
 47
0.0
 47
1.0
 47
0.0
 47
0.0
 47
0.0
 47
0.0
 47
1.0
171
     0
 49
0.0208333333333333
 49
0.0
 49
0.0
 49
0.0
 49
0.0
 49
0.0208333333333333
 49
0.0
 49
0.0
 49
0.0
 49
0.0
 49
1.0
 49
0.0
 49
0.0
 49
0.0
 49
0.0
 49
1.0
175
     0
142
0.0208333333333333
142
0.0
142
0.0
142
0.0
142
0.0
142
0.0208333333333333
142
0.0
142
0.0
142
0.0
142
0.0
142
1.0
142
0.0
142
0.0
142
0.0
142
0.0
142
1.0
179
     0
144
0.0208333333333333
144
0.0
144
0.0
144
0.0
144
0.0
144
0.0208333333333333
144
0.0
144
0.0
144
0.0
144
0.0
144
1.0
144
0.0
144
0.0
144
0.0
144
0.0
144
1.0
147
0.0208333333333333
147
0.0
147
0.0
147
0.0
147
0.0
147
0.0208333333333333
147
0.0
147
0.0
147
0.0
147
0.0
147
1.0
147
0.0
147
0.0
147
0.0
147
0.0
147
1.0
  0
MLEADERSTYLE
  5
67
102
{ACAD_REACTORS
330
66
102
}
330
66
100
AcDbMLeaderStyle
179
     2
170
     2
171
     1
172
     0
 90
        2
 40
0.0
 41
0.0
173
     1
 91
-1056964608
340
5B
 92
       -2
290
     1
 42
0.09
291
     1
 43
0.36
  3
Standard
 44
0.18
300

342
55
174
     1
178
     6
175
     1
176
     0
 93
-1056964608
 45
0.18
292
     0
297
     0
 46
0.18
 94
-1056964608
 47
1.0
 49
1.0
140
1.0
293
     1
141
0.0
294
     1
177
     0
142
1.0
295
     1
296
     0
143
0.125
271
     0
272
     9
273
     9
298
     1
  0
MLINESTYLE
  5
60
102
{ACAD_REACTORS
330
5F
102
}
330
5F
100
AcDbMlineStyle
  2
STANDARD
 70
     0
  3

 62
   256
 51
90.0
 52
90.0
 71
     2
 49
0.5
 62
   256
  6
BYLAYER
 49
-0.5
 62
   256
  6
BYLAYER
  0
ACDBPLACEHOLDER
  5
F
102
{ACAD_REACTORS
330
E
102
}
330
E
  0
SCALE
  5
43
102
{ACAD_REACTORS
330
42
102
}
330
42
100
AcDbScale
 70
     0
300
1:1
140
1.0
141
1.0
290
     1
  0
SCALE
  5
44
102
{ACAD_REACTORS
330
42
102
}
330
42
100
AcDbScale
 70
     0
300
1/128" = 1'-0"
140
0.0078125
141
12.0
290
     0
  0
SCALE
  5
45
102
{ACAD_REACTORS
330
42
102
}
330
42
100
AcDbScale
 70
     0
300
1/64" = 1'-0"
140
0.015625
141
12.0
290
     0
  0
SCALE
  5
46
102
{ACAD_REACTORS
330
42
102
}
330
42
100
AcDbScale
 70
     0
300
1/32" = 1'-0"
140
0.03125
141
12.0
290
     0
  0
SCALE
  5
47
102
{ACAD_REACTORS
330
42
102
}
330
42
100
AcDbScale
 70
     0
300
1/16" = 1'-0"
140
0.0625
141
12.0
290
     0
  0
SCALE
  5
48
102
{ACAD_REACTORS
330
42
102
}
330
42
100
AcDbScale
 70
     0
300
3/32" = 1'-0"
140
0.09375
141
12.0
290
     0
  0
SCALE
  5
49
102
{ACAD_REACTORS
330
42
102
}
330
42
100
AcDbScale
 70
     0
300
1/8" = 1'-0"
140
0.125
141
12.0
290
     0
  0
SCALE
  5
4A
102
{ACAD_REACTORS
330
42
102
}
330
42
100
AcDbScale
 70
     0
300
3/16" = 1'-0"
140
0.1875
141
12.0
290
     0
  0
SCALE
  5
4B
102
{ACAD_REACTORS
330
42
102
}
330
42
100
AcDbScale
 70
     0
300
1/4" = 1'-0"
140
0.25
141
12.0
290
     0
  0
SCALE
  5
4C
102
{ACAD_REACTORS
330
42
102
}
330
42
100
AcDbScale
 70
     0
300
3/8" = 1'-0"
140
0.375
141
12.0
290
     0
  0
SCALE
  5
4D
102
{ACAD_REACTORS
330
42
102
}
330
42
100
AcDbScale
 70
     0
300
1/2" = 1'-0"
140
0.5
141
12.0
290
     0
  0
SCALE
  5
4E
102
{ACAD_REACTORS
330
42
102
}
330
42
100
AcDbScale
 70
     0
300
3/4" = 1'-0"
140
0.75
141
12.0
290
     0
  0
SCALE
  5
4F
102
{ACAD_REACTORS
330
42
102
}
330
42
100
AcDbScale
 70
     0
300
1" = 1'-0"
140
1.0
141
12.0
290
     0
  0
SCALE
  5
50
102
{ACAD_REACTORS
330
42
102
}
330
42
100
AcDbScale
 70
     0
300
1-1/2" = 1'-0"
140
1.5
141
12.0
290
     0
  0
SCALE
  5
51
102
{ACAD_REACTORS
330
42
102
}
330
42
100
AcDbScale
 70
     0
300
3" = 1'-0"
140
3.0
141
12.0
290
     0
  0
SCALE
  5
52
102
{ACAD_REACTORS
330
42
102
}
330
42
100
AcDbScale
 70
     0
300
6" = 1'-0"
140
6.0
141
12.0
290
     0
  0
SCALE
  5
53
102
{ACAD_REACTORS
330
42
102
}
330
42
100
AcDbScale
 70
     0
300
1'-0" = 1'-0"
140
12.0
141
12.0
290
     0
  0
ACDBSECTIONVIEWSTYLE
  5
69
102
{ACAD_REACTORS
330
68
102
}
330
68
100
AcDbModelDocViewStyle
 70
     0
  3
Imperial24
290
     1
300
Imperial24
 90
        0
100
AcDbSectionViewStyle
 70
     0
 71
     0
 90
       78
 71
     1
340
55
 62
   256
 40
0.24
340
0
340
0
 62
   256
 40
0.24
300
I, O, Q, S, X, Z
 40
0.48
 90
        3
 40
0.18
 90
        1
 71
     2
340
5D
 90
       25
 62
   256
340
5D
 90
       50
 62
   256
 40
0.24
 40
0.0
 40
0.24
 71
     3
340
55
 62
   256
 40
0.24
 90
        1
 40
0.75
 90
        1
300
%<\AcVar ViewType \f "%tc1">% %<\AcVar ViewSectionStartId>%-%<\AcVar ViewSectionEndId>%\PSCALE %<\AcVar ViewScale \f "%sn">%
 71
     4
 62
   256
 62
   257
300
ANSI31
 40
1.0
 90
        0
290
     0
290
     0
 90
        6
 40
0.0
 40
1.570796326794896
 40
0.2617993877991494
 40
1.308996938995747
 40
-0.2617993877991494
 40
1.832595714594046
  0
TABLESTYLE
  5
65
102
{ACAD_XDICTIONARY
360
370
102
}
102
{ACAD_REACTORS
330
64
102
}
330
64
100
AcDbTableStyle
280
     0
  3
Standard
 70
     0
 71
     0
 40
0.06
 41
0.06
280
     0
281
     0
  7
Standard
140
0.18
170
     2
 62
     0
 63
     7
283
     0
 90
      512
 91
        0
  1

274
    -2
284
     1
 64
     0
275
    -2
285
     1
 65
     0
276
    -2
286
     1
 66
     0
277
    -2
287
     1
 67
     0
278
    -2
288
     1
 68
     0
279
    -2
289
     1
 69
     0
  7
Standard
140
0.25
170
     5
 62
     0
 63
     7
283
     0
 90
      512
 91
        0
  1

274
    -2
284
     1
 64
     0
275
    -2
285
     1
 65
     0
276
    -2
286
     1
 66
     0
277
    -2
287
     1
 67
     0
278
    -2
288
     1
 68
     0
279
    -2
289
     1
 69
     0
  7
Standard
140
0.18
170
     5
 62
     0
 63
     7
283
     0
 90
      512
 91
        0
  1

274
    -2
284
     1
 64
     0
275
    -2
285
     1
 65
     0
276
    -2
286
     1
 66
     0
277
    -2
287
     1
 67
     0
278
    -2
288
     1
 68
     0
279
    -2
289
     1
 69
     0
  0
VISUALSTYLE
  5
2F
102
{ACAD_REACTORS
330
29
102
}
330
29
100
AcDbVisualStyle
  2
2dWireframe
 70
     4
177
     3
291
     0
 70
    58
 90
        0
176
     1
 90
        2
176
     1
 90
        0
176
     1
 90
        0
176
     1
 40
0.6
176
     1
 40
30.0
176
     1
 62
     7
420
 16777215
176
     1
 90
        1
176
     1
 90
        4
176
     1
 62
     7
176
     1
 62
   257
176
     1
 90
        1
176
     1
 90
        1
176
     1
 40
1.0
176
     1
 90
        0
176
     1
 62
   257
176
     1
 40
1.0
176
     1
 90
        1
176
     1
 90
        6
176
     1
 90
        2
176
     1
 62
     7
176
     1
 90
        5
176
     1
 90
        0
176
     1
 90
        0
176
     1
290
     0
176
     1
 90
        1
176
     1
 40
0.0
176
     1
 90
        0
176
     1
290
     1
176
     1
290
     1
176
     1
290
     0
176
     1
290
     0
176
     1
290
     0
176
     1
290
     0
176
     1
290
     0
176
     1
290
     0
176
     1
290
     0
176
     1
 90
       50
176
     1
 40
0.0
176
     1
 40
1.0
176
     1
 90
        0
176
     1
 62
    18
420
        0
176
     1
 90
       50
176
     1
 90
        3
176
     1
 62
     5
420
      255
176
     1
290
     0
176
     1
 90
       50
176
     1
 90
       50
176
     1
 90
       50
176
     1
290
     0
176
     1
 90
       50
176
     1
 62
   256
176
     0
 40
1.0
176
     0
 90
        2
176
     1
  1
strokes_ogs.tif
176
     1
290
     0
176
     1
 40
1.0
176
     1
 40
1.0
176
     1
  0
VISUALSTYLE
  5
2E
102
{ACAD_REACTORS
330
29
102
}
330
29
100
AcDbVisualStyle
  2
Basic
 70
     7
177
     3
291
     1
 70
    58
 90
        1
176
     1
 90
        0
176
     1
 90
        1
176
     1
 90
        0
176
     1
 40
0.6
176
     1
 40
30.0
176
     1
 62
     7
420
 16777215
176
     1
 90
        0
176
     1
 90
        4
176
     1
 62
     7
176
     1
 62
   257
176
     1
 90
        1
176
     1
 90
        1
176
     1
 40
1.0
176
     1
 90
        8
176
     1
 62
     7
176
     1
 40
1.0
176
     1
 90
        1
176
     1
 90
        6
176
     1
 90
        2
176
     1
 62
     7
176
     1
 90
        5
176
     1
 90
        0
176
     1
 90
        0
176
     1
290
     0
176
     1
 90
        1
176
     1
 40
0.0
176
     1
 90
        0
176
     1
290
     0
176
     1
290
     1
176
     1
290
     1
176
     1
290
     0
176
     1
290
     0
176
     1
290
     0
176
     1
290
     0
176
     1
290
     0
176
     1
290
     0
176
     1
 90
       50
176
     1
 40
0.0
176
     1
 40
1.0
176
     1
 90
        0
176
     1
 62
    18
420
        0
176
     1
 90
       50
176
     1
 90
        3
176
     1
 62
     5
420
      255
176
     1
290
     0
176
     1
 90
       50
176
     1
 90
       50
176
     1
 90
       50
176
     1
290
     0
176
     1
 90
       50
176
     1
 62
   256
176
     0
 40
1.0
176
     0
 90
        2
176
     1
  1
strokes_ogs.tif
176
     1
290
     0
176
     1
 40
1.0
176
     1
 40
1.0
176
     1
  0
VISUALSTYLE
  5
35
102
{ACAD_REACTORS
330
29
102
}
330
29
100
AcDbVisualStyle
  2
Brighten
 70
    12
177
     3
291
     1
 70
    58
 90
        2
176
     1
 90
        2
176
     1
 90
        0
176
     1
 90
        0
176
     1
 40
0.6
176
     1
 40
30.0
176
     1
 62
     7
420
 16777215
176
     1
 90
        1
176
     1
 90
        4
176
     1
 62
     7
176
     1
 62
   257
176
     1
 90
        1
176
     1
 90
        1
176
     1
 40
1.0
176
     1
 90
        8
176
     1
 62
     7
176
     1
 40
1.0
176
     1
 90
        1
176
     1
 90
        6
176
     1
 90
        2
176
     1
 62
     7
176
     1
 90
        5
176
     1
 90
        0
176
     1
 90
        0
176
     1
290
     0
176
     1
 90
        1
176
     1
 40
50.0
176
     1
 90
        0
176
     1
290
     0
176
     1
290
     1
176
     1
290
     1
176
     1
290
     0
176
     1
290
     0
176
     1
290
     0
176
     1
290
     0
176
     1
290
     0
176
     1
290
     0
176
     1
 90
       50
176
     1
 40
0.0
176
     1
 40
1.0
176
     1
 90
        0
176
     1
 62
    18
420
        0
176
     1
 90
       50
176
     1
 90
        3
176
     1
 62
     5
420
      255
176
     1
290
     0
176
     1
 90
       50
176
     1
 90
       50
176
     1
 90
       50
176
     1
290
     0
176
     1
 90
       50
176
     1
 62
   256
176
     0
 40
1.0
176
     0
 90
        2
176
     1
  1
strokes_ogs.tif
176
     1
290
     0
176
     1
 40
1.0
176
     1
 40
1.0
176
     1
  0
VISUALSTYLE
  5
39
102
{ACAD_REACTORS
330
29
102
}
330
29
100
AcDbVisualStyle
  2
ColorChange
 70
    16
177
     3
291
     1
 70
    58
 90
        2
176
     1
 90
        2
176
     1
 90
        3
176
     1
 90
        0
176
     1
 40
0.6
176
     1
 40
30.0
176
     1
 62
     8
420
  8421504
176
     1
 90
        1
176
     1
 90
        4
176
     1
 62
     7
176
     1
 62
   257
176
     1
 90
        1
176
     1
 90
        1
176
     1
 40
1.0
176
     1
 90
        8
176
     1
 62
     8
420
  8421504
176
     1
 40
1.0
176
     1
 90
        1
176
     1
 90
        6
176
     1
 90
        2
176
     1
 62
     7
176
     1
 90
        5
176
     1
 90
        0
176
     1
 90
        0
176
     1
290
     0
176
     1
 90
        1
176
     1
 40
0.0
176
     1
 90
        0
176
     1
290
     0
176
     1
290
     1
176
     1
290
     1
176
     1
290
     0
176
     1
290
     0
176
     1
290
     0
176
     1
290
     0
176
     1
290
     0
176
     1
290
     0
176
     1
 90
       50
176
     1
 40
0.0
176
     1
 40
1.0
176
     1
 90
        0
176
     1
 62
    18
420
        0
176
     1
 90
       50
176
     1
 90
        3
176
     1
 62
     5
420
      255
176
     1
290
     0
176
     1
 90
       50
176
     1
 90
       50
176
     1
 90
       50
176
     1
290
     0
176
     1
 90
       50
176
     1
 62
   256
176
     0
 40
1.0
176
     0
 90
        2
176
     1
  1
strokes_ogs.tif
176
     1
290
     0
176
     1
 40
1.0
176
     1
 40
1.0
176
     1
  0
VISUALSTYLE
  5
32
102
{ACAD_REACTORS
330
29
102
}
330
29
100
AcDbVisualStyle
  2
Conceptual
 70
     9
177
     3
291
     0
 70
    58
 90
        3
176
     1
 90
        2
176
     1
 90
        0
176
     1
 90
        0
176
     1
 40
0.6
176
     1
 40
30.0
176
     1
 62
     7
420
 16777215
176
     1
 90
        2
176
     1
 90
        2
176
     1
 62
     7
176
     1
 62
   257
176
     1
 90
        1
176
     1
 90
        1
176
     1
 40
179.0
176
     1
 90
        8
176
     1
 62
     7
176
     1
 40
1.0
176
     1
 90
        1
176
     1
 90
        6
176
     1
 90
        2
176
     1
 62
     7
176
     1
 90
        3
176
     1
 90
        0
176
     1
 90
        0
176
     1
290
     0
176
     1
 90
        1
176
     1
 40
0.0
176
     1
 90
        0
176
     1
290
     0
176
     1
290
     1
176
     1
290
     1
176
     1
290
     0
176
     1
290
     0
176
     1
290
     0
176
     1
290
     0
176
     1
290
     0
176
     1
290
     0
176
     1
 90
       50
176
     1
 40
0.0
176
     1
 40
1.0
176
     1
 90
        0
176
     1
 62
    18
420
        0
176
     1
 90
       50
176
     1
 90
        3
176
     1
 62
     5
420
      255
176
     1
290
     0
176
     1
 90
       50
176
     1
 90
       50
176
     1
 90
       50
176
     1
290
     0
176
     1
 90
       50
176
     1
 62
   256
176
     0
 40
1.0
176
     0
 90
        2
176
     1
  1
strokes_ogs.tif
176
     1
290
     0
176
     1
 40
1.0
176
     1
 40
1.0
176
     1
  0
VISUALSTYLE
  5
34
102
{ACAD_REACTORS
330
29
102
}
330
29
100
AcDbVisualStyle
  2
Dim
 70
    11
177
     3
291
     1
 70
    58
 90
        2
176
     1
 90
        2
176
     1
 90
        0
176
     1
 90
        0
176
     1
 40
0.6
176
     1
 40
30.0
176
     1
 62
     7
420
 16777215
176
     1
 90
        1
176
     1
 90
        4
176
     1
 62
     7
176
     1
 62
   257
176
     1
 90
        1
176
     1
 90
        1
176
     1
 40
1.0
176
     1
 90
        8
176
     1
 62
     7
176
     1
 40
1.0
176
     1
 90
        1
176
     1
 90
        6
176
     1
 90
        2
176
     1
 62
     7
176
     1
 90
        5
176
     1
 90
        0
176
     1
 90
        0
176
     1
290
     0
176
     1
 90
        1
176
     1
 40
-50.0
176
     1
 90
        0
176
     1
290
     0
176
     1
290
     1
176
     1
290
     1
176
     1
290
     0
176
     1
290
     0
176
     1
290
     0
176
     1
290
     0
176
     1
290
     0
176
     1
290
     0
176
     1
 90
       50
176
     1
 40
0.0
176
     1
 40
1.0
176
     1
 90
        0
176
     1
 62
    18
420
        0
176
     1
 90
       50
176
     1
 90
        3
176
     1
 62
     5
420
      255
176
     1
290
     0
176
     1
 90
       50
176
     1
 90
       50
176
     1
 90
       50
176
     1
290
     0
176
     1
 90
       50
176
     1
 62
   256
176
     0
 40
1.0
176
     0
 90
        2
176
     1
  1
strokes_ogs.tif
176
     1
290
     0
176
     1
 40
1.0
176
     1
 40
1.0
176
     1
  0
VISUALSTYLE
  5
41
102
{ACAD_REACTORS
330
29
102
}
330
29
100
AcDbVisualStyle
  2
EdgeColorOff
 70
    22
177
     3
291
     1
 70
    58
 90
        2
176
     0
 90
        2
176
     0
 90
        0
176
     0
 90
        0
176
     0
 40
0.6
176
     0
 40
30.0
176
     0
 62
     7
420
 16777215
176
     0
 90
        1
176
     0
 90
        4
176
     0
 62
     7
176
     0
 62
   257
176
     0
 90
        1
176
     0
 90
        1
176
     0
 40
1.0
176
     0
 90
        8
176
     2
 62
     7
176
     0
 40
1.0
176
     0
 90
        1
176
     0
 90
        6
176
     0
 90
        2
176
     0
 62
     7
176
     0
 90
        5
176
     0
 90
        0
176
     0
 90
        0
176
     0
290
     0
176
     0
 90
        1
176
     0
 40
0.0
176
     0
 90
        0
176
     0
290
     0
176
     0
290
     1
176
     0
290
     1
176
     0
290
     0
176
     0
290
     0
176
     0
290
     0
176
     0
290
     0
176
     0
290
     0
176
     0
290
     0
176
     0
 90
       50
176
     0
 40
0.0
176
     0
 40
1.0
176
     0
 90
        0
176
     0
 62
    18
420
        0
176
     0
 90
       50
176
     0
 90
        3
176
     0
 62
     5
420
      255
176
     0
290
     0
176
     0
 90
       50
176
     0
 90
       50
176
     0
 90
       50
176
     0
290
     0
176
     0
 90
       50
176
     0
 62
   256
176
     0
 40
1.0
176
     0
 90
        2
176
     0
  1
strokes_ogs.tif
176
     0
290
     0
176
     0
 40
1.0
176
     0
 40
1.0
176
     0
  0
VISUALSTYLE
  5
38
102
{ACAD_REACTORS
330
29
102
}
330
29
100
AcDbVisualStyle
  2
Facepattern
 70
    15
177
     3
291
     1
 70
    58
 90
        2
176
     1
 90
        2
176
     1
 90
        0
176
     1
 90
        0
176
     1
 40
0.6
176
     1
 40
30.0
176
     1
 62
     7
420
 16777215
176
     1
 90
        1
176
     1
 90
        4
176
     1
 62
     7
176
     1
 62
   257
176
     1
 90
        1
176
     1
 90
        1
176
     1
 40
1.0
176
     1
 90
        8
176
     1
 62
     7
176
     1
 40
1.0
176
     1
 90
        1
176
     1
 90
        6
176
     1
 90
        2
176
     1
 62
     7
176
     1
 90
        5
176
     1
 90
        0
176
     1
 90
        0
176
     1
290
     0
176
     1
 90
        1
176
     1
 40
0.0
176
     1
 90
        0
176
     1
290
     0
176
     1
290
     1
176
     1
290
     1
176
     1
290
     0
176
     1
290
     0
176
     1
290
     0
176
     1
290
     0
176
     1
290
     0
176
     1
290
     0
176
     1
 90
       50
176
     1
 40
0.0
176
     1
 40
1.0
176
     1
 90
        0
176
     1
 62
    18
420
        0
176
     1
 90
       50
176
     1
 90
        3
176
     1
 62
     5
420
      255
176
     1
290
     0
176
     1
 90
       50
176
     1
 90
       50
176
     1
 90
       50
176
     1
290
     0
176
     1
 90
       50
176
     1
 62
   256
176
     0
 40
1.0
176
     0
 90
        2
176
     1
  1
strokes_ogs.tif
176
     1
290
     0
176
     1
 40
1.0
176
     1
 40
1.0
176
     1
  0
VISUALSTYLE
  5
2A
102
{ACAD_REACTORS
330
29
102
}
330
29
100
AcDbVisualStyle
  2
Flat
 70
     0
177
     3
291
     1
 70
    58
 90
        2
176
     1
 90
        1
176
     1
 90
        1
176
     1
 90
        2
176
     1
 40
0.6
176
     1
 40
30.0
176
     1
 62
     7
420
 16777215
176
     1
 90
        0
176
     1
 90
        0
176
     1
 62
     7
176
     1
 62
   257
176
     1
 90
        1
176
     1
 90
        1
176
     1
 40
1.0
176
     1
 90
        8
176
     1
 62
     7
176
     1
 40
1.0
176
     1
 90
        1
176
     1
 90
        6
176
     1
 90
        2
176
     1
 62
     7
176
     1
 90
        5
176
     1
 90
        0
176
     1
 90
        0
176
     1
290
     0
176
     1
 90
       13
176
     1
 40
0.0
176
     1
 90
        0
176
     1
290
     0
176
     1
290
     1
176
     1
290
     1
176
     1
290
     0
176
     1
290
     0
176
     1
290
     0
176
     1
290
     0
176
     1
290
     0
176
     1
290
     0
176
     1
 90
       50
176
     1
 40
0.0
176
     1
 40
1.0
176
     1
 90
        0
176
     1
 62
    18
420
        0
176
     1
 90
       50
176
     1
 90
        3
176
     1
 62
     5
420
      255
176
     1
290
     0
176
     1
 90
       50
176
     1
 90
       50
176
     1
 90
       50
176
     1
290
     0
176
     1
 90
       50
176
     1
 62
   256
176
     0
 40
1.0
176
     0
 90
        2
176
     1
  1
strokes_ogs.tif
176
     1
290
     0
176
     1
 40
1.0
176
     1
 40
1.0
176
     1
  0
VISUALSTYLE
  5
2B
102
{ACAD_REACTORS
330
29
102
}
330
29
100
AcDbVisualStyle
  2
FlatWithEdges
 70
     1
177
     3
291
     1
 70
    58
 90
        2
176
     1
 90
        1
176
     1
 90
        1
176
     1
 90
        2
176
     1
 40
0.6
176
     1
 40
30.0
176
     1
 62
     7
420
 16777215
176
     1
 90
        1
176
     1
 90
        0
176
     1
 62
     7
176
     1
 62
   257
176
     1
 90
        1
176
     1
 90
        1
176
     1
 40
1.0
176
     1
 90
        0
176
     1
 62
   257
176
     1
 40
1.0
176
     1
 90
        1
176
     1
 90
        6
176
     1
 90
        2
176
     1
 62
     7
176
     1
 90
        5
176
     1
 90
        0
176
     1
 90
        0
176
     1
290
     0
176
     1
 90
       13
176
     1
 40
0.0
176
     1
 90
        0
176
     1
290
     0
176
     1
290
     1
176
     1
290
     1
176
     1
290
     0
176
     1
290
     0
176
     1
290
     0
176
     1
290
     0
176
     1
290
     0
176
     1
290
     0
176
     1
 90
       50
176
     1
 40
0.0
176
     1
 40
1.0
176
     1
 90
        0
176
     1
 62
    18
420
        0
176
     1
 90
       50
176
     1
 90
        3
176
     1
 62
     5
420
      255
176
     1
290
     0
176
     1
 90
       50
176
     1
 90
       50
176
     1
 90
       50
176
     1
290
     0
176
     1
 90
       50
176
     1
 62
   256
176
     0
 40
1.0
176
     0
 90
        2
176
     1
  1
strokes_ogs.tif
176
     1
290
     0
176
     1
 40
1.0
176
     1
 40
1.0
176
     1
  0
VISUALSTYLE
  5
2C
102
{ACAD_REACTORS
330
29
102
}
330
29
100
AcDbVisualStyle
  2
Gouraud
 70
     2
177
     3
291
     1
 70
    58
 90
        2
176
     1
 90
        2
176
     1
 90
        1
176
     1
 90
        2
176
     1
 40
0.6
176
     1
 40
30.0
176
     1
 62
     7
420
 16777215
176
     1
 90
        0
176
     1
 90
        0
176
     1
 62
     7
176
     1
 62
   257
176
     1
 90
        1
176
     1
 90
        1
176
     1
 40
1.0
176
     1
 90
        0
176
     1
 62
     7
176
     1
 40
1.0
176
     1
 90
        1
176
     1
 90
        6
176
     1
 90
        2
176
     1
 62
     7
176
     1
 90
        5
176
     1
 90
        0
176
     1
 90
        0
176
     1
290
     0
176
     1
 90
       13
176
     1
 40
0.0
176
     1
 90
        0
176
     1
290
     0
176
     1
290
     1
176
     1
290
     1
176
     1
290
     0
176
     1
290
     0
176
     1
290
     0
176
     1
290
     0
176
     1
290
     0
176
     1
290
     0
176
     1
 90
       50
176
     1
 40
0.0
176
     1
 40
1.0
176
     1
 90
        0
176
     1
 62
    18
420
        0
176
     1
 90
       50
176
     1
 90
        3
176
     1
 62
     5
420
      255
176
     1
290
     0
176
     1
 90
       50
176
     1
 90
       50
176
     1
 90
       50
176
     1
290
     0
176
     1
 90
       50
176
     1
 62
   256
176
     0
 40
1.0
176
     0
 90
        2
176
     1
  1
strokes_ogs.tif
176
     1
290
     0
176
     1
 40
1.0
176
     1
 40
1.0
176
     1
  0
VISUALSTYLE
  5
2D
102
{ACAD_REACTORS
330
29
102
}
330
29
100
AcDbVisualStyle
  2
GouraudWithEdges
 70
     3
177
     3
291
     1
 70
    58
 90
        2
176
     1
 90
        2
176
     1
 90
        1
176
     1
 90
        2
176
     1
 40
0.6
176
     1
 40
30.0
176
     1
 62
     7
420
 16777215
176
     1
 90
        1
176
     1
 90
        0
176
     1
 62
     7
176
     1
 62
   257
176
     1
 90
        1
176
     1
 90
        1
176
     1
 40
1.0
176
     1
 90
        0
176
     1
 62
   257
176
     1
 40
1.0
176
     1
 90
        1
176
     1
 90
        6
176
     1
 90
        2
176
     1
 62
     7
176
     1
 90
        5
176
     1
 90
        0
176
     1
 90
        0
176
     1
290
     0
176
     1
 90
       13
176
     1
 40
0.0
176
     1
 90
        0
176
     1
290
     0
176
     1
290
     1
176
     1
290
     1
176
     1
290
     0
176
     1
290
     0
176
     1
290
     0
176
     1
290
     0
176
     1
290
     0
176
     1
290
     0
176
     1
 90
       50
176
     1
 40
0.0
176
     1
 40
1.0
176
     1
 90
        0
176
     1
 62
    18
420
        0
176
     1
 90
       50
176
     1
 90
        3
176
     1
 62
     5
420
      255
176
     1
290
     0
176
     1
 90
       50
176
     1
 90
       50
176
     1
 90
       50
176
     1
290
     0
176
     1
 90
       50
176
     1
 62
   256
176
     0
 40
1.0
176
     0
 90
        2
176
     1
  1
strokes_ogs.tif
176
     1
290
     0
176
     1
 40
1.0
176
     1
 40
1.0
176
     1
  0
VISUALSTYLE
  5
31
102
{ACAD_REACTORS
330
29
102
}
330
29
100
AcDbVisualStyle
  2
Hidden
 70
     6
177
     3
291
     0
 70
    58
 90
        1
176
     1
 90
        2
176
     1
 90
        2
176
     1
 90
        0
176
     1
 40
0.6
176
     1
 40
30.0
176
     1
 62
     7
420
 16777215
176
     1
 90
        2
176
     1
 90
        2
176
     1
 62
     7
176
     1
 62
   257
176
     1
 90
        2
176
     1
 90
        1
176
     1
 40
40.0
176
     1
 90
        0
176
     1
 62
   257
176
     1
 40
1.0
176
     1
 90
        1
176
     1
 90
        6
176
     1
 90
        2
176
     1
 62
     7
176
     1
 90
        3
176
     1
 90
        0
176
     1
 90
        0
176
     1
290
     0
176
     1
 90
        1
176
     1
 40
0.0
176
     1
 90
        0
176
     1
290
     0
176
     1
290
     1
176
     1
290
     1
176
     1
290
     0
176
     1
290
     0
176
     1
290
     0
176
     1
290
     0
176
     1
290
     0
176
     1
290
     0
176
     1
 90
       50
176
     1
 40
0.0
176
     1
 40
1.0
176
     1
 90
        0
176
     1
 62
    18
420
        0
176
     1
 90
       50
176
     1
 90
        3
176
     1
 62
     5
420
      255
176
     1
290
     0
176
     1
 90
       50
176
     1
 90
       50
176
     1
 90
       50
176
     1
290
     0
176
     1
 90
       50
176
     1
 62
   256
176
     0
 40
1.0
176
     0
 90
        2
176
     1
  1
strokes_ogs.tif
176
     1
290
     0
176
     1
 40
1.0
176
     1
 40
1.0
176
     1
  0
VISUALSTYLE
  5
3F
102
{ACAD_REACTORS
330
29
102
}
330
29
100
AcDbVisualStyle
  2
JitterOff
 70
    20
177
     3
291
     1
 70
    58
 90
        2
176
     0
 90
        2
176
     0
 90
        0
176
     0
 90
        0
176
     0
 40
0.6
176
     0
 40
30.0
176
     0
 62
     7
420
 16777215
176
     0
 90
        1
176
     0
 90
        4
176
     0
 62
     7
176
     0
 62
   257
176
     0
 90
        1
176
     0
 90
        1
176
     0
 40
1.0
176
     0
 90
       10
176
     2
 62
     7
176
     0
 40
1.0
176
     0
 90
        1
176
     0
 90
        6
176
     0
 90
        2
176
     0
 62
     7
176
     0
 90
        5
176
     0
 90
        0
176
     0
 90
        0
176
     0
290
     0
176
     0
 90
        1
176
     0
 40
0.0
176
     0
 90
        0
176
     0
290
     0
176
     0
290
     1
176
     0
290
     1
176
     0
290
     0
176
     0
290
     0
176
     0
290
     0
176
     0
290
     0
176
     0
290
     0
176
     0
290
     0
176
     0
 90
       50
176
     0
 40
0.0
176
     0
 40
1.0
176
     0
 90
        0
176
     0
 62
    18
420
        0
176
     0
 90
       50
176
     0
 90
        3
176
     0
 62
     5
420
      255
176
     0
290
     0
176
     0
 90
       50
176
     0
 90
       50
176
     0
 90
       50
176
     0
290
     0
176
     0
 90
       50
176
     0
 62
   256
176
     0
 40
1.0
176
     0
 90
        2
176
     0
  1
strokes_ogs.tif
176
     0
290
     0
176
     0
 40
1.0
176
     0
 40
1.0
176
     0
  0
VISUALSTYLE
  5
37
102
{ACAD_REACTORS
330
29
102
}
330
29
100
AcDbVisualStyle
  2
Linepattern
 70
    14
177
     3
291
     1
 70
    58
 90
        2
176
     1
 90
        2
176
     1
 90
        0
176
     1
 90
        0
176
     1
 40
0.6
176
     1
 40
30.0
176
     1
 62
     7
420
 16777215
176
     1
 90
        1
176
     1
 90
        4
176
     1
 62
     7
176
     1
 62
   257
176
     1
 90
        7
176
     1
 90
        7
176
     1
 40
1.0
176
     1
 90
        8
176
     1
 62
     7
176
     1
 40
1.0
176
     1
 90
        1
176
     1
 90
        6
176
     1
 90
        2
176
     1
 62
     7
176
     1
 90
        5
176
     1
 90
        0
176
     1
 90
        0
176
     1
290
     0
176
     1
 90
        1
176
     1
 40
0.0
176
     1
 90
        0
176
     1
290
     0
176
     1
290
     1
176
     1
290
     1
176
     1
290
     0
176
     1
290
     0
176
     1
290
     0
176
     1
290
     0
176
     1
290
     0
176
     1
290
     0
176
     1
 90
       50
176
     1
 40
0.0
176
     1
 40
1.0
176
     1
 90
        0
176
     1
 62
    18
420
        0
176
     1
 90
       50
176
     1
 90
        3
176
     1
 62
     5
420
      255
176
     1
290
     0
176
     1
 90
       50
176
     1
 90
       50
176
     1
 90
       50
176
     1
290
     0
176
     1
 90
       50
176
     1
 62
   256
176
     0
 40
1.0
176
     0
 90
        2
176
     1
  1
strokes_ogs.tif
176
     1
290
     0
176
     1
 40
1.0
176
     1
 40
1.0
176
     1
  0
VISUALSTYLE
  5
40
102
{ACAD_REACTORS
330
29
102
}
330
29
100
AcDbVisualStyle
  2
OverhangOff
 70
    21
177
     3
291
     1
 70
    58
 90
        2
176
     0
 90
        2
176
     0
 90
        0
176
     0
 90
        0
176
     0
 40
0.6
176
     0
 40
30.0
176
     0
 62
     7
420
 16777215
176
     0
 90
        1
176
     0
 90
        4
176
     0
 62
     7
176
     0
 62
   257
176
     0
 90
        1
176
     0
 90
        1
176
     0
 40
1.0
176
     0
 90
        9
176
     2
 62
     7
176
     0
 40
1.0
176
     0
 90
        1
176
     0
 90
        6
176
     0
 90
        2
176
     0
 62
     7
176
     0
 90
        5
176
     0
 90
        0
176
     0
 90
        0
176
     0
290
     0
176
     0
 90
        1
176
     0
 40
0.0
176
     0
 90
        0
176
     0
290
     0
176
     0
290
     1
176
     0
290
     1
176
     0
290
     0
176
     0
290
     0
176
     0
290
     0
176
     0
290
     0
176
     0
290
     0
176
     0
290
     0
176
     0
 90
       50
176
     0
 40
0.0
176
     0
 40
1.0
176
     0
 90
        0
176
     0
 62
    18
420
        0
176
     0
 90
       50
176
     0
 90
        3
176
     0
 62
     5
420
      255
176
     0
290
     0
176
     0
 90
       50
176
     0
 90
       50
176
     0
 90
       50
176
     0
290
     0
176
     0
 90
       50
176
     0
 62
   256
176
     0
 40
1.0
176
     0
 90
        2
176
     0
  1
strokes_ogs.tif
176
     0
290
     0
176
     0
 40
1.0
176
     0
 40
1.0
176
     0
  0
VISUALSTYLE
  5
33
102
{ACAD_REACTORS
330
29
102
}
330
29
100
AcDbVisualStyle
  2
Realistic
 70
     8
177
     3
291
     0
 70
    58
 90
        2
176
     1
 90
        3
176
     1
 90
        0
176
     1
 90
        2
176
     1
 40
0.6
176
     1
 40
30.0
176
     1
 62
     7
420
 16777215
176
     1
 90
        0
176
     1
 90
        0
176
     1
 62
     7
176
     1
 62
   257
176
     1
 90
        1
176
     1
 90
        1
176
     1
 40
1.0
176
     1
 90
        8
176
     1
 62
   257
176
     1
 40
1.0
176
     1
 90
        1
176
     1
 90
        6
176
     1
 90
        2
176
     1
 62
     7
176
     1
 90
        3
176
     1
 90
        0
176
     1
 90
        0
176
     1
290
     0
176
     1
 90
       13
176
     1
 40
0.0
176
     1
 90
        0
176
     1
290
     0
176
     1
290
     1
176
     1
290
     1
176
     1
290
     0
176
     1
290
     0
176
     1
290
     0
176
     1
290
     0
176
     1
290
     0
176
     1
290
     0
176
     1
 90
       50
176
     1
 40
0.0
176
     1
 40
1.0
176
     1
 90
        0
176
     1
 62
    18
420
        0
176
     1
 90
       50
176
     1
 90
        3
176
     1
 62
     5
420
      255
176
     1
290
     0
176
     1
 90
       50
176
     1
 90
       50
176
     1
 90
       50
176
     1
290
     0
176
     1
 90
       50
176
     1
 62
   256
176
     0
 40
1.0
176
     0
 90
        2
176
     1
  1
strokes_ogs.tif
176
     1
290
     0
176
     1
 40
1.0
176
     1
 40
1.0
176
     1
  0
VISUALSTYLE
  5
3E
102
{ACAD_REACTORS
330
29
102
}
330
29
100
AcDbVisualStyle
  2
Shaded
 70
    27
177
     3
291
     0
 70
    58
 90
        2
176
     1
 90
        2
176
     1
 90
        1
176
     1
 90
        2
176
     1
 40
0.6
176
     1
 40
30.0
176
     1
 62
     7
420
 16777215
176
     1
 90
        0
176
     1
 90
        4
176
     1
 62
     7
176
     1
 62
   257
176
     1
 90
        1
176
     1
 90
        1
176
     1
 40
1.0
176
     1
 90
        8
176
     1
 62
   257
176
     1
 40
1.0
176
     1
 90
        1
176
     1
 90
        6
176
     1
 90
        2
176
     1
 62
     8
420
  7895160
176
     1
 90
        3
176
     1
 90
        0
176
     1
 90
        0
176
     1
290
     0
176
     1
 90
        5
176
     1
 40
0.0
176
     1
 90
        0
176
     1
290
     0
176
     1
290
     1
176
     1
290
     1
176
     1
290
     0
176
     1
290
     0
176
     1
290
     0
176
     1
290
     0
176
     1
290
     0
176
     1
290
     0
176
     1
 90
       50
176
     1
 40
0.0
176
     1
 40
1.0
176
     1
 90
        0
176
     1
 62
    18
420
        0
176
     1
 90
       50
176
     1
 90
        3
176
     1
 62
     5
420
      255
176
     1
290
     0
176
     1
 90
       50
176
     1
 90
       50
176
     1
 90
       50
176
     1
290
     0
176
     1
 90
       50
176
     1
 62
   256
176
     0
 40
1.0
176
     0
 90
        2
176
     1
  1
strokes_ogs.tif
176
     1
290
     0
176
     1
 40
1.0
176
     1
 40
1.0
176
     1
  0
VISUALSTYLE
  5
3D
102
{ACAD_REACTORS
330
29
102
}
330
29
100
AcDbVisualStyle
  2
Shaded with edges
 70
    26
177
     3
291
     0
 70
    58
 90
        2
176
     1
 90
        2
176
     1
 90
        1
176
     1
 90
        2
176
     1
 40
0.6
176
     1
 40
30.0
176
     1
 62
     7
420
 16777215
176
     1
 90
        1
176
     1
 90
        2
176
     1
 62
     7
176
     1
 62
   257
176
     1
 90
        2
176
     1
 90
        1
176
     1
 40
1.0
176
     1
 90
        8
176
     1
 62
   257
176
     1
 40
1.0
176
     1
 90
        1
176
     1
 90
        6
176
     1
 90
        2
176
     1
 62
     7
176
     1
 90
        3
176
     1
 90
        0
176
     1
 90
        0
176
     1
290
     0
176
     1
 90
        5
176
     1
 40
0.0
176
     1
 90
        0
176
     1
290
     0
176
     1
290
     1
176
     1
290
     1
176
     1
290
     0
176
     1
290
     0
176
     1
290
     0
176
     1
290
     0
176
     1
290
     0
176
     1
290
     0
176
     1
 90
       50
176
     1
 40
0.0
176
     1
 40
1.0
176
     1
 90
        0
176
     1
 62
    18
420
        0
176
     1
 90
       50
176
     1
 90
        3
176
     1
 62
     5
420
      255
176
     1
290
     0
176
     1
 90
       50
176
     1
 90
       50
176
     1
 90
       50
176
     1
290
     0
176
     1
 90
       50
176
     1
 62
   256
176
     0
 40
1.0
176
     0
 90
        2
176
     1
  1
strokes_ogs.tif
176
     1
290
     0
176
     1
 40
1.0
176
     1
 40
1.0
176
     1
  0
VISUALSTYLE
  5
3A
102
{ACAD_REACTORS
330
29
102
}
330
29
100
AcDbVisualStyle
  2
Shades of Gray
 70
    23
177
     3
291
     0
 70
    58
 90
        2
176
     1
 90
        2
176
     1
 90
        3
176
     1
 90
        0
176
     1
 40
0.6
176
     1
 40
30.0
176
     1
 62
     7
420
 16777215
176
     1
 90
        2
176
     1
 90
        2
176
     1
 62
     7
176
     1
 62
     7
176
     1
 90
        1
176
     1
 90
        1
176
     1
 40
40.0
176
     1
 90
        8
176
     1
 62
     7
176
     1
 40
1.0
176
     1
 90
        1
176
     1
 90
        6
176
     1
 90
        2
176
     1
 62
     7
176
     1
 90
        3
176
     1
 90
        0
176
     1
 90
        0
176
     1
290
     0
176
     1
 90
        1
176
     1
 40
0.0
176
     1
 90
        0
176
     1
290
     0
176
     1
290
     1
176
     1
290
     1
176
     1
290
     0
176
     1
290
     0
176
     1
290
     0
176
     1
290
     0
176
     1
290
     0
176
     1
290
     0
176
     1
 90
       50
176
     1
 40
0.0
176
     1
 40
1.0
176
     1
 90
        0
176
     1
 62
    18
420
        0
176
     1
 90
       50
176
     1
 90
        3
176
     1
 62
     5
420
      255
176
     1
290
     0
176
     1
 90
       50
176
     1
 90
       50
176
     1
 90
       50
176
     1
290
     0
176
     1
 90
       50
176
     1
 62
   256
176
     0
 40
1.0
176
     0
 90
        2
176
     1
  1
strokes_ogs.tif
176
     1
290
     0
176
     1
 40
1.0
176
     1
 40
1.0
176
     1
  0
VISUALSTYLE
  5
3B
102
{ACAD_REACTORS
330
29
102
}
330
29
100
AcDbVisualStyle
  2
Sketchy
 70
    24
177
     3
291
     0
 70
    58
 90
        1
176
     1
 90
        2
176
     1
 90
        2
176
     1
 90
        0
176
     1
 40
0.6
176
     1
 40
30.0
176
     1
 62
     7
420
 16777215
176
     1
 90
        2
176
     1
 90
        2
176
     1
 62
     7
176
     1
 62
     7
176
     1
 90
        1
176
     1
 90
        1
176
     1
 40
40.0
176
     1
 90
       11
176
     1
 62
     7
176
     1
 40
1.0
176
     1
 90
        1
176
     1
 90
        6
176
     1
 90
        2
176
     1
 62
     7
176
     1
 90
        6
176
     1
 90
        0
176
     1
 90
        0
176
     1
290
     0
176
     1
 90
        1
176
     1
 40
0.0
176
     1
 90
        0
176
     1
290
     0
176
     1
290
     1
176
     1
290
     1
176
     1
290
     0
176
     1
290
     0
176
     1
290
     0
176
     1
290
     0
176
     1
290
     0
176
     1
290
     0
176
     1
 90
       50
176
     1
 40
0.0
176
     1
 40
1.0
176
     1
 90
        0
176
     1
 62
    18
420
        0
176
     1
 90
       50
176
     1
 90
        3
176
     1
 62
     5
420
      255
176
     1
290
     0
176
     1
 90
       50
176
     1
 90
       50
176
     1
 90
       50
176
     1
290
     0
176
     1
 90
       50
176
     1
 62
   256
176
     0
 40
1.0
176
     0
 90
        2
176
     1
  1
strokes_ogs.tif
176
     1
290
     0
176
     1
 40
1.0
176
     1
 40
1.0
176
     1
  0
VISUALSTYLE
  5
36
102
{ACAD_REACTORS
330
29
102
}
330
29
100
AcDbVisualStyle
  2
Thicken
 70
    13
177
     3
291
     1
 70
    58
 90
        2
176
     1
 90
        2
176
     1
 90
        0
176
     1
 90
        0
176
     1
 40
0.6
176
     1
 40
30.0
176
     1
 62
     7
420
 16777215
176
     1
 90
        1
176
     1
 90
        4
176
     1
 62
     7
176
     1
 62
   257
176
     1
 90
        1
176
     1
 90
        1
176
     1
 40
1.0
176
     1
 90
       12
176
     1
 62
     7
176
     1
 40
1.0
176
     1
 90
        1
176
     1
 90
        6
176
     1
 90
        2
176
     1
 62
     7
176
     1
 90
        5
176
     1
 90
        0
176
     1
 90
        0
176
     1
290
     0
176
     1
 90
        1
176
     1
 40
0.0
176
     1
 90
        0
176
     1
290
     0
176
     1
290
     1
176
     1
290
     1
176
     1
290
     0
176
     1
290
     0
176
     1
290
     0
176
     1
290
     0
176
     1
290
     0
176
     1
290
     0
176
     1
 90
       50
176
     1
 40
0.0
176
     1
 40
1.0
176
     1
 90
        0
176
     1
 62
    18
420
        0
176
     1
 90
       50
176
     1
 90
        3
176
     1
 62
     5
420
      255
176
     1
290
     0
176
     1
 90
       50
176
     1
 90
       50
176
     1
 90
       50
176
     1
290
     0
176
     1
 90
       50
176
     1
 62
   256
176
     0
 40
1.0
176
     0
 90
        2
176
     1
  1
strokes_ogs.tif
176
     1
290
     0
176
     1
 40
1.0
176
     1
 40
1.0
176
     1
  0
VISUALSTYLE
  5
30
102
{ACAD_REACTORS
330
29
102
}
330
29
100
AcDbVisualStyle
  2
Wireframe
 70
     5
177
     3
291
     0
 70
    58
 90
        0
176
     1
 90
        2
176
     1
 90
        0
176
     1
 90
        0
176
     1
 40
0.6
176
     1
 40
30.0
176
     1
 62
     7
420
 16777215
176
     1
 90
        1
176
     1
 90
        4
176
     1
 62
     7
176
     1
 62
   257
176
     1
 90
        1
176
     1
 90
        1
176
     1
 40
1.0
176
     1
 90
        0
176
     1
 62
   257
176
     1
 40
1.0
176
     1
 90
        1
176
     1
 90
        6
176
     1
 90
        2
176
     1
 62
     7
176
     1
 90
        3
176
     1
 90
        0
176
     1
 90
        0
176
     1
290
     0
176
     1
 90
        1
176
     1
 40
0.0
176
     1
 90
        0
176
     1
290
     0
176
     1
290
     1
176
     1
290
     1
176
     1
290
     0
176
     1
290
     0
176
     1
290
     0
176
     1
290
     0
176
     1
290
     0
176
     1
290
     0
176
     1
 90
       50
176
     1
 40
0.0
176
     1
 40
1.0
176
     1
 90
        0
176
     1
 62
    18
420
        0
176
     1
 90
       50
176
     1
 90
        3
176
     1
 62
     5
420
      255
176
     1
290
     0
176
     1
 90
       50
176
     1
 90
       50
176
     1
 90
       50
176
     1
290
     0
176
     1
 90
       50
176
     1
 62
   256
176
     0
 40
1.0
176
     0
 90
        2
176
     1
  1
strokes_ogs.tif
176
     1
290
     0
176
     1
 40
1.0
176
     1
 40
1.0
176
     1
  0
VISUALSTYLE
  5
3C
102
{ACAD_REACTORS
330
29
102
}
330
29
100
AcDbVisualStyle
  2
X-Ray
 70
    25
177
     3
291
     0
 70
    58
 90
        2
176
     1
 90
        2
176
     1
 90
        1
176
     1
 90
        1
176
     1
 40
0.5
176
     1
 40
30.0
176
     1
 62
     7
420
 16777215
176
     1
 90
        1
176
     1
 90
        0
176
     1
 62
     7
176
     1
 62
   257
176
     1
 90
        1
176
     1
 90
        1
176
     1
 40
1.0
176
     1
 90
        8
176
     1
 62
     7
176
     1
 40
1.0
176
     1
 90
        1
176
     1
 90
        6
176
     1
 90
        2
176
     1
 62
     7
176
     1
 90
        3
176
     1
 90
        0
176
     1
 90
        0
176
     1
290
     0
176
     1
 90
       13
176
     1
 40
0.0
176
     1
 90
        0
176
     1
290
     0
176
     1
290
     1
176
     1
290
     1
176
     1
290
     0
176
     1
290
     0
176
     1
290
     0
176
     1
290
     0
176
     1
290
     0
176
     1
290
     0
176
     1
 90
       50
176
     1
 40
0.0
176
     1
 40
1.0
176
     1
 90
        0
176
     1
 62
    18
420
        0
176
     1
 90
       50
176
     1
 90
        3
176
     1
 62
     5
420
      255
176
     1
290
     0
176
     1
 90
       50
176
     1
 90
       50
176
     1
 90
       50
176
     1
290
     0
176
     1
 90
       50
176
     1
 62
   256
176
     0
 40
1.0
176
     0
 90
        2
176
     1
  1
strokes_ogs.tif
176
     1
290
     0
176
     1
 40
1.0
176
     1
 40
1.0
176
     1
  0
DICTIONARYVAR
  5
36F
102
{ACAD_REACTORS
330
36A
102
}
330
36A
100
DictionaryVariables
280
     0
  1
1:1
  0
DICTIONARYVAR
  5
36C
102
{ACAD_REACTORS
330
36A
102
}
330
36A
100
DictionaryVariables
280
     0
  1
STANDARD
  0
DICTIONARYVAR
  5
36B
102
{ACAD_REACTORS
330
36A
102
}
330
36A
100
DictionaryVariables
280
     0
  1
STANDARD
  0
DICTIONARYVAR
  5
36D
102
{ACAD_REACTORS
330
36A
102
}
330
36A
100
DictionaryVariables
280
     0
  1
Imperial24
  0
DICTIONARYVAR
  5
36E
102
{ACAD_REACTORS
330
36A
102
}
330
36A
100
DictionaryVariables
280
     0
  1
Imperial24
  0
DICTIONARY
  5
1A
330
19
100
AcDbDictionary
280
     1
281
     1
  3
BUMPTILE
360
1C
  3
DIFFUSETILE
360
1B
  3
OPACITYTILE
360
1F
  3
REFLECTIONTILE
360
1E
  3
REFRACTIONTILE
360
20
  3
SPECULARTILE
360
1D
  0
DICTIONARY
  5
12
330
11
100
AcDbDictionary
280
     1
281
     1
  3
BUMPTILE
360
14
  3
DIFFUSETILE
360
13
  3
OPACITYTILE
360
17
  3
REFLECTIONTILE
360
16
  3
REFRACTIONTILE
360
18
  3
SPECULARTILE
360
15
  0
DICTIONARY
  5
22
330
21
100
AcDbDictionary
280
     1
281
     1
  3
BUMPTILE
360
24
  3
DIFFUSETILE
360
23
  3
OPACITYTILE
360
27
  3
REFLECTIONTILE
360
26
  3
REFRACTIONTILE
360
28
  3
SPECULARTILE
360
25
  0
DICTIONARY
  5
370
330
65
100
AcDbDictionary
280
     1
281
     1
  3
ACAD_ROUNDTRIP_2008_TABLESTYLE_CELLSTYLEMAP
360
371
  0
XRECORD
  5
1C
102
{ACAD_REACTORS
330
1A
102
}
330
1A
100
AcDbXrecord
280
     1
270
     1
271
     1
  0
XRECORD
  5
1B
102
{ACAD_REACTORS
330
1A
102
}
330
1A
100
AcDbXrecord
280
     1
270
     1
271
     1
  0
XRECORD
  5
1F
102
{ACAD_REACTORS
330
1A
102
}
330
1A
100
AcDbXrecord
280
     1
270
     1
271
     1
  0
XRECORD
  5
1E
102
{ACAD_REACTORS
330
1A
102
}
330
1A
100
AcDbXrecord
280
     1
270
     1
271
     1
  0
XRECORD
  5
20
102
{ACAD_REACTORS
330
1A
102
}
330
1A
100
AcDbXrecord
280
     1
270
     1
271
     1
  0
XRECORD
  5
1D
102
{ACAD_REACTORS
330
1A
102
}
330
1A
100
AcDbXrecord
280
     1
270
     1
271
     1
  0
XRECORD
  5
14
102
{ACAD_REACTORS
330
12
102
}
330
12
100
AcDbXrecord
280
     1
270
     1
271
     1
  0
XRECORD
  5
13
102
{ACAD_REACTORS
330
12
102
}
330
12
100
AcDbXrecord
280
     1
270
     1
271
     1
  0
XRECORD
  5
17
102
{ACAD_REACTORS
330
12
102
}
330
12
100
AcDbXrecord
280
     1
270
     1
271
     1
  0
XRECORD
  5
16
102
{ACAD_REACTORS
330
12
102
}
330
12
100
AcDbXrecord
280
     1
270
     1
271
     1
  0
XRECORD
  5
18
102
{ACAD_REACTORS
330
12
102
}
330
12
100
AcDbXrecord
280
     1
270
     1
271
     1
  0
XRECORD
  5
15
102
{ACAD_REACTORS
330
12
102
}
330
12
100
AcDbXrecord
280
     1
270
     1
271
     1
  0
XRECORD
  5
24
102
{ACAD_REACTORS
330
22
102
}
330
22
100
AcDbXrecord
280
     1
270
     1
271
     1
  0
XRECORD
  5
23
102
{ACAD_REACTORS
330
22
102
}
330
22
100
AcDbXrecord
280
     1
270
     1
271
     1
  0
XRECORD
  5
27
102
{ACAD_REACTORS
330
22
102
}
330
22
100
AcDbXrecord
280
     1
270
     1
271
     1
  0
XRECORD
  5
26
102
{ACAD_REACTORS
330
22
102
}
330
22
100
AcDbXrecord
280
     1
270
     1
271
     1
  0
XRECORD
  5
28
102
{ACAD_REACTORS
330
22
102
}
330
22
100
AcDbXrecord
280
     1
270
     1
271
     1
  0
XRECORD
  5
25
102
{ACAD_REACTORS
330
22
102
}
330
22
100
AcDbXrecord
280
     1
270
     1
271
     1
  0
CELLSTYLEMAP
  5
371
102
{ACAD_REACTORS
330
370
102
}
330
370
100
AcDbCellStyleMap
 90
        3
300
CELLSTYLE
  1
TABLEFORMAT_BEGIN
 90
        5
170
     1
 91
        0
 92
    32768
 62
   257
 93
        1
300
CONTENTFORMAT
  1
CONTENTFORMAT_BEGIN
 90
        0
 91
        0
 92
      512
 93
        0
300

 40
0.0
140
1.0
 94
        5
 62
     0
340
55
144
0.25
309
CONTENTFORMAT_END
171
     0
 94
        0
309
TABLEFORMAT_END
  1
CELLSTYLE_BEGIN
 90
        1
 91
        1
300
_TITLE
309
CELLSTYLE_END
300
CELLSTYLE
  1
TABLEFORMAT_BEGIN
 90
        5
170
     1
 91
        0
 92
        0
 62
   257
 93
        1
300
CONTENTFORMAT
  1
CONTENTFORMAT_BEGIN
 90
        0
 91
        0
 92
      512
 93
        0
300

 40
0.0
140
1.0
 94
        5
 62
     0
340
55
144
0.18
309
CONTENTFORMAT_END
171
     0
 94
        0
309
TABLEFORMAT_END
  1
CELLSTYLE_BEGIN
 90
        2
 91
        1
300
_HEADER
309
CELLSTYLE_END
300
CELLSTYLE
  1
TABLEFORMAT_BEGIN
 90
        5
170
     1
 91
        0
 92
        0
 62
   257
 93
        1
300
CONTENTFORMAT
  1
CONTENTFORMAT_BEGIN
 90
        0
 91
        0
 92
      512
 93
        0
300

 40
0.0
140
1.0
 94
        2
 62
     0
340
55
144
0.18
309
CONTENTFORMAT_END
171
     0
 94
        0
309
TABLEFORMAT_END
  1
CELLSTYLE_BEGIN
 90
        3
 91
        2
300
_DATA
309
CELLSTYLE_END
  0
ENDSEC
  0
EOF
