  0
SECTION
  2
HEADER
  9
$ACADVER
  1
AC1032
  9
$ACADMAINTVER
 90
      251
  9
$DWGCODEPAGE
  3
ANSI_1252
  9
$REQUIREDVERSIONS
160
                 0
  9
$INSBASE
 10
0.0
 20
0.0
 30
0.0
  9
$EXTMIN
 10
1.000000000000000E+20
 20
1.000000000000000E+20
 30
1.000000000000000E+20
  9
$EXTMAX
 10
-1.000000000000000E+20
 20
-1.000000000000000E+20
 30
-1.000000000000000E+20
  9
$LIMMIN
 10
0.0
 20
0.0
  9
$LIMMAX
 10
12.0
 20
9.0
  9
$ORTHOMODE
 70
     0
  9
$REGENMODE
 70
     1
  9
$FILLMODE
 70
     1
  9
$QTEXTMODE
 70
     0
  9
$MIRRTEXT
 70
     0
  9
$LTSCALE
 40
1.0
  9
$ATTMODE
 70
     1
  9
$TEXTSIZE
 40
0.2
  9
$TRACEWID
 40
0.05
  9
$TEXTSTYLE
  7
Standard
  9
$CLAYER
  8
0
  9
$CELTYPE
  6
ByLayer
  9
$CECOLOR
 62
   256
  9
$CELTSCALE
 40
1.0
  9
$DISPSILH
 70
     0
  9
$DIMSCALE
 40
1.0
  9
$DIMASZ
 40
0.18
  9
$DIMEXO
 40
0.0625
  9
$DIMDLI
 40
0.38
  9
$DIMRND
 40
0.0
  9
$DIMDLE
 40
0.0
  9
$DIMEXE
 40
0.18
  9
$DIMTP
 40
0.0
  9
$DIMTM
 40
0.0
  9
$DIMTXT
 40
0.18
  9
$DIMCEN
 40
0.09
  9
$DIMTSZ
 40
0.0
  9
$DIMTOL
 70
     0
  9
$DIMLIM
 70
     0
  9
$DIMTIH
 70
     1
  9
$DIMTOH
 70
     1
  9
$DIMSE1
 70
     0
  9
$DIMSE2
 70
     0
  9
$DIMTAD
 70
     0
  9
$DIMZIN
 70
     0
  9
$DIMBLK
  1

  9
$DIMASO
 70
     1
  9
$DIMSHO
 70
     1
  9
$DIMPOST
  1

  9
$DIMAPOST
  1

  9
$DIMALT
 70
     0
  9
$DIMALTD
 70
     2
  9
$DIMALTF
 40
25.4
  9
$DIMLFAC
 40
1.0
  9
$DIMTOFL
 70
     0
  9
$DIMTVP
 40
0.0
  9
$DIMTIX
 70
     0
  9
$DIMSOXD
 70
     0
  9
$DIMSAH
 70
     0
  9
$DIMBLK1
  1

  9
$DIMBLK2
  1

  9
$DIMSTYLE
  2
Standard
  9
$DIMCLRD
 70
     0
  9
$DIMCLRE
 70
     0
  9
$DIMCLRT
 70
     0
  9
$DIMTFAC
 40
1.0
  9
$DIMGAP
 40
0.09
  9
$DIMJUST
 70
     0
  9
$DIMSD1
 70
     0
  9
$DIMSD2
 70
     0
  9
$DIMTOLJ
 70
     1
  9
$DIMTZIN
 70
     0
  9
$DIMALTZ
 70
     0
  9
$DIMALTTZ
 70
     0
  9
$DIMUPT
 70
     0
  9
$DIMDEC
 70
     4
  9
$DIMTDEC
 70
     4
  9
$DIMALTU
 70
     2
  9
$DIMALTTD
 70
     2
  9
$DIMTXSTY
  7
Standard
  9
$DIMAUNIT
 70
     0
  9
$DIMADEC
 70
     0
  9
$DIMALTRND
 40
0.0
  9
$DIMAZIN
 70
     0
  9
$DIMDSEP
 70
    46
  9
$DIMATFIT
 70
     3
  9
$DIMFRAC
 70
     0
  9
$DIMLDRBLK
  1

  9
$DIMLUNIT
 70
     2
  9
$DIMLWD
 70
    -2
  9
$DIMLWE
 70
    -2
  9
$DIMTMOVE
 70
     0
  9
$DIMFXL
 40
1.0
  9
$DIMFXLON
 70
     0
  9
$DIMJOGANG
 40
0.7853981633974483
  9
$DIMTFILL
 70
     0
  9
$DIMTFILLCLR
 70
     0
  9
$DIMARCSYM
 70
     0
  9
$DIMLTYPE
  6

  9
$DIMLTEX1
  6

  9
$DIMLTEX2
  6

  9
$DIMTXTDIRECTION
 70
     0
  9
$LUNITS
 70
     2
  9
$LUPREC
 70
     4
  9
$SKETCHINC
 40
0.1
  9
$FILLETRAD
 40
0.0
  9
$AUNITS
 70
     0
  9
$AUPREC
 70
     0
  9
$MENU
  1
.
  9
$ELEVATION
 40
0.0
  9
$PELEVATION
 40
0.0
  9
$THICKNESS
 40
0.0
  9
$LIMCHECK
 70
     0
  9
$CHAMFERA
 40
0.0
  9
$CHAMFERB
 40
0.0
  9
$CHAMFERC
 40
0.0
  9
$CHAMFERD
 40
0.0
  9
$SKPOLY
 70
     0
  9
$TDCREATE
 40
2459963.388796297
  9
$TDUCREATE
 40
2459963.347129630
  9
$TDUPDATE
 40
2459963.388796297
  9
$TDUUPDATE
 40
2459963.347129630
  9
$TDINDWG
 40
0.0000000000
  9
$TDUSRTIMER
 40
0.0000000000
  9
$USRTIMER
 70
     1
  9
$ANGBASE
 50
0.0
  9
$ANGDIR
 70
     0
  9
$PDMODE
 70
     0
  9
$PDSIZE
 40
0.0
  9
$PLINEWID
 40
0.0
  9
$SPLFRAME
 70
     0
  9
$SPLINETYPE
 70
     6
  9
$SPLINESEGS
 70
     8
  9
$HANDSEED
  5
2FD
  9
$SURFTAB1
 70
     6
  9
$SURFTAB2
 70
     6
  9
$SURFTYPE
 70
     6
  9
$SURFU
 70
     6
  9
$SURFV
 70
     6
  9
$UCSBASE
  2

  9
$UCSNAME
  2

  9
$UCSORG
 10
0.0
 20
0.0
 30
0.0
  9
$UCSXDIR
 10
1.0
 20
0.0
 30
0.0
  9
$UCSYDIR
 10
0.0
 20
1.0
 30
0.0
  9
$UCSORTHOREF
  2

  9
$UCSORTHOVIEW
 70
     0
  9
$UCSORGTOP
 10
0.0
 20
0.0
 30
0.0
  9
$UCSORGBOTTOM
 10
0.0
 20
0.0
 30
0.0
  9
$UCSORGLEFT
 10
0.0
 20
0.0
 30
0.0
  9
$UCSORGRIGHT
 10
0.0
 20
0.0
 30
0.0
  9
$UCSORGFRONT
 10
0.0
 20
0.0
 30
0.0
  9
$UCSORGBACK
 10
0.0
 20
0.0
 30
0.0
  9
$PUCSBASE
  2

  9
$PUCSNAME
  2

  9
$PUCSORG
 10
0.0
 20
0.0
 30
0.0
  9
$PUCSXDIR
 10
1.0
 20
0.0
 30
0.0
  9
$PUCSYDIR
 10
0.0
 20
1.0
 30
0.0
  9
$PUCSORTHOREF
  2

  9
$PUCSORTHOVIEW
 70
     0
  9
$PUCSORGTOP
 10
0.0
 20
0.0
 30
0.0
  9
$PUCSORGBOTTOM
 10
0.0
 20
0.0
 30
0.0
  9
$PUCSORGLEFT
 10
0.0
 20
0.0
 30
0.0
  9
$PUCSORGRIGHT
 10
0.0
 20
0.0
 30
0.0
  9
$PUCSORGFRONT
 10
0.0
 20
0.0
 30
0.0
  9
$PUCSORGBACK
 10
0.0
 20
0.0
 30
0.0
  9
$USERI1
 70
     0
  9
$USERI2
 70
     0
  9
$USERI3
 70
     0
  9
$USERI4
 70
     0
  9
$USERI5
 70
     0
  9
$USERR1
 40
0.0
  9
$USERR2
 40
0.0
  9
$USERR3
 40
0.0
  9
$USERR4
 40
0.0
  9
$USERR5
 40
0.0
  9
$WORLDVIEW
 70
     1
  9
$SHADEDGE
 70
     3
  9
$SHADEDIF
 70
    70
  9
$TILEMODE
 70
     1
  9
$MAXACTVP
 70
    64
  9
$PINSBASE
 10
0.0
 20
0.0
 30
0.0
  9
$PLIMCHECK
 70
     0
  9
$PEXTMIN
 10
1.000000000000000E+20
 20
1.000000000000000E+20
 30
1.000000000000000E+20
  9
$PEXTMAX
 10
-1.000000000000000E+20
 20
-1.000000000000000E+20
 30
-1.000000000000000E+20
  9
$PLIMMIN
 10
0.0
 20
0.0
  9
$PLIMMAX
 10
12.0
 20
9.0
  9
$UNITMODE
 70
     0
  9
$VISRETAIN
 70
     1
  9
$PLINEGEN
 70
     0
  9
$PSLTSCALE
 70
     1
  9
$TREEDEPTH
 70
  3020
  9
$CMLSTYLE
  2
Standard
  9
$CMLJUST
 70
     0
  9
$CMLSCALE
 40
1.0
  9
$PROXYGRAPHICS
 70
     1
  9
$MEASUREMENT
 70
     0
  9
$CELWEIGHT
370
    -1
  9
$ENDCAPS
280
     0
  9
$JOINSTYLE
280
     0
  9
$LWDISPLAY
290
     1
  9
$INSUNITS
 70
     4
  9
$HYPERLINKBASE
  1

  9
$STYLESHEET
  1

  9
$XEDIT
290
     1
  9
$CEPSNTYPE
380
     0
  9
$PSTYLEMODE
290
     1
  9
$FINGERPRINTGUID
  2
{A4A913B6-4666-8D4C-A418-9DA2806A9712}
  9
$VERSIONGUID
  2
{57318942-C65B-CD46-8549-F49E3AA3D7C2}
  9
$EXTNAMES
290
     1
  9
$PSVPSCALE
 40
0.0
  9
$OLESTARTUP
290
     0
  9
$SORTENTS
280
   127
  9
$INDEXCTL
280
     0
  9
$HIDETEXT
280
     1
  9
$XCLIPFRAME
280
     2
  9
$HALOGAP
280
     0
  9
$OBSCOLOR
 70
   257
  9
$OBSLTYPE
280
     0
  9
$INTERSECTIONDISPLAY
280
     0
  9
$INTERSECTIONCOLOR
 70
   257
  9
$DIMASSOC
280
     2
  9
$PROJECTNAME
  1

  9
$CAMERADISPLAY
290
     0
  9
$LENSLENGTH
 40
50.0
  9
$CAMERAHEIGHT
 40
0.0
  9
$STEPSPERSEC
 40
2.0
  9
$STEPSIZE
 40
6.0
  9
$3DDWFPREC
 40
2.0
  9
$PSOLWIDTH
 40
0.25
  9
$PSOLHEIGHT
 40
4.0
  9
$LOFTANG1
 40
1.570796326794896
  9
$LOFTANG2
 40
1.570796326794896
  9
$LOFTMAG1
 40
0.0
  9
$LOFTMAG2
 40
0.0
  9
$LOFTPARAM
 70
     7
  9
$LOFTNORMALS
280
     1
  9
$LATITUDE
 40
37.795
  9
$LONGITUDE
 40
-122.394
  9
$NORTHDIRECTION
 40
0.0
  9
$TIMEZONE
 70
 -8000
  9
$LIGHTGLYPHDISPLAY
280
     1
  9
$TILEMODELIGHTSYNCH
280
     1
  9
$CMATERIAL
347
11
  9
$SOLIDHIST
280
     0
  9
$SHOWHIST
280
     1
  9
$DWFFRAME
280
     2
  9
$DGNFRAME
280
     0
  9
$REALWORLDSCALE
290
     1
  9
$INTERFERECOLOR
 62
     1
  9
$INTERFEREOBJVS
345
33
  9
$INTERFEREVPVS
346
30
  9
$CSHADOW
280
     0
  9
$SHADOWPLANELOCATION
 40
0.0
  0
ENDSEC
  0
SECTION
  2
CLASSES
  0
CLASS
  1
ACDBDICTIONARYWDFLT
  2
AcDbDictionaryWithDefault
  3
ObjectDBX Classes
 90
        0
 91
        1
280
     0
281
     0
  0
CLASS
  1
MATERIAL
  2
AcDbMaterial
  3
ObjectDBX Classes
 90
     1153
 91
        3
280
     0
281
     0
  0
CLASS
  1
VISUALSTYLE
  2
AcDbVisualStyle
  3
ObjectDBX Classes
 90
     4095
 91
       24
280
     0
281
     0
  0
CLASS
  1
SCALE
  2
AcDbScale
  3
ObjectDBX Classes
 90
     1153
 91
       17
280
     0
281
     0
  0
CLASS
  1
TABLESTYLE
  2
AcDbTableStyle
  3
ObjectDBX Classes
 90
     4095
 91
        1
280
     0
281
     0
  0
CLASS
  1
MLEADERSTYLE
  2
AcDbMLeaderStyle
  3
ACDB_MLEADERSTYLE_CLASS
 90
     4095
 91
        1
280
     0
281
     0
  0
CLASS
  1
ACDBSECTIONVIEWSTYLE
  2
AcDbSectionViewStyle
  3
ObjectDBX Classes
 90
     1025
 91
        1
280
     0
281
     0
  0
CLASS
  1
ACDBDETAILVIEWSTYLE
  2
AcDbDetailViewStyle
  3
ObjectDBX Classes
 90
     1025
 91
        1
280
     0
281
     0
  0
CLASS
  1
DICTIONARYVAR
  2
AcDbDictionaryVar
  3
ObjectDBX Classes
 90
        0
 91
        5
280
     0
281
     0
  0
CLASS
  1
CELLSTYLEMAP
  2
AcDbCellStyleMap
  3
ObjectDBX Classes
 90
     1152
 91
        1
280
     0
281
     0
  0
ENDSEC
  0
SECTION
  2
TABLES
  0
TABLE
  2
VPORT
  5
8
330
0
100
AcDbSymbolTable
 70
     1
  0
VPORT
  5
57
330
8
100
AcDbSymbolTableRecord
100
AcDbViewportTableRecord
  2
*Active
 70
     0
 10
0.0
 20
0.0
 11
1.0
 21
1.0
 12
0.0
 22
0.0
 13
0.0
 23
0.0
 14
1.0
 24
1.0
 15
0.0
 25
0.0
 16
0.0
 26
0.0
 36
1.0
 17
105.0000721959721
 27
148.5000416295418
 37
0.0
 40
89.75999997755987
 41
1.0
 42
50.0
 43
0.0
 44
0.0
 50
0.0
 51
0.0
 71
     0
 72
   100
 73
     1
 74
     1
 75
     0
 76
     0
 77
     0
 78
     0
281
     0
 65
     1
110
0.0
120
0.0
130
0.0
111
1.0
121
0.0
131
0.0
112
0.0
122
1.0
132
0.0
 79
     0
146
0.0
 60
     3
 61
     5
292
     1
282
     1
141
0.0
142
0.0
 63
   250
421
  3355443
  0
ENDTAB
  0
TABLE
  2
LTYPE
  5
5
330
0
100
AcDbSymbolTable
 70
     3
  0
LTYPE
  5
5B
330
5
100
AcDbSymbolTableRecord
100
AcDbLinetypeTableRecord
  2
ByBlock
 70
     0
  3

 72
    65
 73
     0
 40
0.0
  0
LTYPE
  5
5C
330
5
100
AcDbSymbolTableRecord
100
AcDbLinetypeTableRecord
  2
ByLayer
 70
     0
  3

 72
    65
 73
     0
 40
0.0
  0
LTYPE
  5
5D
330
5
100
AcDbSymbolTableRecord
100
AcDbLinetypeTableRecord
  2
Continuous
 70
     0
  3
Solid line
 72
    65
 73
     0
 40
0.0
  0
LTYPE
  5
28D
330
5
100
AcDbSymbolTableRecord
100
AcDbLinetypeTableRecord
  2
AI-Linetype-0
 70
     0
  3
Adobe Illustrator Linetype No. 0
 72
    65
 73
     2
 40
1.411111110758333
 49
0.7055555553791667
 74
     0
 49
-0.7055555553791667
 74
     0
  0
LTYPE
  5
2C0
330
5
100
AcDbSymbolTableRecord
100
AcDbLinetypeTableRecord
  2
AI-Linetype-1
 70
     0
  3
Adobe Illustrator Linetype No. 1
 72
    65
 73
     2
 40
1.411111110758333
 49
0.7055555553791667
 74
     0
 49
-0.7055555553791667
 74
     0
  0
ENDTAB
  0
TABLE
  2
LAYER
  5
2
330
0
100
AcDbSymbolTable
 70
     5
  0
LAYER
  5
54
330
2
100
AcDbSymbolTableRecord
100
AcDbLayerTableRecord
  2
0
 70
     0
 62
     7
  6
Continuous
370
     0
390
F
347
21
348
0
  0
LAYER
  5
8C
330
2
100
AcDbSymbolTableRecord
100
AcDbLayerTableRecord
  2
Rahmen (ISO)
 70
     0
 62
     7
  6
Continuous
370
     0
390
F
347
21
348
0
  0
LAYER
  5
8D
330
2
100
AcDbSymbolTableRecord
100
AcDbLayerTableRecord
  2
Titel (ISO)
 70
     0
 62
     7
  6
Continuous
370
     0
390
F
347
21
348
0
  0
LAYER
  5
B2
330
2
100
AcDbSymbolTableRecord
100
AcDbLayerTableRecord
  2
Sichtbar (ISO)
 70
     0
 62
     7
  6
Continuous
370
     0
390
F
347
21
348
0
  0
LAYER
  5
2F3
330
2
100
AcDbSymbolTableRecord
100
AcDbLayerTableRecord
  2
Sichtbar schmal (ISO)
 70
     0
 62
     7
  6
Continuous
370
     0
390
F
347
21
348
0
  0
ENDTAB
  0
TABLE
  2
STYLE
  5
3
330
0
100
AcDbSymbolTable
 70
     2
  0
STYLE
  5
55
330
3
100
AcDbSymbolTableRecord
100
AcDbTextStyleTableRecord
  2
Standard
 70
     0
 40
0.0
 41
1.0
 50
0.0
 71
     0
 42
0.2
  3
txt
  4

  0
STYLE
  5
5A
330
3
100
AcDbSymbolTableRecord
100
AcDbTextStyleTableRecord
  2
Annotative
 70
     0
 40
0.0
 41
1.0
 50
0.0
 71
     0
 42
0.2
  3
txt
  4

1001
AcadAnnotative
1000
AnnotativeData
1002
{
1070
     1
1070
     1
1002
}
  0
ENDTAB
  0
TABLE
  2
VIEW
  5
6
330
0
100
AcDbSymbolTable
 70
     0
  0
ENDTAB
  0
TABLE
  2
UCS
  5
7
330
0
100
AcDbSymbolTable
 70
     0
  0
ENDTAB
  0
TABLE
  2
APPID
  5
9
330
0
100
AcDbSymbolTable
 70
     2
  0
APPID
  5
56
330
9
100
AcDbSymbolTableRecord
100
AcDbRegAppTableRecord
  2
ACAD
 70
     0
  0
APPID
  5
5E
330
9
100
AcDbSymbolTableRecord
100
AcDbRegAppTableRecord
  2
AcadAnnotative
 70
     0
  0
ENDTAB
  0
TABLE
  2
DIMSTYLE
  5
A
330
0
100
AcDbSymbolTable
 70
     2
100
AcDbDimStyleTable
 71
     0
  0
DIMSTYLE
105
58
330
A
100
AcDbSymbolTableRecord
100
AcDbDimStyleTableRecord
  2
Standard
 70
     0
340
55
  0
DIMSTYLE
105
59
330
A
100
AcDbSymbolTableRecord
100
AcDbDimStyleTableRecord
  2
Annotative
 70
     0
340
55
1001
AcadAnnotative
1000
AnnotativeData
1002
{
1070
     1
1070
     1
1002
}
  0
ENDTAB
  0
TABLE
  2
BLOCK_RECORD
  5
1
330
0
100
AcDbSymbolTable
 70
    41
  0
BLOCK_RECORD
  5
70
330
1
100
AcDbSymbolTableRecord
100
AcDbBlockTableRecord
  2
*Model_Space
340
73
 70
     0
280
     1
281
     0
  0
BLOCK_RECORD
  5
6C
330
1
100
AcDbSymbolTableRecord
100
AcDbBlockTableRecord
  2
*Paper_Space
340
6F
 70
     0
280
     1
281
     0
  0
BLOCK_RECORD
  5
74
330
1
100
AcDbSymbolTableRecord
100
AcDbBlockTableRecord
  2
*Paper_Space0
340
77
 70
     0
280
     1
281
     0
  0
BLOCK_RECORD
  5
78
330
1
100
AcDbSymbolTableRecord
100
AcDbBlockTableRecord
  2
Block_0
340
0
102
{BLKREFS
331
79
102
}
 70
     0
280
     1
281
     0
  0
BLOCK_RECORD
  5
7C
330
1
100
AcDbSymbolTableRecord
100
AcDbBlockTableRecord
  2
Block_1
340
0
102
{BLKREFS
331
7D
102
}
 70
     0
280
     1
281
     0
  0
BLOCK_RECORD
  5
80
330
1
100
AcDbSymbolTableRecord
100
AcDbBlockTableRecord
  2
Block_2
340
0
102
{BLKREFS
331
81
102
}
 70
     0
280
     1
281
     0
  0
BLOCK_RECORD
  5
84
330
1
100
AcDbSymbolTableRecord
100
AcDbBlockTableRecord
  2
Block_3
340
0
102
{BLKREFS
331
85
102
}
 70
     0
280
     1
281
     0
  0
BLOCK_RECORD
  5
88
330
1
100
AcDbSymbolTableRecord
100
AcDbBlockTableRecord
  2
Block_4
340
0
102
{BLKREFS
331
89
102
}
 70
     0
280
     1
281
     0
  0
BLOCK_RECORD
  5
8E
330
1
100
AcDbSymbolTableRecord
100
AcDbBlockTableRecord
  2
Block_5
340
0
102
{BLKREFS
331
8F
102
}
 70
     0
280
     1
281
     0
  0
BLOCK_RECORD
  5
92
330
1
100
AcDbSymbolTableRecord
100
AcDbBlockTableRecord
  2
Block_6
340
0
102
{BLKREFS
331
93
102
}
 70
     0
280
     1
281
     0
  0
BLOCK_RECORD
  5
96
330
1
100
AcDbSymbolTableRecord
100
AcDbBlockTableRecord
  2
Block_7
340
0
102
{BLKREFS
331
97
102
}
 70
     0
280
     1
281
     0
  0
BLOCK_RECORD
  5
9A
330
1
100
AcDbSymbolTableRecord
100
AcDbBlockTableRecord
  2
Block_8
340
0
102
{BLKREFS
331
9B
102
}
 70
     0
280
     1
281
     0
  0
BLOCK_RECORD
  5
9E
330
1
100
AcDbSymbolTableRecord
100
AcDbBlockTableRecord
  2
Block_9
340
0
102
{BLKREFS
331
9F
102
}
 70
     0
280
     1
281
     0
  0
BLOCK_RECORD
  5
A2
330
1
100
AcDbSymbolTableRecord
100
AcDbBlockTableRecord
  2
Block_10
340
0
102
{BLKREFS
331
A3
102
}
 70
     0
280
     1
281
     0
  0
BLOCK_RECORD
  5
A6
330
1
100
AcDbSymbolTableRecord
100
AcDbBlockTableRecord
  2
Block_11
340
0
102
{BLKREFS
331
A7
102
}
 70
     0
280
     1
281
     0
  0
BLOCK_RECORD
  5
AA
330
1
100
AcDbSymbolTableRecord
100
AcDbBlockTableRecord
  2
Block_12
340
0
102
{BLKREFS
331
AB
102
}
 70
     0
280
     1
281
     0
  0
BLOCK_RECORD
  5
AE
330
1
100
AcDbSymbolTableRecord
100
AcDbBlockTableRecord
  2
Block_13
340
0
102
{BLKREFS
331
AF
102
}
 70
     0
280
     1
281
     0
  0
BLOCK_RECORD
  5
B3
330
1
100
AcDbSymbolTableRecord
100
AcDbBlockTableRecord
  2
Block_14
340
0
102
{BLKREFS
331
B4
102
}
 70
     0
280
     1
281
     0
  0
BLOCK_RECORD
  5
B9
330
1
100
AcDbSymbolTableRecord
100
AcDbBlockTableRecord
  2
Block_15
340
0
102
{BLKREFS
331
BA
102
}
 70
     0
280
     1
281
     0
  0
BLOCK_RECORD
  5
249
330
1
100
AcDbSymbolTableRecord
100
AcDbBlockTableRecord
  2
Block_16
340
0
102
{BLKREFS
331
24A
102
}
 70
     0
280
     1
281
     0
  0
BLOCK_RECORD
  5
25D
330
1
100
AcDbSymbolTableRecord
100
AcDbBlockTableRecord
  2
Block_17
340
0
102
{BLKREFS
331
25E
102
}
 70
     0
280
     1
281
     0
  0
BLOCK_RECORD
  5
261
330
1
100
AcDbSymbolTableRecord
100
AcDbBlockTableRecord
  2
Block_18
340
0
102
{BLKREFS
331
262
102
}
 70
     0
280
     1
281
     0
  0
BLOCK_RECORD
  5
266
330
1
100
AcDbSymbolTableRecord
100
AcDbBlockTableRecord
  2
Block_19
340
0
102
{BLKREFS
331
267
102
}
 70
     0
280
     1
281
     0
  0
BLOCK_RECORD
  5
26C
330
1
100
AcDbSymbolTableRecord
100
AcDbBlockTableRecord
  2
Block_20
340
0
102
{BLKREFS
331
26D
102
}
 70
     0
280
     1
281
     0
  0
BLOCK_RECORD
  5
275
330
1
100
AcDbSymbolTableRecord
100
AcDbBlockTableRecord
  2
Block_21
340
0
102
{BLKREFS
331
276
102
}
 70
     0
280
     1
281
     0
  0
BLOCK_RECORD
  5
279
330
1
100
AcDbSymbolTableRecord
100
AcDbBlockTableRecord
  2
Block_22
340
0
102
{BLKREFS
331
27A
102
}
 70
     0
280
     1
281
     0
  0
BLOCK_RECORD
  5
27E
330
1
100
AcDbSymbolTableRecord
100
AcDbBlockTableRecord
  2
Block_23
340
0
102
{BLKREFS
331
27F
102
}
 70
     0
280
     1
281
     0
  0
BLOCK_RECORD
  5
284
330
1
100
AcDbSymbolTableRecord
100
AcDbBlockTableRecord
  2
Block_24
340
0
102
{BLKREFS
331
285
102
}
 70
     0
280
     1
281
     0
  0
BLOCK_RECORD
  5
28E
330
1
100
AcDbSymbolTableRecord
100
AcDbBlockTableRecord
  2
Block_25
340
0
102
{BLKREFS
331
28F
102
}
 70
     0
280
     1
281
     0
  0
BLOCK_RECORD
  5
292
330
1
100
AcDbSymbolTableRecord
100
AcDbBlockTableRecord
  2
Block_26
340
0
102
{BLKREFS
331
293
102
}
 70
     0
280
     1
281
     0
  0
BLOCK_RECORD
  5
297
330
1
100
AcDbSymbolTableRecord
100
AcDbBlockTableRecord
  2
Block_27
340
0
102
{BLKREFS
331
298
102
}
 70
     0
280
     1
281
     0
  0
BLOCK_RECORD
  5
29D
330
1
100
AcDbSymbolTableRecord
100
AcDbBlockTableRecord
  2
Block_28
340
0
102
{BLKREFS
331
29E
102
}
 70
     0
280
     1
281
     0
  0
BLOCK_RECORD
  5
2A1
330
1
100
AcDbSymbolTableRecord
100
AcDbBlockTableRecord
  2
Block_29
340
0
102
{BLKREFS
331
2A2
102
}
 70
     0
280
     1
281
     0
  0
BLOCK_RECORD
  5
2A6
330
1
100
AcDbSymbolTableRecord
100
AcDbBlockTableRecord
  2
Block_30
340
0
102
{BLKREFS
331
2A7
102
}
 70
     0
280
     1
281
     0
  0
BLOCK_RECORD
  5
2AC
330
1
100
AcDbSymbolTableRecord
100
AcDbBlockTableRecord
  2
Block_31
340
0
102
{BLKREFS
331
2AD
102
}
 70
     0
280
     1
281
     0
  0
BLOCK_RECORD
  5
2B2
330
1
100
AcDbSymbolTableRecord
100
AcDbBlockTableRecord
  2
Block_32
340
0
102
{BLKREFS
331
2B3
102
}
 70
     0
280
     1
281
     0
  0
BLOCK_RECORD
  5
2B6
330
1
100
AcDbSymbolTableRecord
100
AcDbBlockTableRecord
  2
Block_33
340
0
102
{BLKREFS
331
2B7
102
}
 70
     0
280
     1
281
     0
  0
BLOCK_RECORD
  5
2C1
330
1
100
AcDbSymbolTableRecord
100
AcDbBlockTableRecord
  2
Block_34
340
0
102
{BLKREFS
331
2C2
102
}
 70
     0
280
     1
281
     0
  0
BLOCK_RECORD
  5
2C5
330
1
100
AcDbSymbolTableRecord
100
AcDbBlockTableRecord
  2
Block_35
340
0
102
{BLKREFS
331
2C6
102
}
 70
     0
280
     1
281
     0
  0
BLOCK_RECORD
  5
2CD
330
1
100
AcDbSymbolTableRecord
100
AcDbBlockTableRecord
  2
Block_36
340
0
102
{BLKREFS
331
2CE
102
}
 70
     0
280
     1
281
     0
  0
BLOCK_RECORD
  5
2D1
330
1
100
AcDbSymbolTableRecord
100
AcDbBlockTableRecord
  2
Block_37
340
0
102
{BLKREFS
331
2D2
102
}
 70
     0
280
     1
281
     0
  0
BLOCK_RECORD
  5
2E0
330
1
100
AcDbSymbolTableRecord
100
AcDbBlockTableRecord
  2
Block_38
340
0
102
{BLKREFS
331
2E1
102
}
 70
     0
280
     1
281
     0
  0
BLOCK_RECORD
  5
2E4
330
1
100
AcDbSymbolTableRecord
100
AcDbBlockTableRecord
  2
Block_39
340
0
102
{BLKREFS
331
2E5
102
}
 70
     0
280
     1
281
     0
  0
ENDTAB
  0
ENDSEC
  0
SECTION
  2
BLOCKS
  0
BLOCK
  5
71
330
70
100
AcDbEntity
  8
0
100
AcDbBlockBegin
  2
*Model_Space
 70
     0
 10
0.0
 20
0.0
 30
0.0
  3
*Model_Space
  1

  0
ENDBLK
  5
72
330
70
100
AcDbEntity
  8
0
100
AcDbBlockEnd
  0
BLOCK
  5
6D
330
6C
100
AcDbEntity
 67
     1
  8
0
100
AcDbBlockBegin
  2
*Paper_Space
 70
     0
 10
0.0
 20
0.0
 30
0.0
  3
*Paper_Space
  1

  0
ENDBLK
  5
6E
330
6C
100
AcDbEntity
 67
     1
  8
0
100
AcDbBlockEnd
  0
BLOCK
  5
75
330
74
100
AcDbEntity
 67
     1
  8
0
100
AcDbBlockBegin
  2
*Paper_Space0
 70
     0
 10
0.0
 20
0.0
 30
0.0
  3
*Paper_Space0
  1

  0
ENDBLK
  5
76
330
74
100
AcDbEntity
 67
     1
  8
0
100
AcDbBlockEnd
  0
BLOCK
  5
7A
330
78
100
AcDbEntity
  8
0
100
AcDbBlockBegin
  2
Block_0
 70
     0
 10
0.0
 20
0.0
 30
0.0
  3
Block_0
  1

  0
ENDBLK
  5
7B
330
78
100
AcDbEntity
  8
0
100
AcDbBlockEnd
  0
BLOCK
  5
7E
330
7C
100
AcDbEntity
  8
0
100
AcDbBlockBegin
  2
Block_1
 70
     0
 10
0.0
 20
0.0
 30
0.0
  3
Block_1
  1

  0
ENDBLK
  5
7F
330
7C
100
AcDbEntity
  8
0
100
AcDbBlockEnd
  0
BLOCK
  5
82
330
80
100
AcDbEntity
  8
0
100
AcDbBlockBegin
  2
Block_2
 70
     0
 10
0.0
 20
0.0
 30
0.0
  3
Block_2
  1

  0
ENDBLK
  5
83
330
80
100
AcDbEntity
  8
0
100
AcDbBlockEnd
  0
BLOCK
  5
86
330
84
100
AcDbEntity
  8
0
100
AcDbBlockBegin
  2
Block_3
 70
     0
 10
0.0
 20
0.0
 30
0.0
  3
Block_3
  1

  0
ENDBLK
  5
87
330
84
100
AcDbEntity
  8
0
100
AcDbBlockEnd
  0
BLOCK
  5
8A
330
88
100
AcDbEntity
  8
0
100
AcDbBlockBegin
  2
Block_4
 70
     0
 10
0.0
 20
0.0
 30
0.0
  3
Block_4
  1

  0
ENDBLK
  5
8B
330
88
100
AcDbEntity
  8
0
100
AcDbBlockEnd
  0
BLOCK
  5
90
330
8E
100
AcDbEntity
  8
0
100
AcDbBlockBegin
  2
Block_5
 70
     0
 10
0.0
 20
0.0
 30
0.0
  3
Block_5
  1

  0
ENDBLK
  5
91
330
8E
100
AcDbEntity
  8
0
100
AcDbBlockEnd
  0
BLOCK
  5
94
330
92
100
AcDbEntity
  8
0
100
AcDbBlockBegin
  2
Block_6
 70
     0
 10
0.0
 20
0.0
 30
0.0
  3
Block_6
  1

  0
ENDBLK
  5
95
330
92
100
AcDbEntity
  8
0
100
AcDbBlockEnd
  0
BLOCK
  5
98
330
96
100
AcDbEntity
  8
0
100
AcDbBlockBegin
  2
Block_7
 70
     0
 10
0.0
 20
0.0
 30
0.0
  3
Block_7
  1

  0
ENDBLK
  5
99
330
96
100
AcDbEntity
  8
0
100
AcDbBlockEnd
  0
BLOCK
  5
9C
330
9A
100
AcDbEntity
  8
0
100
AcDbBlockBegin
  2
Block_8
 70
     0
 10
0.0
 20
0.0
 30
0.0
  3
Block_8
  1

  0
ENDBLK
  5
9D
330
9A
100
AcDbEntity
  8
0
100
AcDbBlockEnd
  0
BLOCK
  5
A0
330
9E
100
AcDbEntity
  8
0
100
AcDbBlockBegin
  2
Block_9
 70
     0
 10
0.0
 20
0.0
 30
0.0
  3
Block_9
  1

  0
ENDBLK
  5
A1
330
9E
100
AcDbEntity
  8
0
100
AcDbBlockEnd
  0
BLOCK
  5
A4
330
A2
100
AcDbEntity
  8
0
100
AcDbBlockBegin
  2
Block_10
 70
     0
 10
0.0
 20
0.0
 30
0.0
  3
Block_10
  1

  0
ENDBLK
  5
A5
330
A2
100
AcDbEntity
  8
0
100
AcDbBlockEnd
  0
BLOCK
  5
A8
330
A6
100
AcDbEntity
  8
0
100
AcDbBlockBegin
  2
Block_11
 70
     0
 10
0.0
 20
0.0
 30
0.0
  3
Block_11
  1

  0
ENDBLK
  5
A9
330
A6
100
AcDbEntity
  8
0
100
AcDbBlockEnd
  0
BLOCK
  5
AC
330
AA
100
AcDbEntity
  8
0
100
AcDbBlockBegin
  2
Block_12
 70
     0
 10
0.0
 20
0.0
 30
0.0
  3
Block_12
  1

  0
ENDBLK
  5
AD
330
AA
100
AcDbEntity
  8
0
100
AcDbBlockEnd
  0
BLOCK
  5
B0
330
AE
100
AcDbEntity
  8
0
100
AcDbBlockBegin
  2
Block_13
 70
     0
 10
0.0
 20
0.0
 30
0.0
  3
Block_13
  1

  0
ENDBLK
  5
B1
330
AE
100
AcDbEntity
  8
0
100
AcDbBlockEnd
  0
BLOCK
  5
B5
330
B3
100
AcDbEntity
  8
0
100
AcDbBlockBegin
  2
Block_14
 70
     0
 10
0.0
 20
0.0
 30
0.0
  3
Block_14
  1

  0
SPLINE
  5
B7
330
B3
100
AcDbEntity
  8
Sichtbar (ISO)
100
AcDbSpline
210
0.0
220
0.0
230
1.0
 70
     8
 71
     3
 72
    38
 73
    34
 74
     0
 42
0.0000000001
 43
0.0000000001
 40
0.0
 40
0.0
 40
0.0
 40
0.0
 40
1.0
 40
1.0
 40
1.0
 40
2.0
 40
2.0
 40
2.0
 40
3.0
 40
3.0
 40
3.0
 40
4.0
 40
4.0
 40
4.0
 40
5.0
 40
5.0
 40
5.0
 40
6.0
 40
6.0
 40
6.0
 40
7.0
 40
7.0
 40
7.0
 40
8.0
 40
8.0
 40
8.0
 40
9.0
 40
9.0
 40
9.0
 40
10.0
 40
10.0
 40
10.0
 40
11.0
 40
11.0
 40
11.0
 40
11.0
 10
112.7913348118973
 20
185.4975424148464
 30
0.0
 10
112.7913348118973
 20
185.4975424148464
 30
0.0
 10
113.2680981979625
 20
185.4975424148464
 30
0.0
 10
113.2680981979625
 20
185.4975424148464
 30
0.0
 10
113.2680981979625
 20
185.4975424148464
 30
0.0
 10
113.2680981979625
 20
182.7503686803738
 30
0.0
 10
113.2680981979625
 20
182.7503686803738
 30
0.0
 10
113.2680981979625
 20
182.7503686803738
 30
0.0
 10
113.2680981979625
 20
182.4748151428754
 30
0.0
 10
113.2680981979625
 20
182.4748151428754
 30
0.0
 10
113.2680981979625
 20
182.2112246941584
 30
0.0
 10
112.9479168399683
 20
181.9975424157216
 30
0.0
 10
112.5529531188643
 20
181.9975424157216
 30
0.0
 10
112.5529531188643
 20
181.9975424157216
 30
0.0
 10
66.5452863636167
 20
181.9975424157216
 30
0.0
 10
66.5452863636167
 20
181.9975424157216
 30
0.0
 10
66.15032264251563
 20
181.9975424157216
 30
0.0
 10
65.83014128451947
 20
182.2112246941584
 30
0.0
 10
65.83014128451947
 20
182.4748151428754
 30
0.0
 10
65.83014128451947
 20
182.4748151428754
 30
0.0
 10
65.83014128451947
 20
182.7503686803738
 30
0.0
 10
65.83014128451947
 20
182.7503686803738
 30
0.0
 10
65.83014128451947
 20
182.7503686803738
 30
0.0
 10
65.83014128451947
 20
185.4975424148464
 30
0.0
 10
65.83014128451947
 20
185.4975424148464
 30
0.0
 10
65.83014128451947
 20
185.4975424148464
 30
0.0
 10
66.30690467058535
 20
185.4975424148464
 30
0.0
 10
66.30690467058535
 20
185.4975424148464
 30
0.0
 10
66.30690467058535
 20
185.4975424148464
 30
0.0
 10
66.33074283988794
 20
185.4975424148464
 30
0.0
 10
66.33074283988794
 20
185.4975424148464
 30
0.0
 10
66.33074283988794
 20
185.4975424148464
 30
0.0
 10
112.7674966425937
 20
185.4975424148464
 30
0.0
 10
112.7674966425937
 20
185.4975424148464
 30
0.0
  0
HATCH
  5
B8
330
B3
100
AcDbEntity
  8
Sichtbar (ISO)
 62
   254
420
 14606046
440
 33554687
100
AcDbHatch
 10
0.0
 20
0.0
 30
0.0
210
0.0
220
0.0
230
1.0
  2
SOLID
 70
     1
 71
     1
 91
        1
 92
        1
 93
        2
 72
     4
 94
        3
 73
     0
 74
     0
 95
       38
 96
       34
 40
0.0
 40
0.0
 40
0.0
 40
0.0
 40
1.0
 40
1.0
 40
1.0
 40
2.0
 40
2.0
 40
2.0
 40
3.0
 40
3.0
 40
3.0
 40
4.0
 40
4.0
 40
4.0
 40
5.0
 40
5.0
 40
5.0
 40
6.0
 40
6.0
 40
6.0
 40
7.0
 40
7.0
 40
7.0
 40
8.0
 40
8.0
 40
8.0
 40
9.0
 40
9.0
 40
9.0
 40
10.0
 40
10.0
 40
10.0
 40
11.0
 40
11.0
 40
11.0
 40
11.0
 10
112.7913348118973
 20
185.4975424148464
 10
112.7913348118973
 20
185.4975424148464
 10
113.2680981979625
 20
185.4975424148464
 10
113.2680981979625
 20
185.4975424148464
 10
113.2680981979625
 20
185.4975424148464
 10
113.2680981979625
 20
182.7503686803738
 10
113.2680981979625
 20
182.7503686803738
 10
113.2680981979625
 20
182.7503686803738
 10
113.2680981979625
 20
182.4748151428754
 10
113.2680981979625
 20
182.4748151428754
 10
113.2680981979625
 20
182.2112246941584
 10
112.9479168399683
 20
181.9975424157216
 10
112.5529531188643
 20
181.9975424157216
 10
112.5529531188643
 20
181.9975424157216
 10
66.5452863636167
 20
181.9975424157216
 10
66.5452863636167
 20
181.9975424157216
 10
66.15032264251563
 20
181.9975424157216
 10
65.83014128451947
 20
182.2112246941584
 10
65.83014128451947
 20
182.4748151428754
 10
65.83014128451947
 20
182.4748151428754
 10
65.83014128451947
 20
182.7503686803738
 10
65.83014128451947
 20
182.7503686803738
 10
65.83014128451947
 20
182.7503686803738
 10
65.83014128451947
 20
185.4975424148464
 10
65.83014128451947
 20
185.4975424148464
 10
65.83014128451947
 20
185.4975424148464
 10
66.30690467058535
 20
185.4975424148464
 10
66.30690467058535
 20
185.4975424148464
 10
66.30690467058535
 20
185.4975424148464
 10
66.33074283988794
 20
185.4975424148464
 10
66.33074283988794
 20
185.4975424148464
 10
66.33074283988794
 20
185.4975424148464
 10
112.7674966425937
 20
185.4975424148464
 10
112.7674966425937
 20
185.4975424148464
 97
        0
 72
     1
 10
112.7674966425937
 20
185.4975424148464
 11
112.7913348118973
 21
185.4975424148464
 97
        0
 75
     2
 76
     1
 98
        1
 10
0.0
 20
0.0
450
        0
451
        0
460
0.0
461
0.0
452
        0
462
0.0
453
        0
470

  0
ENDBLK
  5
B6
330
B3
100
AcDbEntity
  8
0
100
AcDbBlockEnd
  0
BLOCK
  5
BB
330
B9
100
AcDbEntity
  8
0
100
AcDbBlockBegin
  2
Block_15
 70
     0
 10
0.0
 20
0.0
 30
0.0
  3
Block_15
  1

  0
LINE
  5
BD
330
B9
100
AcDbEntity
  8
Sichtbar (ISO)
 62
    18
420
        0
370
     5
100
AcDbLine
 10
65.02411537200756
 20
180.4844034980303
 30
0.0
 11
113.9395410379515
 21
180.4844034980303
 31
0.0
  0
LINE
  5
BE
330
B9
100
AcDbEntity
  8
Sichtbar (ISO)
 62
    18
420
        0
370
     5
100
AcDbLine
 10
113.9397648436855
 20
180.4844034980303
 30
0.0
 11
114.074115359745
 21
180.4844034980303
 31
0.0
  0
LINE
  5
BF
330
B9
100
AcDbEntity
  8
Sichtbar (ISO)
 62
    18
420
        0
370
     5
100
AcDbLine
 10
65.02411537200756
 20
185.5264034967689
 30
0.0
 11
113.9395410379515
 21
185.5264034967689
 31
0.0
  0
LINE
  5
C0
330
B9
100
AcDbEntity
  8
Sichtbar (ISO)
 62
    18
420
        0
370
     5
100
AcDbLine
 10
113.9397648436855
 20
185.5264034967689
 30
0.0
 11
114.074115359745
 21
185.5264034967689
 31
0.0
  0
LINE
  5
C1
330
B9
100
AcDbEntity
  8
Sichtbar (ISO)
 62
    18
420
        0
370
     5
100
AcDbLine
 10
113.9397648436855
 20
185.5264034967689
 30
0.0
 11
113.9395410379476
 21
185.5264034967689
 31
0.0
  0
LINE
  5
C2
330
B9
100
AcDbEntity
  8
Sichtbar (ISO)
 62
    18
420
        0
370
     5
100
AcDbLine
 10
113.9397648436855
 20
180.484403498028
 30
0.0
 11
113.9395410379476
 21
180.484403498028
 31
0.0
  0
LINE
  5
C3
330
B9
100
AcDbEntity
  8
Sichtbar (ISO)
 62
    18
420
        0
370
     5
100
AcDbLine
 10
114.074115359745
 20
185.5264034967689
 30
0.0
 11
114.074115359745
 21
180.4844034980303
 31
0.0
  0
LINE
  5
C4
330
B9
100
AcDbEntity
  8
Sichtbar (ISO)
 62
    18
420
        0
370
     5
100
AcDbLine
 10
65.02411537200756
 20
185.5264034967689
 30
0.0
 11
65.02411537200756
 21
180.4844034980303
 31
0.0
  0
LINE
  5
C5
330
B9
100
AcDbEntity
  8
Sichtbar (ISO)
 62
    18
420
        0
370
     5
100
AcDbLine
 10
111.0989514260631
 20
167.8794035011809
 30
0.0
 11
113.0287874911535
 21
167.8794035011809
 31
0.0
  0
LINE
  5
C6
330
B9
100
AcDbEntity
  8
Sichtbar (ISO)
 62
    18
420
        0
370
     5
100
AcDbLine
 10
113.0287874911535
 20
180.4844034980303
 30
0.0
 11
113.0287874911535
 21
167.8794035011809
 31
0.0
  0
LINE
  5
C7
330
B9
100
AcDbEntity
  8
Sichtbar (ISO)
 62
    18
420
        0
370
     5
100
AcDbLine
 10
111.0989514260631
 20
180.4844034980303
 30
0.0
 11
111.0989514260631
 21
167.8794035011809
 31
0.0
  0
LINE
  5
C8
330
B9
100
AcDbEntity
  8
Sichtbar (ISO)
 62
    18
420
        0
370
     5
100
AcDbLine
 10
66.06944324059871
 20
167.8794035011809
 30
0.0
 11
67.99927930569008
 21
167.8794035011809
 31
0.0
  0
LINE
  5
C9
330
B9
100
AcDbEntity
  8
Sichtbar (ISO)
 62
    18
420
        0
370
     5
100
AcDbLine
 10
67.99927930569008
 20
180.4844034980303
 30
0.0
 11
67.99927930569008
 21
167.8794035011809
 31
0.0
  0
LINE
  5
CA
330
B9
100
AcDbEntity
  8
Sichtbar (ISO)
 62
    18
420
        0
370
     5
100
AcDbLine
 10
66.06944324059871
 20
180.4844034980303
 30
0.0
 11
66.06944324059871
 21
167.8794035011809
 31
0.0
  0
LINE
  5
CB
330
B9
100
AcDbEntity
  8
Sichtbar (ISO)
 62
    18
420
        0
370
     5
100
AcDbLine
 10
88.58419733333027
 20
167.8794035011809
 30
0.0
 11
90.51403339842165
 21
167.8794035011809
 31
0.0
  0
LINE
  5
CC
330
B9
100
AcDbEntity
  8
Sichtbar (ISO)
 62
    18
420
        0
370
     5
100
AcDbLine
 10
90.51403339842165
 20
180.4844034980303
 30
0.0
 11
90.51403339842165
 21
167.8794035011809
 31
0.0
  0
LINE
  5
CD
330
B9
100
AcDbEntity
  8
Sichtbar (ISO)
 62
    18
420
        0
370
     5
100
AcDbLine
 10
88.58419733333027
 20
180.4844034980303
 30
0.0
 11
88.58419733333027
 21
167.8794035011809
 31
0.0
  0
LINE
  5
CE
330
B9
100
AcDbEntity
  8
Sichtbar (ISO)
 62
    18
420
        0
370
     5
100
AcDbLine
 10
108.2041973284252
 20
180.2552216799048
 30
0.0
 11
108.2041973284252
 21
180.4844034980303
 31
0.0
  0
LINE
  5
CF
330
B9
100
AcDbEntity
  8
Sichtbar (ISO)
 62
    18
420
        0
370
     5
100
AcDbLine
 10
108.2041973284252
 20
180.2552216799048
 30
0.0
 11
108.2041973284252
 21
178.8801307711582
 31
0.0
  0
LINE
  5
D0
330
B9
100
AcDbEntity
  8
Sichtbar (ISO)
 62
    18
420
        0
370
     5
100
AcDbLine
 10
108.2041973284252
 20
178.8801307711582
 30
0.0
 11
108.2041973284252
 21
171.0879489549238
 31
0.0
  0
LINE
  5
D1
330
B9
100
AcDbEntity
  8
Sichtbar (ISO)
 62
    18
420
        0
370
     5
100
AcDbLine
 10
108.3006891316847
 20
171.0879489549238
 30
0.0
 11
108.606246508653
 21
171.0879489549238
 31
0.0
  0
LINE
  5
D2
330
B9
100
AcDbEntity
  8
Sichtbar (ISO)
 62
    18
420
        0
370
     5
100
AcDbLine
 10
108.606246508653
 20
178.1925853167847
 30
0.0
 11
108.606246508653
 21
171.0879489549238
 31
0.0
  0
LINE
  5
D3
330
B9
100
AcDbEntity
  8
Sichtbar (ISO)
 62
    18
420
        0
370
     5
100
AcDbLine
 10
108.606246508653
 20
180.4844034980303
 30
0.0
 11
108.606246508653
 21
178.1925853167847
 31
0.0
  0
LINE
  5
D4
330
B9
100
AcDbEntity
  8
Sichtbar (ISO)
 62
    18
420
        0
370
     5
100
AcDbLine
 10
94.61493503674061
 20
171.0879489549238
 30
0.0
 11
90.51403339842165
 21
171.0879489549238
 31
0.0
  0
LINE
  5
D5
330
B9
100
AcDbEntity
  8
Sichtbar (ISO)
 62
    18
420
        0
370
     5
100
AcDbLine
 10
88.58419733333027
 20
171.0879489549238
 30
0.0
 11
84.4832956950116
 21
171.0879489549238
 31
0.0
  0
LINE
  5
D6
330
B9
100
AcDbEntity
  8
Sichtbar (ISO)
 62
    18
420
        0
370
     5
100
AcDbLine
 10
84.48329569501257
 20
171.0879489549238
 30
0.0
 11
84.00083667873724
 21
171.0879489549238
 31
0.0
  0
LINE
  5
D7
330
B9
100
AcDbEntity
  8
Sichtbar (ISO)
 62
    18
420
        0
370
     5
100
AcDbLine
 10
84.00083667873852
 20
171.0879489549238
 30
0.0
 11
83.84001700664759
 21
171.0879489549238
 31
0.0
  0
LINE
  5
D8
330
B9
100
AcDbEntity
  8
Sichtbar (ISO)
 62
    18
420
        0
370
     5
100
AcDbLine
 10
83.19673831828392
 20
171.0879489549238
 30
0.0
 11
83.84001700664759
 21
171.0879489549238
 31
0.0
  0
LINE
  5
D9
330
B9
100
AcDbEntity
  8
Sichtbar (ISO)
 62
    18
420
        0
370
     5
100
AcDbLine
 10
83.19673831828392
 20
171.0879489549238
 30
0.0
 11
82.39263995782899
 21
171.0879489549238
 31
0.0
  0
LINE
  5
DA
330
B9
100
AcDbEntity
  8
Sichtbar (ISO)
 62
    18
420
        0
370
     5
100
AcDbLine
 10
81.74936126946562
 20
171.0879489549238
 30
0.0
 11
82.39263995782899
 21
171.0879489549238
 31
0.0
  0
LINE
  5
DB
330
B9
100
AcDbEntity
  8
Sichtbar (ISO)
 62
    18
420
        0
370
     5
100
AcDbLine
 10
81.74936126946562
 20
171.0879489549238
 30
0.0
 11
74.83411536955505
 21
171.0879489549238
 31
0.0
  0
LINE
  5
DC
330
B9
100
AcDbEntity
  8
Sichtbar (ISO)
 62
    18
420
        0
370
     5
100
AcDbLine
 10
74.834115369556
 20
171.0879489549238
 30
0.0
 11
74.351656353281
 21
171.0879489549238
 31
0.0
  0
LINE
  5
DD
330
B9
100
AcDbEntity
  8
Sichtbar (ISO)
 62
    18
420
        0
370
     5
100
AcDbLine
 10
74.35165635328196
 20
171.0879489549238
 30
0.0
 11
73.53483486089658
 21
171.0879489549238
 31
0.0
  0
LINE
  5
DE
330
B9
100
AcDbEntity
  8
Sichtbar (ISO)
 62
    18
420
        0
370
     5
100
AcDbLine
 10
72.63410709918085
 20
171.0879489549238
 30
0.0
 11
73.53483486089658
 21
171.0879489549238
 31
0.0
  0
LINE
  5
DF
330
B9
100
AcDbEntity
  8
Sichtbar (ISO)
 62
    18
420
        0
370
     5
100
AcDbLine
 10
71.79078999333426
 20
171.0879489549238
 30
0.0
 11
72.63410709917796
 21
171.0879489549238
 31
0.0
  0
LINE
  5
E0
330
B9
100
AcDbEntity
  8
Sichtbar (ISO)
 62
    18
420
        0
370
     5
100
AcDbLine
 10
70.89403340332634
 20
171.0879489549238
 30
0.0
 11
71.79078999333938
 21
171.0879489549238
 31
0.0
  0
LINE
  5
E1
330
B9
100
AcDbEntity
  8
Sichtbar (ISO)
 62
    18
420
        0
370
     5
100
AcDbLine
 10
70.89403340332443
 20
171.0879489549238
 30
0.0
 11
70.79754160006718
 21
171.0879489549238
 31
0.0
  0
LINE
  5
E2
330
B9
100
AcDbEntity
  8
Sichtbar (ISO)
 62
    18
420
        0
370
     5
100
AcDbLine
 10
70.49198422309952
 20
171.0879489549238
 30
0.0
 11
70.79754160006718
 21
171.0879489549238
 31
0.0
  0
LINE
  5
E3
330
B9
100
AcDbEntity
  8
Sichtbar (ISO)
 62
    18
420
        0
370
     5
100
AcDbLine
 10
108.2041973284278
 20
171.0879489549238
 30
0.0
 11
108.3006891316847
 21
171.0879489549238
 31
0.0
  0
LINE
  5
E4
330
B9
100
AcDbEntity
  8
Sichtbar (ISO)
 62
    18
420
        0
370
     5
100
AcDbLine
 10
108.2041973284252
 20
171.0879489549238
 30
0.0
 11
107.3074407384128
 21
171.0879489549238
 31
0.0
  0
LINE
  5
E5
330
B9
100
AcDbEntity
  8
Sichtbar (ISO)
 62
    18
420
        0
370
     5
100
AcDbLine
 10
107.3074407384186
 20
171.0879489549238
 30
0.0
 11
106.4641236325742
 21
171.0879489549238
 31
0.0
  0
LINE
  5
E6
330
B9
100
AcDbEntity
  8
Sichtbar (ISO)
 62
    18
420
        0
370
     5
100
AcDbLine
 10
106.4641236325717
 20
171.0879489549238
 30
0.0
 11
105.563395870855
 21
171.0879489549238
 31
0.0
  0
LINE
  5
E7
330
B9
100
AcDbEntity
  8
Sichtbar (ISO)
 62
    18
420
        0
370
     5
100
AcDbLine
 10
104.7465743784696
 20
171.0879489549238
 30
0.0
 11
105.563395870855
 21
171.0879489549238
 31
0.0
  0
LINE
  5
E8
330
B9
100
AcDbEntity
  8
Sichtbar (ISO)
 62
    18
420
        0
370
     5
100
AcDbLine
 10
104.2641153621962
 20
171.0879489549238
 30
0.0
 11
104.7465743784712
 21
171.0879489549238
 31
0.0
  0
LINE
  5
E9
330
B9
100
AcDbEntity
  8
Sichtbar (ISO)
 62
    18
420
        0
370
     5
100
AcDbLine
 10
97.34886946228661
 20
171.0879489549238
 30
0.0
 11
104.2641153621968
 21
171.0879489549238
 31
0.0
  0
LINE
  5
EA
330
B9
100
AcDbEntity
  8
Sichtbar (ISO)
 62
    18
420
        0
370
     5
100
AcDbLine
 10
97.34886946228661
 20
171.0879489549238
 30
0.0
 11
96.7055907739229
 21
171.0879489549238
 31
0.0
  0
LINE
  5
EB
330
B9
100
AcDbEntity
  8
Sichtbar (ISO)
 62
    18
420
        0
370
     5
100
AcDbLine
 10
95.90149241346798
 20
171.0879489549238
 30
0.0
 11
96.7055907739229
 21
171.0879489549238
 31
0.0
  0
LINE
  5
EC
330
B9
100
AcDbEntity
  8
Sichtbar (ISO)
 62
    18
420
        0
370
     5
100
AcDbLine
 10
95.90149241346798
 20
171.0879489549238
 30
0.0
 11
95.2582137251043
 21
171.0879489549238
 31
0.0
  0
LINE
  5
ED
330
B9
100
AcDbEntity
  8
Sichtbar (ISO)
 62
    18
420
        0
370
     5
100
AcDbLine
 10
95.09739405301337
 20
171.0879489549238
 30
0.0
 11
95.2582137251043
 21
171.0879489549238
 31
0.0
  0
LINE
  5
EE
330
B9
100
AcDbEntity
  8
Sichtbar (ISO)
 62
    18
420
        0
370
     5
100
AcDbLine
 10
94.61493503673933
 20
171.0879489549238
 30
0.0
 11
95.09739405301466
 21
171.0879489549238
 31
0.0
  0
LINE
  5
EF
330
B9
100
AcDbEntity
  8
Sichtbar (ISO)
 62
    18
420
        0
370
     5
100
AcDbLine
 10
84.4832956950116
 20
175.5111580447272
 30
0.0
 11
84.4832956950116
 21
171.0879489549238
 31
0.0
  0
LINE
  5
F0
330
B9
100
AcDbEntity
  8
Sichtbar (ISO)
 62
    18
420
        0
370
     5
100
AcDbLine
 10
94.61493503674061
 20
175.5111580447272
 30
0.0
 11
94.61493503674061
 21
171.0879489549238
 31
0.0
  0
LINE
  5
F1
330
B9
100
AcDbEntity
  8
Sichtbar (ISO)
 62
    18
420
        0
370
     5
100
AcDbLine
 10
87.2976399566029
 20
171.9244625910785
 30
0.0
 11
88.58419733333027
 21
171.9244625910785
 31
0.0
  0
SPLINE
  5
F2
330
B9
100
AcDbEntity
  8
Sichtbar (ISO)
 62
    18
420
        0
370
     5
100
AcDbSpline
210
0.0
220
0.0
230
1.0
 70
     8
 71
     3
 72
     8
 73
     4
 74
     0
 42
0.0000000001
 43
0.0000000001
 40
0.0
 40
0.0
 40
0.0
 40
0.0
 40
1.0
 40
1.0
 40
1.0
 40
1.0
 10
87.13682028451197
 20
172.153644409203
 30
0.0
 10
87.13682028451197
 20
172.0270707861141
 30
0.0
 10
87.20882170423424
 20
171.9244625910785
 30
0.0
 10
87.2976399566029
 20
171.9244625910785
 30
0.0
  0
LINE
  5
F3
330
B9
100
AcDbEntity
  8
Sichtbar (ISO)
 62
    18
420
        0
370
     5
100
AcDbLine
 10
87.13682028451197
 20
172.3484489546092
 30
0.0
 11
87.13682028451197
 21
172.153644409203
 31
0.0
  0
SPLINE
  5
F4
330
B9
100
AcDbEntity
  8
Sichtbar (ISO)
 62
    18
420
        0
370
     5
100
AcDbSpline
210
0.0
220
0.0
230
1.0
 70
     8
 71
     3
 72
     8
 73
     4
 74
     0
 42
0.0000000001
 43
0.0000000001
 40
0.0
 40
0.0
 40
0.0
 40
0.0
 40
1.0
 40
1.0
 40
1.0
 40
1.0
 10
87.2976399566029
 20
172.5776307727333
 30
0.0
 10
87.20882170423424
 20
172.5776307727333
 30
0.0
 10
87.13682028451197
 20
172.4750225776974
 30
0.0
 10
87.13682028451197
 20
172.3484489546092
 30
0.0
  0
LINE
  5
F5
330
B9
100
AcDbEntity
  8
Sichtbar (ISO)
 62
    18
420
        0
370
     5
100
AcDbLine
 10
88.58419733333027
 20
172.5776307727333
 30
0.0
 11
87.2976399566029
 21
172.5776307727333
 31
0.0
  0
LINE
  5
F6
330
B9
100
AcDbEntity
  8
Sichtbar (ISO)
 62
    18
420
        0
370
     5
100
AcDbLine
 10
90.51403339842165
 20
172.5776307727333
 30
0.0
 11
91.80059077514933
 21
172.5776307727333
 31
0.0
  0
SPLINE
  5
F7
330
B9
100
AcDbEntity
  8
Sichtbar (ISO)
 62
    18
420
        0
370
     5
100
AcDbSpline
210
0.0
220
0.0
230
1.0
 70
     8
 71
     3
 72
     8
 73
     4
 74
     0
 42
0.0000000001
 43
0.0000000001
 40
0.0
 40
0.0
 40
0.0
 40
0.0
 40
1.0
 40
1.0
 40
1.0
 40
1.0
 10
91.96141044724026
 20
172.3484489546092
 30
0.0
 10
91.96141044724026
 20
172.4750225776974
 30
0.0
 10
91.88940902751765
 20
172.5776307727333
 30
0.0
 10
91.80059077514933
 20
172.5776307727333
 30
0.0
  0
LINE
  5
F8
330
B9
100
AcDbEntity
  8
Sichtbar (ISO)
 62
    18
420
        0
370
     5
100
AcDbLine
 10
91.96141044724026
 20
172.3484489546092
 30
0.0
 11
91.96141044724026
 21
172.153644409203
 31
0.0
  0
SPLINE
  5
F9
330
B9
100
AcDbEntity
  8
Sichtbar (ISO)
 62
    18
420
        0
370
     5
100
AcDbSpline
210
0.0
220
0.0
230
1.0
 70
     8
 71
     3
 72
     8
 73
     4
 74
     0
 42
0.0000000001
 43
0.0000000001
 40
0.0
 40
0.0
 40
0.0
 40
0.0
 40
1.0
 40
1.0
 40
1.0
 40
1.0
 10
91.80059077514933
 20
171.9244625910785
 30
0.0
 10
91.88940902751765
 20
171.9244625910785
 30
0.0
 10
91.96141044724026
 20
172.0270707861141
 30
0.0
 10
91.96141044724026
 20
172.153644409203
 30
0.0
  0
LINE
  5
FA
330
B9
100
AcDbEntity
  8
Sichtbar (ISO)
 62
    18
420
        0
370
     5
100
AcDbLine
 10
91.80059077514933
 20
171.9244625910785
 30
0.0
 11
90.51403339842165
 21
171.9244625910785
 31
0.0
  0
LINE
  5
FB
330
B9
100
AcDbEntity
  8
Sichtbar (ISO)
 62
    18
420
        0
370
     5
100
AcDbLine
 10
87.2976399566029
 20
177.424826226067
 30
0.0
 11
88.58419733333027
 21
177.424826226067
 31
0.0
  0
SPLINE
  5
FC
330
B9
100
AcDbEntity
  8
Sichtbar (ISO)
 62
    18
420
        0
370
     5
100
AcDbSpline
210
0.0
220
0.0
230
1.0
 70
     8
 71
     3
 72
     8
 73
     4
 74
     0
 42
0.0000000001
 43
0.0000000001
 40
0.0
 40
0.0
 40
0.0
 40
0.0
 40
1.0
 40
1.0
 40
1.0
 40
1.0
 10
87.13682028451197
 20
177.6540080441918
 30
0.0
 10
87.13682028451197
 20
177.5274344211036
 30
0.0
 10
87.20882170423424
 20
177.424826226068
 30
0.0
 10
87.2976399566029
 20
177.424826226068
 30
0.0
  0
LINE
  5
FD
330
B9
100
AcDbEntity
  8
Sichtbar (ISO)
 62
    18
420
        0
370
     5
100
AcDbLine
 10
87.13682028451197
 20
177.8488125895973
 30
0.0
 11
87.13682028451197
 21
177.6540080441918
 31
0.0
  0
SPLINE
  5
FE
330
B9
100
AcDbEntity
  8
Sichtbar (ISO)
 62
    18
420
        0
370
     5
100
AcDbSpline
210
0.0
220
0.0
230
1.0
 70
     8
 71
     3
 72
     8
 73
     4
 74
     0
 42
0.0000000001
 43
0.0000000001
 40
0.0
 40
0.0
 40
0.0
 40
0.0
 40
1.0
 40
1.0
 40
1.0
 40
1.0
 10
87.2976399566029
 20
178.0779944077218
 30
0.0
 10
87.20882170423424
 20
178.0779944077218
 30
0.0
 10
87.13682028451197
 20
177.9753862126862
 30
0.0
 10
87.13682028451197
 20
177.8488125895973
 30
0.0
  0
LINE
  5
FF
330
B9
100
AcDbEntity
  8
Sichtbar (ISO)
 62
    18
420
        0
370
     5
100
AcDbLine
 10
88.58419733333027
 20
178.0779944077218
 30
0.0
 11
87.2976399566029
 21
178.0779944077218
 31
0.0
  0
LINE
  5
100
330
B9
100
AcDbEntity
  8
Sichtbar (ISO)
 62
    18
420
        0
370
     5
100
AcDbLine
 10
90.51403339842165
 20
178.0779944077218
 30
0.0
 11
91.80059077514933
 21
178.0779944077218
 31
0.0
  0
SPLINE
  5
101
330
B9
100
AcDbEntity
  8
Sichtbar (ISO)
 62
    18
420
        0
370
     5
100
AcDbSpline
210
0.0
220
0.0
230
1.0
 70
     8
 71
     3
 72
     8
 73
     4
 74
     0
 42
0.0000000001
 43
0.0000000001
 40
0.0
 40
0.0
 40
0.0
 40
0.0
 40
1.0
 40
1.0
 40
1.0
 40
1.0
 10
91.96141044724026
 20
177.8488125895973
 30
0.0
 10
91.96141044724026
 20
177.9753862126862
 30
0.0
 10
91.88940902751765
 20
178.0779944077218
 30
0.0
 10
91.80059077514933
 20
178.0779944077218
 30
0.0
  0
LINE
  5
102
330
B9
100
AcDbEntity
  8
Sichtbar (ISO)
 62
    18
420
        0
370
     5
100
AcDbLine
 10
91.96141044724026
 20
177.8488125895973
 30
0.0
 11
91.96141044724026
 21
177.6540080441918
 31
0.0
  0
SPLINE
  5
103
330
B9
100
AcDbEntity
  8
Sichtbar (ISO)
 62
    18
420
        0
370
     5
100
AcDbSpline
210
0.0
220
0.0
230
1.0
 70
     8
 71
     3
 72
     8
 73
     4
 74
     0
 42
0.0000000001
 43
0.0000000001
 40
0.0
 40
0.0
 40
0.0
 40
0.0
 40
1.0
 40
1.0
 40
1.0
 40
1.0
 10
91.80059077514933
 20
177.424826226068
 30
0.0
 10
91.88940902751765
 20
177.424826226068
 30
0.0
 10
91.96141044724026
 20
177.5274344211036
 30
0.0
 10
91.96141044724026
 20
177.6540080441918
 30
0.0
  0
LINE
  5
104
330
B9
100
AcDbEntity
  8
Sichtbar (ISO)
 62
    18
420
        0
370
     5
100
AcDbLine
 10
91.80059077514933
 20
177.424826226067
 30
0.0
 11
90.51403339842165
 21
177.424826226067
 31
0.0
  0
LINE
  5
105
330
B9
100
AcDbEntity
  8
Sichtbar (ISO)
 62
    18
420
        0
370
     5
100
AcDbLine
 10
87.2976399566029
 20
176.0497353173201
 30
0.0
 11
88.58419733333027
 21
176.0497353173201
 31
0.0
  0
SPLINE
  5
106
330
B9
100
AcDbEntity
  8
Sichtbar (ISO)
 62
    18
420
        0
370
     5
100
AcDbSpline
210
0.0
220
0.0
230
1.0
 70
     8
 71
     3
 72
     8
 73
     4
 74
     0
 42
0.0000000001
 43
0.0000000001
 40
0.0
 40
0.0
 40
0.0
 40
0.0
 40
1.0
 40
1.0
 40
1.0
 40
1.0
 10
87.13682028451197
 20
176.2789171354449
 30
0.0
 10
87.13682028451197
 20
176.1523435123557
 30
0.0
 10
87.20882170423424
 20
176.0497353173201
 30
0.0
 10
87.2976399566029
 20
176.0497353173201
 30
0.0
  0
LINE
  5
107
330
B9
100
AcDbEntity
  8
Sichtbar (ISO)
 62
    18
420
        0
370
     5
100
AcDbLine
 10
87.13682028451197
 20
176.4737216808513
 30
0.0
 11
87.13682028451197
 21
176.2789171354449
 31
0.0
  0
SPLINE
  5
108
330
B9
100
AcDbEntity
  8
Sichtbar (ISO)
 62
    18
420
        0
370
     5
100
AcDbSpline
210
0.0
220
0.0
230
1.0
 70
     8
 71
     3
 72
     8
 73
     4
 74
     0
 42
0.0000000001
 43
0.0000000001
 40
0.0
 40
0.0
 40
0.0
 40
0.0
 40
1.0
 40
1.0
 40
1.0
 40
1.0
 10
87.2976399566029
 20
176.7029034989749
 30
0.0
 10
87.20882170423424
 20
176.7029034989749
 30
0.0
 10
87.13682028451197
 20
176.6002953039393
 30
0.0
 10
87.13682028451197
 20
176.4737216808513
 30
0.0
  0
LINE
  5
109
330
B9
100
AcDbEntity
  8
Sichtbar (ISO)
 62
    18
420
        0
370
     5
100
AcDbLine
 10
88.58419733333027
 20
176.7029034989749
 30
0.0
 11
87.2976399566029
 21
176.7029034989749
 31
0.0
  0
LINE
  5
10A
330
B9
100
AcDbEntity
  8
Sichtbar (ISO)
 62
    18
420
        0
370
     5
100
AcDbLine
 10
90.51403339842165
 20
176.7029034989749
 30
0.0
 11
91.80059077514933
 21
176.7029034989749
 31
0.0
  0
SPLINE
  5
10B
330
B9
100
AcDbEntity
  8
Sichtbar (ISO)
 62
    18
420
        0
370
     5
100
AcDbSpline
210
0.0
220
0.0
230
1.0
 70
     8
 71
     3
 72
     8
 73
     4
 74
     0
 42
0.0000000001
 43
0.0000000001
 40
0.0
 40
0.0
 40
0.0
 40
0.0
 40
1.0
 40
1.0
 40
1.0
 40
1.0
 10
91.96141044724026
 20
176.4737216808513
 30
0.0
 10
91.96141044724026
 20
176.6002953039393
 30
0.0
 10
91.88940902751765
 20
176.7029034989749
 30
0.0
 10
91.80059077514933
 20
176.7029034989749
 30
0.0
  0
LINE
  5
10C
330
B9
100
AcDbEntity
  8
Sichtbar (ISO)
 62
    18
420
        0
370
     5
100
AcDbLine
 10
91.96141044724026
 20
176.4737216808513
 30
0.0
 11
91.96141044724026
 21
176.2789171354449
 31
0.0
  0
SPLINE
  5
10D
330
B9
100
AcDbEntity
  8
Sichtbar (ISO)
 62
    18
420
        0
370
     5
100
AcDbSpline
210
0.0
220
0.0
230
1.0
 70
     8
 71
     3
 72
     8
 73
     4
 74
     0
 42
0.0000000001
 43
0.0000000001
 40
0.0
 40
0.0
 40
0.0
 40
0.0
 40
1.0
 40
1.0
 40
1.0
 40
1.0
 10
91.80059077514933
 20
176.0497353173201
 30
0.0
 10
91.88940902751765
 20
176.0497353173201
 30
0.0
 10
91.96141044724026
 20
176.1523435123557
 30
0.0
 10
91.96141044724026
 20
176.2789171354449
 30
0.0
  0
LINE
  5
10E
330
B9
100
AcDbEntity
  8
Sichtbar (ISO)
 62
    18
420
        0
370
     5
100
AcDbLine
 10
91.80059077514933
 20
176.0497353173201
 30
0.0
 11
90.51403339842165
 21
176.0497353173201
 31
0.0
  0
LINE
  5
10F
330
B9
100
AcDbEntity
  8
Sichtbar (ISO)
 62
    18
420
        0
370
     5
100
AcDbLine
 10
87.2976399566029
 20
174.6746444085728
 30
0.0
 11
88.58419733333027
 21
174.6746444085728
 31
0.0
  0
SPLINE
  5
110
330
B9
100
AcDbEntity
  8
Sichtbar (ISO)
 62
    18
420
        0
370
     5
100
AcDbSpline
210
0.0
220
0.0
230
1.0
 70
     8
 71
     3
 72
     8
 73
     4
 74
     0
 42
0.0000000001
 43
0.0000000001
 40
0.0
 40
0.0
 40
0.0
 40
0.0
 40
1.0
 40
1.0
 40
1.0
 40
1.0
 10
87.13682028451197
 20
174.9038262266976
 30
0.0
 10
87.13682028451197
 20
174.7772526036087
 30
0.0
 10
87.20882170423424
 20
174.6746444085728
 30
0.0
 10
87.2976399566029
 20
174.6746444085728
 30
0.0
  0
LINE
  5
111
330
B9
100
AcDbEntity
  8
Sichtbar (ISO)
 62
    18
420
        0
370
     5
100
AcDbLine
 10
87.13682028451197
 20
175.0986307721028
 30
0.0
 11
87.13682028451197
 21
174.9038262266976
 31
0.0
  0
SPLINE
  5
112
330
B9
100
AcDbEntity
  8
Sichtbar (ISO)
 62
    18
420
        0
370
     5
100
AcDbSpline
210
0.0
220
0.0
230
1.0
 70
     8
 71
     3
 72
     8
 73
     4
 74
     0
 42
0.0000000001
 43
0.0000000001
 40
0.0
 40
0.0
 40
0.0
 40
0.0
 40
1.0
 40
1.0
 40
1.0
 40
1.0
 10
87.2976399566029
 20
175.3278125902279
 30
0.0
 10
87.20882170423424
 20
175.3278125902279
 30
0.0
 10
87.13682028451197
 20
175.2252043951926
 30
0.0
 10
87.13682028451197
 20
175.0986307721028
 30
0.0
  0
LINE
  5
113
330
B9
100
AcDbEntity
  8
Sichtbar (ISO)
 62
    18
420
        0
370
     5
100
AcDbLine
 10
88.58419733333027
 20
175.3278125902279
 30
0.0
 11
87.2976399566029
 21
175.3278125902279
 31
0.0
  0
LINE
  5
114
330
B9
100
AcDbEntity
  8
Sichtbar (ISO)
 62
    18
420
        0
370
     5
100
AcDbLine
 10
90.51403339842165
 20
175.3278125902279
 30
0.0
 11
91.80059077514933
 21
175.3278125902279
 31
0.0
  0
SPLINE
  5
115
330
B9
100
AcDbEntity
  8
Sichtbar (ISO)
 62
    18
420
        0
370
     5
100
AcDbSpline
210
0.0
220
0.0
230
1.0
 70
     8
 71
     3
 72
     8
 73
     4
 74
     0
 42
0.0000000001
 43
0.0000000001
 40
0.0
 40
0.0
 40
0.0
 40
0.0
 40
1.0
 40
1.0
 40
1.0
 40
1.0
 10
91.96141044724026
 20
175.0986307721028
 30
0.0
 10
91.96141044724026
 20
175.2252043951926
 30
0.0
 10
91.88940902751765
 20
175.3278125902279
 30
0.0
 10
91.80059077514933
 20
175.3278125902279
 30
0.0
  0
LINE
  5
116
330
B9
100
AcDbEntity
  8
Sichtbar (ISO)
 62
    18
420
        0
370
     5
100
AcDbLine
 10
91.96141044724026
 20
175.0986307721028
 30
0.0
 11
91.96141044724026
 21
174.9038262266976
 31
0.0
  0
SPLINE
  5
117
330
B9
100
AcDbEntity
  8
Sichtbar (ISO)
 62
    18
420
        0
370
     5
100
AcDbSpline
210
0.0
220
0.0
230
1.0
 70
     8
 71
     3
 72
     8
 73
     4
 74
     0
 42
0.0000000001
 43
0.0000000001
 40
0.0
 40
0.0
 40
0.0
 40
0.0
 40
1.0
 40
1.0
 40
1.0
 40
1.0
 10
91.80059077514933
 20
174.6746444085728
 30
0.0
 10
91.88940902751765
 20
174.6746444085728
 30
0.0
 10
91.96141044724026
 20
174.7772526036087
 30
0.0
 10
91.96141044724026
 20
174.9038262266976
 30
0.0
  0
LINE
  5
118
330
B9
100
AcDbEntity
  8
Sichtbar (ISO)
 62
    18
420
        0
370
     5
100
AcDbLine
 10
91.80059077514933
 20
174.6746444085728
 30
0.0
 11
90.51403339842165
 21
174.6746444085728
 31
0.0
  0
LINE
  5
119
330
B9
100
AcDbEntity
  8
Sichtbar (ISO)
 62
    18
420
        0
370
     5
100
AcDbLine
 10
87.2976399566029
 20
173.2995534998255
 30
0.0
 11
88.58419733333027
 21
173.2995534998255
 31
0.0
  0
SPLINE
  5
11A
330
B9
100
AcDbEntity
  8
Sichtbar (ISO)
 62
    18
420
        0
370
     5
100
AcDbSpline
210
0.0
220
0.0
230
1.0
 70
     8
 71
     3
 72
     8
 73
     4
 74
     0
 42
0.0000000001
 43
0.0000000001
 40
0.0
 40
0.0
 40
0.0
 40
0.0
 40
1.0
 40
1.0
 40
1.0
 40
1.0
 10
87.13682028451197
 20
173.5287353179503
 30
0.0
 10
87.13682028451197
 20
173.4021616948611
 30
0.0
 10
87.20882170423424
 20
173.2995534998255
 30
0.0
 10
87.2976399566029
 20
173.2995534998255
 30
0.0
  0
LINE
  5
11B
330
B9
100
AcDbEntity
  8
Sichtbar (ISO)
 62
    18
420
        0
370
     5
100
AcDbLine
 10
87.13682028451197
 20
173.7235398633564
 30
0.0
 11
87.13682028451197
 21
173.5287353179503
 31
0.0
  0
SPLINE
  5
11C
330
B9
100
AcDbEntity
  8
Sichtbar (ISO)
 62
    18
420
        0
370
     5
100
AcDbSpline
210
0.0
220
0.0
230
1.0
 70
     8
 71
     3
 72
     8
 73
     4
 74
     0
 42
0.0000000001
 43
0.0000000001
 40
0.0
 40
0.0
 40
0.0
 40
0.0
 40
1.0
 40
1.0
 40
1.0
 40
1.0
 10
87.2976399566029
 20
173.9527216814803
 30
0.0
 10
87.20882170423424
 20
173.9527216814803
 30
0.0
 10
87.13682028451197
 20
173.8501134864447
 30
0.0
 10
87.13682028451197
 20
173.7235398633564
 30
0.0
  0
LINE
  5
11D
330
B9
100
AcDbEntity
  8
Sichtbar (ISO)
 62
    18
420
        0
370
     5
100
AcDbLine
 10
88.58419733333027
 20
173.9527216814803
 30
0.0
 11
87.2976399566029
 21
173.9527216814803
 31
0.0
  0
LINE
  5
11E
330
B9
100
AcDbEntity
  8
Sichtbar (ISO)
 62
    18
420
        0
370
     5
100
AcDbLine
 10
90.51403339842165
 20
173.9527216814803
 30
0.0
 11
91.80059077514933
 21
173.9527216814803
 31
0.0
  0
SPLINE
  5
11F
330
B9
100
AcDbEntity
  8
Sichtbar (ISO)
 62
    18
420
        0
370
     5
100
AcDbSpline
210
0.0
220
0.0
230
1.0
 70
     8
 71
     3
 72
     8
 73
     4
 74
     0
 42
0.0000000001
 43
0.0000000001
 40
0.0
 40
0.0
 40
0.0
 40
0.0
 40
1.0
 40
1.0
 40
1.0
 40
1.0
 10
91.96141044724026
 20
173.7235398633564
 30
0.0
 10
91.96141044724026
 20
173.8501134864447
 30
0.0
 10
91.88940902751765
 20
173.9527216814803
 30
0.0
 10
91.80059077514933
 20
173.9527216814803
 30
0.0
  0
LINE
  5
120
330
B9
100
AcDbEntity
  8
Sichtbar (ISO)
 62
    18
420
        0
370
     5
100
AcDbLine
 10
91.96141044724026
 20
173.7235398633564
 30
0.0
 11
91.96141044724026
 21
173.5287353179503
 31
0.0
  0
SPLINE
  5
121
330
B9
100
AcDbEntity
  8
Sichtbar (ISO)
 62
    18
420
        0
370
     5
100
AcDbSpline
210
0.0
220
0.0
230
1.0
 70
     8
 71
     3
 72
     8
 73
     4
 74
     0
 42
0.0000000001
 43
0.0000000001
 40
0.0
 40
0.0
 40
0.0
 40
0.0
 40
1.0
 40
1.0
 40
1.0
 40
1.0
 10
91.80059077514933
 20
173.2995534998255
 30
0.0
 10
91.88940902751765
 20
173.2995534998255
 30
0.0
 10
91.96141044724026
 20
173.4021616948611
 30
0.0
 10
91.96141044724026
 20
173.5287353179503
 30
0.0
  0
LINE
  5
122
330
B9
100
AcDbEntity
  8
Sichtbar (ISO)
 62
    18
420
        0
370
     5
100
AcDbLine
 10
91.80059077514933
 20
173.2995534998255
 30
0.0
 11
90.51403339842165
 21
173.2995534998255
 31
0.0
  0
LINE
  5
123
330
B9
100
AcDbEntity
  8
Sichtbar (ISO)
 62
    18
420
        0
370
     5
100
AcDbLine
 10
104.8546252599992
 20
178.8801307711582
 30
0.0
 11
104.8546252599992
 21
179.3384944074075
 31
0.0
  0
LINE
  5
124
330
B9
100
AcDbEntity
  8
Sichtbar (ISO)
 62
    18
420
        0
370
     5
100
AcDbLine
 10
104.7465743784696
 20
178.8801307711582
 30
0.0
 11
104.7465743784696
 21
171.0879489549238
 31
0.0
  0
LINE
  5
125
330
B9
100
AcDbEntity
  8
Sichtbar (ISO)
 62
    18
420
        0
370
     5
100
AcDbLine
 10
105.563395870855
 20
178.8801307711582
 30
0.0
 11
105.563395870855
 21
171.0879489549238
 31
0.0
  0
LINE
  5
126
330
B9
100
AcDbEntity
  8
Sichtbar (ISO)
 62
    18
420
        0
370
     5
100
AcDbLine
 10
105.563395870855
 20
178.8801307711582
 30
0.0
 11
105.6126098671864
 21
178.8801307711582
 31
0.0
  0
LINE
  5
127
330
B9
100
AcDbEntity
  8
Sichtbar (ISO)
 62
    18
420
        0
370
     5
100
AcDbLine
 10
105.6126098671864
 20
180.2552216799048
 30
0.0
 11
105.6126098671864
 21
178.8801307711582
 31
0.0
  0
LINE
  5
128
330
B9
100
AcDbEntity
  8
Sichtbar (ISO)
 62
    18
420
        0
370
     5
100
AcDbLine
 10
104.9153992683671
 20
180.2552216799048
 30
0.0
 11
105.6126098671864
 21
180.2552216799048
 31
0.0
  0
LINE
  5
129
330
B9
100
AcDbEntity
  8
Sichtbar (ISO)
 62
    18
420
        0
370
     5
100
AcDbLine
 10
104.9153992683671
 20
180.2552216799048
 30
0.0
 11
104.9153992683671
 21
180.4844034980303
 31
0.0
  0
LINE
  5
12A
330
B9
100
AcDbEntity
  8
Sichtbar (ISO)
 62
    18
420
        0
370
     5
100
AcDbLine
 10
104.2641153621968
 20
178.8801307711582
 30
0.0
 11
104.2641153621968
 21
171.0879489549238
 31
0.0
  0
LINE
  5
12B
330
B9
100
AcDbEntity
  8
Sichtbar (ISO)
 62
    18
420
        0
370
     5
100
AcDbLine
 10
101.1200907728192
 20
172.153644409203
 30
0.0
 11
101.1200907728192
 21
171.9244625910785
 31
0.0
  0
LINE
  5
12C
330
B9
100
AcDbEntity
  8
Sichtbar (ISO)
 62
    18
420
        0
370
     5
100
AcDbLine
 10
101.1200907728192
 20
171.9244625910785
 30
0.0
 11
99.35911536342327
 21
171.9244625910785
 31
0.0
  0
SPLINE
  5
12D
330
B9
100
AcDbEntity
  8
Sichtbar (ISO)
 62
    18
420
        0
370
     5
100
AcDbSpline
210
0.0
220
0.0
230
1.0
 70
     8
 71
     3
 72
     8
 73
     4
 74
     0
 42
0.0000000001
 43
0.0000000001
 40
0.0
 40
0.0
 40
0.0
 40
0.0
 40
1.0
 40
1.0
 40
1.0
 40
1.0
 10
99.19829569133268
 20
172.153644409203
 30
0.0
 10
99.19829569133268
 20
172.0270707861141
 30
0.0
 10
99.27029711105495
 20
171.9244625910785
 30
0.0
 10
99.35911536342327
 20
171.9244625910785
 30
0.0
  0
LINE
  5
12E
330
B9
100
AcDbEntity
  8
Sichtbar (ISO)
 62
    18
420
        0
370
     5
100
AcDbLine
 10
99.19829569133268
 20
172.153644409203
 30
0.0
 11
99.19829569133268
 21
172.3484489546092
 31
0.0
  0
SPLINE
  5
12F
330
B9
100
AcDbEntity
  8
Sichtbar (ISO)
 62
    18
420
        0
370
     5
100
AcDbSpline
210
0.0
220
0.0
230
1.0
 70
     8
 71
     3
 72
     8
 73
     4
 74
     0
 42
0.0000000001
 43
0.0000000001
 40
0.0
 40
0.0
 40
0.0
 40
0.0
 40
1.0
 40
1.0
 40
1.0
 40
1.0
 10
99.35911536342327
 20
172.5776307727333
 30
0.0
 10
99.27029711105495
 20
172.5776307727333
 30
0.0
 10
99.19829569133268
 20
172.4750225776974
 30
0.0
 10
99.19829569133268
 20
172.3484489546092
 30
0.0
  0
LINE
  5
130
330
B9
100
AcDbEntity
  8
Sichtbar (ISO)
 62
    18
420
        0
370
     5
100
AcDbLine
 10
99.35911536342327
 20
172.5776307727333
 30
0.0
 11
101.1281317564234
 21
172.5776307727333
 31
0.0
  0
LINE
  5
131
330
B9
100
AcDbEntity
  8
Sichtbar (ISO)
 62
    18
420
        0
370
     5
100
AcDbLine
 10
101.1281317564234
 20
172.5776307727333
 30
0.0
 11
101.1281317564234
 21
172.8068125908578
 31
0.0
  0
LINE
  5
132
330
B9
100
AcDbEntity
  8
Sichtbar (ISO)
 62
    18
420
        0
370
     5
100
AcDbLine
 10
101.1281317564234
 20
172.8068125908578
 30
0.0
 11
102.0930497889696
 21
172.8068125908578
 31
0.0
  0
LINE
  5
133
330
B9
100
AcDbEntity
  8
Sichtbar (ISO)
 62
    18
420
        0
370
     5
100
AcDbLine
 10
102.0930497889696
 20
172.8068125908578
 30
0.0
 11
102.0930497889696
 21
172.5776307727333
 31
0.0
  0
LINE
  5
134
330
B9
100
AcDbEntity
  8
Sichtbar (ISO)
 62
    18
420
        0
370
     5
100
AcDbLine
 10
102.0930497889696
 20
172.5776307727333
 30
0.0
 11
103.8620661819694
 21
172.5776307727333
 31
0.0
  0
SPLINE
  5
135
330
B9
100
AcDbEntity
  8
Sichtbar (ISO)
 62
    18
420
        0
370
     5
100
AcDbSpline
210
0.0
220
0.0
230
1.0
 70
     8
 71
     3
 72
     8
 73
     4
 74
     0
 42
0.0000000001
 43
0.0000000001
 40
0.0
 40
0.0
 40
0.0
 40
0.0
 40
1.0
 40
1.0
 40
1.0
 40
1.0
 10
104.0228858540609
 20
172.3484489546092
 30
0.0
 10
104.0228858540609
 20
172.4750225776974
 30
0.0
 10
103.950884434338
 20
172.5776307727333
 30
0.0
 10
103.8620661819694
 20
172.5776307727333
 30
0.0
  0
LINE
  5
136
330
B9
100
AcDbEntity
  8
Sichtbar (ISO)
 62
    18
420
        0
370
     5
100
AcDbLine
 10
104.0228858540609
 20
172.3484489546092
 30
0.0
 11
104.0228858540609
 21
172.153644409203
 31
0.0
  0
SPLINE
  5
137
330
B9
100
AcDbEntity
  8
Sichtbar (ISO)
 62
    18
420
        0
370
     5
100
AcDbSpline
210
0.0
220
0.0
230
1.0
 70
     8
 71
     3
 72
     8
 73
     4
 74
     0
 42
0.0000000001
 43
0.0000000001
 40
0.0
 40
0.0
 40
0.0
 40
0.0
 40
1.0
 40
1.0
 40
1.0
 40
1.0
 10
103.8620661819694
 20
171.9244625910785
 30
0.0
 10
103.950884434338
 20
171.9244625910785
 30
0.0
 10
104.0228858540609
 20
172.0270707861141
 30
0.0
 10
104.0228858540609
 20
172.153644409203
 30
0.0
  0
LINE
  5
138
330
B9
100
AcDbEntity
  8
Sichtbar (ISO)
 62
    18
420
        0
370
     5
100
AcDbLine
 10
103.8620661819694
 20
171.9244625910785
 30
0.0
 11
102.1010907725741
 21
171.9244625910785
 31
0.0
  0
LINE
  5
139
330
B9
100
AcDbEntity
  8
Sichtbar (ISO)
 62
    18
420
        0
370
     5
100
AcDbLine
 10
102.1010907725741
 20
171.9244625910785
 30
0.0
 11
102.1010907725741
 21
172.153644409203
 31
0.0
  0
LINE
  5
13A
330
B9
100
AcDbEntity
  8
Sichtbar (ISO)
 62
    18
420
        0
370
     5
100
AcDbLine
 10
102.1010907725741
 20
172.153644409203
 30
0.0
 11
101.1200907728192
 21
172.153644409203
 31
0.0
  0
LINE
  5
13B
330
B9
100
AcDbEntity
  8
Sichtbar (ISO)
 62
    18
420
        0
370
     5
100
AcDbLine
 10
101.1200907728192
 20
173.5287353179503
 30
0.0
 11
101.1200907728192
 21
173.2995534998255
 31
0.0
  0
LINE
  5
13C
330
B9
100
AcDbEntity
  8
Sichtbar (ISO)
 62
    18
420
        0
370
     5
100
AcDbLine
 10
101.1200907728192
 20
173.2995534998255
 30
0.0
 11
99.35911536342327
 21
173.2995534998255
 31
0.0
  0
SPLINE
  5
13D
330
B9
100
AcDbEntity
  8
Sichtbar (ISO)
 62
    18
420
        0
370
     5
100
AcDbSpline
210
0.0
220
0.0
230
1.0
 70
     8
 71
     3
 72
     8
 73
     4
 74
     0
 42
0.0000000001
 43
0.0000000001
 40
0.0
 40
0.0
 40
0.0
 40
0.0
 40
1.0
 40
1.0
 40
1.0
 40
1.0
 10
99.19829569133268
 20
173.5287353179503
 30
0.0
 10
99.19829569133268
 20
173.4021616948611
 30
0.0
 10
99.27029711105495
 20
173.2995534998255
 30
0.0
 10
99.35911536342327
 20
173.2995534998255
 30
0.0
  0
LINE
  5
13E
330
B9
100
AcDbEntity
  8
Sichtbar (ISO)
 62
    18
420
        0
370
     5
100
AcDbLine
 10
99.19829569133268
 20
173.5287353179503
 30
0.0
 11
99.19829569133268
 21
173.7235398633564
 31
0.0
  0
SPLINE
  5
13F
330
B9
100
AcDbEntity
  8
Sichtbar (ISO)
 62
    18
420
        0
370
     5
100
AcDbSpline
210
0.0
220
0.0
230
1.0
 70
     8
 71
     3
 72
     8
 73
     4
 74
     0
 42
0.0000000001
 43
0.0000000001
 40
0.0
 40
0.0
 40
0.0
 40
0.0
 40
1.0
 40
1.0
 40
1.0
 40
1.0
 10
99.35911536342327
 20
173.9527216814803
 30
0.0
 10
99.27029711105495
 20
173.9527216814803
 30
0.0
 10
99.19829569133268
 20
173.8501134864447
 30
0.0
 10
99.19829569133268
 20
173.7235398633564
 30
0.0
  0
LINE
  5
140
330
B9
100
AcDbEntity
  8
Sichtbar (ISO)
 62
    18
420
        0
370
     5
100
AcDbLine
 10
99.35911536342327
 20
173.9527216814803
 30
0.0
 11
101.1281317564234
 21
173.9527216814803
 31
0.0
  0
LINE
  5
141
330
B9
100
AcDbEntity
  8
Sichtbar (ISO)
 62
    18
420
        0
370
     5
100
AcDbLine
 10
101.1281317564234
 20
173.9527216814803
 30
0.0
 11
101.1281317564234
 21
174.1819034996054
 31
0.0
  0
LINE
  5
142
330
B9
100
AcDbEntity
  8
Sichtbar (ISO)
 62
    18
420
        0
370
     5
100
AcDbLine
 10
101.1281317564234
 20
174.1819034996054
 30
0.0
 11
102.0930497889696
 21
174.1819034996054
 31
0.0
  0
LINE
  5
143
330
B9
100
AcDbEntity
  8
Sichtbar (ISO)
 62
    18
420
        0
370
     5
100
AcDbLine
 10
102.0930497889696
 20
174.1819034996054
 30
0.0
 11
102.0930497889696
 21
173.9527216814803
 31
0.0
  0
LINE
  5
144
330
B9
100
AcDbEntity
  8
Sichtbar (ISO)
 62
    18
420
        0
370
     5
100
AcDbLine
 10
102.0930497889696
 20
173.9527216814803
 30
0.0
 11
103.8620661819694
 21
173.9527216814803
 31
0.0
  0
SPLINE
  5
145
330
B9
100
AcDbEntity
  8
Sichtbar (ISO)
 62
    18
420
        0
370
     5
100
AcDbSpline
210
0.0
220
0.0
230
1.0
 70
     8
 71
     3
 72
     8
 73
     4
 74
     0
 42
0.0000000001
 43
0.0000000001
 40
0.0
 40
0.0
 40
0.0
 40
0.0
 40
1.0
 40
1.0
 40
1.0
 40
1.0
 10
104.0228858540609
 20
173.7235398633564
 30
0.0
 10
104.0228858540609
 20
173.8501134864447
 30
0.0
 10
103.950884434338
 20
173.9527216814803
 30
0.0
 10
103.8620661819694
 20
173.9527216814803
 30
0.0
  0
LINE
  5
146
330
B9
100
AcDbEntity
  8
Sichtbar (ISO)
 62
    18
420
        0
370
     5
100
AcDbLine
 10
104.0228858540609
 20
173.7235398633564
 30
0.0
 11
104.0228858540609
 21
173.5287353179503
 31
0.0
  0
SPLINE
  5
147
330
B9
100
AcDbEntity
  8
Sichtbar (ISO)
 62
    18
420
        0
370
     5
100
AcDbSpline
210
0.0
220
0.0
230
1.0
 70
     8
 71
     3
 72
     8
 73
     4
 74
     0
 42
0.0000000001
 43
0.0000000001
 40
0.0
 40
0.0
 40
0.0
 40
0.0
 40
1.0
 40
1.0
 40
1.0
 40
1.0
 10
103.8620661819694
 20
173.2995534998255
 30
0.0
 10
103.950884434338
 20
173.2995534998255
 30
0.0
 10
104.0228858540609
 20
173.4021616948611
 30
0.0
 10
104.0228858540609
 20
173.5287353179503
 30
0.0
  0
LINE
  5
148
330
B9
100
AcDbEntity
  8
Sichtbar (ISO)
 62
    18
420
        0
370
     5
100
AcDbLine
 10
103.8620661819694
 20
173.2995534998255
 30
0.0
 11
102.1010907725741
 21
173.2995534998255
 31
0.0
  0
LINE
  5
149
330
B9
100
AcDbEntity
  8
Sichtbar (ISO)
 62
    18
420
        0
370
     5
100
AcDbLine
 10
102.1010907725741
 20
173.2995534998255
 30
0.0
 11
102.1010907725741
 21
173.5287353179503
 31
0.0
  0
LINE
  5
14A
330
B9
100
AcDbEntity
  8
Sichtbar (ISO)
 62
    18
420
        0
370
     5
100
AcDbLine
 10
102.1010907725741
 20
173.5287353179503
 30
0.0
 11
101.1200907728192
 21
173.5287353179503
 31
0.0
  0
LINE
  5
14B
330
B9
100
AcDbEntity
  8
Sichtbar (ISO)
 62
    18
420
        0
370
     5
100
AcDbLine
 10
101.1200907728192
 20
174.9038262266976
 30
0.0
 11
101.1200907728192
 21
174.6746444085728
 31
0.0
  0
LINE
  5
14C
330
B9
100
AcDbEntity
  8
Sichtbar (ISO)
 62
    18
420
        0
370
     5
100
AcDbLine
 10
101.1200907728192
 20
174.6746444085728
 30
0.0
 11
99.35911536342327
 21
174.6746444085728
 31
0.0
  0
SPLINE
  5
14D
330
B9
100
AcDbEntity
  8
Sichtbar (ISO)
 62
    18
420
        0
370
     5
100
AcDbSpline
210
0.0
220
0.0
230
1.0
 70
     8
 71
     3
 72
     8
 73
     4
 74
     0
 42
0.0000000001
 43
0.0000000001
 40
0.0
 40
0.0
 40
0.0
 40
0.0
 40
1.0
 40
1.0
 40
1.0
 40
1.0
 10
99.19829569133268
 20
174.9038262266976
 30
0.0
 10
99.19829569133268
 20
174.7772526036087
 30
0.0
 10
99.27029711105495
 20
174.6746444085728
 30
0.0
 10
99.35911536342327
 20
174.6746444085728
 30
0.0
  0
LINE
  5
14E
330
B9
100
AcDbEntity
  8
Sichtbar (ISO)
 62
    18
420
        0
370
     5
100
AcDbLine
 10
99.19829569133268
 20
174.9038262266976
 30
0.0
 11
99.19829569133268
 21
175.0986307721028
 31
0.0
  0
SPLINE
  5
14F
330
B9
100
AcDbEntity
  8
Sichtbar (ISO)
 62
    18
420
        0
370
     5
100
AcDbSpline
210
0.0
220
0.0
230
1.0
 70
     8
 71
     3
 72
     8
 73
     4
 74
     0
 42
0.0000000001
 43
0.0000000001
 40
0.0
 40
0.0
 40
0.0
 40
0.0
 40
1.0
 40
1.0
 40
1.0
 40
1.0
 10
99.35911536342327
 20
175.3278125902279
 30
0.0
 10
99.27029711105495
 20
175.3278125902279
 30
0.0
 10
99.19829569133268
 20
175.2252043951926
 30
0.0
 10
99.19829569133268
 20
175.0986307721028
 30
0.0
  0
LINE
  5
150
330
B9
100
AcDbEntity
  8
Sichtbar (ISO)
 62
    18
420
        0
370
     5
100
AcDbLine
 10
99.35911536342327
 20
175.3278125902279
 30
0.0
 11
101.1281317564234
 21
175.3278125902279
 31
0.0
  0
LINE
  5
151
330
B9
100
AcDbEntity
  8
Sichtbar (ISO)
 62
    18
420
        0
370
     5
100
AcDbLine
 10
101.1281317564234
 20
175.3278125902279
 30
0.0
 11
101.1281317564234
 21
175.5569944083524
 31
0.0
  0
LINE
  5
152
330
B9
100
AcDbEntity
  8
Sichtbar (ISO)
 62
    18
420
        0
370
     5
100
AcDbLine
 10
101.1281317564234
 20
175.5569944083524
 30
0.0
 11
102.0930497889696
 21
175.5569944083524
 31
0.0
  0
LINE
  5
153
330
B9
100
AcDbEntity
  8
Sichtbar (ISO)
 62
    18
420
        0
370
     5
100
AcDbLine
 10
102.0930497889696
 20
175.5569944083524
 30
0.0
 11
102.0930497889696
 21
175.3278125902279
 31
0.0
  0
LINE
  5
154
330
B9
100
AcDbEntity
  8
Sichtbar (ISO)
 62
    18
420
        0
370
     5
100
AcDbLine
 10
102.0930497889696
 20
175.3278125902279
 30
0.0
 11
103.8620661819694
 21
175.3278125902279
 31
0.0
  0
SPLINE
  5
155
330
B9
100
AcDbEntity
  8
Sichtbar (ISO)
 62
    18
420
        0
370
     5
100
AcDbSpline
210
0.0
220
0.0
230
1.0
 70
     8
 71
     3
 72
     8
 73
     4
 74
     0
 42
0.0000000001
 43
0.0000000001
 40
0.0
 40
0.0
 40
0.0
 40
0.0
 40
1.0
 40
1.0
 40
1.0
 40
1.0
 10
104.0228858540609
 20
175.0986307721028
 30
0.0
 10
104.0228858540609
 20
175.2252043951926
 30
0.0
 10
103.950884434338
 20
175.3278125902279
 30
0.0
 10
103.8620661819694
 20
175.3278125902279
 30
0.0
  0
LINE
  5
156
330
B9
100
AcDbEntity
  8
Sichtbar (ISO)
 62
    18
420
        0
370
     5
100
AcDbLine
 10
104.0228858540609
 20
175.0986307721028
 30
0.0
 11
104.0228858540609
 21
174.9038262266976
 31
0.0
  0
SPLINE
  5
157
330
B9
100
AcDbEntity
  8
Sichtbar (ISO)
 62
    18
420
        0
370
     5
100
AcDbSpline
210
0.0
220
0.0
230
1.0
 70
     8
 71
     3
 72
     8
 73
     4
 74
     0
 42
0.0000000001
 43
0.0000000001
 40
0.0
 40
0.0
 40
0.0
 40
0.0
 40
1.0
 40
1.0
 40
1.0
 40
1.0
 10
103.8620661819694
 20
174.6746444085728
 30
0.0
 10
103.950884434338
 20
174.6746444085728
 30
0.0
 10
104.0228858540609
 20
174.7772526036087
 30
0.0
 10
104.0228858540609
 20
174.9038262266976
 30
0.0
  0
LINE
  5
158
330
B9
100
AcDbEntity
  8
Sichtbar (ISO)
 62
    18
420
        0
370
     5
100
AcDbLine
 10
103.8620661819694
 20
174.6746444085728
 30
0.0
 11
102.1010907725741
 21
174.6746444085728
 31
0.0
  0
LINE
  5
159
330
B9
100
AcDbEntity
  8
Sichtbar (ISO)
 62
    18
420
        0
370
     5
100
AcDbLine
 10
102.1010907725741
 20
174.6746444085728
 30
0.0
 11
102.1010907725741
 21
174.9038262266976
 31
0.0
  0
LINE
  5
15A
330
B9
100
AcDbEntity
  8
Sichtbar (ISO)
 62
    18
420
        0
370
     5
100
AcDbLine
 10
102.1010907725741
 20
174.9038262266976
 30
0.0
 11
101.1200907728192
 21
174.9038262266976
 31
0.0
  0
LINE
  5
15B
330
B9
100
AcDbEntity
  8
Sichtbar (ISO)
 62
    18
420
        0
370
     5
100
AcDbLine
 10
101.1200907728192
 20
176.2789171354449
 30
0.0
 11
101.1200907728192
 21
176.0497353173201
 31
0.0
  0
LINE
  5
15C
330
B9
100
AcDbEntity
  8
Sichtbar (ISO)
 62
    18
420
        0
370
     5
100
AcDbLine
 10
101.1200907728192
 20
176.0497353173201
 30
0.0
 11
99.35911536342327
 21
176.0497353173201
 31
0.0
  0
SPLINE
  5
15D
330
B9
100
AcDbEntity
  8
Sichtbar (ISO)
 62
    18
420
        0
370
     5
100
AcDbSpline
210
0.0
220
0.0
230
1.0
 70
     8
 71
     3
 72
     8
 73
     4
 74
     0
 42
0.0000000001
 43
0.0000000001
 40
0.0
 40
0.0
 40
0.0
 40
0.0
 40
1.0
 40
1.0
 40
1.0
 40
1.0
 10
99.19829569133268
 20
176.2789171354449
 30
0.0
 10
99.19829569133268
 20
176.1523435123557
 30
0.0
 10
99.27029711105495
 20
176.0497353173201
 30
0.0
 10
99.35911536342327
 20
176.0497353173201
 30
0.0
  0
LINE
  5
15E
330
B9
100
AcDbEntity
  8
Sichtbar (ISO)
 62
    18
420
        0
370
     5
100
AcDbLine
 10
99.19829569133268
 20
176.2789171354449
 30
0.0
 11
99.19829569133268
 21
176.4737216808513
 31
0.0
  0
SPLINE
  5
15F
330
B9
100
AcDbEntity
  8
Sichtbar (ISO)
 62
    18
420
        0
370
     5
100
AcDbSpline
210
0.0
220
0.0
230
1.0
 70
     8
 71
     3
 72
     8
 73
     4
 74
     0
 42
0.0000000001
 43
0.0000000001
 40
0.0
 40
0.0
 40
0.0
 40
0.0
 40
1.0
 40
1.0
 40
1.0
 40
1.0
 10
99.35911536342327
 20
176.7029034989749
 30
0.0
 10
99.27029711105495
 20
176.7029034989749
 30
0.0
 10
99.19829569133268
 20
176.6002953039393
 30
0.0
 10
99.19829569133268
 20
176.4737216808513
 30
0.0
  0
LINE
  5
160
330
B9
100
AcDbEntity
  8
Sichtbar (ISO)
 62
    18
420
        0
370
     5
100
AcDbLine
 10
99.35911536342327
 20
176.7029034989749
 30
0.0
 11
101.1281317564234
 21
176.7029034989749
 31
0.0
  0
LINE
  5
161
330
B9
100
AcDbEntity
  8
Sichtbar (ISO)
 62
    18
420
        0
370
     5
100
AcDbLine
 10
101.1281317564234
 20
176.7029034989749
 30
0.0
 11
101.1281317564234
 21
176.932085317099
 31
0.0
  0
LINE
  5
162
330
B9
100
AcDbEntity
  8
Sichtbar (ISO)
 62
    18
420
        0
370
     5
100
AcDbLine
 10
101.1281317564234
 20
176.932085317099
 30
0.0
 11
102.0930497889696
 21
176.932085317099
 31
0.0
  0
LINE
  5
163
330
B9
100
AcDbEntity
  8
Sichtbar (ISO)
 62
    18
420
        0
370
     5
100
AcDbLine
 10
102.0930497889696
 20
176.932085317099
 30
0.0
 11
102.0930497889696
 21
176.7029034989749
 31
0.0
  0
LINE
  5
164
330
B9
100
AcDbEntity
  8
Sichtbar (ISO)
 62
    18
420
        0
370
     5
100
AcDbLine
 10
102.0930497889696
 20
176.7029034989749
 30
0.0
 11
103.8620661819694
 21
176.7029034989749
 31
0.0
  0
SPLINE
  5
165
330
B9
100
AcDbEntity
  8
Sichtbar (ISO)
 62
    18
420
        0
370
     5
100
AcDbSpline
210
0.0
220
0.0
230
1.0
 70
     8
 71
     3
 72
     8
 73
     4
 74
     0
 42
0.0000000001
 43
0.0000000001
 40
0.0
 40
0.0
 40
0.0
 40
0.0
 40
1.0
 40
1.0
 40
1.0
 40
1.0
 10
104.0228858540609
 20
176.4737216808513
 30
0.0
 10
104.0228858540609
 20
176.6002953039393
 30
0.0
 10
103.950884434338
 20
176.7029034989749
 30
0.0
 10
103.8620661819694
 20
176.7029034989749
 30
0.0
  0
LINE
  5
166
330
B9
100
AcDbEntity
  8
Sichtbar (ISO)
 62
    18
420
        0
370
     5
100
AcDbLine
 10
104.0228858540609
 20
176.4737216808513
 30
0.0
 11
104.0228858540609
 21
176.2789171354449
 31
0.0
  0
SPLINE
  5
167
330
B9
100
AcDbEntity
  8
Sichtbar (ISO)
 62
    18
420
        0
370
     5
100
AcDbSpline
210
0.0
220
0.0
230
1.0
 70
     8
 71
     3
 72
     8
 73
     4
 74
     0
 42
0.0000000001
 43
0.0000000001
 40
0.0
 40
0.0
 40
0.0
 40
0.0
 40
1.0
 40
1.0
 40
1.0
 40
1.0
 10
103.8620661819694
 20
176.0497353173201
 30
0.0
 10
103.950884434338
 20
176.0497353173201
 30
0.0
 10
104.0228858540609
 20
176.1523435123557
 30
0.0
 10
104.0228858540609
 20
176.2789171354449
 30
0.0
  0
LINE
  5
168
330
B9
100
AcDbEntity
  8
Sichtbar (ISO)
 62
    18
420
        0
370
     5
100
AcDbLine
 10
103.8620661819694
 20
176.0497353173201
 30
0.0
 11
102.1010907725741
 21
176.0497353173201
 31
0.0
  0
LINE
  5
169
330
B9
100
AcDbEntity
  8
Sichtbar (ISO)
 62
    18
420
        0
370
     5
100
AcDbLine
 10
102.1010907725741
 20
176.0497353173201
 30
0.0
 11
102.1010907725741
 21
176.2789171354449
 31
0.0
  0
LINE
  5
16A
330
B9
100
AcDbEntity
  8
Sichtbar (ISO)
 62
    18
420
        0
370
     5
100
AcDbLine
 10
102.1010907725741
 20
176.2789171354449
 30
0.0
 11
101.1200907728192
 21
176.2789171354449
 31
0.0
  0
LINE
  5
16B
330
B9
100
AcDbEntity
  8
Sichtbar (ISO)
 62
    18
420
        0
370
     5
100
AcDbLine
 10
101.1200907728192
 20
177.424826226067
 30
0.0
 11
99.35911536342327
 21
177.424826226067
 31
0.0
  0
SPLINE
  5
16C
330
B9
100
AcDbEntity
  8
Sichtbar (ISO)
 62
    18
420
        0
370
     5
100
AcDbSpline
210
0.0
220
0.0
230
1.0
 70
     8
 71
     3
 72
     8
 73
     4
 74
     0
 42
0.0000000001
 43
0.0000000001
 40
0.0
 40
0.0
 40
0.0
 40
0.0
 40
1.0
 40
1.0
 40
1.0
 40
1.0
 10
99.19829569133268
 20
177.6540080441918
 30
0.0
 10
99.19829569133268
 20
177.5274344211036
 30
0.0
 10
99.27029711105495
 20
177.424826226068
 30
0.0
 10
99.35911536342327
 20
177.424826226068
 30
0.0
  0
LINE
  5
16D
330
B9
100
AcDbEntity
  8
Sichtbar (ISO)
 62
    18
420
        0
370
     5
100
AcDbLine
 10
99.19829569133268
 20
177.6540080441918
 30
0.0
 11
99.19829569133268
 21
177.8488125895973
 31
0.0
  0
SPLINE
  5
16E
330
B9
100
AcDbEntity
  8
Sichtbar (ISO)
 62
    18
420
        0
370
     5
100
AcDbSpline
210
0.0
220
0.0
230
1.0
 70
     8
 71
     3
 72
     8
 73
     4
 74
     0
 42
0.0000000001
 43
0.0000000001
 40
0.0
 40
0.0
 40
0.0
 40
0.0
 40
1.0
 40
1.0
 40
1.0
 40
1.0
 10
99.35911536342327
 20
178.0779944077218
 30
0.0
 10
99.27029711105495
 20
178.0779944077218
 30
0.0
 10
99.19829569133268
 20
177.9753862126862
 30
0.0
 10
99.19829569133268
 20
177.8488125895973
 30
0.0
  0
LINE
  5
16F
330
B9
100
AcDbEntity
  8
Sichtbar (ISO)
 62
    18
420
        0
370
     5
100
AcDbLine
 10
99.35911536342327
 20
178.0779944077218
 30
0.0
 11
101.1281317564234
 21
178.0779944077218
 31
0.0
  0
LINE
  5
170
330
B9
100
AcDbEntity
  8
Sichtbar (ISO)
 62
    18
420
        0
370
     5
100
AcDbLine
 10
101.1281317564234
 20
178.0779944077218
 30
0.0
 11
101.1281317564234
 21
178.307176225847
 31
0.0
  0
LINE
  5
171
330
B9
100
AcDbEntity
  8
Sichtbar (ISO)
 62
    18
420
        0
370
     5
100
AcDbLine
 10
101.1281317564234
 20
178.307176225847
 30
0.0
 11
102.0930497889696
 21
178.307176225847
 31
0.0
  0
LINE
  5
172
330
B9
100
AcDbEntity
  8
Sichtbar (ISO)
 62
    18
420
        0
370
     5
100
AcDbLine
 10
102.0930497889696
 20
178.307176225847
 30
0.0
 11
102.0930497889696
 21
178.0779944077218
 31
0.0
  0
LINE
  5
173
330
B9
100
AcDbEntity
  8
Sichtbar (ISO)
 62
    18
420
        0
370
     5
100
AcDbLine
 10
102.0930497889696
 20
178.0779944077218
 30
0.0
 11
103.8620661819694
 21
178.0779944077218
 31
0.0
  0
SPLINE
  5
174
330
B9
100
AcDbEntity
  8
Sichtbar (ISO)
 62
    18
420
        0
370
     5
100
AcDbSpline
210
0.0
220
0.0
230
1.0
 70
     8
 71
     3
 72
     8
 73
     4
 74
     0
 42
0.0000000001
 43
0.0000000001
 40
0.0
 40
0.0
 40
0.0
 40
0.0
 40
1.0
 40
1.0
 40
1.0
 40
1.0
 10
104.0228858540609
 20
177.8488125895973
 30
0.0
 10
104.0228858540609
 20
177.9753862126862
 30
0.0
 10
103.950884434338
 20
178.0779944077218
 30
0.0
 10
103.8620661819694
 20
178.0779944077218
 30
0.0
  0
LINE
  5
175
330
B9
100
AcDbEntity
  8
Sichtbar (ISO)
 62
    18
420
        0
370
     5
100
AcDbLine
 10
104.0228858540609
 20
177.8488125895973
 30
0.0
 11
104.0228858540609
 21
177.6540080441918
 31
0.0
  0
SPLINE
  5
176
330
B9
100
AcDbEntity
  8
Sichtbar (ISO)
 62
    18
420
        0
370
     5
100
AcDbSpline
210
0.0
220
0.0
230
1.0
 70
     8
 71
     3
 72
     8
 73
     4
 74
     0
 42
0.0000000001
 43
0.0000000001
 40
0.0
 40
0.0
 40
0.0
 40
0.0
 40
1.0
 40
1.0
 40
1.0
 40
1.0
 10
103.8620661819694
 20
177.424826226068
 30
0.0
 10
103.950884434338
 20
177.424826226068
 30
0.0
 10
104.0228858540609
 20
177.5274344211036
 30
0.0
 10
104.0228858540609
 20
177.6540080441918
 30
0.0
  0
LINE
  5
177
330
B9
100
AcDbEntity
  8
Sichtbar (ISO)
 62
    18
420
        0
370
     5
100
AcDbLine
 10
103.8620661819694
 20
177.424826226067
 30
0.0
 11
102.1010907725741
 21
177.424826226067
 31
0.0
  0
LINE
  5
178
330
B9
100
AcDbEntity
  8
Sichtbar (ISO)
 62
    18
420
        0
370
     5
100
AcDbLine
 10
102.1010907725741
 20
177.424826226067
 30
0.0
 11
102.1010907725741
 21
177.6540080441918
 31
0.0
  0
LINE
  5
179
330
B9
100
AcDbEntity
  8
Sichtbar (ISO)
 62
    18
420
        0
370
     5
100
AcDbLine
 10
102.1010907725741
 20
177.6540080441918
 30
0.0
 11
101.1200907728192
 21
177.6540080441918
 31
0.0
  0
LINE
  5
17A
330
B9
100
AcDbEntity
  8
Sichtbar (ISO)
 62
    18
420
        0
370
     5
100
AcDbLine
 10
101.1200907728192
 20
177.6540080441918
 30
0.0
 11
101.1200907728192
 21
177.424826226067
 31
0.0
  0
LINE
  5
17B
330
B9
100
AcDbEntity
  8
Sichtbar (ISO)
 62
    18
420
        0
370
     5
100
AcDbLine
 10
95.90149241346798
 20
174.0214762269186
 30
0.0
 11
96.7055907739229
 21
174.0214762269186
 31
0.0
  0
LINE
  5
17C
330
B9
100
AcDbEntity
  8
Sichtbar (ISO)
 62
    18
420
        0
370
     5
100
AcDbLine
 10
96.7055907739229
 20
172.188021681921
 30
0.0
 11
95.90149241346798
 21
172.188021681921
 31
0.0
  0
LINE
  5
17D
330
B9
100
AcDbEntity
  8
Sichtbar (ISO)
 62
    18
420
        0
370
     5
100
AcDbLine
 10
82.39263995782899
 20
172.188021681921
 30
0.0
 11
83.19673831828392
 21
172.188021681921
 31
0.0
  0
LINE
  5
17E
330
B9
100
AcDbEntity
  8
Sichtbar (ISO)
 62
    18
420
        0
370
     5
100
AcDbLine
 10
83.19673831828392
 20
174.0214762269186
 30
0.0
 11
82.39263995782899
 21
174.0214762269186
 31
0.0
  0
LINE
  5
17F
330
B9
100
AcDbEntity
  8
Sichtbar (ISO)
 62
    18
420
        0
370
     5
100
AcDbLine
 10
74.83411536955505
 20
178.8801307711582
 30
0.0
 11
74.83411536955505
 21
171.0879489549238
 31
0.0
  0
LINE
  5
180
330
B9
100
AcDbEntity
  8
Sichtbar (ISO)
 62
    18
420
        0
370
     5
100
AcDbLine
 10
77.97813995893303
 20
177.424826226067
 30
0.0
 11
79.73911536832862
 21
177.424826226067
 31
0.0
  0
LINE
  5
181
330
B9
100
AcDbEntity
  8
Sichtbar (ISO)
 62
    18
420
        0
370
     5
100
AcDbLine
 10
77.97813995893303
 20
177.6540080441918
 30
0.0
 11
77.97813995893303
 21
177.424826226067
 31
0.0
  0
LINE
  5
182
330
B9
100
AcDbEntity
  8
Sichtbar (ISO)
 62
    18
420
        0
370
     5
100
AcDbLine
 10
76.99713995917811
 20
177.6540080441918
 30
0.0
 11
77.97813995893303
 21
177.6540080441918
 31
0.0
  0
LINE
  5
183
330
B9
100
AcDbEntity
  8
Sichtbar (ISO)
 62
    18
420
        0
370
     5
100
AcDbLine
 10
76.99713995917811
 20
177.424826226067
 30
0.0
 11
76.99713995917811
 21
177.6540080441918
 31
0.0
  0
LINE
  5
184
330
B9
100
AcDbEntity
  8
Sichtbar (ISO)
 62
    18
420
        0
370
     5
100
AcDbLine
 10
75.23616454978219
 20
177.424826226067
 30
0.0
 11
76.99713995917811
 21
177.424826226067
 31
0.0
  0
SPLINE
  5
185
330
B9
100
AcDbEntity
  8
Sichtbar (ISO)
 62
    18
420
        0
370
     5
100
AcDbSpline
210
0.0
220
0.0
230
1.0
 70
     8
 71
     3
 72
     8
 73
     4
 74
     0
 42
0.0000000001
 43
0.0000000001
 40
0.0
 40
0.0
 40
0.0
 40
0.0
 40
1.0
 40
1.0
 40
1.0
 40
1.0
 10
75.07534487769127
 20
177.6540080441918
 30
0.0
 10
75.07534487769127
 20
177.5274344211036
 30
0.0
 10
75.14734629741353
 20
177.424826226068
 30
0.0
 10
75.23616454978219
 20
177.424826226068
 30
0.0
  0
LINE
  5
186
330
B9
100
AcDbEntity
  8
Sichtbar (ISO)
 62
    18
420
        0
370
     5
100
AcDbLine
 10
75.07534487769127
 20
177.8488125895973
 30
0.0
 11
75.07534487769127
 21
177.6540080441918
 31
0.0
  0
SPLINE
  5
187
330
B9
100
AcDbEntity
  8
Sichtbar (ISO)
 62
    18
420
        0
370
     5
100
AcDbSpline
210
0.0
220
0.0
230
1.0
 70
     8
 71
     3
 72
     8
 73
     4
 74
     0
 42
0.0000000001
 43
0.0000000001
 40
0.0
 40
0.0
 40
0.0
 40
0.0
 40
1.0
 40
1.0
 40
1.0
 40
1.0
 10
75.23616454978219
 20
178.0779944077218
 30
0.0
 10
75.14734629741353
 20
178.0779944077218
 30
0.0
 10
75.07534487769127
 20
177.9753862126862
 30
0.0
 10
75.07534487769127
 20
177.8488125895973
 30
0.0
  0
LINE
  5
188
330
B9
100
AcDbEntity
  8
Sichtbar (ISO)
 62
    18
420
        0
370
     5
100
AcDbLine
 10
77.00518094278232
 20
178.0779944077218
 30
0.0
 11
75.23616454978219
 21
178.0779944077218
 31
0.0
  0
LINE
  5
189
330
B9
100
AcDbEntity
  8
Sichtbar (ISO)
 62
    18
420
        0
370
     5
100
AcDbLine
 10
77.00518094278232
 20
178.307176225847
 30
0.0
 11
77.00518094278232
 21
178.0779944077218
 31
0.0
  0
LINE
  5
18A
330
B9
100
AcDbEntity
  8
Sichtbar (ISO)
 62
    18
420
        0
370
     5
100
AcDbLine
 10
77.97009897532817
 20
178.307176225847
 30
0.0
 11
77.00518094278232
 21
178.307176225847
 31
0.0
  0
LINE
  5
18B
330
B9
100
AcDbEntity
  8
Sichtbar (ISO)
 62
    18
420
        0
370
     5
100
AcDbLine
 10
77.97009897532817
 20
178.0779944077218
 30
0.0
 11
77.97009897532817
 21
178.307176225847
 31
0.0
  0
LINE
  5
18C
330
B9
100
AcDbEntity
  8
Sichtbar (ISO)
 62
    18
420
        0
370
     5
100
AcDbLine
 10
79.73911536832862
 20
178.0779944077218
 30
0.0
 11
77.97009897532817
 21
178.0779944077218
 31
0.0
  0
SPLINE
  5
18D
330
B9
100
AcDbEntity
  8
Sichtbar (ISO)
 62
    18
420
        0
370
     5
100
AcDbSpline
210
0.0
220
0.0
230
1.0
 70
     8
 71
     3
 72
     8
 73
     4
 74
     0
 42
0.0000000001
 43
0.0000000001
 40
0.0
 40
0.0
 40
0.0
 40
0.0
 40
1.0
 40
1.0
 40
1.0
 40
1.0
 10
79.89993504041986
 20
177.8488125895973
 30
0.0
 10
79.89993504041986
 20
177.9753862126862
 30
0.0
 10
79.82793362069696
 20
178.0779944077218
 30
0.0
 10
79.73911536832862
 20
178.0779944077218
 30
0.0
  0
LINE
  5
18E
330
B9
100
AcDbEntity
  8
Sichtbar (ISO)
 62
    18
420
        0
370
     5
100
AcDbLine
 10
79.89993504041986
 20
177.6540080441918
 30
0.0
 11
79.89993504041986
 21
177.8488125895973
 31
0.0
  0
SPLINE
  5
18F
330
B9
100
AcDbEntity
  8
Sichtbar (ISO)
 62
    18
420
        0
370
     5
100
AcDbSpline
210
0.0
220
0.0
230
1.0
 70
     8
 71
     3
 72
     8
 73
     4
 74
     0
 42
0.0000000001
 43
0.0000000001
 40
0.0
 40
0.0
 40
0.0
 40
0.0
 40
1.0
 40
1.0
 40
1.0
 40
1.0
 10
79.73911536832862
 20
177.424826226068
 30
0.0
 10
79.82793362069696
 20
177.424826226068
 30
0.0
 10
79.89993504041986
 20
177.5274344211036
 30
0.0
 10
79.89993504041986
 20
177.6540080441918
 30
0.0
  0
LINE
  5
190
330
B9
100
AcDbEntity
  8
Sichtbar (ISO)
 62
    18
420
        0
370
     5
100
AcDbLine
 10
77.97813995893303
 20
176.2789171354449
 30
0.0
 11
77.97813995893303
 21
176.0497353173201
 31
0.0
  0
LINE
  5
191
330
B9
100
AcDbEntity
  8
Sichtbar (ISO)
 62
    18
420
        0
370
     5
100
AcDbLine
 10
76.99713995917811
 20
176.2789171354449
 30
0.0
 11
77.97813995893303
 21
176.2789171354449
 31
0.0
  0
LINE
  5
192
330
B9
100
AcDbEntity
  8
Sichtbar (ISO)
 62
    18
420
        0
370
     5
100
AcDbLine
 10
76.99713995917811
 20
176.0497353173201
 30
0.0
 11
76.99713995917811
 21
176.2789171354449
 31
0.0
  0
LINE
  5
193
330
B9
100
AcDbEntity
  8
Sichtbar (ISO)
 62
    18
420
        0
370
     5
100
AcDbLine
 10
75.23616454978219
 20
176.0497353173201
 30
0.0
 11
76.99713995917811
 21
176.0497353173201
 31
0.0
  0
SPLINE
  5
194
330
B9
100
AcDbEntity
  8
Sichtbar (ISO)
 62
    18
420
        0
370
     5
100
AcDbSpline
210
0.0
220
0.0
230
1.0
 70
     8
 71
     3
 72
     8
 73
     4
 74
     0
 42
0.0000000001
 43
0.0000000001
 40
0.0
 40
0.0
 40
0.0
 40
0.0
 40
1.0
 40
1.0
 40
1.0
 40
1.0
 10
75.07534487769127
 20
176.2789171354449
 30
0.0
 10
75.07534487769127
 20
176.1523435123557
 30
0.0
 10
75.14734629741353
 20
176.0497353173201
 30
0.0
 10
75.23616454978219
 20
176.0497353173201
 30
0.0
  0
LINE
  5
195
330
B9
100
AcDbEntity
  8
Sichtbar (ISO)
 62
    18
420
        0
370
     5
100
AcDbLine
 10
75.07534487769127
 20
176.4737216808513
 30
0.0
 11
75.07534487769127
 21
176.2789171354449
 31
0.0
  0
SPLINE
  5
196
330
B9
100
AcDbEntity
  8
Sichtbar (ISO)
 62
    18
420
        0
370
     5
100
AcDbSpline
210
0.0
220
0.0
230
1.0
 70
     8
 71
     3
 72
     8
 73
     4
 74
     0
 42
0.0000000001
 43
0.0000000001
 40
0.0
 40
0.0
 40
0.0
 40
0.0
 40
1.0
 40
1.0
 40
1.0
 40
1.0
 10
75.23616454978219
 20
176.7029034989749
 30
0.0
 10
75.14734629741353
 20
176.7029034989749
 30
0.0
 10
75.07534487769127
 20
176.6002953039393
 30
0.0
 10
75.07534487769127
 20
176.4737216808513
 30
0.0
  0
LINE
  5
197
330
B9
100
AcDbEntity
  8
Sichtbar (ISO)
 62
    18
420
        0
370
     5
100
AcDbLine
 10
77.00518094278232
 20
176.7029034989749
 30
0.0
 11
75.23616454978219
 21
176.7029034989749
 31
0.0
  0
LINE
  5
198
330
B9
100
AcDbEntity
  8
Sichtbar (ISO)
 62
    18
420
        0
370
     5
100
AcDbLine
 10
77.00518094278232
 20
176.932085317099
 30
0.0
 11
77.00518094278232
 21
176.7029034989749
 31
0.0
  0
LINE
  5
199
330
B9
100
AcDbEntity
  8
Sichtbar (ISO)
 62
    18
420
        0
370
     5
100
AcDbLine
 10
77.97009897532817
 20
176.932085317099
 30
0.0
 11
77.00518094278232
 21
176.932085317099
 31
0.0
  0
LINE
  5
19A
330
B9
100
AcDbEntity
  8
Sichtbar (ISO)
 62
    18
420
        0
370
     5
100
AcDbLine
 10
77.97009897532817
 20
176.7029034989749
 30
0.0
 11
77.97009897532817
 21
176.932085317099
 31
0.0
  0
LINE
  5
19B
330
B9
100
AcDbEntity
  8
Sichtbar (ISO)
 62
    18
420
        0
370
     5
100
AcDbLine
 10
79.73911536832862
 20
176.7029034989749
 30
0.0
 11
77.97009897532817
 21
176.7029034989749
 31
0.0
  0
SPLINE
  5
19C
330
B9
100
AcDbEntity
  8
Sichtbar (ISO)
 62
    18
420
        0
370
     5
100
AcDbSpline
210
0.0
220
0.0
230
1.0
 70
     8
 71
     3
 72
     8
 73
     4
 74
     0
 42
0.0000000001
 43
0.0000000001
 40
0.0
 40
0.0
 40
0.0
 40
0.0
 40
1.0
 40
1.0
 40
1.0
 40
1.0
 10
79.89993504041986
 20
176.4737216808513
 30
0.0
 10
79.89993504041986
 20
176.6002953039393
 30
0.0
 10
79.82793362069696
 20
176.7029034989749
 30
0.0
 10
79.73911536832862
 20
176.7029034989749
 30
0.0
  0
LINE
  5
19D
330
B9
100
AcDbEntity
  8
Sichtbar (ISO)
 62
    18
420
        0
370
     5
100
AcDbLine
 10
79.89993504041986
 20
176.2789171354449
 30
0.0
 11
79.89993504041986
 21
176.4737216808513
 31
0.0
  0
SPLINE
  5
19E
330
B9
100
AcDbEntity
  8
Sichtbar (ISO)
 62
    18
420
        0
370
     5
100
AcDbSpline
210
0.0
220
0.0
230
1.0
 70
     8
 71
     3
 72
     8
 73
     4
 74
     0
 42
0.0000000001
 43
0.0000000001
 40
0.0
 40
0.0
 40
0.0
 40
0.0
 40
1.0
 40
1.0
 40
1.0
 40
1.0
 10
79.73911536832862
 20
176.0497353173201
 30
0.0
 10
79.82793362069696
 20
176.0497353173201
 30
0.0
 10
79.89993504041986
 20
176.1523435123557
 30
0.0
 10
79.89993504041986
 20
176.2789171354449
 30
0.0
  0
LINE
  5
19F
330
B9
100
AcDbEntity
  8
Sichtbar (ISO)
 62
    18
420
        0
370
     5
100
AcDbLine
 10
77.97813995893303
 20
176.0497353173201
 30
0.0
 11
79.73911536832862
 21
176.0497353173201
 31
0.0
  0
LINE
  5
1A0
330
B9
100
AcDbEntity
  8
Sichtbar (ISO)
 62
    18
420
        0
370
     5
100
AcDbLine
 10
77.97813995893303
 20
174.9038262266976
 30
0.0
 11
77.97813995893303
 21
174.6746444085728
 31
0.0
  0
LINE
  5
1A1
330
B9
100
AcDbEntity
  8
Sichtbar (ISO)
 62
    18
420
        0
370
     5
100
AcDbLine
 10
76.99713995917811
 20
174.9038262266976
 30
0.0
 11
77.97813995893303
 21
174.9038262266976
 31
0.0
  0
LINE
  5
1A2
330
B9
100
AcDbEntity
  8
Sichtbar (ISO)
 62
    18
420
        0
370
     5
100
AcDbLine
 10
76.99713995917811
 20
174.6746444085728
 30
0.0
 11
76.99713995917811
 21
174.9038262266976
 31
0.0
  0
LINE
  5
1A3
330
B9
100
AcDbEntity
  8
Sichtbar (ISO)
 62
    18
420
        0
370
     5
100
AcDbLine
 10
75.23616454978219
 20
174.6746444085728
 30
0.0
 11
76.99713995917811
 21
174.6746444085728
 31
0.0
  0
SPLINE
  5
1A4
330
B9
100
AcDbEntity
  8
Sichtbar (ISO)
 62
    18
420
        0
370
     5
100
AcDbSpline
210
0.0
220
0.0
230
1.0
 70
     8
 71
     3
 72
     8
 73
     4
 74
     0
 42
0.0000000001
 43
0.0000000001
 40
0.0
 40
0.0
 40
0.0
 40
0.0
 40
1.0
 40
1.0
 40
1.0
 40
1.0
 10
75.07534487769127
 20
174.9038262266976
 30
0.0
 10
75.07534487769127
 20
174.7772526036087
 30
0.0
 10
75.14734629741353
 20
174.6746444085728
 30
0.0
 10
75.23616454978219
 20
174.6746444085728
 30
0.0
  0
LINE
  5
1A5
330
B9
100
AcDbEntity
  8
Sichtbar (ISO)
 62
    18
420
        0
370
     5
100
AcDbLine
 10
75.07534487769127
 20
175.0986307721028
 30
0.0
 11
75.07534487769127
 21
174.9038262266976
 31
0.0
  0
SPLINE
  5
1A6
330
B9
100
AcDbEntity
  8
Sichtbar (ISO)
 62
    18
420
        0
370
     5
100
AcDbSpline
210
0.0
220
0.0
230
1.0
 70
     8
 71
     3
 72
     8
 73
     4
 74
     0
 42
0.0000000001
 43
0.0000000001
 40
0.0
 40
0.0
 40
0.0
 40
0.0
 40
1.0
 40
1.0
 40
1.0
 40
1.0
 10
75.23616454978219
 20
175.3278125902279
 30
0.0
 10
75.14734629741353
 20
175.3278125902279
 30
0.0
 10
75.07534487769127
 20
175.2252043951926
 30
0.0
 10
75.07534487769127
 20
175.0986307721028
 30
0.0
  0
LINE
  5
1A7
330
B9
100
AcDbEntity
  8
Sichtbar (ISO)
 62
    18
420
        0
370
     5
100
AcDbLine
 10
77.00518094278232
 20
175.3278125902279
 30
0.0
 11
75.23616454978219
 21
175.3278125902279
 31
0.0
  0
LINE
  5
1A8
330
B9
100
AcDbEntity
  8
Sichtbar (ISO)
 62
    18
420
        0
370
     5
100
AcDbLine
 10
77.00518094278232
 20
175.5569944083524
 30
0.0
 11
77.00518094278232
 21
175.3278125902279
 31
0.0
  0
LINE
  5
1A9
330
B9
100
AcDbEntity
  8
Sichtbar (ISO)
 62
    18
420
        0
370
     5
100
AcDbLine
 10
77.97009897532817
 20
175.5569944083524
 30
0.0
 11
77.00518094278232
 21
175.5569944083524
 31
0.0
  0
LINE
  5
1AA
330
B9
100
AcDbEntity
  8
Sichtbar (ISO)
 62
    18
420
        0
370
     5
100
AcDbLine
 10
77.97009897532817
 20
175.3278125902279
 30
0.0
 11
77.97009897532817
 21
175.5569944083524
 31
0.0
  0
LINE
  5
1AB
330
B9
100
AcDbEntity
  8
Sichtbar (ISO)
 62
    18
420
        0
370
     5
100
AcDbLine
 10
79.73911536832862
 20
175.3278125902279
 30
0.0
 11
77.97009897532817
 21
175.3278125902279
 31
0.0
  0
SPLINE
  5
1AC
330
B9
100
AcDbEntity
  8
Sichtbar (ISO)
 62
    18
420
        0
370
     5
100
AcDbSpline
210
0.0
220
0.0
230
1.0
 70
     8
 71
     3
 72
     8
 73
     4
 74
     0
 42
0.0000000001
 43
0.0000000001
 40
0.0
 40
0.0
 40
0.0
 40
0.0
 40
1.0
 40
1.0
 40
1.0
 40
1.0
 10
79.89993504041986
 20
175.0986307721028
 30
0.0
 10
79.89993504041986
 20
175.2252043951926
 30
0.0
 10
79.82793362069696
 20
175.3278125902279
 30
0.0
 10
79.73911536832862
 20
175.3278125902279
 30
0.0
  0
LINE
  5
1AD
330
B9
100
AcDbEntity
  8
Sichtbar (ISO)
 62
    18
420
        0
370
     5
100
AcDbLine
 10
79.89993504041986
 20
174.9038262266976
 30
0.0
 11
79.89993504041986
 21
175.0986307721028
 31
0.0
  0
SPLINE
  5
1AE
330
B9
100
AcDbEntity
  8
Sichtbar (ISO)
 62
    18
420
        0
370
     5
100
AcDbSpline
210
0.0
220
0.0
230
1.0
 70
     8
 71
     3
 72
     8
 73
     4
 74
     0
 42
0.0000000001
 43
0.0000000001
 40
0.0
 40
0.0
 40
0.0
 40
0.0
 40
1.0
 40
1.0
 40
1.0
 40
1.0
 10
79.73911536832862
 20
174.6746444085728
 30
0.0
 10
79.82793362069728
 20
174.6746444085728
 30
0.0
 10
79.89993504041986
 20
174.7772526036087
 30
0.0
 10
79.89993504041986
 20
174.9038262266976
 30
0.0
  0
LINE
  5
1AF
330
B9
100
AcDbEntity
  8
Sichtbar (ISO)
 62
    18
420
        0
370
     5
100
AcDbLine
 10
77.97813995893303
 20
174.6746444085728
 30
0.0
 11
79.73911536832862
 21
174.6746444085728
 31
0.0
  0
LINE
  5
1B0
330
B9
100
AcDbEntity
  8
Sichtbar (ISO)
 62
    18
420
        0
370
     5
100
AcDbLine
 10
77.97813995893303
 20
173.5287353179503
 30
0.0
 11
77.97813995893303
 21
173.2995534998255
 31
0.0
  0
LINE
  5
1B1
330
B9
100
AcDbEntity
  8
Sichtbar (ISO)
 62
    18
420
        0
370
     5
100
AcDbLine
 10
76.99713995917811
 20
173.5287353179503
 30
0.0
 11
77.97813995893303
 21
173.5287353179503
 31
0.0
  0
LINE
  5
1B2
330
B9
100
AcDbEntity
  8
Sichtbar (ISO)
 62
    18
420
        0
370
     5
100
AcDbLine
 10
76.99713995917811
 20
173.2995534998255
 30
0.0
 11
76.99713995917811
 21
173.5287353179503
 31
0.0
  0
LINE
  5
1B3
330
B9
100
AcDbEntity
  8
Sichtbar (ISO)
 62
    18
420
        0
370
     5
100
AcDbLine
 10
75.23616454978219
 20
173.2995534998255
 30
0.0
 11
76.99713995917811
 21
173.2995534998255
 31
0.0
  0
SPLINE
  5
1B4
330
B9
100
AcDbEntity
  8
Sichtbar (ISO)
 62
    18
420
        0
370
     5
100
AcDbSpline
210
0.0
220
0.0
230
1.0
 70
     8
 71
     3
 72
     8
 73
     4
 74
     0
 42
0.0000000001
 43
0.0000000001
 40
0.0
 40
0.0
 40
0.0
 40
0.0
 40
1.0
 40
1.0
 40
1.0
 40
1.0
 10
75.07534487769127
 20
173.5287353179503
 30
0.0
 10
75.07534487769127
 20
173.4021616948611
 30
0.0
 10
75.14734629741353
 20
173.2995534998255
 30
0.0
 10
75.23616454978219
 20
173.2995534998255
 30
0.0
  0
LINE
  5
1B5
330
B9
100
AcDbEntity
  8
Sichtbar (ISO)
 62
    18
420
        0
370
     5
100
AcDbLine
 10
75.07534487769127
 20
173.7235398633564
 30
0.0
 11
75.07534487769127
 21
173.5287353179503
 31
0.0
  0
SPLINE
  5
1B6
330
B9
100
AcDbEntity
  8
Sichtbar (ISO)
 62
    18
420
        0
370
     5
100
AcDbSpline
210
0.0
220
0.0
230
1.0
 70
     8
 71
     3
 72
     8
 73
     4
 74
     0
 42
0.0000000001
 43
0.0000000001
 40
0.0
 40
0.0
 40
0.0
 40
0.0
 40
1.0
 40
1.0
 40
1.0
 40
1.0
 10
75.23616454978219
 20
173.9527216814803
 30
0.0
 10
75.14734629741353
 20
173.9527216814803
 30
0.0
 10
75.07534487769127
 20
173.8501134864447
 30
0.0
 10
75.07534487769127
 20
173.7235398633564
 30
0.0
  0
LINE
  5
1B7
330
B9
100
AcDbEntity
  8
Sichtbar (ISO)
 62
    18
420
        0
370
     5
100
AcDbLine
 10
77.00518094278232
 20
173.9527216814803
 30
0.0
 11
75.23616454978219
 21
173.9527216814803
 31
0.0
  0
LINE
  5
1B8
330
B9
100
AcDbEntity
  8
Sichtbar (ISO)
 62
    18
420
        0
370
     5
100
AcDbLine
 10
77.00518094278232
 20
174.1819034996054
 30
0.0
 11
77.00518094278232
 21
173.9527216814803
 31
0.0
  0
LINE
  5
1B9
330
B9
100
AcDbEntity
  8
Sichtbar (ISO)
 62
    18
420
        0
370
     5
100
AcDbLine
 10
77.97009897532817
 20
174.1819034996054
 30
0.0
 11
77.00518094278232
 21
174.1819034996054
 31
0.0
  0
LINE
  5
1BA
330
B9
100
AcDbEntity
  8
Sichtbar (ISO)
 62
    18
420
        0
370
     5
100
AcDbLine
 10
77.97009897532817
 20
173.9527216814803
 30
0.0
 11
77.97009897532817
 21
174.1819034996054
 31
0.0
  0
LINE
  5
1BB
330
B9
100
AcDbEntity
  8
Sichtbar (ISO)
 62
    18
420
        0
370
     5
100
AcDbLine
 10
79.73911536832862
 20
173.9527216814803
 30
0.0
 11
77.97009897532817
 21
173.9527216814803
 31
0.0
  0
SPLINE
  5
1BC
330
B9
100
AcDbEntity
  8
Sichtbar (ISO)
 62
    18
420
        0
370
     5
100
AcDbSpline
210
0.0
220
0.0
230
1.0
 70
     8
 71
     3
 72
     8
 73
     4
 74
     0
 42
0.0000000001
 43
0.0000000001
 40
0.0
 40
0.0
 40
0.0
 40
0.0
 40
1.0
 40
1.0
 40
1.0
 40
1.0
 10
79.89993504041986
 20
173.7235398633564
 30
0.0
 10
79.89993504041986
 20
173.8501134864447
 30
0.0
 10
79.82793362069728
 20
173.9527216814803
 30
0.0
 10
79.73911536832862
 20
173.9527216814803
 30
0.0
  0
LINE
  5
1BD
330
B9
100
AcDbEntity
  8
Sichtbar (ISO)
 62
    18
420
        0
370
     5
100
AcDbLine
 10
79.89993504041986
 20
173.5287353179503
 30
0.0
 11
79.89993504041986
 21
173.7235398633564
 31
0.0
  0
SPLINE
  5
1BE
330
B9
100
AcDbEntity
  8
Sichtbar (ISO)
 62
    18
420
        0
370
     5
100
AcDbSpline
210
0.0
220
0.0
230
1.0
 70
     8
 71
     3
 72
     8
 73
     4
 74
     0
 42
0.0000000001
 43
0.0000000001
 40
0.0
 40
0.0
 40
0.0
 40
0.0
 40
1.0
 40
1.0
 40
1.0
 40
1.0
 10
79.73911536832862
 20
173.2995534998255
 30
0.0
 10
79.82793362069728
 20
173.2995534998255
 30
0.0
 10
79.89993504041986
 20
173.4021616948611
 30
0.0
 10
79.89993504041986
 20
173.5287353179503
 30
0.0
  0
LINE
  5
1BF
330
B9
100
AcDbEntity
  8
Sichtbar (ISO)
 62
    18
420
        0
370
     5
100
AcDbLine
 10
77.97813995893303
 20
173.2995534998255
 30
0.0
 11
79.73911536832862
 21
173.2995534998255
 31
0.0
  0
LINE
  5
1C0
330
B9
100
AcDbEntity
  8
Sichtbar (ISO)
 62
    18
420
        0
370
     5
100
AcDbLine
 10
77.97813995893303
 20
172.153644409203
 30
0.0
 11
77.97813995893303
 21
171.9244625910785
 31
0.0
  0
LINE
  5
1C1
330
B9
100
AcDbEntity
  8
Sichtbar (ISO)
 62
    18
420
        0
370
     5
100
AcDbLine
 10
76.99713995917811
 20
172.153644409203
 30
0.0
 11
77.97813995893303
 21
172.153644409203
 31
0.0
  0
LINE
  5
1C2
330
B9
100
AcDbEntity
  8
Sichtbar (ISO)
 62
    18
420
        0
370
     5
100
AcDbLine
 10
76.99713995917811
 20
171.9244625910785
 30
0.0
 11
76.99713995917811
 21
172.153644409203
 31
0.0
  0
LINE
  5
1C3
330
B9
100
AcDbEntity
  8
Sichtbar (ISO)
 62
    18
420
        0
370
     5
100
AcDbLine
 10
75.23616454978219
 20
171.9244625910785
 30
0.0
 11
76.99713995917811
 21
171.9244625910785
 31
0.0
  0
SPLINE
  5
1C4
330
B9
100
AcDbEntity
  8
Sichtbar (ISO)
 62
    18
420
        0
370
     5
100
AcDbSpline
210
0.0
220
0.0
230
1.0
 70
     8
 71
     3
 72
     8
 73
     4
 74
     0
 42
0.0000000001
 43
0.0000000001
 40
0.0
 40
0.0
 40
0.0
 40
0.0
 40
1.0
 40
1.0
 40
1.0
 40
1.0
 10
75.07534487769127
 20
172.153644409203
 30
0.0
 10
75.07534487769127
 20
172.0270707861141
 30
0.0
 10
75.14734629741353
 20
171.9244625910785
 30
0.0
 10
75.23616454978219
 20
171.9244625910785
 30
0.0
  0
LINE
  5
1C5
330
B9
100
AcDbEntity
  8
Sichtbar (ISO)
 62
    18
420
        0
370
     5
100
AcDbLine
 10
75.07534487769127
 20
172.3484489546092
 30
0.0
 11
75.07534487769127
 21
172.153644409203
 31
0.0
  0
SPLINE
  5
1C6
330
B9
100
AcDbEntity
  8
Sichtbar (ISO)
 62
    18
420
        0
370
     5
100
AcDbSpline
210
0.0
220
0.0
230
1.0
 70
     8
 71
     3
 72
     8
 73
     4
 74
     0
 42
0.0000000001
 43
0.0000000001
 40
0.0
 40
0.0
 40
0.0
 40
0.0
 40
1.0
 40
1.0
 40
1.0
 40
1.0
 10
75.23616454978219
 20
172.5776307727333
 30
0.0
 10
75.14734629741353
 20
172.5776307727333
 30
0.0
 10
75.07534487769127
 20
172.4750225776974
 30
0.0
 10
75.07534487769127
 20
172.3484489546092
 30
0.0
  0
LINE
  5
1C7
330
B9
100
AcDbEntity
  8
Sichtbar (ISO)
 62
    18
420
        0
370
     5
100
AcDbLine
 10
77.00518094278232
 20
172.5776307727333
 30
0.0
 11
75.23616454978219
 21
172.5776307727333
 31
0.0
  0
LINE
  5
1C8
330
B9
100
AcDbEntity
  8
Sichtbar (ISO)
 62
    18
420
        0
370
     5
100
AcDbLine
 10
77.00518094278232
 20
172.8068125908578
 30
0.0
 11
77.00518094278232
 21
172.5776307727333
 31
0.0
  0
LINE
  5
1C9
330
B9
100
AcDbEntity
  8
Sichtbar (ISO)
 62
    18
420
        0
370
     5
100
AcDbLine
 10
77.97009897532817
 20
172.8068125908578
 30
0.0
 11
77.00518094278232
 21
172.8068125908578
 31
0.0
  0
LINE
  5
1CA
330
B9
100
AcDbEntity
  8
Sichtbar (ISO)
 62
    18
420
        0
370
     5
100
AcDbLine
 10
77.97009897532817
 20
172.5776307727333
 30
0.0
 11
77.97009897532817
 21
172.8068125908578
 31
0.0
  0
LINE
  5
1CB
330
B9
100
AcDbEntity
  8
Sichtbar (ISO)
 62
    18
420
        0
370
     5
100
AcDbLine
 10
79.73911536832862
 20
172.5776307727333
 30
0.0
 11
77.97009897532817
 21
172.5776307727333
 31
0.0
  0
SPLINE
  5
1CC
330
B9
100
AcDbEntity
  8
Sichtbar (ISO)
 62
    18
420
        0
370
     5
100
AcDbSpline
210
0.0
220
0.0
230
1.0
 70
     8
 71
     3
 72
     8
 73
     4
 74
     0
 42
0.0000000001
 43
0.0000000001
 40
0.0
 40
0.0
 40
0.0
 40
0.0
 40
1.0
 40
1.0
 40
1.0
 40
1.0
 10
79.89993504041986
 20
172.3484489546092
 30
0.0
 10
79.89993504041986
 20
172.4750225776974
 30
0.0
 10
79.82793362069696
 20
172.5776307727333
 30
0.0
 10
79.73911536832862
 20
172.5776307727333
 30
0.0
  0
LINE
  5
1CD
330
B9
100
AcDbEntity
  8
Sichtbar (ISO)
 62
    18
420
        0
370
     5
100
AcDbLine
 10
79.89993504041986
 20
172.153644409203
 30
0.0
 11
79.89993504041986
 21
172.3484489546092
 31
0.0
  0
SPLINE
  5
1CE
330
B9
100
AcDbEntity
  8
Sichtbar (ISO)
 62
    18
420
        0
370
     5
100
AcDbSpline
210
0.0
220
0.0
230
1.0
 70
     8
 71
     3
 72
     8
 73
     4
 74
     0
 42
0.0000000001
 43
0.0000000001
 40
0.0
 40
0.0
 40
0.0
 40
0.0
 40
1.0
 40
1.0
 40
1.0
 40
1.0
 10
79.73911536832862
 20
171.9244625910785
 30
0.0
 10
79.82793362069696
 20
171.9244625910785
 30
0.0
 10
79.89993504041986
 20
172.0270707861141
 30
0.0
 10
79.89993504041986
 20
172.153644409203
 30
0.0
  0
LINE
  5
1CF
330
B9
100
AcDbEntity
  8
Sichtbar (ISO)
 62
    18
420
        0
370
     5
100
AcDbLine
 10
77.97813995893303
 20
171.9244625910785
 30
0.0
 11
79.73911536832862
 21
171.9244625910785
 31
0.0
  0
LINE
  5
1D0
330
B9
100
AcDbEntity
  8
Sichtbar (ISO)
 62
    18
420
        0
370
     5
100
AcDbLine
 10
74.18283146338513
 20
180.2552216799048
 30
0.0
 11
74.18283146338513
 21
180.4844034980303
 31
0.0
  0
LINE
  5
1D1
330
B9
100
AcDbEntity
  8
Sichtbar (ISO)
 62
    18
420
        0
370
     5
100
AcDbLine
 10
74.18283146338513
 20
180.2552216799048
 30
0.0
 11
73.48562086456642
 21
180.2552216799048
 31
0.0
  0
LINE
  5
1D2
330
B9
100
AcDbEntity
  8
Sichtbar (ISO)
 62
    18
420
        0
370
     5
100
AcDbLine
 10
73.48562086456642
 20
180.2552216799048
 30
0.0
 11
73.48562086456642
 21
178.8801307711582
 31
0.0
  0
LINE
  5
1D3
330
B9
100
AcDbEntity
  8
Sichtbar (ISO)
 62
    18
420
        0
370
     5
100
AcDbLine
 10
73.53483486089658
 20
178.8801307711582
 30
0.0
 11
73.48562086456642
 21
178.8801307711582
 31
0.0
  0
LINE
  5
1D4
330
B9
100
AcDbEntity
  8
Sichtbar (ISO)
 62
    18
420
        0
370
     5
100
AcDbLine
 10
73.53483486089658
 20
178.8801307711582
 30
0.0
 11
73.53483486089658
 21
171.0879489549238
 31
0.0
  0
LINE
  5
1D5
330
B9
100
AcDbEntity
  8
Sichtbar (ISO)
 62
    18
420
        0
370
     5
100
AcDbLine
 10
74.35165635328196
 20
178.8801307711582
 30
0.0
 11
74.35165635328196
 21
171.0879489549238
 31
0.0
  0
LINE
  5
1D6
330
B9
100
AcDbEntity
  8
Sichtbar (ISO)
 62
    18
420
        0
370
     5
100
AcDbLine
 10
74.24360547175273
 20
178.8801307711582
 30
0.0
 11
74.24360547175273
 21
179.3384944074075
 31
0.0
  0
SPLINE
  5
1D7
330
B9
100
AcDbEntity
  8
Sichtbar (ISO)
 62
    18
420
        0
370
     5
100
AcDbSpline
210
0.0
220
0.0
230
1.0
 70
     8
 71
     3
 72
     8
 73
     4
 74
     0
 42
0.0000000001
 43
0.0000000001
 40
0.0
 40
0.0
 40
0.0
 40
0.0
 40
1.0
 40
1.0
 40
1.0
 40
1.0
 10
94.34754047732875
 20
177.7084212527912
 30
0.0
 10
94.34754047732843
 20
177.7337295765289
 30
0.0
 10
94.33315529520873
 20
177.7542296941414
 30
0.0
 10
94.31539613631072
 20
177.7542296941414
 30
0.0
  0
LINE
  5
1D8
330
B9
100
AcDbEntity
  8
Sichtbar (ISO)
 62
    18
420
        0
370
     5
100
AcDbLine
 10
93.93743072009636
 20
177.7542296941414
 30
0.0
 11
94.31539613631072
 21
177.7542296941414
 31
0.0
  0
SPLINE
  5
1D9
330
B9
100
AcDbEntity
  8
Sichtbar (ISO)
 62
    18
420
        0
370
     5
100
AcDbSpline
210
0.0
220
0.0
230
1.0
 70
     8
 71
     3
 72
     8
 73
     4
 74
     0
 42
0.0000000001
 43
0.0000000001
 40
0.0
 40
0.0
 40
0.0
 40
0.0
 40
1.0
 40
1.0
 40
1.0
 40
1.0
 10
93.90528637907799
 20
177.8000381354916
 30
0.0
 10
93.90528637907799
 20
177.7747298117536
 30
0.0
 10
93.91967156119832
 20
177.7542296941414
 30
0.0
 10
93.93743072009636
 20
177.7542296941414
 30
0.0
  0
LINE
  5
1DA
330
B9
100
AcDbEntity
  8
Sichtbar (ISO)
 62
    18
420
        0
370
     5
100
AcDbLine
 10
93.90528637907832
 20
178.6997234071387
 30
0.0
 11
93.90528637907832
 21
177.8000381354916
 31
0.0
  0
SPLINE
  5
1DB
330
B9
100
AcDbEntity
  8
Sichtbar (ISO)
 62
    18
420
        0
370
     5
100
AcDbSpline
210
0.0
220
0.0
230
1.0
 70
     8
 71
     3
 72
     8
 73
     4
 74
     0
 42
0.0000000001
 43
0.0000000001
 40
0.0
 40
0.0
 40
0.0
 40
0.0
 40
1.0
 40
1.0
 40
1.0
 40
1.0
 10
93.93743072009636
 20
178.7455318484909
 30
0.0
 10
93.919671561198
 20
178.7455318484909
 30
0.0
 10
93.90528637907735
 20
178.7250317308765
 30
0.0
 10
93.90528637907799
 20
178.6997234071387
 30
0.0
  0
LINE
  5
1DC
330
B9
100
AcDbEntity
  8
Sichtbar (ISO)
 62
    18
420
        0
370
     5
100
AcDbLine
 10
95.77489836965764
 20
178.7455318484899
 30
0.0
 11
93.93743072009636
 21
178.7455318484899
 31
0.0
  0
SPLINE
  5
1DD
330
B9
100
AcDbEntity
  8
Sichtbar (ISO)
 62
    18
420
        0
370
     5
100
AcDbSpline
210
0.0
220
0.0
230
1.0
 70
     8
 71
     3
 72
     8
 73
     4
 74
     0
 42
0.0000000001
 43
0.0000000001
 40
0.0
 40
0.0
 40
0.0
 40
0.0
 40
1.0
 40
1.0
 40
1.0
 40
1.0
 10
95.80704271067631
 20
178.6997234071387
 30
0.0
 10
95.80704271067631
 20
178.7250317308765
 30
0.0
 10
95.79265752855599
 20
178.7455318484909
 30
0.0
 10
95.77489836965764
 20
178.7455318484909
 30
0.0
  0
LINE
  5
1DE
330
B9
100
AcDbEntity
  8
Sichtbar (ISO)
 62
    18
420
        0
370
     5
100
AcDbLine
 10
95.80704271067537
 20
177.8000381354916
 30
0.0
 11
95.80704271067537
 21
178.6997234071387
 31
0.0
  0
SPLINE
  5
1DF
330
B9
100
AcDbEntity
  8
Sichtbar (ISO)
 62
    18
420
        0
370
     5
100
AcDbSpline
210
0.0
220
0.0
230
1.0
 70
     8
 71
     3
 72
     8
 73
     4
 74
     0
 42
0.0000000001
 43
0.0000000001
 40
0.0
 40
0.0
 40
0.0
 40
0.0
 40
1.0
 40
1.0
 40
1.0
 40
1.0
 10
95.77489836965764
 20
177.7542296941414
 30
0.0
 10
95.79265752855567
 20
177.7542296941414
 30
0.0
 10
95.80704271067601
 20
177.7747298117536
 30
0.0
 10
95.80704271067631
 20
177.8000381354916
 30
0.0
  0
LINE
  5
1E0
330
B9
100
AcDbEntity
  8
Sichtbar (ISO)
 62
    18
420
        0
370
     5
100
AcDbLine
 10
95.39693295344296
 20
177.7542296941414
 30
0.0
 11
95.77489836965764
 21
177.7542296941414
 31
0.0
  0
SPLINE
  5
1E1
330
B9
100
AcDbEntity
  8
Sichtbar (ISO)
 62
    18
420
        0
370
     5
100
AcDbSpline
210
0.0
220
0.0
230
1.0
 70
     8
 71
     3
 72
     8
 73
     4
 74
     0
 42
0.0000000001
 43
0.0000000001
 40
0.0
 40
0.0
 40
0.0
 40
0.0
 40
1.0
 40
1.0
 40
1.0
 40
1.0
 10
95.39693295344296
 20
177.7542296941424
 30
0.0
 10
95.37917379454558
 20
177.7542296941414
 30
0.0
 10
95.36478861242491
 20
177.7337295765289
 30
0.0
 10
95.36478861242491
 20
177.7084212527912
 30
0.0
  0
LINE
  5
1E2
330
B9
100
AcDbEntity
  8
Sichtbar (ISO)
 62
    18
420
        0
370
     5
100
AcDbLine
 10
95.36478861242555
 20
176.7687199539311
 30
0.0
 11
95.36478861242555
 21
177.7084212527912
 31
0.0
  0
SPLINE
  5
1E3
330
B9
100
AcDbEntity
  8
Sichtbar (ISO)
 62
    18
420
        0
370
     5
100
AcDbSpline
210
0.0
220
0.0
230
1.0
 70
     8
 71
     3
 72
     8
 73
     4
 74
     0
 42
0.0000000001
 43
0.0000000001
 40
0.0
 40
0.0
 40
0.0
 40
0.0
 40
1.0
 40
1.0
 40
1.0
 40
1.0
 10
95.33264427140816
 20
176.7229115125799
 30
0.0
 10
95.35040343030555
 20
176.7229115125799
 30
0.0
 10
95.36478861242589
 20
176.7434116301933
 30
0.0
 10
95.36478861242589
 20
176.7687199539311
 30
0.0
  0
LINE
  5
1E4
330
B9
100
AcDbEntity
  8
Sichtbar (ISO)
 62
    18
420
        0
370
     5
100
AcDbLine
 10
94.37968481834678
 20
176.7229115125812
 30
0.0
 11
95.33264427140816
 21
176.7229115125812
 31
0.0
  0
SPLINE
  5
1E5
330
B9
100
AcDbEntity
  8
Sichtbar (ISO)
 62
    18
420
        0
370
     5
100
AcDbSpline
210
0.0
220
0.0
230
1.0
 70
     8
 71
     3
 72
     8
 73
     4
 74
     0
 42
0.0000000001
 43
0.0000000001
 40
0.0
 40
0.0
 40
0.0
 40
0.0
 40
1.0
 40
1.0
 40
1.0
 40
1.0
 10
94.34754047732811
 20
176.7687199539311
 30
0.0
 10
94.34754047732779
 20
176.7434116301933
 30
0.0
 10
94.36192565944843
 20
176.7229115125799
 30
0.0
 10
94.37968481834678
 20
176.7229115125799
 30
0.0
  0
LINE
  5
1E6
330
B9
100
AcDbEntity
  8
Sichtbar (ISO)
 62
    18
420
        0
370
     5
100
AcDbLine
 10
94.34754047732875
 20
177.7084212527912
 30
0.0
 11
94.34754047732875
 21
176.7687199539311
 31
0.0
  0
SPLINE
  5
1E7
330
B9
100
AcDbEntity
  8
Sichtbar (ISO)
 62
    18
420
        0
370
     5
100
AcDbSpline
210
0.0
220
0.0
230
1.0
 70
     8
 71
     3
 72
     8
 73
     4
 74
     0
 42
0.0000000001
 43
0.0000000001
 40
0.0
 40
0.0
 40
0.0
 40
0.0
 40
1.0
 40
1.0
 40
1.0
 40
1.0
 10
84.78283459544119
 20
177.7542296941414
 30
0.0
 10
84.76507543654316
 20
177.7542296941414
 30
0.0
 10
84.75069025442348
 20
177.7337295765289
 30
0.0
 10
84.75069025442314
 20
177.7084212527912
 30
0.0
  0
LINE
  5
1E8
330
B9
100
AcDbEntity
  8
Sichtbar (ISO)
 62
    18
420
        0
370
     5
100
AcDbLine
 10
84.75069025442348
 20
177.7084212527912
 30
0.0
 11
84.75069025442348
 21
176.7687199539311
 31
0.0
  0
SPLINE
  5
1E9
330
B9
100
AcDbEntity
  8
Sichtbar (ISO)
 62
    18
420
        0
370
     5
100
AcDbSpline
210
0.0
220
0.0
230
1.0
 70
     8
 71
     3
 72
     8
 73
     4
 74
     0
 42
0.0000000001
 43
0.0000000001
 40
0.0
 40
0.0
 40
0.0
 40
0.0
 40
1.0
 40
1.0
 40
1.0
 40
1.0
 10
84.71854591340543
 20
176.7229115125799
 30
0.0
 10
84.73630507230378
 20
176.7229115125799
 30
0.0
 10
84.75069025442444
 20
176.7434116301933
 30
0.0
 10
84.75069025442444
 20
176.7687199539311
 30
0.0
  0
LINE
  5
1EA
330
B9
100
AcDbEntity
  8
Sichtbar (ISO)
 62
    18
420
        0
370
     5
100
AcDbLine
 10
84.71854591340543
 20
176.7229115125812
 30
0.0
 11
83.76558646034405
 21
176.7229115125812
 31
0.0
  0
SPLINE
  5
1EB
330
B9
100
AcDbEntity
  8
Sichtbar (ISO)
 62
    18
420
        0
370
     5
100
AcDbSpline
210
0.0
220
0.0
230
1.0
 70
     8
 71
     3
 72
     8
 73
     4
 74
     0
 42
0.0000000001
 43
0.0000000001
 40
0.0
 40
0.0
 40
0.0
 40
0.0
 40
1.0
 40
1.0
 40
1.0
 40
1.0
 10
83.7334421193257
 20
176.7687199539311
 30
0.0
 10
83.7334421193257
 20
176.7434116301933
 30
0.0
 10
83.74782730144636
 20
176.7229115125799
 30
0.0
 10
83.76558646034405
 20
176.7229115125799
 30
0.0
  0
LINE
  5
1EC
330
B9
100
AcDbEntity
  8
Sichtbar (ISO)
 62
    18
420
        0
370
     5
100
AcDbLine
 10
83.73344211932666
 20
176.7687199539311
 30
0.0
 11
83.73344211932666
 21
177.7084212527912
 31
0.0
  0
SPLINE
  5
1ED
330
B9
100
AcDbEntity
  8
Sichtbar (ISO)
 62
    18
420
        0
370
     5
100
AcDbSpline
210
0.0
220
0.0
230
1.0
 70
     8
 71
     3
 72
     8
 73
     4
 74
     0
 42
0.0000000001
 43
0.0000000001
 40
0.0
 40
0.0
 40
0.0
 40
0.0
 40
1.0
 40
1.0
 40
1.0
 40
1.0
 10
83.73344211932698
 20
177.7084212527912
 30
0.0
 10
83.73344211932698
 20
177.7337295765289
 30
0.0
 10
83.71905693720664
 20
177.7542296941414
 30
0.0
 10
83.70129777830895
 20
177.7542296941424
 30
0.0
  0
LINE
  5
1EE
330
B9
100
AcDbEntity
  8
Sichtbar (ISO)
 62
    18
420
        0
370
     5
100
AcDbLine
 10
83.70129777830895
 20
177.7542296941414
 30
0.0
 11
83.32333236209427
 21
177.7542296941414
 31
0.0
  0
SPLINE
  5
1EF
330
B9
100
AcDbEntity
  8
Sichtbar (ISO)
 62
    18
420
        0
370
     5
100
AcDbSpline
210
0.0
220
0.0
230
1.0
 70
     8
 71
     3
 72
     8
 73
     4
 74
     0
 42
0.0000000001
 43
0.0000000001
 40
0.0
 40
0.0
 40
0.0
 40
0.0
 40
1.0
 40
1.0
 40
1.0
 40
1.0
 10
83.2911880210759
 20
177.8000381354916
 30
0.0
 10
83.29118802107622
 20
177.7747298117536
 30
0.0
 10
83.30557320319623
 20
177.7542296941414
 30
0.0
 10
83.32333236209427
 20
177.7542296941414
 30
0.0
  0
LINE
  5
1F0
330
B9
100
AcDbEntity
  8
Sichtbar (ISO)
 62
    18
420
        0
370
     5
100
AcDbLine
 10
83.29118802107686
 20
177.8000381354916
 30
0.0
 11
83.29118802107686
 21
178.6997234071387
 31
0.0
  0
SPLINE
  5
1F1
330
B9
100
AcDbEntity
  8
Sichtbar (ISO)
 62
    18
420
        0
370
     5
100
AcDbSpline
210
0.0
220
0.0
230
1.0
 70
     8
 71
     3
 72
     8
 73
     4
 74
     0
 42
0.0000000001
 43
0.0000000001
 40
0.0
 40
0.0
 40
0.0
 40
0.0
 40
1.0
 40
1.0
 40
1.0
 40
1.0
 10
83.32333236209427
 20
178.7455318484909
 30
0.0
 10
83.30557320319591
 20
178.7455318484909
 30
0.0
 10
83.29118802107558
 20
178.7250317308765
 30
0.0
 10
83.2911880210759
 20
178.6997234071387
 30
0.0
  0
LINE
  5
1F2
330
B9
100
AcDbEntity
  8
Sichtbar (ISO)
 62
    18
420
        0
370
     5
100
AcDbLine
 10
83.32333236209427
 20
178.7455318484899
 30
0.0
 11
85.16080001165553
 21
178.7455318484899
 31
0.0
  0
SPLINE
  5
1F3
330
B9
100
AcDbEntity
  8
Sichtbar (ISO)
 62
    18
420
        0
370
     5
100
AcDbSpline
210
0.0
220
0.0
230
1.0
 70
     8
 71
     3
 72
     8
 73
     4
 74
     0
 42
0.0000000001
 43
0.0000000001
 40
0.0
 40
0.0
 40
0.0
 40
0.0
 40
1.0
 40
1.0
 40
1.0
 40
1.0
 10
85.19294435267424
 20
178.6997234071387
 30
0.0
 10
85.19294435267454
 20
178.7250317308765
 30
0.0
 10
85.17855917055422
 20
178.7455318484909
 30
0.0
 10
85.16080001165553
 20
178.7455318484909
 30
0.0
  0
LINE
  5
1F4
330
B9
100
AcDbEntity
  8
Sichtbar (ISO)
 62
    18
420
        0
370
     5
100
AcDbLine
 10
85.1929443526736
 20
178.6997234071387
 30
0.0
 11
85.1929443526736
 21
177.8000381354916
 31
0.0
  0
SPLINE
  5
1F5
330
B9
100
AcDbEntity
  8
Sichtbar (ISO)
 62
    18
420
        0
370
     5
100
AcDbSpline
210
0.0
220
0.0
230
1.0
 70
     8
 71
     3
 72
     8
 73
     4
 74
     0
 42
0.0000000001
 43
0.0000000001
 40
0.0
 40
0.0
 40
0.0
 40
0.0
 40
1.0
 40
1.0
 40
1.0
 40
1.0
 10
85.16080001165553
 20
177.7542296941414
 30
0.0
 10
85.17855917055326
 20
177.7542296941414
 30
0.0
 10
85.1929443526739
 20
177.7747298117536
 30
0.0
 10
85.19294435267424
 20
177.8000381354916
 30
0.0
  0
LINE
  5
1F6
330
B9
100
AcDbEntity
  8
Sichtbar (ISO)
 62
    18
420
        0
370
     5
100
AcDbLine
 10
85.16080001165553
 20
177.7542296941414
 30
0.0
 11
84.78283459544119
 21
177.7542296941414
 31
0.0
  0
LINE
  5
1F7
330
B9
100
AcDbEntity
  8
Sichtbar (ISO)
 62
    18
420
        0
370
     5
100
AcDbLine
 10
107.3625605547449
 20
180.2552216799048
 30
0.0
 11
106.4528271092788
 21
180.2552216799048
 31
0.0
  0
LINE
  5
1F8
330
B9
100
AcDbEntity
  8
Sichtbar (ISO)
 62
    18
420
        0
370
     5
100
AcDbLine
 10
108.2041973284252
 20
180.2552216799048
 30
0.0
 11
107.3625605547449
 21
180.2552216799048
 31
0.0
  0
LINE
  5
1F9
330
B9
100
AcDbEntity
  8
Sichtbar (ISO)
 62
    18
420
        0
370
     5
100
AcDbLine
 10
106.4528271092737
 20
180.2552216799048
 30
0.0
 11
105.6126098671864
 21
180.2552216799048
 31
0.0
  0
LINE
  5
1FA
330
B9
100
AcDbEntity
  8
Sichtbar (ISO)
 62
    18
420
        0
370
     5
100
AcDbLine
 10
107.3074407384186
 20
171.0879489549238
 30
0.0
 11
107.3074407384186
 21
178.8801307711582
 31
0.0
  0
LINE
  5
1FB
330
B9
100
AcDbEntity
  8
Sichtbar (ISO)
 62
    18
420
        0
370
     5
100
AcDbLine
 10
107.3625605547449
 20
178.8801307711582
 30
0.0
 11
107.3074407384186
 21
178.8801307711582
 31
0.0
  0
LINE
  5
1FC
330
B9
100
AcDbEntity
  8
Sichtbar (ISO)
 62
    18
420
        0
370
     5
100
AcDbLine
 10
107.3625605547436
 20
178.8801307711582
 30
0.0
 11
107.3625605547436
 21
180.2552216799048
 31
0.0
  0
LINE
  5
1FD
330
B9
100
AcDbEntity
  8
Sichtbar (ISO)
 62
    18
420
        0
370
     5
100
AcDbLine
 10
106.4528271092724
 20
178.8801307711582
 30
0.0
 11
106.4528271092724
 21
180.2552216799048
 31
0.0
  0
LINE
  5
1FE
330
B9
100
AcDbEntity
  8
Sichtbar (ISO)
 62
    18
420
        0
370
     5
100
AcDbLine
 10
106.4641236325742
 20
178.8801307711582
 30
0.0
 11
106.4528271092788
 21
178.8801307711582
 31
0.0
  0
LINE
  5
1FF
330
B9
100
AcDbEntity
  8
Sichtbar (ISO)
 62
    18
420
        0
370
     5
100
AcDbLine
 10
106.4641236325768
 20
171.0879489549238
 30
0.0
 11
106.4641236325768
 21
178.8801307711582
 31
0.0
  0
LINE
  5
200
330
B9
100
AcDbEntity
  8
Sichtbar (ISO)
 62
    18
420
        0
370
     5
100
AcDbLine
 10
106.4528271092737
 20
178.8801307711582
 30
0.0
 11
105.6126098671864
 21
178.8801307711582
 31
0.0
  0
LINE
  5
201
330
B9
100
AcDbEntity
  8
Sichtbar (ISO)
 62
    18
420
        0
370
     5
100
AcDbLine
 10
108.2041973284252
 20
178.8801307711582
 30
0.0
 11
107.3625605547449
 21
178.8801307711582
 31
0.0
  0
LINE
  5
202
330
B9
100
AcDbEntity
  8
Sichtbar (ISO)
 62
    18
420
        0
370
     5
100
AcDbLine
 10
70.89403340332667
 20
180.2552216799048
 30
0.0
 11
70.89403340332667
 21
178.8801307711582
 31
0.0
  0
LINE
  5
203
330
B9
100
AcDbEntity
  8
Sichtbar (ISO)
 62
    18
420
        0
370
     5
100
AcDbLine
 10
70.89403340332667
 20
180.2552216799048
 30
0.0
 11
70.89403340332667
 21
180.4844034980303
 31
0.0
  0
LINE
  5
204
330
B9
100
AcDbEntity
  8
Sichtbar (ISO)
 62
    18
420
        0
370
     5
100
AcDbLine
 10
70.49198422309952
 20
180.4844034980303
 30
0.0
 11
70.49198422309952
 21
171.0879489549238
 31
0.0
  0
LINE
  5
205
330
B9
100
AcDbEntity
  8
Sichtbar (ISO)
 62
    18
420
        0
370
     5
100
AcDbLine
 10
71.73567017700759
 20
180.2552216799048
 30
0.0
 11
72.64540362247307
 21
180.2552216799048
 31
0.0
  0
LINE
  5
206
330
B9
100
AcDbEntity
  8
Sichtbar (ISO)
 62
    18
420
        0
370
     5
100
AcDbLine
 10
72.64540362247756
 20
180.2552216799048
 30
0.0
 11
73.48562086456579
 21
180.2552216799048
 31
0.0
  0
LINE
  5
207
330
B9
100
AcDbEntity
  8
Sichtbar (ISO)
 62
    18
420
        0
370
     5
100
AcDbLine
 10
70.89403340332667
 20
180.2552216799048
 30
0.0
 11
71.73567017700695
 21
180.2552216799048
 31
0.0
  0
LINE
  5
208
330
B9
100
AcDbEntity
  8
Sichtbar (ISO)
 62
    18
420
        0
370
     5
100
AcDbLine
 10
72.63410709917508
 20
171.0879489549238
 30
0.0
 11
72.63410709917508
 21
178.8801307711582
 31
0.0
  0
LINE
  5
209
330
B9
100
AcDbEntity
  8
Sichtbar (ISO)
 62
    18
420
        0
370
     5
100
AcDbLine
 10
72.63410709917796
 20
178.8801307711582
 30
0.0
 11
72.64540362247307
 21
178.8801307711582
 31
0.0
  0
LINE
  5
20A
330
B9
100
AcDbEntity
  8
Sichtbar (ISO)
 62
    18
420
        0
370
     5
100
AcDbLine
 10
72.64540362247948
 20
178.8801307711582
 30
0.0
 11
72.64540362247948
 21
180.2552216799048
 31
0.0
  0
LINE
  5
20B
330
B9
100
AcDbEntity
  8
Sichtbar (ISO)
 62
    18
420
        0
370
     5
100
AcDbLine
 10
71.73567017700887
 20
178.8801307711582
 30
0.0
 11
71.73567017700887
 21
180.2552216799048
 31
0.0
  0
LINE
  5
20C
330
B9
100
AcDbEntity
  8
Sichtbar (ISO)
 62
    18
420
        0
370
     5
100
AcDbLine
 10
71.73567017700759
 20
178.8801307711582
 30
0.0
 11
71.79078999333426
 21
178.8801307711582
 31
0.0
  0
LINE
  5
20D
330
B9
100
AcDbEntity
  8
Sichtbar (ISO)
 62
    18
420
        0
370
     5
100
AcDbLine
 10
71.79078999333362
 20
171.0879489549238
 30
0.0
 11
71.79078999333362
 21
178.8801307711582
 31
0.0
  0
LINE
  5
20E
330
B9
100
AcDbEntity
  8
Sichtbar (ISO)
 62
    18
420
        0
370
     5
100
AcDbLine
 10
72.64540362247756
 20
178.8801307711582
 30
0.0
 11
73.48562086456579
 21
178.8801307711582
 31
0.0
  0
LINE
  5
20F
330
B9
100
AcDbEntity
  8
Sichtbar (ISO)
 62
    18
420
        0
370
     5
100
AcDbLine
 10
70.89403340332667
 20
178.8801307711582
 30
0.0
 11
71.73567017700695
 21
178.8801307711582
 31
0.0
  0
LINE
  5
210
330
B9
100
AcDbEntity
  8
Sichtbar (ISO)
 62
    18
420
        0
370
     5
100
AcDbLine
 10
70.89403340332443
 20
178.8801307711582
 30
0.0
 11
70.79754160006718
 21
178.8801307711582
 31
0.0
  0
LINE
  5
211
330
B9
100
AcDbEntity
  8
Sichtbar (ISO)
 62
    18
420
        0
370
     5
100
AcDbLine
 10
95.90149241346798
 20
171.0879489549238
 30
0.0
 11
95.90149241346798
 21
175.4424034992905
 31
0.0
  0
LINE
  5
212
330
B9
100
AcDbEntity
  8
Sichtbar (ISO)
 62
    18
420
        0
370
     5
100
AcDbLine
 10
93.73042684024039
 20
179.3384944074075
 30
0.0
 11
90.51403339842165
 21
179.3384944074075
 31
0.0
  0
LINE
  5
213
330
B9
100
AcDbEntity
  8
Sichtbar (ISO)
 62
    18
420
        0
370
     5
100
AcDbLine
 10
88.58419733333027
 20
179.3384944074075
 30
0.0
 11
85.36780389151152
 21
179.3384944074075
 31
0.0
  0
LINE
  5
214
330
B9
100
AcDbEntity
  8
Sichtbar (ISO)
 62
    18
420
        0
370
     5
100
AcDbLine
 10
85.36780389151152
 20
179.3384944074075
 30
0.0
 11
85.35542564583357
 21
175.9695216809765
 31
0.0
  0
LINE
  5
215
330
B9
100
AcDbEntity
  8
Sichtbar (ISO)
 62
    18
420
        0
370
     5
100
AcDbLine
 10
85.35542564583357
 20
175.9695216809765
 30
0.0
 11
82.08337885932541
 21
175.9695216809765
 31
0.0
  0
LINE
  5
216
330
B9
100
AcDbEntity
  8
Sichtbar (ISO)
 62
    18
420
        0
370
     5
100
AcDbLine
 10
82.07100061364746
 20
179.3384944074075
 30
0.0
 11
82.08337885932541
 21
175.9695216809765
 31
0.0
  0
LINE
  5
217
330
B9
100
AcDbEntity
  8
Sichtbar (ISO)
 62
    18
420
        0
370
     5
100
AcDbLine
 10
82.07100061364746
 20
179.3384944074075
 30
0.0
 11
75.23616454978219
 21
179.3384944074075
 31
0.0
  0
LINE
  5
218
330
B9
100
AcDbEntity
  8
Sichtbar (ISO)
 62
    18
420
        0
370
     5
100
AcDbLine
 10
81.74936126946562
 20
178.8801307711582
 30
0.0
 11
75.23616454978219
 21
178.8801307711582
 31
0.0
  0
LINE
  5
219
330
B9
100
AcDbEntity
  8
Sichtbar (ISO)
 62
    18
420
        0
370
     5
100
AcDbLine
 10
81.74936126946562
 20
178.8801307711582
 30
0.0
 11
81.74936126946562
 21
171.0879489549238
 31
0.0
  0
LINE
  5
21A
330
B9
100
AcDbEntity
  8
Sichtbar (ISO)
 62
    18
420
        0
370
     5
100
AcDbLine
 10
82.39263995782899
 20
171.0879489549238
 30
0.0
 11
82.39263995782899
 21
175.4424034992905
 31
0.0
  0
LINE
  5
21B
330
B9
100
AcDbEntity
  8
Sichtbar (ISO)
 62
    18
420
        0
370
     5
100
AcDbLine
 10
83.19673831828392
 20
175.4424034992905
 30
0.0
 11
82.39263995782899
 21
175.4424034992905
 31
0.0
  0
LINE
  5
21C
330
B9
100
AcDbEntity
  8
Sichtbar (ISO)
 62
    18
420
        0
370
     5
100
AcDbLine
 10
83.19673831828392
 20
171.0879489549238
 30
0.0
 11
83.19673831828392
 21
175.4424034992905
 31
0.0
  0
LINE
  5
21D
330
B9
100
AcDbEntity
  8
Sichtbar (ISO)
 62
    18
420
        0
370
     5
100
AcDbLine
 10
83.84001700664759
 20
175.5111580447272
 30
0.0
 11
83.84001700664759
 21
171.0879489549238
 31
0.0
  0
LINE
  5
21E
330
B9
100
AcDbEntity
  8
Sichtbar (ISO)
 62
    18
420
        0
370
     5
100
AcDbLine
 10
85.68944323569366
 20
175.5111580447272
 30
0.0
 11
83.84001700664759
 21
175.5111580447272
 31
0.0
  0
LINE
  5
21F
330
B9
100
AcDbEntity
  8
Sichtbar (ISO)
 62
    18
420
        0
370
     5
100
AcDbLine
 10
85.68944323569366
 20
178.8801307711582
 30
0.0
 11
85.68944323569366
 21
175.5111580447272
 31
0.0
  0
LINE
  5
220
330
B9
100
AcDbEntity
  8
Sichtbar (ISO)
 62
    18
420
        0
370
     5
100
AcDbLine
 10
85.68944323569366
 20
178.8801307711582
 30
0.0
 11
88.58419733333027
 21
178.8801307711582
 31
0.0
  0
LINE
  5
221
330
B9
100
AcDbEntity
  8
Sichtbar (ISO)
 62
    18
420
        0
370
     5
100
AcDbLine
 10
90.51403339842165
 20
178.8801307711582
 30
0.0
 11
93.40878749605854
 21
178.8801307711582
 31
0.0
  0
LINE
  5
222
330
B9
100
AcDbEntity
  8
Sichtbar (ISO)
 62
    18
420
        0
370
     5
100
AcDbLine
 10
93.40878749605854
 20
178.8801307711582
 30
0.0
 11
93.40878749605854
 21
175.5111580447272
 31
0.0
  0
LINE
  5
223
330
B9
100
AcDbEntity
  8
Sichtbar (ISO)
 62
    18
420
        0
370
     5
100
AcDbLine
 10
93.40878749605854
 20
175.5111580447272
 30
0.0
 11
95.2582137251043
 21
175.5111580447272
 31
0.0
  0
LINE
  5
224
330
B9
100
AcDbEntity
  8
Sichtbar (ISO)
 62
    18
420
        0
370
     5
100
AcDbLine
 10
95.2582137251043
 20
175.5111580447272
 30
0.0
 11
95.2582137251043
 21
171.0879489549238
 31
0.0
  0
LINE
  5
225
330
B9
100
AcDbEntity
  8
Sichtbar (ISO)
 62
    18
420
        0
370
     5
100
AcDbLine
 10
95.90149241346798
 20
175.4424034992905
 30
0.0
 11
96.7055907739229
 21
175.4424034992905
 31
0.0
  0
LINE
  5
226
330
B9
100
AcDbEntity
  8
Sichtbar (ISO)
 62
    18
420
        0
370
     5
100
AcDbLine
 10
96.7055907739229
 20
171.0879489549238
 30
0.0
 11
96.7055907739229
 21
175.4424034992905
 31
0.0
  0
LINE
  5
227
330
B9
100
AcDbEntity
  8
Sichtbar (ISO)
 62
    18
420
        0
370
     5
100
AcDbLine
 10
97.34886946228661
 20
178.8801307711582
 30
0.0
 11
97.34886946228661
 21
171.0879489549238
 31
0.0
  0
LINE
  5
228
330
B9
100
AcDbEntity
  8
Sichtbar (ISO)
 62
    18
420
        0
370
     5
100
AcDbLine
 10
97.34886946228661
 20
178.8801307711582
 30
0.0
 11
103.8620661819694
 21
178.8801307711582
 31
0.0
  0
LINE
  5
229
330
B9
100
AcDbEntity
  8
Sichtbar (ISO)
 62
    18
420
        0
370
     5
100
AcDbLine
 10
97.02723011810508
 20
179.3384944074075
 30
0.0
 11
103.8620661819694
 21
179.3384944074075
 31
0.0
  0
LINE
  5
22A
330
B9
100
AcDbEntity
  8
Sichtbar (ISO)
 62
    18
420
        0
370
     5
100
AcDbLine
 10
97.02723011810508
 20
179.3384944074075
 30
0.0
 11
97.01485187242647
 21
175.9695216809765
 31
0.0
  0
LINE
  5
22B
330
B9
100
AcDbEntity
  8
Sichtbar (ISO)
 62
    18
420
        0
370
     5
100
AcDbLine
 10
93.74280508591866
 20
175.9695216809765
 30
0.0
 11
97.01485187242647
 21
175.9695216809765
 31
0.0
  0
LINE
  5
22C
330
B9
100
AcDbEntity
  8
Sichtbar (ISO)
 62
    18
420
        0
370
     5
100
AcDbLine
 10
93.73042684024039
 20
179.3384944074075
 30
0.0
 11
93.74280508591866
 21
175.9695216809765
 31
0.0
  0
LINE
  5
22D
330
B9
100
AcDbEntity
  8
Sichtbar (ISO)
 62
    18
420
        0
370
     5
100
AcDbLine
 10
104.4431364454946
 20
179.3384944074075
 30
0.0
 11
103.8620661819694
 21
179.3384944074075
 31
0.0
  0
LINE
  5
22E
330
B9
100
AcDbEntity
  8
Sichtbar (ISO)
 62
    18
420
        0
370
     5
100
AcDbLine
 10
104.8546252600004
 20
179.3384944074075
 30
0.0
 11
104.4431364454939
 21
179.3384944074075
 31
0.0
  0
LINE
  5
22F
330
B9
100
AcDbEntity
  8
Sichtbar (ISO)
 62
    18
420
        0
370
     5
100
AcDbLine
 10
74.24360547175209
 20
179.3384944074075
 30
0.0
 11
74.65509428625793
 21
179.3384944074075
 31
0.0
  0
LINE
  5
230
330
B9
100
AcDbEntity
  8
Sichtbar (ISO)
 62
    18
420
        0
370
     5
100
AcDbLine
 10
74.65509428625729
 20
179.3384944074075
 30
0.0
 11
75.23616454978219
 21
179.3384944074075
 31
0.0
  0
LINE
  5
231
330
B9
100
AcDbEntity
  8
Sichtbar (ISO)
 62
    18
420
        0
370
     5
100
AcDbLine
 10
104.8546252600004
 20
178.8801307711582
 30
0.0
 11
104.4431364454939
 21
178.8801307711582
 31
0.0
  0
LINE
  5
232
330
B9
100
AcDbEntity
  8
Sichtbar (ISO)
 62
    18
420
        0
370
     5
100
AcDbLine
 10
104.4431364454946
 20
178.8801307711582
 30
0.0
 11
103.8620661819694
 21
178.8801307711582
 31
0.0
  0
LINE
  5
233
330
B9
100
AcDbEntity
  8
Sichtbar (ISO)
 62
    18
420
        0
370
     5
100
AcDbLine
 10
74.65509428625729
 20
178.8801307711582
 30
0.0
 11
75.23616454978219
 21
178.8801307711582
 31
0.0
  0
LINE
  5
234
330
B9
100
AcDbEntity
  8
Sichtbar (ISO)
 62
    18
420
        0
370
     5
100
AcDbLine
 10
74.24360547175209
 20
178.8801307711582
 30
0.0
 11
74.65509428625793
 21
178.8801307711582
 31
0.0
  0
LINE
  5
235
330
B9
100
AcDbEntity
  8
Sichtbar (ISO)
 62
    18
420
        0
370
     5
100
AcDbLine
 10
98.71583667505927
 20
180.4844034980303
 30
0.0
 11
98.71583667505927
 21
179.3384944074075
 31
0.0
  0
LINE
  5
236
330
B9
100
AcDbEntity
  8
Sichtbar (ISO)
 62
    18
420
        0
370
     5
100
AcDbLine
 10
98.71583667505927
 20
178.8801307711582
 30
0.0
 11
98.71583667505927
 21
175.9007671355394
 31
0.0
  0
LINE
  5
237
330
B9
100
AcDbEntity
  8
Sichtbar (ISO)
 62
    18
420
        0
370
     5
100
AcDbLine
 10
97.75091864251374
 20
180.4844034980303
 30
0.0
 11
97.75091864251374
 21
179.3384944074075
 31
0.0
  0
LINE
  5
238
330
B9
100
AcDbEntity
  8
Sichtbar (ISO)
 62
    18
420
        0
370
     5
100
AcDbLine
 10
97.75091864251374
 20
178.8801307711582
 30
0.0
 11
97.75091864251374
 21
175.9007671355394
 31
0.0
  0
LINE
  5
239
330
B9
100
AcDbEntity
  8
Sichtbar (ISO)
 62
    18
420
        0
370
     5
100
AcDbLine
 10
97.75091864251374
 20
175.9007671355394
 30
0.0
 11
98.71583667505927
 21
175.9007671355394
 31
0.0
  0
LINE
  5
23A
330
B9
100
AcDbEntity
  8
Sichtbar (ISO)
 62
    18
420
        0
370
     5
100
AcDbLine
 10
81.34731208923815
 20
180.4844034980303
 30
0.0
 11
81.34731208923815
 21
179.3384944074075
 31
0.0
  0
LINE
  5
23B
330
B9
100
AcDbEntity
  8
Sichtbar (ISO)
 62
    18
420
        0
370
     5
100
AcDbLine
 10
81.34731208923815
 20
178.8801307711582
 30
0.0
 11
81.34731208923815
 21
175.9007671355394
 31
0.0
  0
LINE
  5
23C
330
B9
100
AcDbEntity
  8
Sichtbar (ISO)
 62
    18
420
        0
370
     5
100
AcDbLine
 10
80.3823940566923
 20
180.4844034980303
 30
0.0
 11
80.3823940566923
 21
179.3384944074075
 31
0.0
  0
LINE
  5
23D
330
B9
100
AcDbEntity
  8
Sichtbar (ISO)
 62
    18
420
        0
370
     5
100
AcDbLine
 10
80.3823940566923
 20
178.8801307711582
 30
0.0
 11
80.3823940566923
 21
175.9007671355394
 31
0.0
  0
LINE
  5
23E
330
B9
100
AcDbEntity
  8
Sichtbar (ISO)
 62
    18
420
        0
370
     5
100
AcDbLine
 10
81.34731208923815
 20
175.9007671355394
 30
0.0
 11
80.3823940566923
 21
175.9007671355394
 31
0.0
  0
LINE
  5
23F
330
B9
100
AcDbEntity
  8
Sichtbar (ISO)
 62
    18
420
        0
370
     5
100
AcDbLine
 10
70.79754160006718
 20
171.0879489549238
 30
0.0
 11
70.79754160006718
 21
178.8801307711582
 31
0.0
  0
LINE
  5
240
330
B9
100
AcDbEntity
  8
Sichtbar (ISO)
 62
    18
420
        0
370
     5
100
AcDbLine
 10
109.3080572906248
 20
178.1582080440664
 30
0.0
 11
108.606246508653
 21
178.1582080440664
 31
0.0
  0
LINE
  5
241
330
B9
100
AcDbEntity
  8
Sichtbar (ISO)
 62
    18
420
        0
370
     5
100
AcDbLine
 10
109.3080572906248
 20
179.60205349825
 30
0.0
 11
109.3080572906248
 21
178.1582080440664
 31
0.0
  0
LINE
  5
242
330
B9
100
AcDbEntity
  8
Sichtbar (ISO)
 62
    18
420
        0
370
     5
100
AcDbLine
 10
108.606246508653
 20
179.60205349825
 30
0.0
 11
109.3080572906248
 21
179.60205349825
 31
0.0
  0
ELLIPSE
  5
243
330
B9
100
AcDbEntity
  8
Sichtbar (ISO)
 62
    18
420
        0
370
     5
100
AcDbEllipse
 10
108.9418895788223
 20
178.880130771158
 30
0.0
 11
0.0
 21
0.2005340908591726
 31
0.0
210
0.0
220
0.0
230
1.0
 40
0.4961854374576323
 41
0.0
 42
6.283185307179585
  0
LINE
  5
244
330
B9
100
AcDbEntity
  8
Sichtbar (ISO)
 62
    18
420
        0
370
     5
100
AcDbLine
 10
109.3080572906248
 20
178.1582080440664
 30
0.0
 11
109.3944819679436
 21
178.1582080440664
 31
0.0
  0
LINE
  5
245
330
B9
100
AcDbEntity
  8
Sichtbar (ISO)
 62
    18
420
        0
370
     5
100
AcDbLine
 10
109.3944819679436
 20
179.60205349825
 30
0.0
 11
109.3080572906248
 21
179.60205349825
 31
0.0
  0
LINE
  5
246
330
B9
100
AcDbEntity
  8
Sichtbar (ISO)
 62
    18
420
        0
370
     5
100
AcDbLine
 10
109.3944819679436
 20
179.60205349825
 30
0.0
 11
109.4777283558723
 21
179.3728716801259
 31
0.0
  0
LINE
  5
247
330
B9
100
AcDbEntity
  8
Sichtbar (ISO)
 62
    18
420
        0
370
     5
100
AcDbLine
 10
109.4777283558723
 20
179.3728716801259
 30
0.0
 11
109.4777283558723
 21
178.3873898621902
 31
0.0
  0
LINE
  5
248
330
B9
100
AcDbEntity
  8
Sichtbar (ISO)
 62
    18
420
        0
370
     5
100
AcDbLine
 10
109.4777283558723
 20
178.3873898621902
 30
0.0
 11
109.3944819679436
 21
178.1582080440664
 31
0.0
  0
ENDBLK
  5
BC
330
B9
100
AcDbEntity
  8
0
100
AcDbBlockEnd
  0
BLOCK
  5
24B
330
249
100
AcDbEntity
  8
0
100
AcDbBlockBegin
  2
Block_16
 70
     0
 10
0.0
 20
0.0
 30
0.0
  3
Block_16
  1

  0
SPLINE
  5
24D
330
249
100
AcDbEntity
  8
Sichtbar (ISO)
 62
    18
420
        0
370
     5
100
AcDbSpline
210
0.0
220
0.0
230
1.0
 70
     8
 71
     3
 72
    17
 73
    13
 74
     0
 42
0.0000000001
 43
0.0000000001
 40
0.0
 40
0.0
 40
0.0
 40
0.0
 40
1.0
 40
1.0
 40
1.0
 40
2.0
 40
2.0
 40
2.0
 40
3.0
 40
3.0
 40
3.0
 40
4.0
 40
4.0
 40
4.0
 40
4.0
 10
86.98576192962192
 20
116.5574083771226
 30
0.0
 10
100.4552560528711
 20
115.1417074978826
 30
0.0
 10
112.5220907905653
 20
124.9132375996691
 30
0.0
 10
113.9377916698052
 20
138.3827317229185
 30
0.0
 10
115.3534925490465
 20
151.8522258461674
 30
0.0
 10
105.5819624472581
 20
163.9190605838619
 30
0.0
 10
92.11246832400933
 20
165.3347614631025
 30
0.0
 10
78.64297420076049
 20
166.7504623423428
 30
0.0
 10
66.57613946306597
 20
156.9789322405554
 30
0.0
 10
65.16043858382601
 20
143.5094381173066
 30
0.0
 10
63.74482506203643
 20
130.0407751446806
 30
0.0
 10
73.51509424009844
 20
117.9744210437248
 30
0.0
 10
86.98363362585558
 20
116.557632164753
 30
0.0
  0
SPLINE
  5
24E
330
249
100
AcDbEntity
  8
Sichtbar (ISO)
 62
    18
420
        0
370
     5
100
AcDbSpline
210
0.0
220
0.0
230
1.0
 70
     8
 71
     3
 72
     8
 73
     4
 74
     0
 42
0.0000000001
 43
0.0000000001
 40
0.0
 40
0.0
 40
0.0
 40
0.0
 40
1.0
 40
1.0
 40
1.0
 40
1.0
 10
65.83014128451786
 20
140.9667836348022
 30
0.0
 10
65.83012924249283
 20
140.9529844943022
 30
0.0
 10
65.83012924249283
 20
140.9391853459203
 30
0.0
 10
65.83014128451786
 20
140.9253862054204
 30
0.0
  0
SPLINE
  5
24F
330
249
100
AcDbEntity
  8
Sichtbar (ISO)
 62
    18
420
        0
370
     5
100
AcDbSpline
210
0.0
220
0.0
230
1.0
 70
     8
 71
     3
 72
    17
 73
    13
 74
     0
 42
0.0000000001
 43
0.0000000001
 40
0.0
 40
0.0
 40
0.0
 40
0.0
 40
1.0
 40
1.0
 40
1.0
 40
2.0
 40
2.0
 40
2.0
 40
3.0
 40
3.0
 40
3.0
 40
4.0
 40
4.0
 40
4.0
 40
4.0
 10
65.50852807987645
 20
140.9251055448839
 30
0.0
 10
65.52011466887681
 20
127.6478559418794
 30
0.0
 10
76.29284489904134
 20
116.8939112841737
 30
0.0
 10
89.57009450204553
 20
116.905497873174
 30
0.0
 10
102.8473441050494
 20
116.9170844621744
 30
0.0
 10
113.6012887627548
 20
127.6898146923386
 30
0.0
 10
113.5897021737551
 20
140.9670642953431
 30
0.0
 10
113.5781155847547
 20
154.2443138983473
 30
0.0
 10
102.8053853545902
 20
164.9982585560527
 30
0.0
 10
89.5281357515857
 20
164.9866719670524
 30
0.0
 10
76.26726909579833
 20
164.975099674874
 30
0.0
 10
65.52010037205324
 20
154.2279309511273
 30
0.0
 10
65.50852807987645
 20
140.9670642953399
 30
0.0
  0
LINE
  5
250
330
249
100
AcDbEntity
  8
Sichtbar (ISO)
 62
    18
420
        0
370
     5
100
AcDbLine
 10
65.50852807987645
 20
140.925105544882
 30
0.0
 11
65.83014128451786
 21
140.9253862054197
 31
0.0
  0
LINE
  5
251
330
249
100
AcDbEntity
  8
Sichtbar (ISO)
 62
    18
420
        0
370
     5
100
AcDbLine
 10
65.50852807988255
 20
140.9670642953406
 30
0.0
 11
65.83014128451947
 21
140.9667836348028
 31
0.0
  0
SPLINE
  5
252
330
249
100
AcDbEntity
  8
Sichtbar (ISO)
 62
    18
420
        0
370
     5
100
AcDbSpline
210
0.0
220
0.0
230
1.0
 70
     8
 71
     3
 72
    17
 73
    13
 74
     0
 42
0.0000000001
 43
0.0000000001
 40
0.0
 40
0.0
 40
0.0
 40
0.0
 40
1.0
 40
1.0
 40
1.0
 40
2.0
 40
2.0
 40
2.0
 40
3.0
 40
3.0
 40
3.0
 40
4.0
 40
4.0
 40
4.0
 40
4.0
 10
65.83014128451786
 20
140.925386205421
 30
0.0
 10
65.84157286898483
 20
127.8257586706843
 30
0.0
 10
76.47018630677365
 20
117.215679493351
 30
0.0
 10
89.56981384151037
 20
117.227111077818
 30
0.0
 10
102.6694413762464
 20
117.238542662285
 30
0.0
 10
113.2795205535806
 20
127.8671561000731
 30
0.0
 10
113.2680889691143
 20
140.9667836348099
 30
0.0
 10
113.2566573846467
 20
154.0664111695466
 30
0.0
 10
102.6280439468582
 20
164.6764903468801
 30
0.0
 10
89.52841641212087
 20
164.6650587624132
 30
0.0
 10
76.44495265474024
 20
164.653641283506
 30
0.0
 10
65.84155876342123
 20
154.0502473921847
 30
0.0
 10
65.83014128451786
 20
140.9667836348041
 30
0.0
  0
LINE
  5
253
330
249
100
AcDbEntity
  8
Sichtbar (ISO)
 62
    18
420
        0
370
     5
100
AcDbLine
 10
113.5634689759152
 20
142.1177024992967
 30
0.0
 11
113.5611029515697
 21
142.1185636617325
 31
0.0
  0
LINE
  5
254
330
249
100
AcDbEntity
  8
Sichtbar (ISO)
 62
    18
420
        0
370
     5
100
AcDbLine
 10
113.5895768736261
 20
141.0264882518881
 30
0.0
 11
113.589711327735
 21
141.0264882518881
 31
0.0
  0
LINE
  5
255
330
249
100
AcDbEntity
  8
Sichtbar (ISO)
 62
    18
420
        0
370
     5
100
AcDbLine
 10
113.5895768736261
 20
140.8656815883371
 30
0.0
 11
113.589711327735
 21
140.8656815883371
 31
0.0
  0
LINE
  5
256
330
249
100
AcDbEntity
  8
Sichtbar (ISO)
 62
    18
420
        0
370
     5
100
AcDbLine
 10
77.59851558127877
 20
120.0862326627776
 30
0.0
 11
77.59844835422275
 21
120.0861162221009
 31
0.0
  0
LINE
  5
257
330
249
100
AcDbEntity
  8
Sichtbar (ISO)
 62
    18
420
        0
370
     5
100
AcDbLine
 10
77.45925292554545
 20
120.1666359945531
 30
0.0
 11
77.45918569848943
 21
120.1665195538764
 31
0.0
  0
LINE
  5
258
330
249
100
AcDbEntity
  8
Sichtbar (ISO)
 62
    18
420
        0
370
     5
100
AcDbLine
 10
76.52728761517217
 20
161.1573166193134
 30
0.0
 11
76.5277248387997
 21
161.1548370009012
 31
0.0
  0
LINE
  5
259
330
249
100
AcDbEntity
  8
Sichtbar (ISO)
 62
    18
420
        0
370
     5
100
AcDbLine
 10
77.11344947002287
 20
161.5204496823132
 30
0.0
 11
77.11102905915645
 21
161.5246419569086
 31
0.0
  0
LINE
  5
25A
330
249
100
AcDbEntity
  8
Sichtbar (ISO)
 62
    18
420
        0
370
     5
100
AcDbLine
 10
113.0751300043711
 20
143.3581848733819
 30
0.0
 11
113.0751300043711
 21
138.5339849668432
 31
0.0
  0
LINE
  5
25B
330
249
100
AcDbEntity
  8
Sichtbar (ISO)
 62
    18
420
        0
370
     5
100
AcDbLine
 10
79.87504752403691
 20
119.3659084097076
 30
0.0
 11
75.69716785203951
 21
121.778008362977
 31
0.0
  0
LINE
  5
25C
330
249
100
AcDbEntity
  8
Sichtbar (ISO)
 62
    18
420
        0
370
     5
100
AcDbLine
 10
75.69716785203951
 20
160.1141614772478
 30
0.0
 11
79.87504752403691
 21
162.5262614305168
 31
0.0
  0
ENDBLK
  5
24C
330
249
100
AcDbEntity
  8
0
100
AcDbBlockEnd
  0
BLOCK
  5
25F
330
25D
100
AcDbEntity
  8
0
100
AcDbBlockBegin
  2
Block_17
 70
     0
 10
0.0
 20
0.0
 30
0.0
  3
Block_17
  1

  0
INSERT
  5
262
330
25D
100
AcDbEntity
  8
Sichtbar (ISO)
100
AcDbBlockReference
  2
Block_18
 10
0.0
 20
0.0
 30
0.0
  0
ENDBLK
  5
260
330
25D
100
AcDbEntity
  8
0
100
AcDbBlockEnd
  0
BLOCK
  5
263
330
261
100
AcDbEntity
  8
0
100
AcDbBlockBegin
  2
Block_18
 70
     0
 10
0.0
 20
0.0
 30
0.0
  3
Block_18
  1

  0
LINE
  5
265
330
261
100
AcDbEntity
  8
Sichtbar (ISO)
 62
    18
420
        0
370
     5
100
AcDbLine
 10
130.8017920273039
 20
163.6233459063598
 30
0.0
 11
130.8049249110108
 21
118.4140361065998
 31
0.0
  0
INSERT
  5
267
330
261
100
AcDbEntity
  8
Sichtbar (ISO)
100
AcDbBlockReference
  2
Block_19
 10
0.0
 20
0.0
 30
0.0
  0
INSERT
  5
26D
330
261
100
AcDbEntity
  8
Sichtbar (ISO)
100
AcDbBlockReference
  2
Block_20
 10
0.0
 20
0.0
 30
0.0
  0
ENDBLK
  5
264
330
261
100
AcDbEntity
  8
0
100
AcDbBlockEnd
  0
BLOCK
  5
268
330
266
100
AcDbEntity
  8
0
100
AcDbBlockBegin
  2
Block_19
 70
     0
 10
0.0
 20
0.0
 30
0.0
  3
Block_19
  1

  0
LWPOLYLINE
  5
26A
330
266
100
AcDbEntity
  8
Sichtbar (ISO)
100
AcDbPolyline
 90
        3
 70
     1
 43
0.0
 10
130.5805200038403
 20
162.9908694389618
 10
130.8010276467431
 20
164.67206526984
 10
131.0231501781546
 20
162.9909017367316
  0
HATCH
  5
26B
330
266
100
AcDbEntity
  8
Sichtbar (ISO)
 62
    18
420
        0
440
 33554687
100
AcDbHatch
 10
0.0
 20
0.0
 30
0.0
210
0.0
220
0.0
230
1.0
  2
SOLID
 70
     1
 71
     1
 91
        1
 92
        1
 93
        3
 72
     1
 10
130.5805200038403
 20
162.9908694389618
 11
130.8010276467431
 21
164.67206526984
 72
     1
 10
130.8010276467431
 20
164.67206526984
 11
131.0231501781546
 21
162.9909017367316
 72
     1
 10
131.0231501781546
 20
162.9909017367316
 11
130.5805200038403
 21
162.9908694389618
 97
        1
330
26A
 75
     2
 76
     1
 98
        1
 10
0.0
 20
0.0
450
        0
451
        0
460
0.0
461
0.0
452
        0
462
0.0
453
        0
470

  0
ENDBLK
  5
269
330
266
100
AcDbEntity
  8
0
100
AcDbBlockEnd
  0
BLOCK
  5
26E
330
26C
100
AcDbEntity
  8
0
100
AcDbBlockBegin
  2
Block_20
 70
     0
 10
0.0
 20
0.0
 30
0.0
  3
Block_20
  1

  0
LWPOLYLINE
  5
270
330
26C
100
AcDbEntity
  8
Sichtbar (ISO)
100
AcDbPolyline
 90
        3
 70
     1
 43
0.0
 10
130.5835667601601
 20
119.0464802762279
 10
130.8043112533775
 20
117.3653167431196
 10
131.0261861685509
 20
119.0465125739981
  0
HATCH
  5
271
330
26C
100
AcDbEntity
  8
Sichtbar (ISO)
 62
    18
420
        0
440
 33554687
100
AcDbHatch
 10
0.0
 20
0.0
 30
0.0
210
0.0
220
0.0
230
1.0
  2
SOLID
 70
     1
 71
     1
 91
        1
 92
        1
 93
        3
 72
     1
 10
130.5835667601601
 20
119.0464802762279
 11
130.8043112533775
 21
117.3653167431196
 72
     1
 10
130.8043112533775
 20
117.3653167431196
 11
131.0261861685509
 21
119.0465125739981
 72
     1
 10
131.0261861685509
 20
119.0465125739981
 11
130.5835667601601
 21
119.0464802762279
 97
        1
330
270
 75
     2
 76
     1
 98
        1
 10
0.0
 20
0.0
450
        0
451
        0
460
0.0
461
0.0
452
        0
462
0.0
453
        0
470

  0
ENDBLK
  5
26F
330
26C
100
AcDbEntity
  8
0
100
AcDbBlockEnd
  0
BLOCK
  5
277
330
275
100
AcDbEntity
  8
0
100
AcDbBlockBegin
  2
Block_21
 70
     0
 10
0.0
 20
0.0
 30
0.0
  3
Block_21
  1

  0
INSERT
  5
27A
330
275
100
AcDbEntity
  8
Sichtbar (ISO)
100
AcDbBlockReference
  2
Block_22
 10
0.0
 20
0.0
 30
0.0
  0
ENDBLK
  5
278
330
275
100
AcDbEntity
  8
0
100
AcDbBlockEnd
  0
BLOCK
  5
27B
330
279
100
AcDbEntity
  8
0
100
AcDbBlockBegin
  2
Block_22
 70
     0
 10
0.0
 20
0.0
 30
0.0
  3
Block_22
  1

  0
LINE
  5
27D
330
279
100
AcDbEntity
  8
Sichtbar (ISO)
 62
    18
420
        0
370
     5
100
AcDbLine
 10
137.8581550253499
 20
164.4472835553512
 30
0.0
 11
137.8504035605081
 21
117.4813733972789
 31
0.0
  0
INSERT
  5
27F
330
279
100
AcDbEntity
  8
Sichtbar (ISO)
100
AcDbBlockReference
  2
Block_23
 10
0.0
 20
0.0
 30
0.0
  0
INSERT
  5
285
330
279
100
AcDbEntity
  8
Sichtbar (ISO)
100
AcDbBlockReference
  2
Block_24
 10
0.0
 20
0.0
 30
0.0
  0
ENDBLK
  5
27C
330
279
100
AcDbEntity
  8
0
100
AcDbBlockEnd
  0
BLOCK
  5
280
330
27E
100
AcDbEntity
  8
0
100
AcDbBlockBegin
  2
Block_23
 70
     0
 10
0.0
 20
0.0
 30
0.0
  3
Block_23
  1

  0
LWPOLYLINE
  5
282
330
27E
100
AcDbEntity
  8
Sichtbar (ISO)
100
AcDbPolyline
 90
        3
 70
     1
 43
0.0
 10
137.6367322789588
 20
163.8148609175695
 10
137.8576382610271
 20
165.4960029188311
 10
138.0793624532731
 20
163.8147855561057
  0
HATCH
  5
283
330
27E
100
AcDbEntity
  8
Sichtbar (ISO)
 62
    18
420
        0
440
 33554687
100
AcDbHatch
 10
0.0
 20
0.0
 30
0.0
210
0.0
220
0.0
230
1.0
  2
SOLID
 70
     1
 71
     1
 91
        1
 92
        1
 93
        3
 72
     1
 10
137.6367322789588
 20
163.8148609175695
 11
137.8576382610271
 21
165.4960029188311
 72
     1
 10
137.8576382610271
 20
165.4960029188311
 11
138.0793624532731
 21
163.8147855561057
 72
     1
 10
138.0793624532731
 20
163.8147855561057
 11
137.6367322789588
 21
163.8148609175695
 97
        1
330
282
 75
     2
 76
     1
 98
        1
 10
0.0
 20
0.0
450
        0
451
        0
460
0.0
461
0.0
452
        0
462
0.0
453
        0
470

  0
ENDBLK
  5
281
330
27E
100
AcDbEntity
  8
0
100
AcDbBlockEnd
  0
BLOCK
  5
286
330
284
100
AcDbEntity
  8
0
100
AcDbBlockBegin
  2
Block_24
 70
     0
 10
0.0
 20
0.0
 30
0.0
  3
Block_24
  1

  0
LWPOLYLINE
  5
288
330
284
100
AcDbEntity
  8
Sichtbar (ISO)
100
AcDbPolyline
 90
        3
 70
     1
 43
0.0
 10
137.6291961325849
 20
118.1138606306006
 10
137.8495422866368
 20
116.4326432678753
 10
138.0718155409757
 20
118.1137852691369
  0
HATCH
  5
289
330
284
100
AcDbEntity
  8
Sichtbar (ISO)
 62
    18
420
        0
440
 33554687
100
AcDbHatch
 10
0.0
 20
0.0
 30
0.0
210
0.0
220
0.0
230
1.0
  2
SOLID
 70
     1
 71
     1
 91
        1
 92
        1
 93
        3
 72
     1
 10
137.6291961325849
 20
118.1138606306006
 11
137.8495422866368
 21
116.4326432678753
 72
     1
 10
137.8495422866368
 20
116.4326432678753
 11
138.0718155409757
 21
118.1137852691369
 72
     1
 10
138.0718155409757
 20
118.1137852691369
 11
137.6291961325849
 21
118.1138606306006
 97
        1
330
288
 75
     2
 76
     1
 98
        1
 10
0.0
 20
0.0
450
        0
451
        0
460
0.0
461
0.0
452
        0
462
0.0
453
        0
470

  0
ENDBLK
  5
287
330
284
100
AcDbEntity
  8
0
100
AcDbBlockEnd
  0
BLOCK
  5
290
330
28E
100
AcDbEntity
  8
0
100
AcDbBlockBegin
  2
Block_25
 70
     0
 10
0.0
 20
0.0
 30
0.0
  3
Block_25
  1

  0
INSERT
  5
293
330
28E
100
AcDbEntity
  8
Sichtbar (ISO)
100
AcDbBlockReference
  2
Block_26
 10
0.0
 20
0.0
 30
0.0
  0
ENDBLK
  5
291
330
28E
100
AcDbEntity
  8
0
100
AcDbBlockEnd
  0
BLOCK
  5
294
330
292
100
AcDbEntity
  8
0
100
AcDbBlockBegin
  2
Block_26
 70
     0
 10
0.0
 20
0.0
 30
0.0
  3
Block_26
  1

  0
LINE
  5
296
330
292
100
AcDbEntity
  8
Sichtbar (ISO)
 62
    18
420
        0
370
     5
100
AcDbLine
 10
123.825172223818
 20
180.9571285219265
 30
0.0
 11
123.8254952015197
 21
177.3445690983234
 31
0.0
  0
INSERT
  5
298
330
292
100
AcDbEntity
  8
Sichtbar (ISO)
100
AcDbBlockReference
  2
Block_27
 10
0.0
 20
0.0
 30
0.0
  0
ENDBLK
  5
295
330
292
100
AcDbEntity
  8
0
100
AcDbBlockEnd
  0
BLOCK
  5
299
330
297
100
AcDbEntity
  8
0
100
AcDbBlockBegin
  2
Block_27
 70
     0
 10
0.0
 20
0.0
 30
0.0
  3
Block_27
  1

  0
LWPOLYLINE
  5
29B
330
297
100
AcDbEntity
  8
Sichtbar (ISO)
100
AcDbPolyline
 90
        3
 70
     1
 43
0.0
 10
123.6039217322012
 20
180.3246520545282
 10
123.8243970773338
 20
182.0058586513301
 10
124.0465411405921
 20
180.3246951182221
  0
HATCH
  5
29C
330
297
100
AcDbEntity
  8
Sichtbar (ISO)
 62
    18
420
        0
440
 33554687
100
AcDbHatch
 10
0.0
 20
0.0
 30
0.0
210
0.0
220
0.0
230
1.0
  2
SOLID
 70
     1
 71
     1
 91
        1
 92
        1
 93
        3
 72
     1
 10
123.6039217322012
 20
180.3246520545282
 11
123.8243970773338
 21
182.0058586513301
 72
     1
 10
123.8243970773338
 20
182.0058586513301
 11
124.0465411405921
 21
180.3246951182221
 72
     1
 10
124.0465411405921
 20
180.3246951182221
 11
123.6039217322012
 21
180.3246520545282
 97
        1
330
29B
 75
     2
 76
     1
 98
        1
 10
0.0
 20
0.0
450
        0
451
        0
460
0.0
461
0.0
452
        0
462
0.0
453
        0
470

  0
ENDBLK
  5
29A
330
297
100
AcDbEntity
  8
0
100
AcDbBlockEnd
  0
BLOCK
  5
29F
330
29D
100
AcDbEntity
  8
0
100
AcDbBlockBegin
  2
Block_28
 70
     0
 10
0.0
 20
0.0
 30
0.0
  3
Block_28
  1

  0
INSERT
  5
2A2
330
29D
100
AcDbEntity
  8
Sichtbar (ISO)
100
AcDbBlockReference
  2
Block_29
 10
0.0
 20
0.0
 30
0.0
  0
ENDBLK
  5
2A0
330
29D
100
AcDbEntity
  8
0
100
AcDbBlockEnd
  0
BLOCK
  5
2A3
330
2A1
100
AcDbEntity
  8
0
100
AcDbBlockBegin
  2
Block_29
 70
     0
 10
0.0
 20
0.0
 30
0.0
  3
Block_29
  1

  0
LINE
  5
2A5
330
2A1
100
AcDbEntity
  8
Sichtbar (ISO)
 62
    18
420
        0
370
     5
100
AcDbLine
 10
137.8099236885564
 20
168.9133330876548
 30
0.0
 11
137.7921276171904
 21
184.4911935980829
 31
0.0
  0
INSERT
  5
2A7
330
2A1
100
AcDbEntity
  8
Sichtbar (ISO)
100
AcDbBlockReference
  2
Block_30
 10
0.0
 20
0.0
 30
0.0
  0
INSERT
  5
2AD
330
2A1
100
AcDbEntity
  8
Sichtbar (ISO)
100
AcDbBlockReference
  2
Block_31
 10
0.0
 20
0.0
 30
0.0
  0
ENDBLK
  5
2A4
330
2A1
100
AcDbEntity
  8
0
100
AcDbBlockEnd
  0
BLOCK
  5
2A8
330
2A6
100
AcDbEntity
  8
0
100
AcDbBlockBegin
  2
Block_30
 70
     0
 10
0.0
 20
0.0
 30
0.0
  3
Block_30
  1

  0
LWPOLYLINE
  5
2AA
330
2A6
100
AcDbEntity
  8
Sichtbar (ISO)
100
AcDbPolyline
 90
        3
 70
     1
 43
0.0
 10
138.0305174588463
 20
169.5460464053674
 10
137.8118184910733
 20
167.8646137241742
 10
137.5878980504554
 20
169.545540406968
  0
HATCH
  5
2AB
330
2A6
100
AcDbEntity
  8
Sichtbar (ISO)
 62
    18
420
        0
440
 33554687
100
AcDbHatch
 10
0.0
 20
0.0
 30
0.0
210
0.0
220
0.0
230
1.0
  2
SOLID
 70
     1
 71
     1
 91
        1
 92
        1
 93
        3
 72
     1
 10
138.0305174588463
 20
169.5460464053674
 11
137.8118184910733
 21
167.8646137241742
 72
     1
 10
137.8118184910733
 20
167.8646137241742
 11
137.5878980504554
 21
169.545540406968
 72
     1
 10
137.5878980504554
 20
169.545540406968
 11
138.0305174588463
 21
169.5460464053674
 97
        1
330
2AA
 75
     2
 76
     1
 98
        1
 10
0.0
 20
0.0
450
        0
451
        0
460
0.0
461
0.0
452
        0
462
0.0
453
        0
470

  0
ENDBLK
  5
2A9
330
2A6
100
AcDbEntity
  8
0
100
AcDbBlockEnd
  0
BLOCK
  5
2AE
330
2AC
100
AcDbEntity
  8
0
100
AcDbBlockBegin
  2
Block_31
 70
     0
 10
0.0
 20
0.0
 30
0.0
  3
Block_31
  1

  0
LWPOLYLINE
  5
2B0
330
2AC
100
AcDbEntity
  8
Sichtbar (ISO)
100
AcDbPolyline
 90
        3
 70
     1
 43
0.0
 10
138.0141640212148
 20
183.8589970446928
 10
137.791621618791
 20
185.5399237274865
 10
137.5715446128239
 20
183.85848028037
  0
HATCH
  5
2B1
330
2AC
100
AcDbEntity
  8
Sichtbar (ISO)
 62
    18
420
        0
440
 33554687
100
AcDbHatch
 10
0.0
 20
0.0
 30
0.0
210
0.0
220
0.0
230
1.0
  2
SOLID
 70
     1
 71
     1
 91
        1
 92
        1
 93
        3
 72
     1
 10
138.0141640212148
 20
183.8589970446928
 11
137.791621618791
 21
185.5399237274865
 72
     1
 10
137.791621618791
 20
185.5399237274865
 11
137.5715446128239
 21
183.85848028037
 72
     1
 10
137.5715446128239
 20
183.85848028037
 11
138.0141640212148
 21
183.8589970446928
 97
        1
330
2B0
 75
     2
 76
     1
 98
        1
 10
0.0
 20
0.0
450
        0
451
        0
460
0.0
461
0.0
452
        0
462
0.0
453
        0
470

  0
ENDBLK
  5
2AF
330
2AC
100
AcDbEntity
  8
0
100
AcDbBlockEnd
  0
BLOCK
  5
2B4
330
2B2
100
AcDbEntity
  8
0
100
AcDbBlockBegin
  2
Block_32
 70
     0
 10
0.0
 20
0.0
 30
0.0
  3
Block_32
  1

  0
INSERT
  5
2B7
330
2B2
100
AcDbEntity
  8
Sichtbar (ISO)
100
AcDbBlockReference
  2
Block_33
 10
0.0
 20
0.0
 30
0.0
  0
ENDBLK
  5
2B5
330
2B2
100
AcDbEntity
  8
0
100
AcDbBlockEnd
  0
BLOCK
  5
2B8
330
2B6
100
AcDbEntity
  8
0
100
AcDbBlockBegin
  2
Block_33
 70
     0
 10
0.0
 20
0.0
 30
0.0
  3
Block_33
  1

  0
SPLINE
  5
2BA
330
2B6
100
AcDbEntity
  8
Sichtbar (ISO)
100
AcDbSpline
210
0.0
220
0.0
230
1.0
 70
    11
 71
     3
 72
    26
 73
    22
 74
     0
 42
0.0000000001
 43
0.0000000001
 40
0.0
 40
0.0
 40
0.0
 40
0.0
 40
1.0
 40
1.0
 40
1.0
 40
2.0
 40
2.0
 40
2.0
 40
3.0
 40
3.0
 40
3.0
 40
4.0
 40
4.0
 40
4.0
 40
5.0
 40
5.0
 40
5.0
 40
6.0
 40
6.0
 40
6.0
 40
7.0
 40
7.0
 40
7.0
 40
7.0
 10
125.2250867742493
 20
177.9629529720023
 30
0.0
 10
125.2250867742493
 20
177.9629529720023
 30
0.0
 10
125.2250867742493
 20
177.4439493371494
 30
0.0
 10
125.2250867742493
 20
177.4439493371494
 30
0.0
 10
125.2250867742493
 20
177.4439493371494
 30
0.0
 10
125.0331949557208
 20
177.4439493371494
 30
0.0
 10
125.0331949557208
 20
177.4439493371494
 30
0.0
 10
125.0331949557208
 20
177.7174899186782
 30
0.0
 10
124.9629150078217
 20
177.9657090483905
 30
0.0
 10
124.6580240573771
 20
178.0192802831861
 30
0.0
 10
124.6580240573771
 20
178.0192802831861
 30
0.0
 10
124.6580240573771
 20
178.2027316177757
 30
0.0
 10
124.6580240573771
 20
178.2027316177757
 30
0.0
 10
124.6580240573771
 20
178.2027316177757
 30
0.0
 10
126.6579019865647
 20
178.2027316177757
 30
0.0
 10
126.6579019865647
 20
178.2027316177757
 30
0.0
 10
126.6579019865647
 20
178.2027316177757
 30
0.0
 10
126.6579019865647
 20
177.9629529720023
 30
0.0
 10
126.6579019865647
 20
177.9629529720023
 30
0.0
 10
126.6579019865647
 20
177.9629529720023
 30
0.0
 10
125.2250867742493
 20
177.9629529720023
 30
0.0
 10
125.2250867742493
 20
177.9629529720023
 30
0.0
  0
HATCH
  5
2BB
330
2B6
100
AcDbEntity
  8
Sichtbar (ISO)
 62
    18
420
        0
440
 33554687
100
AcDbHatch
 10
0.0
 20
0.0
 30
0.0
210
0.0
220
0.0
230
1.0
  2
SOLID
 70
     1
 71
     1
 91
        1
 92
        1
 93
        1
 72
     4
 94
        3
 73
     0
 74
     0
 95
       26
 96
       22
 40
0.0
 40
0.0
 40
0.0
 40
0.0
 40
1.0
 40
1.0
 40
1.0
 40
2.0
 40
2.0
 40
2.0
 40
3.0
 40
3.0
 40
3.0
 40
4.0
 40
4.0
 40
4.0
 40
5.0
 40
5.0
 40
5.0
 40
6.0
 40
6.0
 40
6.0
 40
7.0
 40
7.0
 40
7.0
 40
7.0
 10
125.2250867742493
 20
177.9629529720023
 10
125.2250867742493
 20
177.9629529720023
 10
125.2250867742493
 20
177.4439493371494
 10
125.2250867742493
 20
177.4439493371494
 10
125.2250867742493
 20
177.4439493371494
 10
125.0331949557208
 20
177.4439493371494
 10
125.0331949557208
 20
177.4439493371494
 10
125.0331949557208
 20
177.7174899186782
 10
124.9629150078217
 20
177.9657090483905
 10
124.6580240573771
 20
178.0192802831861
 10
124.6580240573771
 20
178.0192802831861
 10
124.6580240573771
 20
178.2027316177757
 10
124.6580240573771
 20
178.2027316177757
 10
124.6580240573771
 20
178.2027316177757
 10
126.6579019865647
 20
178.2027316177757
 10
126.6579019865647
 20
178.2027316177757
 10
126.6579019865647
 20
178.2027316177757
 10
126.6579019865647
 20
177.9629529720023
 10
126.6579019865647
 20
177.9629529720023
 10
126.6579019865647
 20
177.9629529720023
 10
125.2250867742493
 20
177.9629529720023
 10
125.2250867742493
 20
177.9629529720023
 97
        0
 97
        1
330
2BA
 75
     2
 76
     1
 98
        1
 10
0.0
 20
0.0
450
        0
451
        0
460
0.0
461
0.0
452
        0
462
0.0
453
        0
470

  0
SPLINE
  5
2BC
330
2B6
100
AcDbEntity
  8
Sichtbar (ISO)
100
AcDbSpline
210
0.0
220
0.0
230
1.0
 70
     9
 71
     3
 72
    53
 73
    49
 74
     0
 42
0.0000000001
 43
0.0000000001
 40
0.0
 40
0.0
 40
0.0
 40
0.0
 40
1.0
 40
1.0
 40
1.0
 40
2.0
 40
2.0
 40
2.0
 40
3.0
 40
3.0
 40
3.0
 40
4.0
 40
4.0
 40
4.0
 40
5.0
 40
5.0
 40
5.0
 40
6.0
 40
6.0
 40
6.0
 40
7.0
 40
7.0
 40
7.0
 40
8.0
 40
8.0
 40
8.0
 40
9.0
 40
9.0
 40
9.0
 40
10.0
 40
10.0
 40
10.0
 40
11.0
 40
11.0
 40
11.0
 40
12.0
 40
12.0
 40
12.0
 40
13.0
 40
13.0
 40
13.0
 40
14.0
 40
14.0
 40
14.0
 40
15.0
 40
15.0
 40
15.0
 40
16.0
 40
16.0
 40
16.0
 40
16.0
 10
126.1190890526716
 20
179.1062079087825
 30
0.0
 10
126.3251057626895
 20
179.120332800272
 30
0.0
 10
126.4801350595258
 20
179.2867309122096
 30
0.0
 10
126.4801350595258
 20
179.5265095579829
 30
0.0
 10
126.4801350595258
 20
179.754919388655
 30
0.0
 10
126.3223496863013
 20
179.9495672835716
 30
0.0
 10
126.0064344303039
 20
179.9495672835716
 30
0.0
 10
125.7439181543279
 20
179.9495672835716
 30
0.0
 10
125.552370845348
 20
179.7690442801445
 30
0.0
 10
125.552370845348
 20
179.4982597750039
 30
0.0
 10
125.552370845348
 20
179.3430582233934
 30
0.0
 10
125.628507455572
 20
179.2190347859244
 30
0.0
 10
125.7411620779397
 20
179.1260172078227
 30
0.0
 10
125.7411620779397
 20
179.1260172078227
 30
0.0
 10
125.7301377723869
 20
178.9200004978047
 30
0.0
 10
125.7301377723869
 20
178.9200004978047
 30
0.0
 10
125.7301377723869
 20
178.9200004978047
 30
0.0
 10
124.6921305026811
 20
179.1062079087825
 30
0.0
 10
124.6921305026811
 20
179.1062079087825
 30
0.0
 10
124.6921305026811
 20
179.1062079087825
 30
0.0
 10
124.6921305026811
 20
180.0934000200808
 30
0.0
 10
124.6921305026811
 20
180.0934000200808
 30
0.0
 10
124.6921305026811
 20
180.0934000200808
 30
0.0
 10
124.9036593654754
 20
180.0934000200808
 30
0.0
 10
124.9036593654754
 20
180.0934000200808
 30
0.0
 10
124.9036593654754
 20
180.0934000200808
 30
0.0
 10
124.9036593654754
 20
179.2867309122096
 30
0.0
 10
124.9036593654754
 20
179.2867309122096
 30
0.0
 10
124.9036593654754
 20
179.2867309122096
 30
0.0
 10
125.4789903115122
 20
179.1795884426183
 30
0.0
 10
125.4789903115122
 20
179.1795884426183
 30
0.0
 10
125.4789903115122
 20
179.1795884426183
 30
0.0
 10
125.4845024642886
 20
179.1852728501689
 30
0.0
 10
125.4845024642886
 20
179.1852728501689
 30
0.0
 10
125.3859727334104
 20
179.27260602072
 30
0.0
 10
125.3408419825537
 20
179.4221231647799
 30
0.0
 10
125.3408419825537
 20
179.5575154173502
 30
0.0
 10
125.3408419825537
 20
179.9128770166537
 30
0.0
 10
125.5664957368375
 20
180.2034708208345
 30
0.0
 10
126.0260714745699
 20
180.2034708208345
 30
0.0
 10
126.3647243607699
 20
180.2034708208345
 30
0.0
 10
126.6916639223201
 20
179.9693765826118
 30
0.0
 10
126.6916639223201
 20
179.5039441825546
 30
0.0
 10
126.6916639223201
 20
179.1570230671899
 30
0.0
 10
126.4801350595258
 20
178.8748697469479
 30
0.0
 10
126.1190890526716
 20
178.8664292630091
 30
0.0
 10
126.1190890526716
 20
178.8664292630091
 30
0.0
 10
126.1190890526716
 20
179.1062079087825
 30
0.0
 10
126.1190890526716
 20
179.1062079087825
 30
0.0
  0
HATCH
  5
2BD
330
2B6
100
AcDbEntity
  8
Sichtbar (ISO)
 62
    18
420
        0
440
 33554687
100
AcDbHatch
 10
0.0
 20
0.0
 30
0.0
210
0.0
220
0.0
230
1.0
  2
SOLID
 70
     1
 71
     1
 91
        1
 92
        1
 93
        1
 72
     4
 94
        3
 73
     0
 74
     0
 95
       53
 96
       49
 40
0.0
 40
0.0
 40
0.0
 40
0.0
 40
1.0
 40
1.0
 40
1.0
 40
2.0
 40
2.0
 40
2.0
 40
3.0
 40
3.0
 40
3.0
 40
4.0
 40
4.0
 40
4.0
 40
5.0
 40
5.0
 40
5.0
 40
6.0
 40
6.0
 40
6.0
 40
7.0
 40
7.0
 40
7.0
 40
8.0
 40
8.0
 40
8.0
 40
9.0
 40
9.0
 40
9.0
 40
10.0
 40
10.0
 40
10.0
 40
11.0
 40
11.0
 40
11.0
 40
12.0
 40
12.0
 40
12.0
 40
13.0
 40
13.0
 40
13.0
 40
14.0
 40
14.0
 40
14.0
 40
15.0
 40
15.0
 40
15.0
 40
16.0
 40
16.0
 40
16.0
 40
16.0
 10
126.1190890526716
 20
179.1062079087825
 10
126.3251057626895
 20
179.120332800272
 10
126.4801350595258
 20
179.2867309122096
 10
126.4801350595258
 20
179.5265095579829
 10
126.4801350595258
 20
179.754919388655
 10
126.3223496863013
 20
179.9495672835716
 10
126.0064344303039
 20
179.9495672835716
 10
125.7439181543279
 20
179.9495672835716
 10
125.552370845348
 20
179.7690442801445
 10
125.552370845348
 20
179.4982597750039
 10
125.552370845348
 20
179.3430582233934
 10
125.628507455572
 20
179.2190347859244
 10
125.7411620779397
 20
179.1260172078227
 10
125.7411620779397
 20
179.1260172078227
 10
125.7301377723869
 20
178.9200004978047
 10
125.7301377723869
 20
178.9200004978047
 10
125.7301377723869
 20
178.9200004978047
 10
124.6921305026811
 20
179.1062079087825
 10
124.6921305026811
 20
179.1062079087825
 10
124.6921305026811
 20
179.1062079087825
 10
124.6921305026811
 20
180.0934000200808
 10
124.6921305026811
 20
180.0934000200808
 10
124.6921305026811
 20
180.0934000200808
 10
124.9036593654754
 20
180.0934000200808
 10
124.9036593654754
 20
180.0934000200808
 10
124.9036593654754
 20
180.0934000200808
 10
124.9036593654754
 20
179.2867309122096
 10
124.9036593654754
 20
179.2867309122096
 10
124.9036593654754
 20
179.2867309122096
 10
125.4789903115122
 20
179.1795884426183
 10
125.4789903115122
 20
179.1795884426183
 10
125.4789903115122
 20
179.1795884426183
 10
125.4845024642886
 20
179.1852728501689
 10
125.4845024642886
 20
179.1852728501689
 10
125.3859727334104
 20
179.27260602072
 10
125.3408419825537
 20
179.4221231647799
 10
125.3408419825537
 20
179.5575154173502
 10
125.3408419825537
 20
179.9128770166537
 10
125.5664957368375
 20
180.2034708208345
 10
126.0260714745699
 20
180.2034708208345
 10
126.3647243607699
 20
180.2034708208345
 10
126.6916639223201
 20
179.9693765826118
 10
126.6916639223201
 20
179.5039441825546
 10
126.6916639223201
 20
179.1570230671899
 10
126.4801350595258
 20
178.8748697469479
 10
126.1190890526716
 20
178.8664292630091
 10
126.1190890526716
 20
178.8664292630091
 10
126.1190890526716
 20
179.1062079087825
 10
126.1190890526716
 20
179.1062079087825
 97
        0
 97
        1
330
2BC
 75
     2
 76
     1
 98
        1
 10
0.0
 20
0.0
450
        0
451
        0
460
0.0
461
0.0
452
        0
462
0.0
453
        0
470

  0
ENDBLK
  5
2B9
330
2B6
100
AcDbEntity
  8
0
100
AcDbBlockEnd
  0
BLOCK
  5
2C3
330
2C1
100
AcDbEntity
  8
0
100
AcDbBlockBegin
  2
Block_34
 70
     0
 10
0.0
 20
0.0
 30
0.0
  3
Block_34
  1

  0
INSERT
  5
2C6
330
2C1
100
AcDbEntity
  8
Sichtbar (ISO)
100
AcDbBlockReference
  2
Block_35
 10
0.0
 20
0.0
 30
0.0
  0
ENDBLK
  5
2C4
330
2C1
100
AcDbEntity
  8
0
100
AcDbBlockEnd
  0
BLOCK
  5
2C7
330
2C5
100
AcDbEntity
  8
0
100
AcDbBlockBegin
  2
Block_35
 70
     0
 10
0.0
 20
0.0
 30
0.0
  3
Block_35
  1

  0
SPLINE
  5
2C9
330
2C5
100
AcDbEntity
  8
Sichtbar (ISO)
100
AcDbSpline
210
0.0
220
0.0
230
1.0
 70
     9
 71
     3
 72
    26
 73
    22
 74
     0
 42
0.0000000001
 43
0.0000000001
 40
0.0
 40
0.0
 40
0.0
 40
0.0
 40
1.0
 40
1.0
 40
1.0
 40
2.0
 40
2.0
 40
2.0
 40
3.0
 40
3.0
 40
3.0
 40
4.0
 40
4.0
 40
4.0
 40
5.0
 40
5.0
 40
5.0
 40
6.0
 40
6.0
 40
6.0
 40
7.0
 40
7.0
 40
7.0
 40
7.0
 10
139.05886769527
 20
176.7079046867258
 30
0.0
 10
139.05886769527
 20
176.7079046867258
 30
0.0
 10
139.05886769527
 20
175.6587008566929
 30
0.0
 10
139.05886769527
 20
175.6587008566929
 30
0.0
 10
139.05886769527
 20
175.6587008566929
 30
0.0
 10
138.8332139409861
 20
175.6587008566929
 30
0.0
 10
138.8332139409861
 20
175.6587008566929
 30
0.0
 10
138.8332139409861
 20
175.6587008566929
 30
0.0
 10
138.8332139409861
 20
176.9533677400498
 30
0.0
 10
138.8332139409861
 20
176.9533677400498
 30
0.0
 10
138.8332139409861
 20
176.9533677400498
 30
0.0
 10
139.0392306510041
 20
176.9533677400498
 30
0.0
 10
139.0392306510041
 20
176.9533677400498
 30
0.0
 10
139.4367946700019
 20
176.5499470587271
 30
0.0
 10
140.175767651588
 20
176.2228352424026
 30
0.0
 10
140.7989854248697
 20
176.1861449754847
 30
0.0
 10
140.7989854248697
 20
176.1861449754847
 30
0.0
 10
140.7989854248697
 20
175.9181165467323
 30
0.0
 10
140.7989854248697
 20
175.9181165467323
 30
0.0
 10
140.1223686715666
 20
175.963247297589
 30
0.0
 10
139.5015624651246
 20
176.2876030375253
 30
0.0
 10
139.05886769527
 20
176.7079046867258
 30
0.0
  0
HATCH
  5
2CA
330
2C5
100
AcDbEntity
  8
Sichtbar (ISO)
 62
    18
420
        0
440
 33554687
100
AcDbHatch
 10
0.0
 20
0.0
 30
0.0
210
0.0
220
0.0
230
1.0
  2
SOLID
 70
     1
 71
     1
 91
        1
 92
        1
 93
        1
 72
     4
 94
        3
 73
     0
 74
     0
 95
       26
 96
       22
 40
0.0
 40
0.0
 40
0.0
 40
0.0
 40
1.0
 40
1.0
 40
1.0
 40
2.0
 40
2.0
 40
2.0
 40
3.0
 40
3.0
 40
3.0
 40
4.0
 40
4.0
 40
4.0
 40
5.0
 40
5.0
 40
5.0
 40
6.0
 40
6.0
 40
6.0
 40
7.0
 40
7.0
 40
7.0
 40
7.0
 10
139.05886769527
 20
176.7079046867258
 10
139.05886769527
 20
176.7079046867258
 10
139.05886769527
 20
175.6587008566929
 10
139.05886769527
 20
175.6587008566929
 10
139.05886769527
 20
175.6587008566929
 10
138.8332139409861
 20
175.6587008566929
 10
138.8332139409861
 20
175.6587008566929
 10
138.8332139409861
 20
175.6587008566929
 10
138.8332139409861
 20
176.9533677400498
 10
138.8332139409861
 20
176.9533677400498
 10
138.8332139409861
 20
176.9533677400498
 10
139.0392306510041
 20
176.9533677400498
 10
139.0392306510041
 20
176.9533677400498
 10
139.4367946700019
 20
176.5499470587271
 10
140.175767651588
 20
176.2228352424026
 10
140.7989854248697
 20
176.1861449754847
 10
140.7989854248697
 20
176.1861449754847
 10
140.7989854248697
 20
175.9181165467323
 10
140.7989854248697
 20
175.9181165467323
 10
140.1223686715666
 20
175.963247297589
 10
139.5015624651246
 20
176.2876030375253
 10
139.05886769527
 20
176.7079046867258
 97
        0
 97
        1
330
2C9
 75
     2
 76
     1
 98
        1
 10
0.0
 20
0.0
450
        0
451
        0
460
0.0
461
0.0
452
        0
462
0.0
453
        0
470

  0
SPLINE
  5
2CB
330
2C5
100
AcDbEntity
  8
Sichtbar (ISO)
100
AcDbSpline
210
0.0
220
0.0
230
1.0
 70
     9
 71
     3
 72
    26
 73
    22
 74
     0
 42
0.0000000001
 43
0.0000000001
 40
0.0
 40
0.0
 40
0.0
 40
0.0
 40
1.0
 40
1.0
 40
1.0
 40
2.0
 40
2.0
 40
2.0
 40
3.0
 40
3.0
 40
3.0
 40
4.0
 40
4.0
 40
4.0
 40
5.0
 40
5.0
 40
5.0
 40
6.0
 40
6.0
 40
6.0
 40
7.0
 40
7.0
 40
7.0
 40
7.0
 10
139.05886769527
 20
178.2771456802571
 30
0.0
 10
139.05886769527
 20
178.2771456802571
 30
0.0
 10
139.05886769527
 20
177.2279418502242
 30
0.0
 10
139.05886769527
 20
177.2279418502242
 30
0.0
 10
139.05886769527
 20
177.2279418502242
 30
0.0
 10
138.8332139409861
 20
177.2279418502242
 30
0.0
 10
138.8332139409861
 20
177.2279418502242
 30
0.0
 10
138.8332139409861
 20
177.2279418502242
 30
0.0
 10
138.8332139409861
 20
178.5226087335811
 30
0.0
 10
138.8332139409861
 20
178.5226087335811
 30
0.0
 10
138.8332139409861
 20
178.5226087335811
 30
0.0
 10
139.0392306510041
 20
178.5226087335811
 30
0.0
 10
139.0392306510041
 20
178.5226087335811
 30
0.0
 10
139.4367946700019
 20
178.1191880522584
 30
0.0
 10
140.175767651588
 20
177.7920762359339
 30
0.0
 10
140.7989854248697
 20
177.755385969016
 30
0.0
 10
140.7989854248697
 20
177.755385969016
 30
0.0
 10
140.7989854248697
 20
177.4873575402636
 30
0.0
 10
140.7989854248697
 20
177.4873575402636
 30
0.0
 10
140.1223686715666
 20
177.5324882911203
 30
0.0
 10
139.5015624651246
 20
177.8568440310566
 30
0.0
 10
139.05886769527
 20
178.2771456802571
 30
0.0
  0
HATCH
  5
2CC
330
2C5
100
AcDbEntity
  8
Sichtbar (ISO)
 62
    18
420
        0
440
 33554687
100
AcDbHatch
 10
0.0
 20
0.0
 30
0.0
210
0.0
220
0.0
230
1.0
  2
SOLID
 70
     1
 71
     1
 91
        1
 92
        1
 93
        1
 72
     4
 94
        3
 73
     0
 74
     0
 95
       26
 96
       22
 40
0.0
 40
0.0
 40
0.0
 40
0.0
 40
1.0
 40
1.0
 40
1.0
 40
2.0
 40
2.0
 40
2.0
 40
3.0
 40
3.0
 40
3.0
 40
4.0
 40
4.0
 40
4.0
 40
5.0
 40
5.0
 40
5.0
 40
6.0
 40
6.0
 40
6.0
 40
7.0
 40
7.0
 40
7.0
 40
7.0
 10
139.05886769527
 20
178.2771456802571
 10
139.05886769527
 20
178.2771456802571
 10
139.05886769527
 20
177.2279418502242
 10
139.05886769527
 20
177.2279418502242
 10
139.05886769527
 20
177.2279418502242
 10
138.8332139409861
 20
177.2279418502242
 10
138.8332139409861
 20
177.2279418502242
 10
138.8332139409861
 20
177.2279418502242
 10
138.8332139409861
 20
178.5226087335811
 10
138.8332139409861
 20
178.5226087335811
 10
138.8332139409861
 20
178.5226087335811
 10
139.0392306510041
 20
178.5226087335811
 10
139.0392306510041
 20
178.5226087335811
 10
139.4367946700019
 20
178.1191880522584
 10
140.175767651588
 20
177.7920762359339
 10
140.7989854248697
 20
177.755385969016
 10
140.7989854248697
 20
177.755385969016
 10
140.7989854248697
 20
177.4873575402636
 10
140.7989854248697
 20
177.4873575402636
 10
140.1223686715666
 20
177.5324882911203
 10
139.5015624651246
 20
177.8568440310566
 10
139.05886769527
 20
178.2771456802571
 97
        0
 97
        1
330
2CB
 75
     2
 76
     1
 98
        1
 10
0.0
 20
0.0
450
        0
451
        0
460
0.0
461
0.0
452
        0
462
0.0
453
        0
470

  0
ENDBLK
  5
2C8
330
2C5
100
AcDbEntity
  8
0
100
AcDbBlockEnd
  0
BLOCK
  5
2CF
330
2CD
100
AcDbEntity
  8
0
100
AcDbBlockBegin
  2
Block_36
 70
     0
 10
0.0
 20
0.0
 30
0.0
  3
Block_36
  1

  0
INSERT
  5
2D2
330
2CD
100
AcDbEntity
  8
Sichtbar (ISO)
100
AcDbBlockReference
  2
Block_37
 10
0.0
 20
0.0
 30
0.0
  0
ENDBLK
  5
2D0
330
2CD
100
AcDbEntity
  8
0
100
AcDbBlockEnd
  0
BLOCK
  5
2D3
330
2D1
100
AcDbEntity
  8
0
100
AcDbBlockBegin
  2
Block_37
 70
     0
 10
0.0
 20
0.0
 30
0.0
  3
Block_37
  1

  0
SPLINE
  5
2D5
330
2D1
100
AcDbEntity
  8
Sichtbar (ISO)
100
AcDbSpline
210
0.0
220
0.0
230
1.0
 70
     9
 71
     3
 72
    26
 73
    22
 74
     0
 42
0.0000000001
 43
0.0000000001
 40
0.0
 40
0.0
 40
0.0
 40
0.0
 40
1.0
 40
1.0
 40
1.0
 40
2.0
 40
2.0
 40
2.0
 40
3.0
 40
3.0
 40
3.0
 40
4.0
 40
4.0
 40
4.0
 40
5.0
 40
5.0
 40
5.0
 40
6.0
 40
6.0
 40
6.0
 40
7.0
 40
7.0
 40
7.0
 40
7.0
 10
133.6287081914192
 20
138.7653455599267
 30
0.0
 10
133.646967197491
 20
138.8184000303996
 30
0.0
 10
133.6562689553012
 20
138.872488029518
 30
0.0
 10
133.6562689553012
 20
138.9269205381849
 30
0.0
 10
133.6562689553012
 20
139.1026204079327
 30
0.0
 10
133.5742756827523
 20
139.2273328644987
 30
0.0
 10
133.4109781567514
 20
139.3007133983345
 30
0.0
 10
133.3124484258732
 20
139.3451551300942
 30
0.0
 10
133.1994492939571
 20
139.3675482507484
 30
0.0
 10
133.0719807610028
 20
139.3675482507484
 30
0.0
 10
132.9892984693568
 20
139.3675482507484
 30
0.0
 10
132.9179849928121
 20
139.3603135502293
 30
0.0
 10
132.8583848409173
 20
139.3465331682883
 30
0.0
 10
132.826000943356
 20
139.3389539582208
 30
0.0
 10
132.7884494025667
 20
139.3262071049254
 30
0.0
 10
132.7453857090011
 20
139.3086371179506
 30
0.0
 10
132.7453857090011
 20
139.3086371179506
 30
0.0
 10
133.5236327791191
 20
138.6175509636095
 30
0.0
 10
133.5236327791191
 20
138.6175509636095
 30
0.0
 10
133.5756537209463
 20
138.6630262240148
 30
0.0
 10
133.6107936948959
 20
138.7126355990024
 30
0.0
 10
133.6287081914192
 20
138.7653455599267
 30
0.0
  0
SPLINE
  5
2D6
330
2D1
100
AcDbEntity
  8
Sichtbar (ISO)
100
AcDbSpline
210
0.0
220
0.0
230
1.0
 70
    11
 71
     3
 72
    26
 73
    22
 74
     0
 42
0.0000000001
 43
0.0000000001
 40
0.0
 40
0.0
 40
0.0
 40
0.0
 40
1.0
 40
1.0
 40
1.0
 40
2.0
 40
2.0
 40
2.0
 40
3.0
 40
3.0
 40
3.0
 40
4.0
 40
4.0
 40
4.0
 40
5.0
 40
5.0
 40
5.0
 40
6.0
 40
6.0
 40
6.0
 40
7.0
 40
7.0
 40
7.0
 40
7.0
 10
132.5548719286668
 20
139.1291476431691
 30
0.0
 10
132.5283446934304
 20
139.0716145485654
 30
0.0
 10
132.5152533305864
 20
139.0075357725398
 30
0.0
 10
132.5152533305864
 20
138.9369113150922
 30
0.0
 10
132.5152533305864
 20
138.8022080816189
 30
0.0
 10
132.5710638774475
 20
138.6943765929306
 30
0.0
 10
132.6830294807181
 20
138.6130723394787
 30
0.0
 10
132.7946505744402
 20
138.5317680860268
 30
0.0
 10
132.9383110561751
 20
138.4911159593008
 30
0.0
 10
133.1140109259228
 20
138.4911159593008
 30
0.0
 10
133.1805012687882
 20
138.4911159593008
 30
0.0
 10
133.2438910257168
 20
138.4983506598198
 30
0.0
 10
133.3045247062572
 20
138.5124755513094
 30
0.0
 10
133.3386311515611
 20
138.5210882900225
 30
0.0
 10
133.3816948451268
 20
138.5348686719635
 30
0.0
 10
133.4344048060511
 20
138.5548502257779
 30
0.0
 10
133.4344048060511
 20
138.5548502257779
 30
0.0
 10
132.6523681308994
 20
139.2545491188322
 30
0.0
 10
132.6523681308994
 20
139.2545491188322
 30
0.0
 10
132.6137830614646
 20
139.2287109026928
 30
0.0
 10
132.5813991639032
 20
139.1866807377728
 30
0.0
 10
132.5548719286668
 20
139.1291476431691
 30
0.0
  0
SPLINE
  5
2D7
330
2D1
100
AcDbEntity
  8
Sichtbar (ISO)
100
AcDbSpline
210
0.0
220
0.0
230
1.0
 70
    11
 71
     3
 72
    59
 73
    55
 74
     0
 42
0.0000000001
 43
0.0000000001
 40
0.0
 40
0.0
 40
0.0
 40
0.0
 40
1.0
 40
1.0
 40
1.0
 40
2.0
 40
2.0
 40
2.0
 40
3.0
 40
3.0
 40
3.0
 40
4.0
 40
4.0
 40
4.0
 40
5.0
 40
5.0
 40
5.0
 40
6.0
 40
6.0
 40
6.0
 40
7.0
 40
7.0
 40
7.0
 40
8.0
 40
8.0
 40
8.0
 40
9.0
 40
9.0
 40
9.0
 40
10.0
 40
10.0
 40
10.0
 40
11.0
 40
11.0
 40
11.0
 40
12.0
 40
12.0
 40
12.0
 40
13.0
 40
13.0
 40
13.0
 40
14.0
 40
14.0
 40
14.0
 40
15.0
 40
15.0
 40
15.0
 40
16.0
 40
16.0
 40
16.0
 40
17.0
 40
17.0
 40
17.0
 40
18.0
 40
18.0
 40
18.0
 40
18.0
 10
133.8106092330404
 20
138.2072400913162
 30
0.0
 10
133.8106092330404
 20
138.2072400913162
 30
0.0
 10
133.6252630959339
 20
138.3839734897096
 30
0.0
 10
133.6252630959339
 20
138.3839734897096
 30
0.0
 10
133.5573947148745
 20
138.3378092102072
 30
0.0
 10
133.480913595102
 20
138.3026692362577
 30
0.0
 10
133.3965087557134
 20
138.2778645487639
 30
0.0
 10
133.3121039163247
 20
138.2527153517215
 30
0.0
 10
133.211851637704
 20
138.2403130079746
 30
0.0
 10
133.0964409389481
 20
138.2403130079746
 30
0.0
 10
132.8880126620905
 20
138.2403130079746
 30
0.0
 10
132.7026665249841
 20
138.2988796312239
 30
0.0
 10
132.5404025276288
 20
138.4156683681738
 30
0.0
 10
132.378483039822
 20
138.5328016146723
 30
0.0
 10
132.2975232959187
 20
138.7033338411922
 30
0.0
 10
132.2975232959187
 20
138.9272650477334
 30
0.0
 10
132.2975232959187
 20
139.0437092751349
 30
0.0
 10
132.3181938688302
 20
139.1460286110468
 30
0.0
 10
132.3598795242017
 20
139.2338785459207
 30
0.0
 10
132.384339702147
 20
139.2855549781994
 30
0.0
 10
132.4239583002273
 20
139.3448106205457
 30
0.0
 10
132.4790798279913
 20
139.4113009634111
 30
0.0
 10
132.4790798279913
 20
139.4113009634111
 30
0.0
 10
132.2851209521717
 20
139.5870008331588
 30
0.0
 10
132.2851209521717
 20
139.5870008331588
 30
0.0
 10
132.2851209521717
 20
139.5870008331588
 30
0.0
 10
132.3554009000709
 20
139.6583143097035
 30
0.0
 10
132.3554009000709
 20
139.6583143097035
 30
0.0
 10
132.3554009000709
 20
139.6583143097035
 30
0.0
 10
132.5528048713757
 20
139.4812364017616
 30
0.0
 10
132.5528048713757
 20
139.4812364017616
 30
0.0
 10
132.6372097107643
 20
139.5394585154623
 30
0.0
 10
132.7340168938998
 20
139.5807996612854
 30
0.0
 10
132.8435709303307
 20
139.6056043487791
 30
0.0
 10
132.9141953877784
 20
139.6214517880113
 30
0.0
 10
132.984819845226
 20
139.6293755076273
 30
0.0
 10
133.0554443026736
 20
139.6293755076273
 30
0.0
 10
133.2924668720588
 20
139.6293755076273
 30
0.0
 10
133.4878037860725
 20
139.5649522220532
 30
0.0
 10
133.6417995542632
 20
139.4361056509048
 30
0.0
 10
133.7957953224538
 20
139.3072590797565
 30
0.0
 10
133.8726209517749
 20
139.1356933245911
 30
0.0
 10
133.8726209517749
 20
138.9214083854085
 30
0.0
 10
133.8726209517749
 20
138.8194335590451
 30
0.0
 10
133.8578070411883
 20
138.7284830382345
 30
0.0
 10
133.8278347104666
 20
138.6489013325252
 30
0.0
 10
133.7982068892935
 20
138.569319626816
 30
0.0
 10
133.7575547625675
 20
138.5045518316933
 30
0.0
 10
133.7062228398373
 20
138.4556314758027
 30
0.0
 10
133.7062228398373
 20
138.4556314758027
 30
0.0
 10
133.8822672191336
 20
138.2885443447681
 30
0.0
 10
133.8822672191336
 20
138.2885443447681
 30
0.0
 10
133.8822672191336
 20
138.2885443447681
 30
0.0
 10
133.8106092330404
 20
138.2072400913162
 30
0.0
 10
133.8106092330404
 20
138.2072400913162
 30
0.0
  0
HATCH
  5
2D8
330
2D1
100
AcDbEntity
  8
Sichtbar (ISO)
 62
   250
420
  2039067
440
 33554687
100
AcDbHatch
 10
0.0
 20
0.0
 30
0.0
210
0.0
220
0.0
230
1.0
  2
SOLID
 70
     1
 71
     1
 91
        3
 92
        1
 93
        1
 72
     4
 94
        3
 73
     0
 74
     0
 95
       26
 96
       22
 40
0.0
 40
0.0
 40
0.0
 40
0.0
 40
1.0
 40
1.0
 40
1.0
 40
2.0
 40
2.0
 40
2.0
 40
3.0
 40
3.0
 40
3.0
 40
4.0
 40
4.0
 40
4.0
 40
5.0
 40
5.0
 40
5.0
 40
6.0
 40
6.0
 40
6.0
 40
7.0
 40
7.0
 40
7.0
 40
7.0
 10
133.6287081914192
 20
138.7653455599267
 10
133.646967197491
 20
138.8184000303996
 10
133.6562689553012
 20
138.872488029518
 10
133.6562689553012
 20
138.9269205381849
 10
133.6562689553012
 20
139.1026204079327
 10
133.5742756827523
 20
139.2273328644987
 10
133.4109781567514
 20
139.3007133983345
 10
133.3124484258732
 20
139.3451551300942
 10
133.1994492939571
 20
139.3675482507484
 10
133.0719807610028
 20
139.3675482507484
 10
132.9892984693568
 20
139.3675482507484
 10
132.9179849928121
 20
139.3603135502293
 10
132.8583848409173
 20
139.3465331682883
 10
132.826000943356
 20
139.3389539582208
 10
132.7884494025667
 20
139.3262071049254
 10
132.7453857090011
 20
139.3086371179506
 10
132.7453857090011
 20
139.3086371179506
 10
133.5236327791191
 20
138.6175509636095
 10
133.5236327791191
 20
138.6175509636095
 10
133.5756537209463
 20
138.6630262240148
 10
133.6107936948959
 20
138.7126355990024
 10
133.6287081914192
 20
138.7653455599267
 97
        0
 97
        1
330
2D5
 92
        1
 93
        1
 72
     4
 94
        3
 73
     0
 74
     0
 95
       26
 96
       22
 40
0.0
 40
0.0
 40
0.0
 40
0.0
 40
1.0
 40
1.0
 40
1.0
 40
2.0
 40
2.0
 40
2.0
 40
3.0
 40
3.0
 40
3.0
 40
4.0
 40
4.0
 40
4.0
 40
5.0
 40
5.0
 40
5.0
 40
6.0
 40
6.0
 40
6.0
 40
7.0
 40
7.0
 40
7.0
 40
7.0
 10
132.5548719286668
 20
139.1291476431691
 10
132.5283446934304
 20
139.0716145485654
 10
132.5152533305864
 20
139.0075357725398
 10
132.5152533305864
 20
138.9369113150922
 10
132.5152533305864
 20
138.8022080816189
 10
132.5710638774475
 20
138.6943765929306
 10
132.6830294807181
 20
138.6130723394787
 10
132.7946505744402
 20
138.5317680860268
 10
132.9383110561751
 20
138.4911159593008
 10
133.1140109259228
 20
138.4911159593008
 10
133.1805012687882
 20
138.4911159593008
 10
133.2438910257168
 20
138.4983506598198
 10
133.3045247062572
 20
138.5124755513094
 10
133.3386311515611
 20
138.5210882900225
 10
133.3816948451268
 20
138.5348686719635
 10
133.4344048060511
 20
138.5548502257779
 10
133.4344048060511
 20
138.5548502257779
 10
132.6523681308994
 20
139.2545491188322
 10
132.6523681308994
 20
139.2545491188322
 10
132.6137830614646
 20
139.2287109026928
 10
132.5813991639032
 20
139.1866807377728
 10
132.5548719286668
 20
139.1291476431691
 97
        0
 97
        1
330
2D6
 92
        1
 93
        1
 72
     4
 94
        3
 73
     0
 74
     0
 95
       59
 96
       55
 40
0.0
 40
0.0
 40
0.0
 40
0.0
 40
1.0
 40
1.0
 40
1.0
 40
2.0
 40
2.0
 40
2.0
 40
3.0
 40
3.0
 40
3.0
 40
4.0
 40
4.0
 40
4.0
 40
5.0
 40
5.0
 40
5.0
 40
6.0
 40
6.0
 40
6.0
 40
7.0
 40
7.0
 40
7.0
 40
8.0
 40
8.0
 40
8.0
 40
9.0
 40
9.0
 40
9.0
 40
10.0
 40
10.0
 40
10.0
 40
11.0
 40
11.0
 40
11.0
 40
12.0
 40
12.0
 40
12.0
 40
13.0
 40
13.0
 40
13.0
 40
14.0
 40
14.0
 40
14.0
 40
15.0
 40
15.0
 40
15.0
 40
16.0
 40
16.0
 40
16.0
 40
17.0
 40
17.0
 40
17.0
 40
18.0
 40
18.0
 40
18.0
 40
18.0
 10
133.8106092330404
 20
138.2072400913162
 10
133.8106092330404
 20
138.2072400913162
 10
133.6252630959339
 20
138.3839734897096
 10
133.6252630959339
 20
138.3839734897096
 10
133.5573947148745
 20
138.3378092102072
 10
133.480913595102
 20
138.3026692362577
 10
133.3965087557134
 20
138.2778645487639
 10
133.3121039163247
 20
138.2527153517215
 10
133.211851637704
 20
138.2403130079746
 10
133.0964409389481
 20
138.2403130079746
 10
132.8880126620905
 20
138.2403130079746
 10
132.7026665249841
 20
138.2988796312239
 10
132.5404025276288
 20
138.4156683681738
 10
132.378483039822
 20
138.5328016146723
 10
132.2975232959187
 20
138.7033338411922
 10
132.2975232959187
 20
138.9272650477334
 10
132.2975232959187
 20
139.0437092751349
 10
132.3181938688302
 20
139.1460286110468
 10
132.3598795242017
 20
139.2338785459207
 10
132.384339702147
 20
139.2855549781994
 10
132.4239583002273
 20
139.3448106205457
 10
132.4790798279913
 20
139.4113009634111
 10
132.4790798279913
 20
139.4113009634111
 10
132.2851209521717
 20
139.5870008331588
 10
132.2851209521717
 20
139.5870008331588
 10
132.2851209521717
 20
139.5870008331588
 10
132.3554009000709
 20
139.6583143097035
 10
132.3554009000709
 20
139.6583143097035
 10
132.3554009000709
 20
139.6583143097035
 10
132.5528048713757
 20
139.4812364017616
 10
132.5528048713757
 20
139.4812364017616
 10
132.6372097107643
 20
139.5394585154623
 10
132.7340168938998
 20
139.5807996612854
 10
132.8435709303307
 20
139.6056043487791
 10
132.9141953877784
 20
139.6214517880113
 10
132.984819845226
 20
139.6293755076273
 10
133.0554443026736
 20
139.6293755076273
 10
133.2924668720588
 20
139.6293755076273
 10
133.4878037860725
 20
139.5649522220532
 10
133.6417995542632
 20
139.4361056509048
 10
133.7957953224538
 20
139.3072590797565
 10
133.8726209517749
 20
139.1356933245911
 10
133.8726209517749
 20
138.9214083854085
 10
133.8726209517749
 20
138.8194335590451
 10
133.8578070411883
 20
138.7284830382345
 10
133.8278347104666
 20
138.6489013325252
 10
133.7982068892935
 20
138.569319626816
 10
133.7575547625675
 20
138.5045518316933
 10
133.7062228398373
 20
138.4556314758027
 10
133.7062228398373
 20
138.4556314758027
 10
133.8822672191336
 20
138.2885443447681
 10
133.8822672191336
 20
138.2885443447681
 10
133.8822672191336
 20
138.2885443447681
 10
133.8106092330404
 20
138.2072400913162
 10
133.8106092330404
 20
138.2072400913162
 97
        0
 97
        1
330
2D7
 75
     2
 76
     1
 98
        1
 10
0.0
 20
0.0
450
        0
451
        0
460
0.0
461
0.0
452
        0
462
0.0
453
        0
470

  0
SPLINE
  5
2D9
330
2D1
100
AcDbEntity
  8
Sichtbar (ISO)
100
AcDbSpline
210
0.0
220
0.0
230
1.0
 70
     9
 71
     3
 72
    41
 73
    37
 74
     0
 42
0.0000000001
 43
0.0000000001
 40
0.0
 40
0.0
 40
0.0
 40
0.0
 40
1.0
 40
1.0
 40
1.0
 40
2.0
 40
2.0
 40
2.0
 40
3.0
 40
3.0
 40
3.0
 40
4.0
 40
4.0
 40
4.0
 40
5.0
 40
5.0
 40
5.0
 40
6.0
 40
6.0
 40
6.0
 40
7.0
 40
7.0
 40
7.0
 40
8.0
 40
8.0
 40
8.0
 40
9.0
 40
9.0
 40
9.0
 40
10.0
 40
10.0
 40
10.0
 40
11.0
 40
11.0
 40
11.0
 40
12.0
 40
12.0
 40
12.0
 40
12.0
 10
132.99791120807
 20
140.4334607938847
 30
0.0
 10
132.7863823452756
 20
140.7721136800847
 30
0.0
 10
132.667871060583
 20
140.9440239447987
 30
0.0
 10
132.3888183262778
 20
140.9440239447987
 30
0.0
 10
132.1714328011585
 20
140.9440239447987
 30
0.0
 10
132.0277723194236
 20
140.769013094148
 30
0.0
 10
132.0277723194236
 20
140.5574842313537
 30
0.0
 10
132.0277723194236
 20
140.2780869874999
 30
0.0
 10
132.2844319330747
 20
140.1595757028073
 30
0.0
 10
132.5242105788481
 20
140.1681884415205
 30
0.0
 10
132.5242105788481
 20
140.1681884415205
 30
0.0
 10
132.5242105788481
 20
139.928409795747
 30
0.0
 10
132.5242105788481
 20
139.928409795747
 30
0.0
 10
132.1180338211372
 20
139.9060166750929
 30
0.0
 10
131.8162434566293
 20
140.1485513972545
 30
0.0
 10
131.8162434566293
 20
140.5716091228432
 30
0.0
 10
131.8162434566293
 20
140.9185302382078
 30
0.0
 10
132.0191595807105
 20
141.1979274820616
 30
0.0
 10
132.391574402666
 20
141.1979274820616
 30
0.0
 10
132.7443521803556
 20
141.1979274820616
 30
0.0
 10
132.9190185214577
 20
140.9609049126764
 30
0.0
 10
133.0771484042307
 20
140.7128580377384
 30
0.0
 10
133.2266655482905
 20
140.4644666532519
 30
0.0
 10
133.3589572149241
 20
140.1964382244995
 30
0.0
 10
133.6045925230224
 20
140.1513074736427
 30
0.0
 10
133.6045925230224
 20
140.1513074736427
 30
0.0
 10
133.6045925230224
 20
141.1779459282472
 30
0.0
 10
133.6045925230224
 20
141.1779459282472
 30
0.0
 10
133.6045925230224
 20
141.1779459282472
 30
0.0
 10
133.8161213858168
 20
141.1779459282472
 30
0.0
 10
133.8161213858168
 20
141.1779459282472
 30
0.0
 10
133.8161213858168
 20
141.1779459282472
 30
0.0
 10
133.8161213858168
 20
139.8722547393375
 30
0.0
 10
133.8161213858168
 20
139.8722547393375
 30
0.0
 10
133.3448323234346
 20
139.9087727514811
 30
0.0
 10
133.1674099059442
 20
140.1513074736427
 30
0.0
 10
132.99791120807
 20
140.4334607938847
 30
0.0
  0
HATCH
  5
2DA
330
2D1
100
AcDbEntity
  8
Sichtbar (ISO)
 62
    18
420
        0
440
 33554687
100
AcDbHatch
 10
0.0
 20
0.0
 30
0.0
210
0.0
220
0.0
230
1.0
  2
SOLID
 70
     1
 71
     1
 91
        1
 92
        1
 93
        1
 72
     4
 94
        3
 73
     0
 74
     0
 95
       41
 96
       37
 40
0.0
 40
0.0
 40
0.0
 40
0.0
 40
1.0
 40
1.0
 40
1.0
 40
2.0
 40
2.0
 40
2.0
 40
3.0
 40
3.0
 40
3.0
 40
4.0
 40
4.0
 40
4.0
 40
5.0
 40
5.0
 40
5.0
 40
6.0
 40
6.0
 40
6.0
 40
7.0
 40
7.0
 40
7.0
 40
8.0
 40
8.0
 40
8.0
 40
9.0
 40
9.0
 40
9.0
 40
10.0
 40
10.0
 40
10.0
 40
11.0
 40
11.0
 40
11.0
 40
12.0
 40
12.0
 40
12.0
 40
12.0
 10
132.99791120807
 20
140.4334607938847
 10
132.7863823452756
 20
140.7721136800847
 10
132.667871060583
 20
140.9440239447987
 10
132.3888183262778
 20
140.9440239447987
 10
132.1714328011585
 20
140.9440239447987
 10
132.0277723194236
 20
140.769013094148
 10
132.0277723194236
 20
140.5574842313537
 10
132.0277723194236
 20
140.2780869874999
 10
132.2844319330747
 20
140.1595757028073
 10
132.5242105788481
 20
140.1681884415205
 10
132.5242105788481
 20
140.1681884415205
 10
132.5242105788481
 20
139.928409795747
 10
132.5242105788481
 20
139.928409795747
 10
132.1180338211372
 20
139.9060166750929
 10
131.8162434566293
 20
140.1485513972545
 10
131.8162434566293
 20
140.5716091228432
 10
131.8162434566293
 20
140.9185302382078
 10
132.0191595807105
 20
141.1979274820616
 10
132.391574402666
 20
141.1979274820616
 10
132.7443521803556
 20
141.1979274820616
 10
132.9190185214577
 20
140.9609049126764
 10
133.0771484042307
 20
140.7128580377384
 10
133.2266655482905
 20
140.4644666532519
 10
133.3589572149241
 20
140.1964382244995
 10
133.6045925230224
 20
140.1513074736427
 10
133.6045925230224
 20
140.1513074736427
 10
133.6045925230224
 20
141.1779459282472
 10
133.6045925230224
 20
141.1779459282472
 10
133.6045925230224
 20
141.1779459282472
 10
133.8161213858168
 20
141.1779459282472
 10
133.8161213858168
 20
141.1779459282472
 10
133.8161213858168
 20
141.1779459282472
 10
133.8161213858168
 20
139.8722547393375
 10
133.8161213858168
 20
139.8722547393375
 10
133.3448323234346
 20
139.9087727514811
 10
133.1674099059442
 20
140.1513074736427
 10
132.99791120807
 20
140.4334607938847
 97
        0
 97
        1
330
2D9
 75
     2
 76
     1
 98
        1
 10
0.0
 20
0.0
450
        0
451
        0
460
0.0
461
0.0
452
        0
462
0.0
453
        0
470

  0
SPLINE
  5
2DB
330
2D1
100
AcDbEntity
  8
Sichtbar (ISO)
100
AcDbSpline
210
0.0
220
0.0
230
1.0
 70
     9
 71
     3
 72
    17
 73
    13
 74
     0
 42
0.0000000001
 43
0.0000000001
 40
0.0
 40
0.0
 40
0.0
 40
0.0
 40
1.0
 40
1.0
 40
1.0
 40
2.0
 40
2.0
 40
2.0
 40
3.0
 40
3.0
 40
3.0
 40
4.0
 40
4.0
 40
4.0
 40
4.0
 10
132.4845919807677
 20
142.527045320271
 30
0.0
 10
132.2393011822179
 20
142.527045320271
 30
0.0
 10
132.0277723194236
 20
142.3833848385361
 30
0.0
 10
132.0277723194236
 20
142.1157009193322
 30
0.0
 10
132.0277723194236
 20
141.8304470131535
 30
0.0
 10
132.2561821500957
 20
141.7233045435622
 30
0.0
 10
132.5014729486454
 20
141.7233045435622
 30
0.0
 10
132.7188584737647
 20
141.7233045435622
 30
0.0
 10
132.9248751837827
 20
141.8869465791116
 30
0.0
 10
132.9248751837827
 20
142.1184569957204
 30
0.0
 10
132.9248751837827
 20
142.3692599470465
 30
0.0
 10
132.7216145501529
 20
142.527045320271
 30
0.0
 10
132.4845919807677
 20
142.527045320271
 30
0.0
  0
SPLINE
  5
2DC
330
2D1
100
AcDbEntity
  8
Sichtbar (ISO)
100
AcDbSpline
210
0.0
220
0.0
230
1.0
 70
     9
 71
     3
 72
    35
 73
    31
 74
     0
 42
0.0000000001
 43
0.0000000001
 40
0.0
 40
0.0
 40
0.0
 40
0.0
 40
1.0
 40
1.0
 40
1.0
 40
2.0
 40
2.0
 40
2.0
 40
3.0
 40
3.0
 40
3.0
 40
4.0
 40
4.0
 40
4.0
 40
5.0
 40
5.0
 40
5.0
 40
6.0
 40
6.0
 40
6.0
 40
7.0
 40
7.0
 40
7.0
 40
8.0
 40
8.0
 40
8.0
 40
9.0
 40
9.0
 40
9.0
 40
10.0
 40
10.0
 40
10.0
 40
10.0
 10
133.3338080178818
 20
141.7515543265412
 30
0.0
 10
133.5284559127984
 20
141.7711913708072
 30
0.0
 10
133.6383544587779
 20
141.926565177192
 30
0.0
 10
133.6383544587779
 20
142.1184569957204
 30
0.0
 10
133.6383544587779
 20
142.4116346215151
 30
0.0
 10
133.384450921515
 20
142.55529510325
 30
0.0
 10
132.8656195414364
 20
142.5697645042881
 30
0.0
 10
132.8656195414364
 20
142.5697645042881
 30
0.0
 10
132.8597628791114
 20
142.5639078419631
 30
0.0
 10
132.8597628791114
 20
142.5639078419631
 30
0.0
 10
133.0289170674372
 20
142.4736463402496
 30
0.0
 10
133.136404046577
 20
142.2962239227593
 30
0.0
 10
133.136404046577
 20
142.1012315182941
 30
0.0
 10
133.136404046577
 20
141.6922986841949
 30
0.0
 10
132.8625189554996
 20
141.4694010062993
 30
0.0
 10
132.46771101289
 20
141.4694010062993
 30
0.0
 10
132.0842718853817
 20
141.4694010062993
 30
0.0
 10
131.8162434566293
 20
141.7401855114399
 30
0.0
 10
131.8162434566293
 20
142.126725224885
 30
0.0
 10
131.8162434566293
 20
142.4991400468405
 30
0.0
 10
132.0164035043223
 20
142.8122992264497
 30
0.0
 10
132.7722574537861
 20
142.8122992264497
 30
0.0
 10
133.4633436081272
 20
142.8122992264497
 30
0.0
 10
133.8498833215722
 20
142.6035264400435
 30
0.0
 10
133.8498833215722
 20
142.1184569957204
 30
0.0
 10
133.8498833215722
 20
141.7825601859085
 30
0.0
 10
133.6779730568583
 20
141.5427815401351
 30
0.0
 10
133.3338080178818
 20
141.5117756807679
 30
0.0
 10
133.3338080178818
 20
141.5117756807679
 30
0.0
 10
133.3338080178818
 20
141.7515543265412
 30
0.0
 10
133.3338080178818
 20
141.7515543265412
 30
0.0
  0
HATCH
  5
2DD
330
2D1
100
AcDbEntity
  8
Sichtbar (ISO)
 62
    18
420
        0
440
 33554687
100
AcDbHatch
 10
0.0
 20
0.0
 30
0.0
210
0.0
220
0.0
230
1.0
  2
SOLID
 70
     1
 71
     1
 91
        2
 92
        1
 93
        1
 72
     4
 94
        3
 73
     0
 74
     0
 95
       17
 96
       13
 40
0.0
 40
0.0
 40
0.0
 40
0.0
 40
1.0
 40
1.0
 40
1.0
 40
2.0
 40
2.0
 40
2.0
 40
3.0
 40
3.0
 40
3.0
 40
4.0
 40
4.0
 40
4.0
 40
4.0
 10
132.4845919807677
 20
142.527045320271
 10
132.2393011822179
 20
142.527045320271
 10
132.0277723194236
 20
142.3833848385361
 10
132.0277723194236
 20
142.1157009193322
 10
132.0277723194236
 20
141.8304470131535
 10
132.2561821500957
 20
141.7233045435622
 10
132.5014729486454
 20
141.7233045435622
 10
132.7188584737647
 20
141.7233045435622
 10
132.9248751837827
 20
141.8869465791116
 10
132.9248751837827
 20
142.1184569957204
 10
132.9248751837827
 20
142.3692599470465
 10
132.7216145501529
 20
142.527045320271
 10
132.4845919807677
 20
142.527045320271
 97
        0
 97
        1
330
2DB
 92
        1
 93
        1
 72
     4
 94
        3
 73
     0
 74
     0
 95
       35
 96
       31
 40
0.0
 40
0.0
 40
0.0
 40
0.0
 40
1.0
 40
1.0
 40
1.0
 40
2.0
 40
2.0
 40
2.0
 40
3.0
 40
3.0
 40
3.0
 40
4.0
 40
4.0
 40
4.0
 40
5.0
 40
5.0
 40
5.0
 40
6.0
 40
6.0
 40
6.0
 40
7.0
 40
7.0
 40
7.0
 40
8.0
 40
8.0
 40
8.0
 40
9.0
 40
9.0
 40
9.0
 40
10.0
 40
10.0
 40
10.0
 40
10.0
 10
133.3338080178818
 20
141.7515543265412
 10
133.5284559127984
 20
141.7711913708072
 10
133.6383544587779
 20
141.926565177192
 10
133.6383544587779
 20
142.1184569957204
 10
133.6383544587779
 20
142.4116346215151
 10
133.384450921515
 20
142.55529510325
 10
132.8656195414364
 20
142.5697645042881
 10
132.8656195414364
 20
142.5697645042881
 10
132.8597628791114
 20
142.5639078419631
 10
132.8597628791114
 20
142.5639078419631
 10
133.0289170674372
 20
142.4736463402496
 10
133.136404046577
 20
142.2962239227593
 10
133.136404046577
 20
142.1012315182941
 10
133.136404046577
 20
141.6922986841949
 10
132.8625189554996
 20
141.4694010062993
 10
132.46771101289
 20
141.4694010062993
 10
132.0842718853817
 20
141.4694010062993
 10
131.8162434566293
 20
141.7401855114399
 10
131.8162434566293
 20
142.126725224885
 10
131.8162434566293
 20
142.4991400468405
 10
132.0164035043223
 20
142.8122992264497
 10
132.7722574537861
 20
142.8122992264497
 10
133.4633436081272
 20
142.8122992264497
 10
133.8498833215722
 20
142.6035264400435
 10
133.8498833215722
 20
142.1184569957204
 10
133.8498833215722
 20
141.7825601859085
 10
133.6779730568583
 20
141.5427815401351
 10
133.3338080178818
 20
141.5117756807679
 10
133.3338080178818
 20
141.5117756807679
 10
133.3338080178818
 20
141.7515543265412
 10
133.3338080178818
 20
141.7515543265412
 97
        0
 97
        1
330
2DC
 75
     2
 76
     1
 98
        1
 10
0.0
 20
0.0
450
        0
451
        0
460
0.0
461
0.0
452
        0
462
0.0
453
        0
470

  0
SPLINE
  5
2DE
330
2D1
100
AcDbEntity
  8
Sichtbar (ISO)
100
AcDbSpline
210
0.0
220
0.0
230
1.0
 70
     9
 71
     3
 72
    53
 73
    49
 74
     0
 42
0.0000000001
 43
0.0000000001
 40
0.0
 40
0.0
 40
0.0
 40
0.0
 40
1.0
 40
1.0
 40
1.0
 40
2.0
 40
2.0
 40
2.0
 40
3.0
 40
3.0
 40
3.0
 40
4.0
 40
4.0
 40
4.0
 40
5.0
 40
5.0
 40
5.0
 40
6.0
 40
6.0
 40
6.0
 40
7.0
 40
7.0
 40
7.0
 40
8.0
 40
8.0
 40
8.0
 40
9.0
 40
9.0
 40
9.0
 40
10.0
 40
10.0
 40
10.0
 40
11.0
 40
11.0
 40
11.0
 40
12.0
 40
12.0
 40
12.0
 40
13.0
 40
13.0
 40
13.0
 40
14.0
 40
14.0
 40
14.0
 40
15.0
 40
15.0
 40
15.0
 40
16.0
 40
16.0
 40
16.0
 40
16.0
 10
133.2773084519237
 20
143.2815212315407
 30
0.0
 10
133.4833251619417
 20
143.2953016134817
 30
0.0
 10
133.6383544587779
 20
143.4620442349678
 30
0.0
 10
133.6383544587779
 20
143.7018228807412
 30
0.0
 10
133.6383544587779
 20
143.9298882018647
 30
0.0
 10
133.4802245760049
 20
144.1248806063299
 30
0.0
 10
133.1643093200075
 20
144.1248806063299
 30
0.0
 10
132.90213755358
 20
144.1248806063299
 30
0.0
 10
132.7102457350516
 20
143.9443576029028
 30
0.0
 10
132.7102457350516
 20
143.6735730977621
 30
0.0
 10
132.7102457350516
 20
143.5181992913774
 30
0.0
 10
132.7863823452756
 20
143.3941758539084
 30
0.0
 10
132.8993814771918
 20
143.3011582758066
 30
0.0
 10
132.8993814771918
 20
143.3011582758066
 30
0.0
 10
132.8880126620905
 20
143.0951415657887
 30
0.0
 10
132.8880126620905
 20
143.0951415657887
 30
0.0
 10
132.8880126620905
 20
143.0951415657887
 30
0.0
 10
131.8500053923847
 20
143.2815212315407
 30
0.0
 10
131.8500053923847
 20
143.2815212315407
 30
0.0
 10
131.8500053923847
 20
143.2815212315407
 30
0.0
 10
131.8500053923847
 20
144.2685410880648
 30
0.0
 10
131.8500053923847
 20
144.2685410880648
 30
0.0
 10
131.8500053923847
 20
144.2685410880648
 30
0.0
 10
132.061534255179
 20
144.2685410880648
 30
0.0
 10
132.061534255179
 20
144.2685410880648
 30
0.0
 10
132.061534255179
 20
144.2685410880648
 30
0.0
 10
132.061534255179
 20
143.4620442349678
 30
0.0
 10
132.061534255179
 20
143.4620442349678
 30
0.0
 10
132.061534255179
 20
143.4620442349678
 30
0.0
 10
132.6368652012158
 20
143.354557255828
 30
0.0
 10
132.6368652012158
 20
143.354557255828
 30
0.0
 10
132.6368652012158
 20
143.354557255828
 30
0.0
 10
132.6427218635407
 20
143.360413918153
 30
0.0
 10
132.6427218635407
 20
143.360413918153
 30
0.0
 10
132.543847623114
 20
143.4475748339298
 30
0.0
 10
132.4987168722572
 20
143.5970919779896
 30
0.0
 10
132.4987168722572
 20
143.7328287401084
 30
0.0
 10
132.4987168722572
 20
144.0880180846377
 30
0.0
 10
132.7243706265411
 20
144.3784396340443
 30
0.0
 10
133.184290873822
 20
144.3784396340443
 30
0.0
 10
133.5225992504735
 20
144.3784396340443
 30
0.0
 10
133.8498833215722
 20
144.1445176505958
 30
0.0
 10
133.8498833215722
 20
143.6790852505386
 30
0.0
 10
133.8498833215722
 20
143.3321641351739
 30
0.0
 10
133.6383544587779
 20
143.0500108149319
 30
0.0
 10
133.2773084519237
 20
143.0417425857673
 30
0.0
 10
133.2773084519237
 20
143.0417425857673
 30
0.0
 10
133.2773084519237
 20
143.2815212315407
 30
0.0
 10
133.2773084519237
 20
143.2815212315407
 30
0.0
  0
HATCH
  5
2DF
330
2D1
100
AcDbEntity
  8
Sichtbar (ISO)
 62
    18
420
        0
440
 33554687
100
AcDbHatch
 10
0.0
 20
0.0
 30
0.0
210
0.0
220
0.0
230
1.0
  2
SOLID
 70
     1
 71
     1
 91
        1
 92
        1
 93
        1
 72
     4
 94
        3
 73
     0
 74
     0
 95
       53
 96
       49
 40
0.0
 40
0.0
 40
0.0
 40
0.0
 40
1.0
 40
1.0
 40
1.0
 40
2.0
 40
2.0
 40
2.0
 40
3.0
 40
3.0
 40
3.0
 40
4.0
 40
4.0
 40
4.0
 40
5.0
 40
5.0
 40
5.0
 40
6.0
 40
6.0
 40
6.0
 40
7.0
 40
7.0
 40
7.0
 40
8.0
 40
8.0
 40
8.0
 40
9.0
 40
9.0
 40
9.0
 40
10.0
 40
10.0
 40
10.0
 40
11.0
 40
11.0
 40
11.0
 40
12.0
 40
12.0
 40
12.0
 40
13.0
 40
13.0
 40
13.0
 40
14.0
 40
14.0
 40
14.0
 40
15.0
 40
15.0
 40
15.0
 40
16.0
 40
16.0
 40
16.0
 40
16.0
 10
133.2773084519237
 20
143.2815212315407
 10
133.4833251619417
 20
143.2953016134817
 10
133.6383544587779
 20
143.4620442349678
 10
133.6383544587779
 20
143.7018228807412
 10
133.6383544587779
 20
143.9298882018647
 10
133.4802245760049
 20
144.1248806063299
 10
133.1643093200075
 20
144.1248806063299
 10
132.90213755358
 20
144.1248806063299
 10
132.7102457350516
 20
143.9443576029028
 10
132.7102457350516
 20
143.6735730977621
 10
132.7102457350516
 20
143.5181992913774
 10
132.7863823452756
 20
143.3941758539084
 10
132.8993814771918
 20
143.3011582758066
 10
132.8993814771918
 20
143.3011582758066
 10
132.8880126620905
 20
143.0951415657887
 10
132.8880126620905
 20
143.0951415657887
 10
132.8880126620905
 20
143.0951415657887
 10
131.8500053923847
 20
143.2815212315407
 10
131.8500053923847
 20
143.2815212315407
 10
131.8500053923847
 20
143.2815212315407
 10
131.8500053923847
 20
144.2685410880648
 10
131.8500053923847
 20
144.2685410880648
 10
131.8500053923847
 20
144.2685410880648
 10
132.061534255179
 20
144.2685410880648
 10
132.061534255179
 20
144.2685410880648
 10
132.061534255179
 20
144.2685410880648
 10
132.061534255179
 20
143.4620442349678
 10
132.061534255179
 20
143.4620442349678
 10
132.061534255179
 20
143.4620442349678
 10
132.6368652012158
 20
143.354557255828
 10
132.6368652012158
 20
143.354557255828
 10
132.6368652012158
 20
143.354557255828
 10
132.6427218635407
 20
143.360413918153
 10
132.6427218635407
 20
143.360413918153
 10
132.543847623114
 20
143.4475748339298
 10
132.4987168722572
 20
143.5970919779896
 10
132.4987168722572
 20
143.7328287401084
 10
132.4987168722572
 20
144.0880180846377
 10
132.7243706265411
 20
144.3784396340443
 10
133.184290873822
 20
144.3784396340443
 10
133.5225992504735
 20
144.3784396340443
 10
133.8498833215722
 20
144.1445176505958
 10
133.8498833215722
 20
143.6790852505386
 10
133.8498833215722
 20
143.3321641351739
 10
133.6383544587779
 20
143.0500108149319
 10
133.2773084519237
 20
143.0417425857673
 10
133.2773084519237
 20
143.0417425857673
 10
133.2773084519237
 20
143.2815212315407
 10
133.2773084519237
 20
143.2815212315407
 97
        0
 97
        1
330
2DE
 75
     2
 76
     1
 98
        1
 10
0.0
 20
0.0
450
        0
451
        0
460
0.0
461
0.0
452
        0
462
0.0
453
        0
470

  0
ENDBLK
  5
2D4
330
2D1
100
AcDbEntity
  8
0
100
AcDbBlockEnd
  0
BLOCK
  5
2E2
330
2E0
100
AcDbEntity
  8
0
100
AcDbBlockBegin
  2
Block_38
 70
     0
 10
0.0
 20
0.0
 30
0.0
  3
Block_38
  1

  0
INSERT
  5
2E5
330
2E0
100
AcDbEntity
  8
Sichtbar (ISO)
100
AcDbBlockReference
  2
Block_39
 10
0.0
 20
0.0
 30
0.0
  0
ENDBLK
  5
2E3
330
2E0
100
AcDbEntity
  8
0
100
AcDbBlockEnd
  0
BLOCK
  5
2E6
330
2E4
100
AcDbEntity
  8
0
100
AcDbBlockBegin
  2
Block_39
 70
     0
 10
0.0
 20
0.0
 30
0.0
  3
Block_39
  1

  0
SPLINE
  5
2E8
330
2E4
100
AcDbEntity
  8
Sichtbar (ISO)
100
AcDbSpline
210
0.0
220
0.0
230
1.0
 70
     9
 71
     3
 72
    26
 73
    22
 74
     0
 42
0.0000000001
 43
0.0000000001
 40
0.0
 40
0.0
 40
0.0
 40
0.0
 40
1.0
 40
1.0
 40
1.0
 40
2.0
 40
2.0
 40
2.0
 40
3.0
 40
3.0
 40
3.0
 40
4.0
 40
4.0
 40
4.0
 40
5.0
 40
5.0
 40
5.0
 40
6.0
 40
6.0
 40
6.0
 40
7.0
 40
7.0
 40
7.0
 40
7.0
 10
140.6684163059787
 20
138.7784369227706
 30
0.0
 10
140.6866753120505
 20
138.8314913932435
 30
0.0
 10
140.6956325603122
 20
138.8855793923619
 30
0.0
 10
140.6956325603122
 20
138.9400119010289
 30
0.0
 10
140.6956325603122
 20
139.1157117707766
 30
0.0
 10
140.6139837973118
 20
139.2404242273427
 30
0.0
 10
140.4503417617624
 20
139.3138047611785
 30
0.0
 10
140.3521565404328
 20
139.3582464929382
 30
0.0
 10
140.2391574085166
 20
139.3806396135923
 30
0.0
 10
140.1113443660138
 20
139.3806396135923
 30
0.0
 10
140.0286620743678
 20
139.3806396135923
 30
0.0
 10
139.9576931073717
 20
139.3734049130733
 30
0.0
 10
139.8977484459283
 20
139.3596245311323
 30
0.0
 10
139.8657090579155
 20
139.3520453210648
 30
0.0
 10
139.8281575171263
 20
139.3392984677693
 30
0.0
 10
139.7847493140121
 20
139.3217284807946
 30
0.0
 10
139.7847493140121
 20
139.3217284807946
 30
0.0
 10
140.5629963841301
 20
138.6306423264534
 30
0.0
 10
140.5629963841301
 20
138.6306423264534
 30
0.0
 10
140.6150173259573
 20
138.6761175868587
 30
0.0
 10
140.6501572999069
 20
138.7257269618463
 30
0.0
 10
140.6684163059787
 20
138.7784369227706
 30
0.0
  0
SPLINE
  5
2E9
330
2E4
100
AcDbEntity
  8
Sichtbar (ISO)
100
AcDbSpline
210
0.0
220
0.0
230
1.0
 70
     9
 71
     3
 72
    26
 73
    22
 74
     0
 42
0.0000000001
 43
0.0000000001
 40
0.0
 40
0.0
 40
0.0
 40
0.0
 40
1.0
 40
1.0
 40
1.0
 40
2.0
 40
2.0
 40
2.0
 40
3.0
 40
3.0
 40
3.0
 40
4.0
 40
4.0
 40
4.0
 40
5.0
 40
5.0
 40
5.0
 40
6.0
 40
6.0
 40
6.0
 40
7.0
 40
7.0
 40
7.0
 40
7.0
 10
139.5942355336778
 20
139.142239006013
 30
0.0
 10
139.5680528079899
 20
139.0847059114094
 30
0.0
 10
139.5546169355974
 20
139.0206271353837
 30
0.0
 10
139.5546169355974
 20
138.9500026779361
 30
0.0
 10
139.5546169355974
 20
138.8152994444628
 30
0.0
 10
139.6104274824585
 20
138.7074679557745
 30
0.0
 10
139.7223930857291
 20
138.6261637023226
 30
0.0
 10
139.8340141794512
 20
138.5448594488707
 30
0.0
 10
139.9780191707346
 20
138.5042073221448
 30
0.0
 10
140.1537190404824
 20
138.5042073221448
 30
0.0
 10
140.2198648737992
 20
138.5042073221448
 30
0.0
 10
140.2832546307278
 20
138.5114420226638
 30
0.0
 10
140.3442328208167
 20
138.5255669141533
 30
0.0
 10
140.3779947565721
 20
138.5341796528664
 30
0.0
 10
140.4214029596863
 20
138.5479600348074
 30
0.0
 10
140.4737684110621
 20
138.5679415886219
 30
0.0
 10
140.4737684110621
 20
138.5679415886219
 30
0.0
 10
139.6920762454589
 20
139.2676404816761
 30
0.0
 10
139.6920762454589
 20
139.2676404816761
 30
0.0
 10
139.6534911760241
 20
139.2418022655368
 30
0.0
 10
139.6207627689142
 20
139.1997721006167
 30
0.0
 10
139.5942355336778
 20
139.142239006013
 30
0.0
  0
SPLINE
  5
2EA
330
2E4
100
AcDbEntity
  8
Sichtbar (ISO)
100
AcDbSpline
210
0.0
220
0.0
230
1.0
 70
    11
 71
     3
 72
    59
 73
    55
 74
     0
 42
0.0000000001
 43
0.0000000001
 40
0.0
 40
0.0
 40
0.0
 40
0.0
 40
1.0
 40
1.0
 40
1.0
 40
2.0
 40
2.0
 40
2.0
 40
3.0
 40
3.0
 40
3.0
 40
4.0
 40
4.0
 40
4.0
 40
5.0
 40
5.0
 40
5.0
 40
6.0
 40
6.0
 40
6.0
 40
7.0
 40
7.0
 40
7.0
 40
8.0
 40
8.0
 40
8.0
 40
9.0
 40
9.0
 40
9.0
 40
10.0
 40
10.0
 40
10.0
 40
11.0
 40
11.0
 40
11.0
 40
12.0
 40
12.0
 40
12.0
 40
13.0
 40
13.0
 40
13.0
 40
14.0
 40
14.0
 40
14.0
 40
15.0
 40
15.0
 40
15.0
 40
16.0
 40
16.0
 40
16.0
 40
17.0
 40
17.0
 40
17.0
 40
18.0
 40
18.0
 40
18.0
 40
18.0
 10
140.8499728380514
 20
138.2203314541602
 30
0.0
 10
140.8499728380514
 20
138.2203314541602
 30
0.0
 10
140.6646267009449
 20
138.3970648525535
 30
0.0
 10
140.6646267009449
 20
138.3970648525535
 30
0.0
 10
140.5967583198855
 20
138.3509005730511
 30
0.0
 10
140.5206217096615
 20
138.3157605991016
 30
0.0
 10
140.4362168702729
 20
138.2909559116078
 30
0.0
 10
140.3514675213357
 20
138.2658067145655
 30
0.0
 10
140.2515597522635
 20
138.2534043708186
 30
0.0
 10
140.1358045439591
 20
138.2534043708186
 30
0.0
 10
139.9273762671015
 20
138.2534043708186
 30
0.0
 10
139.742030129995
 20
138.3119709940678
 30
0.0
 10
139.5801106421883
 20
138.4287597310178
 30
0.0
 10
139.417846644833
 20
138.5458929775163
 30
0.0
 10
139.3368869009296
 20
138.7164252040361
 30
0.0
 10
139.3368869009296
 20
138.9403564105774
 30
0.0
 10
139.3368869009296
 20
139.0568006379788
 30
0.0
 10
139.3579019833897
 20
139.1591199738908
 30
0.0
 10
139.3992431292127
 20
139.2469699087646
 30
0.0
 10
139.423703307158
 20
139.2986463410434
 30
0.0
 10
139.4633219052383
 20
139.3579019833897
 30
0.0
 10
139.5184434330023
 20
139.424392326255
 30
0.0
 10
139.5184434330023
 20
139.424392326255
 30
0.0
 10
139.3248290667313
 20
139.6000921960027
 30
0.0
 10
139.3248290667313
 20
139.6000921960027
 30
0.0
 10
139.3248290667313
 20
139.6000921960027
 30
0.0
 10
139.3947645050818
 20
139.6714056725474
 30
0.0
 10
139.3947645050818
 20
139.6714056725474
 30
0.0
 10
139.3947645050818
 20
139.6714056725474
 30
0.0
 10
139.5921684763867
 20
139.4943277646056
 30
0.0
 10
139.5921684763867
 20
139.4943277646056
 30
0.0
 10
139.6769178253238
 20
139.5525498783063
 30
0.0
 10
139.7737250084593
 20
139.5938910241293
 30
0.0
 10
139.8829345353417
 20
139.6186957116231
 30
0.0
 10
139.9535589927894
 20
139.6345431508552
 30
0.0
 10
140.0245279597855
 20
139.6424668704713
 30
0.0
 10
140.0951524172331
 20
139.6424668704713
 30
0.0
 10
140.3321749866183
 20
139.6424668704713
 30
0.0
 10
140.527511900632
 20
139.5780435848971
 30
0.0
 10
140.6811631592741
 20
139.4491970137488
 30
0.0
 10
140.8351589274648
 20
139.3203504426004
 30
0.0
 10
140.9119845567859
 20
139.148784687435
 30
0.0
 10
140.9119845567859
 20
138.9344997482525
 30
0.0
 10
140.9119845567859
 20
138.8325249218891
 30
0.0
 10
140.8971706461993
 20
138.7415744010785
 30
0.0
 10
140.8675428250261
 20
138.6619926953692
 30
0.0
 10
140.8375704943045
 20
138.5824109896599
 30
0.0
 10
140.7972628771271
 20
138.5176431945372
 30
0.0
 10
140.7459309543968
 20
138.4687228386467
 30
0.0
 10
140.7459309543968
 20
138.4687228386467
 30
0.0
 10
140.9216308241446
 20
138.3016357076121
 30
0.0
 10
140.9216308241446
 20
138.3016357076121
 30
0.0
 10
140.9216308241446
 20
138.3016357076121
 30
0.0
 10
140.8499728380514
 20
138.2203314541602
 30
0.0
 10
140.8499728380514
 20
138.2203314541602
 30
0.0
  0
HATCH
  5
2EB
330
2E4
100
AcDbEntity
  8
Sichtbar (ISO)
 62
   250
420
  2039067
440
 33554687
100
AcDbHatch
 10
0.0
 20
0.0
 30
0.0
210
0.0
220
0.0
230
1.0
  2
SOLID
 70
     1
 71
     1
 91
        3
 92
        1
 93
        1
 72
     4
 94
        3
 73
     0
 74
     0
 95
       26
 96
       22
 40
0.0
 40
0.0
 40
0.0
 40
0.0
 40
1.0
 40
1.0
 40
1.0
 40
2.0
 40
2.0
 40
2.0
 40
3.0
 40
3.0
 40
3.0
 40
4.0
 40
4.0
 40
4.0
 40
5.0
 40
5.0
 40
5.0
 40
6.0
 40
6.0
 40
6.0
 40
7.0
 40
7.0
 40
7.0
 40
7.0
 10
140.6684163059787
 20
138.7784369227706
 10
140.6866753120505
 20
138.8314913932435
 10
140.6956325603122
 20
138.8855793923619
 10
140.6956325603122
 20
138.9400119010289
 10
140.6956325603122
 20
139.1157117707766
 10
140.6139837973118
 20
139.2404242273427
 10
140.4503417617624
 20
139.3138047611785
 10
140.3521565404328
 20
139.3582464929382
 10
140.2391574085166
 20
139.3806396135923
 10
140.1113443660138
 20
139.3806396135923
 10
140.0286620743678
 20
139.3806396135923
 10
139.9576931073717
 20
139.3734049130733
 10
139.8977484459283
 20
139.3596245311323
 10
139.8657090579155
 20
139.3520453210648
 10
139.8281575171263
 20
139.3392984677693
 10
139.7847493140121
 20
139.3217284807946
 10
139.7847493140121
 20
139.3217284807946
 10
140.5629963841301
 20
138.6306423264534
 10
140.5629963841301
 20
138.6306423264534
 10
140.6150173259573
 20
138.6761175868587
 10
140.6501572999069
 20
138.7257269618463
 10
140.6684163059787
 20
138.7784369227706
 97
        0
 97
        1
330
2E8
 92
        1
 93
        1
 72
     4
 94
        3
 73
     0
 74
     0
 95
       26
 96
       22
 40
0.0
 40
0.0
 40
0.0
 40
0.0
 40
1.0
 40
1.0
 40
1.0
 40
2.0
 40
2.0
 40
2.0
 40
3.0
 40
3.0
 40
3.0
 40
4.0
 40
4.0
 40
4.0
 40
5.0
 40
5.0
 40
5.0
 40
6.0
 40
6.0
 40
6.0
 40
7.0
 40
7.0
 40
7.0
 40
7.0
 10
139.5942355336778
 20
139.142239006013
 10
139.5680528079899
 20
139.0847059114094
 10
139.5546169355974
 20
139.0206271353837
 10
139.5546169355974
 20
138.9500026779361
 10
139.5546169355974
 20
138.8152994444628
 10
139.6104274824585
 20
138.7074679557745
 10
139.7223930857291
 20
138.6261637023226
 10
139.8340141794512
 20
138.5448594488707
 10
139.9780191707346
 20
138.5042073221448
 10
140.1537190404824
 20
138.5042073221448
 10
140.2198648737992
 20
138.5042073221448
 10
140.2832546307278
 20
138.5114420226638
 10
140.3442328208167
 20
138.5255669141533
 10
140.3779947565721
 20
138.5341796528664
 10
140.4214029596863
 20
138.5479600348074
 10
140.4737684110621
 20
138.5679415886219
 10
140.4737684110621
 20
138.5679415886219
 10
139.6920762454589
 20
139.2676404816761
 10
139.6920762454589
 20
139.2676404816761
 10
139.6534911760241
 20
139.2418022655368
 10
139.6207627689142
 20
139.1997721006167
 10
139.5942355336778
 20
139.142239006013
 97
        0
 97
        1
330
2E9
 92
        1
 93
        1
 72
     4
 94
        3
 73
     0
 74
     0
 95
       59
 96
       55
 40
0.0
 40
0.0
 40
0.0
 40
0.0
 40
1.0
 40
1.0
 40
1.0
 40
2.0
 40
2.0
 40
2.0
 40
3.0
 40
3.0
 40
3.0
 40
4.0
 40
4.0
 40
4.0
 40
5.0
 40
5.0
 40
5.0
 40
6.0
 40
6.0
 40
6.0
 40
7.0
 40
7.0
 40
7.0
 40
8.0
 40
8.0
 40
8.0
 40
9.0
 40
9.0
 40
9.0
 40
10.0
 40
10.0
 40
10.0
 40
11.0
 40
11.0
 40
11.0
 40
12.0
 40
12.0
 40
12.0
 40
13.0
 40
13.0
 40
13.0
 40
14.0
 40
14.0
 40
14.0
 40
15.0
 40
15.0
 40
15.0
 40
16.0
 40
16.0
 40
16.0
 40
17.0
 40
17.0
 40
17.0
 40
18.0
 40
18.0
 40
18.0
 40
18.0
 10
140.8499728380514
 20
138.2203314541602
 10
140.8499728380514
 20
138.2203314541602
 10
140.6646267009449
 20
138.3970648525535
 10
140.6646267009449
 20
138.3970648525535
 10
140.5967583198855
 20
138.3509005730511
 10
140.5206217096615
 20
138.3157605991016
 10
140.4362168702729
 20
138.2909559116078
 10
140.3514675213357
 20
138.2658067145655
 10
140.2515597522635
 20
138.2534043708186
 10
140.1358045439591
 20
138.2534043708186
 10
139.9273762671015
 20
138.2534043708186
 10
139.742030129995
 20
138.3119709940678
 10
139.5801106421883
 20
138.4287597310178
 10
139.417846644833
 20
138.5458929775163
 10
139.3368869009296
 20
138.7164252040361
 10
139.3368869009296
 20
138.9403564105774
 10
139.3368869009296
 20
139.0568006379788
 10
139.3579019833897
 20
139.1591199738908
 10
139.3992431292127
 20
139.2469699087646
 10
139.423703307158
 20
139.2986463410434
 10
139.4633219052383
 20
139.3579019833897
 10
139.5184434330023
 20
139.424392326255
 10
139.5184434330023
 20
139.424392326255
 10
139.3248290667313
 20
139.6000921960027
 10
139.3248290667313
 20
139.6000921960027
 10
139.3248290667313
 20
139.6000921960027
 10
139.3947645050818
 20
139.6714056725474
 10
139.3947645050818
 20
139.6714056725474
 10
139.3947645050818
 20
139.6714056725474
 10
139.5921684763867
 20
139.4943277646056
 10
139.5921684763867
 20
139.4943277646056
 10
139.6769178253238
 20
139.5525498783063
 10
139.7737250084593
 20
139.5938910241293
 10
139.8829345353417
 20
139.6186957116231
 10
139.9535589927894
 20
139.6345431508552
 10
140.0245279597855
 20
139.6424668704713
 10
140.0951524172331
 20
139.6424668704713
 10
140.3321749866183
 20
139.6424668704713
 10
140.527511900632
 20
139.5780435848971
 10
140.6811631592741
 20
139.4491970137488
 10
140.8351589274648
 20
139.3203504426004
 10
140.9119845567859
 20
139.148784687435
 10
140.9119845567859
 20
138.9344997482525
 10
140.9119845567859
 20
138.8325249218891
 10
140.8971706461993
 20
138.7415744010785
 10
140.8675428250261
 20
138.6619926953692
 10
140.8375704943045
 20
138.5824109896599
 10
140.7972628771271
 20
138.5176431945372
 10
140.7459309543968
 20
138.4687228386467
 10
140.7459309543968
 20
138.4687228386467
 10
140.9216308241446
 20
138.3016357076121
 10
140.9216308241446
 20
138.3016357076121
 10
140.9216308241446
 20
138.3016357076121
 10
140.8499728380514
 20
138.2203314541602
 10
140.8499728380514
 20
138.2203314541602
 97
        0
 97
        1
330
2EA
 75
     2
 76
     1
 98
        1
 10
0.0
 20
0.0
450
        0
451
        0
460
0.0
461
0.0
452
        0
462
0.0
453
        0
470

  0
SPLINE
  5
2EC
330
2E4
100
AcDbEntity
  8
Sichtbar (ISO)
100
AcDbSpline
210
0.0
220
0.0
230
1.0
 70
     9
 71
     3
 72
    62
 73
    58
 74
     0
 42
0.0000000001
 43
0.0000000001
 40
0.0
 40
0.0
 40
0.0
 40
0.0
 40
1.0
 40
1.0
 40
1.0
 40
2.0
 40
2.0
 40
2.0
 40
3.0
 40
3.0
 40
3.0
 40
4.0
 40
4.0
 40
4.0
 40
5.0
 40
5.0
 40
5.0
 40
6.0
 40
6.0
 40
6.0
 40
7.0
 40
7.0
 40
7.0
 40
8.0
 40
8.0
 40
8.0
 40
9.0
 40
9.0
 40
9.0
 40
10.0
 40
10.0
 40
10.0
 40
11.0
 40
11.0
 40
11.0
 40
12.0
 40
12.0
 40
12.0
 40
13.0
 40
13.0
 40
13.0
 40
14.0
 40
14.0
 40
14.0
 40
15.0
 40
15.0
 40
15.0
 40
16.0
 40
16.0
 40
16.0
 40
17.0
 40
17.0
 40
17.0
 40
18.0
 40
18.0
 40
18.0
 40
19.0
 40
19.0
 40
19.0
 40
19.0
 10
140.2377793703225
 20
140.141661206284
 30
0.0
 10
140.4971950603618
 20
140.1502739449971
 30
0.0
 10
140.6777180637889
 20
140.2939344267321
 30
0.0
 10
140.6777180637889
 20
140.5678195178094
 30
0.0
 10
140.6777180637889
 20
140.8017415012579
 30
0.0
 10
140.5313015056658
 20
141.0022460584994
 30
0.0
 10
140.2915228598924
 20
141.0022460584994
 30
0.0
 10
140.0403753990176
 20
141.0022460584994
 30
0.0
 10
139.9077392228355
 20
140.8131103163592
 30
0.0
 10
139.9077392228355
 20
140.5764322565225
 30
0.0
 10
139.9077392228355
 20
140.5254448433408
 30
0.0
 10
139.9104952992238
 20
140.4775580160959
 30
0.0
 10
139.9163519615487
 20
140.4324272652391
 30
0.0
 10
139.9163519615487
 20
140.4324272652391
 30
0.0
 10
139.7130913279189
 20
140.4324272652391
 30
0.0
 10
139.7130913279189
 20
140.4324272652391
 30
0.0
 10
139.7158474043072
 20
140.452064309505
 30
0.0
 10
139.7158474043072
 20
140.4689452773828
 30
0.0
 10
139.7158474043072
 20
140.486170754809
 30
0.0
 10
139.7158474043072
 20
140.486170754809
 30
0.0
 10
139.7158474043072
 20
140.5368136584422
 30
0.0
 10
139.7158474043072
 20
140.5368136584422
 30
0.0
 10
139.7158474043072
 20
140.7397297825234
 30
0.0
 10
139.6031927819395
 20
140.9174967095623
 30
0.0
 10
139.3889078427569
 20
140.9174967095623
 30
0.0
 10
139.1773789799626
 20
140.9174967095623
 30
0.0
 10
139.0671359244346
 20
140.7652234891142
 30
0.0
 10
139.0671359244346
 20
140.5619628554845
 30
0.0
 10
139.0671359244346
 20
140.3025471654452
 30
0.0
 10
139.2676404816761
 20
140.1843803903011
 30
0.0
 10
139.5015624651246
 20
140.1843803903011
 30
0.0
 10
139.5015624651246
 20
140.1843803903011
 30
0.0
 10
139.5015624651246
 20
139.9446017445277
 30
0.0
 10
139.5015624651246
 20
139.9446017445277
 30
0.0
 10
139.1208794140045
 20
139.9583821264687
 30
0.0
 10
138.8556070616403
 20
140.1616427600985
 30
0.0
 10
138.8556070616403
 20
140.5619628554845
 30
0.0
 10
138.8556070616403
 20
140.9092284803977
 30
0.0
 10
139.0220051735778
 20
141.1714002468252
 30
0.0
 10
139.3916639191451
 20
141.1714002468252
 30
0.0
 10
139.569430846184
 20
141.1714002468252
 30
0.0
 10
139.7189479902439
 20
141.0501328857444
 30
0.0
 10
139.7892279381429
 20
140.8947590793596
 30
0.0
 10
139.7892279381429
 20
140.8947590793596
 30
0.0
 10
139.7950846004679
 20
140.8947590793596
 30
0.0
 10
139.7950846004679
 20
140.8947590793596
 30
0.0
 10
139.8484835804892
 20
141.140394387458
 30
0.0
 10
140.0403753990176
 20
141.2558050862138
 30
0.0
 10
140.2801540447911
 20
141.2558050862138
 30
0.0
 10
140.6777180637889
 20
141.2558050862138
 30
0.0
 10
140.8892469265832
 20
140.9429904161531
 30
0.0
 10
140.8892469265832
 20
140.5678195178094
 30
0.0
 10
140.8892469265832
 20
140.1616427600985
 30
0.0
 10
140.6525688667465
 20
139.893614331346
 30
0.0
 10
140.2377793703225
 20
139.9018825605106
 30
0.0
 10
140.2377793703225
 20
139.9018825605106
 30
0.0
 10
140.2377793703225
 20
140.141661206284
 30
0.0
 10
140.2377793703225
 20
140.141661206284
 30
0.0
  0
HATCH
  5
2ED
330
2E4
100
AcDbEntity
  8
Sichtbar (ISO)
 62
    18
420
        0
440
 33554687
100
AcDbHatch
 10
0.0
 20
0.0
 30
0.0
210
0.0
220
0.0
230
1.0
  2
SOLID
 70
     1
 71
     1
 91
        1
 92
        1
 93
        1
 72
     4
 94
        3
 73
     0
 74
     0
 95
       62
 96
       58
 40
0.0
 40
0.0
 40
0.0
 40
0.0
 40
1.0
 40
1.0
 40
1.0
 40
2.0
 40
2.0
 40
2.0
 40
3.0
 40
3.0
 40
3.0
 40
4.0
 40
4.0
 40
4.0
 40
5.0
 40
5.0
 40
5.0
 40
6.0
 40
6.0
 40
6.0
 40
7.0
 40
7.0
 40
7.0
 40
8.0
 40
8.0
 40
8.0
 40
9.0
 40
9.0
 40
9.0
 40
10.0
 40
10.0
 40
10.0
 40
11.0
 40
11.0
 40
11.0
 40
12.0
 40
12.0
 40
12.0
 40
13.0
 40
13.0
 40
13.0
 40
14.0
 40
14.0
 40
14.0
 40
15.0
 40
15.0
 40
15.0
 40
16.0
 40
16.0
 40
16.0
 40
17.0
 40
17.0
 40
17.0
 40
18.0
 40
18.0
 40
18.0
 40
19.0
 40
19.0
 40
19.0
 40
19.0
 10
140.2377793703225
 20
140.141661206284
 10
140.4971950603618
 20
140.1502739449971
 10
140.6777180637889
 20
140.2939344267321
 10
140.6777180637889
 20
140.5678195178094
 10
140.6777180637889
 20
140.8017415012579
 10
140.5313015056658
 20
141.0022460584994
 10
140.2915228598924
 20
141.0022460584994
 10
140.0403753990176
 20
141.0022460584994
 10
139.9077392228355
 20
140.8131103163592
 10
139.9077392228355
 20
140.5764322565225
 10
139.9077392228355
 20
140.5254448433408
 10
139.9104952992238
 20
140.4775580160959
 10
139.9163519615487
 20
140.4324272652391
 10
139.9163519615487
 20
140.4324272652391
 10
139.7130913279189
 20
140.4324272652391
 10
139.7130913279189
 20
140.4324272652391
 10
139.7158474043072
 20
140.452064309505
 10
139.7158474043072
 20
140.4689452773828
 10
139.7158474043072
 20
140.486170754809
 10
139.7158474043072
 20
140.486170754809
 10
139.7158474043072
 20
140.5368136584422
 10
139.7158474043072
 20
140.5368136584422
 10
139.7158474043072
 20
140.7397297825234
 10
139.6031927819395
 20
140.9174967095623
 10
139.3889078427569
 20
140.9174967095623
 10
139.1773789799626
 20
140.9174967095623
 10
139.0671359244346
 20
140.7652234891142
 10
139.0671359244346
 20
140.5619628554845
 10
139.0671359244346
 20
140.3025471654452
 10
139.2676404816761
 20
140.1843803903011
 10
139.5015624651246
 20
140.1843803903011
 10
139.5015624651246
 20
140.1843803903011
 10
139.5015624651246
 20
139.9446017445277
 10
139.5015624651246
 20
139.9446017445277
 10
139.1208794140045
 20
139.9583821264687
 10
138.8556070616403
 20
140.1616427600985
 10
138.8556070616403
 20
140.5619628554845
 10
138.8556070616403
 20
140.9092284803977
 10
139.0220051735778
 20
141.1714002468252
 10
139.3916639191451
 20
141.1714002468252
 10
139.569430846184
 20
141.1714002468252
 10
139.7189479902439
 20
141.0501328857444
 10
139.7892279381429
 20
140.8947590793596
 10
139.7892279381429
 20
140.8947590793596
 10
139.7950846004679
 20
140.8947590793596
 10
139.7950846004679
 20
140.8947590793596
 10
139.8484835804892
 20
141.140394387458
 10
140.0403753990176
 20
141.2558050862138
 10
140.2801540447911
 20
141.2558050862138
 10
140.6777180637889
 20
141.2558050862138
 10
140.8892469265832
 20
140.9429904161531
 10
140.8892469265832
 20
140.5678195178094
 10
140.8892469265832
 20
140.1616427600985
 10
140.6525688667465
 20
139.893614331346
 10
140.2377793703225
 20
139.9018825605106
 10
140.2377793703225
 20
139.9018825605106
 10
140.2377793703225
 20
140.141661206284
 10
140.2377793703225
 20
140.141661206284
 97
        0
 97
        1
330
2EC
 75
     2
 76
     1
 98
        1
 10
0.0
 20
0.0
450
        0
451
        0
460
0.0
461
0.0
452
        0
462
0.0
453
        0
470

  0
SPLINE
  5
2EE
330
2E4
100
AcDbEntity
  8
Sichtbar (ISO)
100
AcDbSpline
210
0.0
220
0.0
230
1.0
 70
     9
 71
     3
 72
    17
 73
    13
 74
     0
 42
0.0000000001
 43
0.0000000001
 40
0.0
 40
0.0
 40
0.0
 40
0.0
 40
1.0
 40
1.0
 40
1.0
 40
2.0
 40
2.0
 40
2.0
 40
3.0
 40
3.0
 40
3.0
 40
4.0
 40
4.0
 40
4.0
 40
4.0
 10
139.8712212106919
 20
142.5828558671321
 30
0.0
 10
139.5749429989604
 20
142.5828558671321
 30
0.0
 10
139.0671359244346
 20
142.5800997907439
 30
0.0
 10
139.0671359244346
 20
142.1708224470962
 30
0.0
 10
139.0671359244346
 20
141.761889612997
 30
0.0
 10
139.5749429989604
 20
141.7591335366088
 30
0.0
 10
139.8712212106919
 20
141.7591335366088
 30
0.0
 10
140.1702554988116
 20
141.7591335366088
 30
0.0
 10
140.6777180637889
 20
141.761889612997
 30
0.0
 10
140.6777180637889
 20
142.1708224470962
 30
0.0
 10
140.6777180637889
 20
142.5800997907439
 30
0.0
 10
140.1702554988116
 20
142.5828558671321
 30
0.0
 10
139.8712212106919
 20
142.5828558671321
 30
0.0
  0
SPLINE
  5
2EF
330
2E4
100
AcDbEntity
  8
Sichtbar (ISO)
100
AcDbSpline
210
0.0
220
0.0
230
1.0
 70
    11
 71
     3
 72
    17
 73
    13
 74
     0
 42
0.0000000001
 43
0.0000000001
 40
0.0
 40
0.0
 40
0.0
 40
0.0
 40
1.0
 40
1.0
 40
1.0
 40
2.0
 40
2.0
 40
2.0
 40
3.0
 40
3.0
 40
3.0
 40
4.0
 40
4.0
 40
4.0
 40
4.0
 10
139.8739772870801
 20
141.5052299993459
 30
0.0
 10
139.4340385936137
 20
141.5052299993459
 30
0.0
 10
138.8556070616403
 20
141.5445040878777
 30
0.0
 10
138.8556070616403
 20
142.1708224470962
 30
0.0
 10
138.8556070616403
 20
142.7971408063146
 30
0.0
 10
139.4340385936137
 20
142.8364148948464
 30
0.0
 10
139.8739772870801
 20
142.8364148948464
 30
0.0
 10
140.3139159805465
 20
142.8364148948464
 30
0.0
 10
140.8892469265832
 20
142.7971408063146
 30
0.0
 10
140.8892469265832
 20
142.1708224470962
 30
0.0
 10
140.8892469265832
 20
141.5445040878777
 30
0.0
 10
140.3139159805465
 20
141.5052299993459
 30
0.0
 10
139.8739772870801
 20
141.5052299993459
 30
0.0
  0
HATCH
  5
2F0
330
2E4
100
AcDbEntity
  8
Sichtbar (ISO)
 62
    18
420
        0
440
 33554687
100
AcDbHatch
 10
0.0
 20
0.0
 30
0.0
210
0.0
220
0.0
230
1.0
  2
SOLID
 70
     1
 71
     1
 91
        2
 92
        1
 93
        1
 72
     4
 94
        3
 73
     0
 74
     0
 95
       17
 96
       13
 40
0.0
 40
0.0
 40
0.0
 40
0.0
 40
1.0
 40
1.0
 40
1.0
 40
2.0
 40
2.0
 40
2.0
 40
3.0
 40
3.0
 40
3.0
 40
4.0
 40
4.0
 40
4.0
 40
4.0
 10
139.8712212106919
 20
142.5828558671321
 10
139.5749429989604
 20
142.5828558671321
 10
139.0671359244346
 20
142.5800997907439
 10
139.0671359244346
 20
142.1708224470962
 10
139.0671359244346
 20
141.761889612997
 10
139.5749429989604
 20
141.7591335366088
 10
139.8712212106919
 20
141.7591335366088
 10
140.1702554988116
 20
141.7591335366088
 10
140.6777180637889
 20
141.761889612997
 10
140.6777180637889
 20
142.1708224470962
 10
140.6777180637889
 20
142.5800997907439
 10
140.1702554988116
 20
142.5828558671321
 10
139.8712212106919
 20
142.5828558671321
 97
        0
 97
        1
330
2EE
 92
        1
 93
        1
 72
     4
 94
        3
 73
     0
 74
     0
 95
       17
 96
       13
 40
0.0
 40
0.0
 40
0.0
 40
0.0
 40
1.0
 40
1.0
 40
1.0
 40
2.0
 40
2.0
 40
2.0
 40
3.0
 40
3.0
 40
3.0
 40
4.0
 40
4.0
 40
4.0
 40
4.0
 10
139.8739772870801
 20
141.5052299993459
 10
139.4340385936137
 20
141.5052299993459
 10
138.8556070616403
 20
141.5445040878777
 10
138.8556070616403
 20
142.1708224470962
 10
138.8556070616403
 20
142.7971408063146
 10
139.4340385936137
 20
142.8364148948464
 10
139.8739772870801
 20
142.8364148948464
 10
140.3139159805465
 20
142.8364148948464
 10
140.8892469265832
 20
142.7971408063146
 10
140.8892469265832
 20
142.1708224470962
 10
140.8892469265832
 20
141.5445040878777
 10
140.3139159805465
 20
141.5052299993459
 10
139.8739772870801
 20
141.5052299993459
 97
        0
 97
        1
330
2EF
 75
     2
 76
     1
 98
        1
 10
0.0
 20
0.0
450
        0
451
        0
460
0.0
461
0.0
452
        0
462
0.0
453
        0
470

  0
SPLINE
  5
2F1
330
2E4
100
AcDbEntity
  8
Sichtbar (ISO)
100
AcDbSpline
210
0.0
220
0.0
230
1.0
 70
     9
 71
     3
 72
    53
 73
    49
 74
     0
 42
0.0000000001
 43
0.0000000001
 40
0.0
 40
0.0
 40
0.0
 40
0.0
 40
1.0
 40
1.0
 40
1.0
 40
2.0
 40
2.0
 40
2.0
 40
3.0
 40
3.0
 40
3.0
 40
4.0
 40
4.0
 40
4.0
 40
5.0
 40
5.0
 40
5.0
 40
6.0
 40
6.0
 40
6.0
 40
7.0
 40
7.0
 40
7.0
 40
8.0
 40
8.0
 40
8.0
 40
9.0
 40
9.0
 40
9.0
 40
10.0
 40
10.0
 40
10.0
 40
11.0
 40
11.0
 40
11.0
 40
12.0
 40
12.0
 40
12.0
 40
13.0
 40
13.0
 40
13.0
 40
14.0
 40
14.0
 40
14.0
 40
15.0
 40
15.0
 40
15.0
 40
16.0
 40
16.0
 40
16.0
 40
16.0
 10
140.3166720569347
 20
143.2946125943847
 30
0.0
 10
140.5226887669526
 20
143.3083929763256
 30
0.0
 10
140.6777180637889
 20
143.4751355978117
 30
0.0
 10
140.6777180637889
 20
143.7149142435851
 30
0.0
 10
140.6777180637889
 20
143.9429795647087
 30
0.0
 10
140.5199326905645
 20
144.1379719691738
 30
0.0
 10
140.204017434567
 20
144.1379719691738
 30
0.0
 10
139.941501158591
 20
144.1379719691738
 30
0.0
 10
139.7499538496111
 20
143.9574489657467
 30
0.0
 10
139.7499538496111
 20
143.6866644606061
 30
0.0
 10
139.7499538496111
 20
143.5312906542213
 30
0.0
 10
139.8260904598351
 20
143.4072672167523
 30
0.0
 10
139.9387450822028
 20
143.3142496386506
 30
0.0
 10
139.9387450822028
 20
143.3142496386506
 30
0.0
 10
139.92772077665
 20
143.1082329286327
 30
0.0
 10
139.92772077665
 20
143.1082329286327
 30
0.0
 10
139.92772077665
 20
143.1082329286327
 30
0.0
 10
138.8897135069442
 20
143.2946125943847
 30
0.0
 10
138.8897135069442
 20
143.2946125943847
 30
0.0
 10
138.8897135069442
 20
143.2946125943847
 30
0.0
 10
138.8897135069442
 20
144.2816324509087
 30
0.0
 10
138.8897135069442
 20
144.2816324509087
 30
0.0
 10
138.8897135069442
 20
144.2816324509087
 30
0.0
 10
139.1012423697385
 20
144.2816324509087
 30
0.0
 10
139.1012423697385
 20
144.2816324509087
 30
0.0
 10
139.1012423697385
 20
144.2816324509087
 30
0.0
 10
139.1012423697385
 20
143.4751355978117
 30
0.0
 10
139.1012423697385
 20
143.4751355978117
 30
0.0
 10
139.1012423697385
 20
143.4751355978117
 30
0.0
 10
139.6765733157753
 20
143.3676486186719
 30
0.0
 10
139.6765733157753
 20
143.3676486186719
 30
0.0
 10
139.6765733157753
 20
143.3676486186719
 30
0.0
 10
139.6820854685517
 20
143.3735052809969
 30
0.0
 10
139.6820854685517
 20
143.3735052809969
 30
0.0
 10
139.5835557376735
 20
143.4606661967737
 30
0.0
 10
139.5384249868168
 20
143.6101833408335
 30
0.0
 10
139.5384249868168
 20
143.7459201029524
 30
0.0
 10
139.5384249868168
 20
144.1011094474816
 30
0.0
 10
139.7640787411006
 20
144.3915309968882
 30
0.0
 10
140.223654478833
 20
144.3915309968882
 30
0.0
 10
140.562307365033
 20
144.3915309968882
 30
0.0
 10
140.8892469265832
 20
144.1576090134398
 30
0.0
 10
140.8892469265832
 20
143.6921766133825
 30
0.0
 10
140.8892469265832
 20
143.3452554980178
 30
0.0
 10
140.6777180637889
 20
143.0631021777759
 30
0.0
 10
140.3166720569347
 20
143.0548339486113
 30
0.0
 10
140.3166720569347
 20
143.0548339486113
 30
0.0
 10
140.3166720569347
 20
143.2946125943847
 30
0.0
 10
140.3166720569347
 20
143.2946125943847
 30
0.0
  0
HATCH
  5
2F2
330
2E4
100
AcDbEntity
  8
Sichtbar (ISO)
 62
    18
420
        0
440
 33554687
100
AcDbHatch
 10
0.0
 20
0.0
 30
0.0
210
0.0
220
0.0
230
1.0
  2
SOLID
 70
     1
 71
     1
 91
        1
 92
        1
 93
        1
 72
     4
 94
        3
 73
     0
 74
     0
 95
       53
 96
       49
 40
0.0
 40
0.0
 40
0.0
 40
0.0
 40
1.0
 40
1.0
 40
1.0
 40
2.0
 40
2.0
 40
2.0
 40
3.0
 40
3.0
 40
3.0
 40
4.0
 40
4.0
 40
4.0
 40
5.0
 40
5.0
 40
5.0
 40
6.0
 40
6.0
 40
6.0
 40
7.0
 40
7.0
 40
7.0
 40
8.0
 40
8.0
 40
8.0
 40
9.0
 40
9.0
 40
9.0
 40
10.0
 40
10.0
 40
10.0
 40
11.0
 40
11.0
 40
11.0
 40
12.0
 40
12.0
 40
12.0
 40
13.0
 40
13.0
 40
13.0
 40
14.0
 40
14.0
 40
14.0
 40
15.0
 40
15.0
 40
15.0
 40
16.0
 40
16.0
 40
16.0
 40
16.0
 10
140.3166720569347
 20
143.2946125943847
 10
140.5226887669526
 20
143.3083929763256
 10
140.6777180637889
 20
143.4751355978117
 10
140.6777180637889
 20
143.7149142435851
 10
140.6777180637889
 20
143.9429795647087
 10
140.5199326905645
 20
144.1379719691738
 10
140.204017434567
 20
144.1379719691738
 10
139.941501158591
 20
144.1379719691738
 10
139.7499538496111
 20
143.9574489657467
 10
139.7499538496111
 20
143.6866644606061
 10
139.7499538496111
 20
143.5312906542213
 10
139.8260904598351
 20
143.4072672167523
 10
139.9387450822028
 20
143.3142496386506
 10
139.9387450822028
 20
143.3142496386506
 10
139.92772077665
 20
143.1082329286327
 10
139.92772077665
 20
143.1082329286327
 10
139.92772077665
 20
143.1082329286327
 10
138.8897135069442
 20
143.2946125943847
 10
138.8897135069442
 20
143.2946125943847
 10
138.8897135069442
 20
143.2946125943847
 10
138.8897135069442
 20
144.2816324509087
 10
138.8897135069442
 20
144.2816324509087
 10
138.8897135069442
 20
144.2816324509087
 10
139.1012423697385
 20
144.2816324509087
 10
139.1012423697385
 20
144.2816324509087
 10
139.1012423697385
 20
144.2816324509087
 10
139.1012423697385
 20
143.4751355978117
 10
139.1012423697385
 20
143.4751355978117
 10
139.1012423697385
 20
143.4751355978117
 10
139.6765733157753
 20
143.3676486186719
 10
139.6765733157753
 20
143.3676486186719
 10
139.6765733157753
 20
143.3676486186719
 10
139.6820854685517
 20
143.3735052809969
 10
139.6820854685517
 20
143.3735052809969
 10
139.5835557376735
 20
143.4606661967737
 10
139.5384249868168
 20
143.6101833408335
 10
139.5384249868168
 20
143.7459201029524
 10
139.5384249868168
 20
144.1011094474816
 10
139.7640787411006
 20
144.3915309968882
 10
140.223654478833
 20
144.3915309968882
 10
140.562307365033
 20
144.3915309968882
 10
140.8892469265832
 20
144.1576090134398
 10
140.8892469265832
 20
143.6921766133825
 10
140.8892469265832
 20
143.3452554980178
 10
140.6777180637889
 20
143.0631021777759
 10
140.3166720569347
 20
143.0548339486113
 10
140.3166720569347
 20
143.0548339486113
 10
140.3166720569347
 20
143.2946125943847
 10
140.3166720569347
 20
143.2946125943847
 97
        0
 97
        1
330
2F1
 75
     2
 76
     1
 98
        1
 10
0.0
 20
0.0
450
        0
451
        0
460
0.0
461
0.0
452
        0
462
0.0
453
        0
470

  0
ENDBLK
  5
2E7
330
2E4
100
AcDbEntity
  8
0
100
AcDbBlockEnd
  0
ENDSEC
  0
SECTION
  2
ENTITIES
  0
INSERT
  5
79
330
70
100
AcDbEntity
  8
0
100
AcDbBlockReference
  2
Block_0
 10
0.0
 20
0.0
 30
0.0
  0
INSERT
  5
7D
330
70
100
AcDbEntity
  8
0
100
AcDbBlockReference
  2
Block_1
 10
0.0
 20
0.0
 30
0.0
  0
INSERT
  5
81
330
70
100
AcDbEntity
  8
0
100
AcDbBlockReference
  2
Block_2
 10
0.0
 20
0.0
 30
0.0
  0
INSERT
  5
85
330
70
100
AcDbEntity
  8
0
100
AcDbBlockReference
  2
Block_3
 10
0.0
 20
0.0
 30
0.0
  0
INSERT
  5
89
330
70
100
AcDbEntity
  8
0
100
AcDbBlockReference
  2
Block_4
 10
0.0
 20
0.0
 30
0.0
  0
INSERT
  5
8F
330
70
100
AcDbEntity
  8
Titel (ISO)
100
AcDbBlockReference
  2
Block_5
 10
0.0
 20
0.0
 30
0.0
  0
INSERT
  5
93
330
70
100
AcDbEntity
  8
Titel (ISO)
100
AcDbBlockReference
  2
Block_6
 10
0.0
 20
0.0
 30
0.0
  0
INSERT
  5
97
330
70
100
AcDbEntity
  8
Titel (ISO)
100
AcDbBlockReference
  2
Block_7
 10
0.0
 20
0.0
 30
0.0
  0
INSERT
  5
9B
330
70
100
AcDbEntity
  8
Titel (ISO)
100
AcDbBlockReference
  2
Block_8
 10
0.0
 20
0.0
 30
0.0
  0
INSERT
  5
9F
330
70
100
AcDbEntity
  8
Titel (ISO)
100
AcDbBlockReference
  2
Block_9
 10
0.0
 20
0.0
 30
0.0
  0
INSERT
  5
A3
330
70
100
AcDbEntity
  8
Titel (ISO)
100
AcDbBlockReference
  2
Block_10
 10
0.0
 20
0.0
 30
0.0
  0
INSERT
  5
A7
330
70
100
AcDbEntity
  8
Titel (ISO)
100
AcDbBlockReference
  2
Block_11
 10
0.0
 20
0.0
 30
0.0
  0
INSERT
  5
AB
330
70
100
AcDbEntity
  8
Titel (ISO)
100
AcDbBlockReference
  2
Block_12
 10
0.0
 20
0.0
 30
0.0
  0
INSERT
  5
AF
330
70
100
AcDbEntity
  8
Titel (ISO)
100
AcDbBlockReference
  2
Block_13
 10
0.0
 20
0.0
 30
0.0
  0
INSERT
  5
B4
330
70
100
AcDbEntity
  8
Sichtbar (ISO)
100
AcDbBlockReference
  2
Block_14
 10
0.0
 20
0.0
 30
0.0
  0
INSERT
  5
BA
330
70
100
AcDbEntity
  8
Sichtbar (ISO)
100
AcDbBlockReference
  2
Block_15
 10
0.0
 20
0.0
 30
0.0
  0
INSERT
  5
24A
330
70
100
AcDbEntity
  8
Sichtbar (ISO)
100
AcDbBlockReference
  2
Block_16
 10
0.0
 20
0.0
 30
0.0
  0
INSERT
  5
25E
330
70
100
AcDbEntity
  8
Sichtbar (ISO)
100
AcDbBlockReference
  2
Block_17
 10
0.0
 20
0.0
 30
0.0
  0
LINE
  5
272
330
70
100
AcDbEntity
  8
Sichtbar (ISO)
 62
    18
420
        0
370
     5
100
AcDbLine
 10
89.54911980380796
 20
117.2271018489704
 30
0.0
 11
132.8974134028849
 21
117.3723243406759
 31
0.0
  0
LINE
  5
273
330
70
100
AcDbEntity
  8
Sichtbar (ISO)
 62
    18
420
        0
370
     5
100
AcDbLine
 10
89.5281357515857
 20
164.6573316358472
 30
0.0
 11
132.8681944774918
 21
164.6728043466743
 31
0.0
  0
LINE
  5
274
330
70
100
AcDbEntity
  8
Sichtbar (ISO)
 62
    18
420
        0
370
     5
100
AcDbLine
 10
89.49860570980133
 20
116.4210846871842
 30
0.0
 11
139.8249932638181
 21
116.4329229986605
 31
0.0
  0
INSERT
  5
276
330
70
100
AcDbEntity
  8
Sichtbar (ISO)
100
AcDbBlockReference
  2
Block_21
 10
0.0
 20
0.0
 30
0.0
  0
LINE
  5
28A
330
70
100
AcDbEntity
  8
Sichtbar (ISO)
 62
    18
420
        0
370
     5
100
AcDbLine
 10
89.48182820497969
 20
165.4688869071979
 30
0.0
 11
139.8358799690001
 21
165.4426005909959
 31
0.0
  0
LINE
  5
28B
330
70
100
AcDbEntity
  8
Sichtbar (ISO)
 62
    18
420
        0
370
     5
100
AcDbLine
 10
113.0287874911535
 20
167.8581656791609
 30
0.0
 11
139.8840952737818
 21
167.8638496462089
 31
0.0
  0
LINE
  5
28C
330
70
100
AcDbEntity
  8
Sichtbar (ISO)
  6
AI-Linetype-0
 62
    18
420
        0
370
     5
100
AcDbLine
 10
125.8128322902188
 20
182.040052502681
 30
0.0
 11
112.2493617434189
 21
181.9975424157216
 31
0.0
  0
INSERT
  5
28F
330
70
100
AcDbEntity
  8
Sichtbar (ISO)
100
AcDbBlockReference
  2
Block_25
 10
0.0
 20
0.0
 30
0.0
  0
INSERT
  5
29E
330
70
100
AcDbEntity
  8
Sichtbar (ISO)
100
AcDbBlockReference
  2
Block_28
 10
0.0
 20
0.0
 30
0.0
  0
INSERT
  5
2B3
330
70
100
AcDbEntity
  8
Sichtbar (ISO)
100
AcDbBlockReference
  2
Block_32
 10
0.0
 20
0.0
 30
0.0
  0
LINE
  5
2BE
330
70
100
AcDbEntity
  8
Sichtbar (ISO)
 62
    18
420
        0
370
     5
100
AcDbLine
 10
114.0012194298174
 20
185.5198514386417
 30
0.0
 11
139.9416710099636
 21
185.5391513849271
 31
0.0
  0
LINE
  5
2BF
330
70
100
AcDbEntity
  8
Sichtbar (ISO)
  6
AI-Linetype-1
 62
    18
420
        0
370
     5
100
AcDbLine
 10
123.8293696822861
 20
185.4975424148464
 30
0.0
 11
123.8257286345778
 21
182.0349358562829
 31
0.0
  0
INSERT
  5
2C2
330
70
100
AcDbEntity
  8
Sichtbar (ISO)
100
AcDbBlockReference
  2
Block_34
 10
0.0
 20
0.0
 30
0.0
  0
INSERT
  5
2CE
330
70
100
AcDbEntity
  8
Sichtbar (ISO)
100
AcDbBlockReference
  2
Block_36
 10
0.0
 20
0.0
 30
0.0
  0
INSERT
  5
2E1
330
70
100
AcDbEntity
  8
Sichtbar (ISO)
100
AcDbBlockReference
  2
Block_38
 10
0.0
 20
0.0
 30
0.0
  0
ENDSEC
  0
SECTION
  2
OBJECTS
  0
DICTIONARY
  5
C
330
0
100
AcDbDictionary
281
     1
  3
ACAD_COLOR
350
63
  3
ACAD_DETAILVIEWSTYLE
350
6A
  3
ACAD_GROUP
350
D
  3
ACAD_LAYOUT
350
62
  3
ACAD_MATERIAL
350
10
  3
ACAD_MLEADERSTYLE
350
66
  3
ACAD_MLINESTYLE
350
5F
  3
ACAD_PLOTSETTINGS
350
61
  3
ACAD_PLOTSTYLENAME
350
E
  3
ACAD_SCALELIST
350
42
  3
ACAD_SECTIONVIEWSTYLE
350
68
  3
ACAD_TABLESTYLE
350
64
  3
ACAD_VISUALSTYLE
350
29
  3
ACDB_RECOMPOSE_DATA
350
2FC
  3
AcDbVariableDictionary
350
2F4
  0
DICTIONARY
  5
63
102
{ACAD_REACTORS
330
C
102
}
330
C
100
AcDbDictionary
281
     1
  0
DICTIONARY
  5
6A
102
{ACAD_REACTORS
330
C
102
}
330
C
100
AcDbDictionary
281
     1
  3
Imperial24
350
6B
  0
DICTIONARY
  5
D
102
{ACAD_REACTORS
330
C
102
}
330
C
100
AcDbDictionary
281
     1
  0
DICTIONARY
  5
62
102
{ACAD_REACTORS
330
C
102
}
330
C
100
AcDbDictionary
281
     1
  3
Layout1
350
6F
  3
Layout2
350
77
  3
Model
350
73
  0
DICTIONARY
  5
10
102
{ACAD_REACTORS
330
C
102
}
330
C
100
AcDbDictionary
281
     1
  3
ByBlock
350
19
  3
ByLayer
350
11
  3
Global
350
21
  0
DICTIONARY
  5
66
102
{ACAD_REACTORS
330
C
102
}
330
C
100
AcDbDictionary
281
     1
  3
Standard
350
67
  0
DICTIONARY
  5
5F
102
{ACAD_REACTORS
330
C
102
}
330
C
100
AcDbDictionary
281
     1
  3
Standard
350
60
  0
DICTIONARY
  5
61
102
{ACAD_REACTORS
330
C
102
}
330
C
100
AcDbDictionary
281
     1
  0
ACDBDICTIONARYWDFLT
  5
E
102
{ACAD_REACTORS
330
C
102
}
330
C
100
AcDbDictionary
281
     1
  3
Normal
350
F
100
AcDbDictionaryWithDefault
340
F
  0
DICTIONARY
  5
42
102
{ACAD_REACTORS
330
C
102
}
330
C
100
AcDbDictionary
281
     1
  3
A0
350
43
  3
A1
350
44
  3
A2
350
45
  3
A3
350
46
  3
A4
350
47
  3
A5
350
48
  3
A6
350
49
  3
A7
350
4A
  3
A8
350
4B
  3
A9
350
4C
  3
B0
350
4D
  3
B1
350
4E
  3
B2
350
4F
  3
B3
350
50
  3
B4
350
51
  3
B5
350
52
  3
B6
350
53
  0
DICTIONARY
  5
68
102
{ACAD_REACTORS
330
C
102
}
330
C
100
AcDbDictionary
281
     1
  3
Imperial24
350
69
  0
DICTIONARY
  5
64
102
{ACAD_REACTORS
330
C
102
}
330
C
100
AcDbDictionary
281
     1
  3
Standard
350
65
  0
DICTIONARY
  5
29
102
{ACAD_REACTORS
330
C
102
}
330
C
100
AcDbDictionary
281
     1
  3
2dWireframe
350
2F
  3
Basic
350
2E
  3
Brighten
350
35
  3
ColorChange
350
39
  3
Conceptual
350
32
  3
Dim
350
34
  3
EdgeColorOff
350
41
  3
Facepattern
350
38
  3
Flat
350
2A
  3
FlatWithEdges
350
2B
  3
Gouraud
350
2C
  3
GouraudWithEdges
350
2D
  3
Hidden
350
31
  3
JitterOff
350
3F
  3
Linepattern
350
37
  3
OverhangOff
350
40
  3
Realistic
350
33
  3
Shaded
350
3E
  3
Shaded with edges
350
3D
  3
Shades of Gray
350
3A
  3
Sketchy
350
3B
  3
Thicken
350
36
  3
Wireframe
350
30
  3
X-Ray
350
3C
  0
XRECORD
  5
2FC
102
{ACAD_REACTORS
330
C
102
}
330
C
100
AcDbXrecord
280
     1
 90
        1
330
65
  0
DICTIONARY
  5
2F4
102
{ACAD_REACTORS
330
C
102
}
330
C
100
AcDbDictionary
281
     1
  3
CANNOSCALE
350
2F9
  3
CMLEADERSTYLE
350
2F6
  3
CTABLESTYLE
350
2F5
  3
CVIEWDETAILSTYLE
350
2F7
  3
CVIEWSECTIONSTYLE
350
2F8
  0
ACDBDETAILVIEWSTYLE
  5
6B
102
{ACAD_REACTORS
330
6A
102
}
330
6A
100
AcDbModelDocViewStyle
 70
     0
  3
Imperial24
290
     1
300
Imperial24
 90
        0
100
AcDbDetailViewStyle
 70
     0
 71
     0
 90
        3
 71
     1
340
55
 62
   256
 40
0.24
340
0
 62
   256
 40
0.24
300

 40
0.36
280
     3
 71
     2
340
5D
 90
       25
 62
   256
 71
     3
340
55
 62
   256
 40
0.24
 90
        1
 40
0.75
 90
        1
300
%<\AcVar ViewType \f "%tc1">% %<\AcVar ViewDetailId>%\PSCALE %<\AcVar ViewScale \f "%sn">%
 71
     4
340
5D
 90
       25
 62
   256
340
5D
 90
       25
 62
   256
280
     0
  0
LAYOUT
  5
6F
102
{ACAD_REACTORS
330
62
102
}
330
62
100
AcDbPlotSettings
  1

  2

  4

  6

 40
0.0
 41
0.0
 42
0.0
 43
0.0
 44
0.0
 45
0.0
 46
0.0
 47
0.0
 48
0.0
 49
0.0
140
0.0
141
0.0
142
1.0
143
1.0
 70
   688
 72
     0
 73
     0
 74
     5
  7

 75
    16
147
1.0
 76
     0
 77
     2
 78
   300
148
0.0
149
0.0
100
AcDbLayout
  1
Layout1
 70
     1
 71
     1
 10
0.0
 20
0.0
 11
12.0
 21
9.0
 12
0.0
 22
0.0
 32
0.0
 14
0.0
 24
0.0
 34
0.0
 15
0.0
 25
0.0
 35
0.0
146
0.0
 13
0.0
 23
0.0
 33
0.0
 16
1.0
 26
0.0
 36
0.0
 17
0.0
 27
1.0
 37
0.0
 76
     0
330
6C
  0
LAYOUT
  5
77
102
{ACAD_REACTORS
330
62
102
}
330
62
100
AcDbPlotSettings
  1

  2

  4

  6

 40
0.0
 41
0.0
 42
0.0
 43
0.0
 44
0.0
 45
0.0
 46
0.0
 47
0.0
 48
0.0
 49
0.0
140
0.0
141
0.0
142
1.0
143
1.0
 70
   688
 72
     0
 73
     0
 74
     5
  7

 75
    16
147
1.0
 76
     0
 77
     2
 78
   300
148
0.0
149
0.0
100
AcDbLayout
  1
Layout2
 70
     1
 71
     2
 10
0.0
 20
0.0
 11
12.0
 21
9.0
 12
0.0
 22
0.0
 32
0.0
 14
0.0
 24
0.0
 34
0.0
 15
0.0
 25
0.0
 35
0.0
146
0.0
 13
0.0
 23
0.0
 33
0.0
 16
1.0
 26
0.0
 36
0.0
 17
0.0
 27
1.0
 37
0.0
 76
     0
330
74
  0
LAYOUT
  5
73
102
{ACAD_REACTORS
330
62
102
}
330
62
100
AcDbPlotSettings
  1

  2

  4

  6

 40
0.0
 41
0.0
 42
0.0
 43
0.0
 44
0.0
 45
0.0
 46
0.0
 47
0.0
 48
0.0
 49
0.0
140
0.0
141
0.0
142
1.0
143
1.0
 70
  1712
 72
     0
 73
     0
 74
     0
  7

 75
     0
147
1.0
 76
     0
 77
     2
 78
   300
148
0.0
149
0.0
100
AcDbLayout
  1
Model
 70
     1
 71
     0
 10
0.0
 20
0.0
 11
12.0
 21
9.0
 12
0.0
 22
0.0
 32
0.0
 14
0.0
 24
0.0
 34
0.0
 15
0.0
 25
0.0
 35
0.0
146
0.0
 13
0.0
 23
0.0
 33
0.0
 16
1.0
 26
0.0
 36
0.0
 17
0.0
 27
1.0
 37
0.0
 76
     0
330
70
  0
MATERIAL
  5
19
102
{ACAD_XDICTIONARY
360
1A
102
}
102
{ACAD_REACTORS
330
10
102
}
330
10
100
AcDbMaterial
  1
ByBlock
 72
     0
 43
0.0208333333333333
 43
0.0
 43
0.0
 43
0.0
 43
0.0
 43
0.0208333333333333
 43
0.0
 43
0.0
 43
0.0
 43
0.0
 43
1.0
 43
0.0
 43
0.0
 43
0.0
 43
0.0
 43
1.0
 77
     0
 47
0.0208333333333333
 47
0.0
 47
0.0
 47
0.0
 47
0.0
 47
0.0208333333333333
 47
0.0
 47
0.0
 47
0.0
 47
0.0
 47
1.0
 47
0.0
 47
0.0
 47
0.0
 47
0.0
 47
1.0
171
     0
 49
0.0208333333333333
 49
0.0
 49
0.0
 49
0.0
 49
0.0
 49
0.0208333333333333
 49
0.0
 49
0.0
 49
0.0
 49
0.0
 49
1.0
 49
0.0
 49
0.0
 49
0.0
 49
0.0
 49
1.0
175
     0
142
0.0208333333333333
142
0.0
142
0.0
142
0.0
142
0.0
142
0.0208333333333333
142
0.0
142
0.0
142
0.0
142
0.0
142
1.0
142
0.0
142
0.0
142
0.0
142
0.0
142
1.0
179
     0
144
0.0208333333333333
144
0.0
144
0.0
144
0.0
144
0.0
144
0.0208333333333333
144
0.0
144
0.0
144
0.0
144
0.0
144
1.0
144
0.0
144
0.0
144
0.0
144
0.0
144
1.0
147
0.0208333333333333
147
0.0
147
0.0
147
0.0
147
0.0
147
0.0208333333333333
147
0.0
147
0.0
147
0.0
147
0.0
147
1.0
147
0.0
147
0.0
147
0.0
147
0.0
147
1.0
  0
MATERIAL
  5
11
102
{ACAD_XDICTIONARY
360
12
102
}
102
{ACAD_REACTORS
330
10
102
}
330
10
100
AcDbMaterial
  1
ByLayer
 72
     0
 43
0.0208333333333333
 43
0.0
 43
0.0
 43
0.0
 43
0.0
 43
0.0208333333333333
 43
0.0
 43
0.0
 43
0.0
 43
0.0
 43
1.0
 43
0.0
 43
0.0
 43
0.0
 43
0.0
 43
1.0
 77
     0
 47
0.0208333333333333
 47
0.0
 47
0.0
 47
0.0
 47
0.0
 47
0.0208333333333333
 47
0.0
 47
0.0
 47
0.0
 47
0.0
 47
1.0
 47
0.0
 47
0.0
 47
0.0
 47
0.0
 47
1.0
171
     0
 49
0.0208333333333333
 49
0.0
 49
0.0
 49
0.0
 49
0.0
 49
0.0208333333333333
 49
0.0
 49
0.0
 49
0.0
 49
0.0
 49
1.0
 49
0.0
 49
0.0
 49
0.0
 49
0.0
 49
1.0
175
     0
142
0.0208333333333333
142
0.0
142
0.0
142
0.0
142
0.0
142
0.0208333333333333
142
0.0
142
0.0
142
0.0
142
0.0
142
1.0
142
0.0
142
0.0
142
0.0
142
0.0
142
1.0
179
     0
144
0.0208333333333333
144
0.0
144
0.0
144
0.0
144
0.0
144
0.0208333333333333
144
0.0
144
0.0
144
0.0
144
0.0
144
1.0
144
0.0
144
0.0
144
0.0
144
0.0
144
1.0
147
0.0208333333333333
147
0.0
147
0.0
147
0.0
147
0.0
147
0.0208333333333333
147
0.0
147
0.0
147
0.0
147
0.0
147
1.0
147
0.0
147
0.0
147
0.0
147
0.0
147
1.0
  0
MATERIAL
  5
21
102
{ACAD_XDICTIONARY
360
22
102
}
102
{ACAD_REACTORS
330
10
102
}
330
10
100
AcDbMaterial
  1
Global
 72
     0
 43
0.0208333333333333
 43
0.0
 43
0.0
 43
0.0
 43
0.0
 43
0.0208333333333333
 43
0.0
 43
0.0
 43
0.0
 43
0.0
 43
1.0
 43
0.0
 43
0.0
 43
0.0
 43
0.0
 43
1.0
 77
     0
 47
0.0208333333333333
 47
0.0
 47
0.0
 47
0.0
 47
0.0
 47
0.0208333333333333
 47
0.0
 47
0.0
 47
0.0
 47
0.0
 47
1.0
 47
0.0
 47
0.0
 47
0.0
 47
0.0
 47
1.0
171
     0
 49
0.0208333333333333
 49
0.0
 49
0.0
 49
0.0
 49
0.0
 49
0.0208333333333333
 49
0.0
 49
0.0
 49
0.0
 49
0.0
 49
1.0
 49
0.0
 49
0.0
 49
0.0
 49
0.0
 49
1.0
175
     0
142
0.0208333333333333
142
0.0
142
0.0
142
0.0
142
0.0
142
0.0208333333333333
142
0.0
142
0.0
142
0.0
142
0.0
142
1.0
142
0.0
142
0.0
142
0.0
142
0.0
142
1.0
179
     0
144
0.0208333333333333
144
0.0
144
0.0
144
0.0
144
0.0
144
0.0208333333333333
144
0.0
144
0.0
144
0.0
144
0.0
144
1.0
144
0.0
144
0.0
144
0.0
144
0.0
144
1.0
147
0.0208333333333333
147
0.0
147
0.0
147
0.0
147
0.0
147
0.0208333333333333
147
0.0
147
0.0
147
0.0
147
0.0
147
1.0
147
0.0
147
0.0
147
0.0
147
0.0
147
1.0
  0
MLEADERSTYLE
  5
67
102
{ACAD_REACTORS
330
66
102
}
330
66
100
AcDbMLeaderStyle
179
     2
170
     2
171
     1
172
     0
 90
        2
 40
0.0
 41
0.0
173
     1
 91
-1056964608
340
5B
 92
       -2
290
     1
 42
0.09
291
     1
 43
0.36
  3
Standard
 44
0.18
300

342
55
174
     1
178
     6
175
     1
176
     0
 93
-1056964608
 45
0.18
292
     0
297
     0
 46
0.18
 94
-1056964608
 47
1.0
 49
1.0
140
1.0
293
     1
141
0.0
294
     1
177
     0
142
1.0
295
     1
296
     0
143
0.125
271
     0
272
     9
273
     9
298
     1
  0
MLINESTYLE
  5
60
102
{ACAD_REACTORS
330
5F
102
}
330
5F
100
AcDbMlineStyle
  2
STANDARD
 70
     0
  3

 62
   256
 51
90.0
 52
90.0
 71
     2
 49
0.5
 62
   256
  6
BYLAYER
 49
-0.5
 62
   256
  6
BYLAYER
  0
ACDBPLACEHOLDER
  5
F
102
{ACAD_REACTORS
330
E
102
}
330
E
  0
SCALE
  5
43
102
{ACAD_REACTORS
330
42
102
}
330
42
100
AcDbScale
 70
     0
300
1:1
140
1.0
141
1.0
290
     1
  0
SCALE
  5
44
102
{ACAD_REACTORS
330
42
102
}
330
42
100
AcDbScale
 70
     0
300
1/128" = 1'-0"
140
0.0078125
141
12.0
290
     0
  0
SCALE
  5
45
102
{ACAD_REACTORS
330
42
102
}
330
42
100
AcDbScale
 70
     0
300
1/64" = 1'-0"
140
0.015625
141
12.0
290
     0
  0
SCALE
  5
46
102
{ACAD_REACTORS
330
42
102
}
330
42
100
AcDbScale
 70
     0
300
1/32" = 1'-0"
140
0.03125
141
12.0
290
     0
  0
SCALE
  5
47
102
{ACAD_REACTORS
330
42
102
}
330
42
100
AcDbScale
 70
     0
300
1/16" = 1'-0"
140
0.0625
141
12.0
290
     0
  0
SCALE
  5
48
102
{ACAD_REACTORS
330
42
102
}
330
42
100
AcDbScale
 70
     0
300
3/32" = 1'-0"
140
0.09375
141
12.0
290
     0
  0
SCALE
  5
49
102
{ACAD_REACTORS
330
42
102
}
330
42
100
AcDbScale
 70
     0
300
1/8" = 1'-0"
140
0.125
141
12.0
290
     0
  0
SCALE
  5
4A
102
{ACAD_REACTORS
330
42
102
}
330
42
100
AcDbScale
 70
     0
300
3/16" = 1'-0"
140
0.1875
141
12.0
290
     0
  0
SCALE
  5
4B
102
{ACAD_REACTORS
330
42
102
}
330
42
100
AcDbScale
 70
     0
300
1/4" = 1'-0"
140
0.25
141
12.0
290
     0
  0
SCALE
  5
4C
102
{ACAD_REACTORS
330
42
102
}
330
42
100
AcDbScale
 70
     0
300
3/8" = 1'-0"
140
0.375
141
12.0
290
     0
  0
SCALE
  5
4D
102
{ACAD_REACTORS
330
42
102
}
330
42
100
AcDbScale
 70
     0
300
1/2" = 1'-0"
140
0.5
141
12.0
290
     0
  0
SCALE
  5
4E
102
{ACAD_REACTORS
330
42
102
}
330
42
100
AcDbScale
 70
     0
300
3/4" = 1'-0"
140
0.75
141
12.0
290
     0
  0
SCALE
  5
4F
102
{ACAD_REACTORS
330
42
102
}
330
42
100
AcDbScale
 70
     0
300
1" = 1'-0"
140
1.0
141
12.0
290
     0
  0
SCALE
  5
50
102
{ACAD_REACTORS
330
42
102
}
330
42
100
AcDbScale
 70
     0
300
1-1/2" = 1'-0"
140
1.5
141
12.0
290
     0
  0
SCALE
  5
51
102
{ACAD_REACTORS
330
42
102
}
330
42
100
AcDbScale
 70
     0
300
3" = 1'-0"
140
3.0
141
12.0
290
     0
  0
SCALE
  5
52
102
{ACAD_REACTORS
330
42
102
}
330
42
100
AcDbScale
 70
     0
300
6" = 1'-0"
140
6.0
141
12.0
290
     0
  0
SCALE
  5
53
102
{ACAD_REACTORS
330
42
102
}
330
42
100
AcDbScale
 70
     0
300
1'-0" = 1'-0"
140
12.0
141
12.0
290
     0
  0
ACDBSECTIONVIEWSTYLE
  5
69
102
{ACAD_REACTORS
330
68
102
}
330
68
100
AcDbModelDocViewStyle
 70
     0
  3
Imperial24
290
     1
300
Imperial24
 90
        0
100
AcDbSectionViewStyle
 70
     0
 71
     0
 90
       78
 71
     1
340
55
 62
   256
 40
0.24
340
0
340
0
 62
   256
 40
0.24
300
I, O, Q, S, X, Z
 40
0.48
 90
        3
 40
0.18
 90
        1
 71
     2
340
5D
 90
       25
 62
   256
340
5D
 90
       50
 62
   256
 40
0.24
 40
0.0
 40
0.24
 71
     3
340
55
 62
   256
 40
0.24
 90
        1
 40
0.75
 90
        1
300
%<\AcVar ViewType \f "%tc1">% %<\AcVar ViewSectionStartId>%-%<\AcVar ViewSectionEndId>%\PSCALE %<\AcVar ViewScale \f "%sn">%
 71
     4
 62
   256
 62
   257
300
ANSI31
 40
1.0
 90
        0
290
     0
290
     0
 90
        6
 40
0.0
 40
1.570796326794896
 40
0.2617993877991494
 40
1.308996938995747
 40
-0.2617993877991494
 40
1.832595714594046
  0
TABLESTYLE
  5
65
102
{ACAD_XDICTIONARY
360
2FA
102
}
102
{ACAD_REACTORS
330
64
102
}
330
64
100
AcDbTableStyle
280
     0
  3
Standard
 70
     0
 71
     0
 40
0.06
 41
0.06
280
     0
281
     0
  7
Standard
140
0.18
170
     2
 62
     0
 63
     7
283
     0
 90
      512
 91
        0
  1

274
    -2
284
     1
 64
     0
275
    -2
285
     1
 65
     0
276
    -2
286
     1
 66
     0
277
    -2
287
     1
 67
     0
278
    -2
288
     1
 68
     0
279
    -2
289
     1
 69
     0
  7
Standard
140
0.25
170
     5
 62
     0
 63
     7
283
     0
 90
      512
 91
        0
  1

274
    -2
284
     1
 64
     0
275
    -2
285
     1
 65
     0
276
    -2
286
     1
 66
     0
277
    -2
287
     1
 67
     0
278
    -2
288
     1
 68
     0
279
    -2
289
     1
 69
     0
  7
Standard
140
0.18
170
     5
 62
     0
 63
     7
283
     0
 90
      512
 91
        0
  1

274
    -2
284
     1
 64
     0
275
    -2
285
     1
 65
     0
276
    -2
286
     1
 66
     0
277
    -2
287
     1
 67
     0
278
    -2
288
     1
 68
     0
279
    -2
289
     1
 69
     0
  0
VISUALSTYLE
  5
2F
102
{ACAD_REACTORS
330
29
102
}
330
29
100
AcDbVisualStyle
  2
2dWireframe
 70
     4
177
     3
291
     0
 70
    58
 90
        0
176
     1
 90
        2
176
     1
 90
        0
176
     1
 90
        0
176
     1
 40
0.6
176
     1
 40
30.0
176
     1
 62
     7
420
 16777215
176
     1
 90
        1
176
     1
 90
        4
176
     1
 62
     7
176
     1
 62
   257
176
     1
 90
        1
176
     1
 90
        1
176
     1
 40
1.0
176
     1
 90
        0
176
     1
 62
   257
176
     1
 40
1.0
176
     1
 90
        1
176
     1
 90
        6
176
     1
 90
        2
176
     1
 62
     7
176
     1
 90
        5
176
     1
 90
        0
176
     1
 90
        0
176
     1
290
     0
176
     1
 90
        1
176
     1
 40
0.0
176
     1
 90
        0
176
     1
290
     1
176
     1
290
     1
176
     1
290
     0
176
     1
290
     0
176
     1
290
     0
176
     1
290
     0
176
     1
290
     0
176
     1
290
     0
176
     1
290
     0
176
     1
 90
       50
176
     1
 40
0.0
176
     1
 40
1.0
176
     1
 90
        0
176
     1
 62
    18
420
        0
176
     1
 90
       50
176
     1
 90
        3
176
     1
 62
     5
420
      255
176
     1
290
     0
176
     1
 90
       50
176
     1
 90
       50
176
     1
 90
       50
176
     1
290
     0
176
     1
 90
       50
176
     1
 62
   256
176
     0
 40
1.0
176
     0
 90
        2
176
     1
  1
strokes_ogs.tif
176
     1
290
     0
176
     1
 40
1.0
176
     1
 40
1.0
176
     1
  0
VISUALSTYLE
  5
2E
102
{ACAD_REACTORS
330
29
102
}
330
29
100
AcDbVisualStyle
  2
Basic
 70
     7
177
     3
291
     1
 70
    58
 90
        1
176
     1
 90
        0
176
     1
 90
        1
176
     1
 90
        0
176
     1
 40
0.6
176
     1
 40
30.0
176
     1
 62
     7
420
 16777215
176
     1
 90
        0
176
     1
 90
        4
176
     1
 62
     7
176
     1
 62
   257
176
     1
 90
        1
176
     1
 90
        1
176
     1
 40
1.0
176
     1
 90
        8
176
     1
 62
     7
176
     1
 40
1.0
176
     1
 90
        1
176
     1
 90
        6
176
     1
 90
        2
176
     1
 62
     7
176
     1
 90
        5
176
     1
 90
        0
176
     1
 90
        0
176
     1
290
     0
176
     1
 90
        1
176
     1
 40
0.0
176
     1
 90
        0
176
     1
290
     0
176
     1
290
     1
176
     1
290
     1
176
     1
290
     0
176
     1
290
     0
176
     1
290
     0
176
     1
290
     0
176
     1
290
     0
176
     1
290
     0
176
     1
 90
       50
176
     1
 40
0.0
176
     1
 40
1.0
176
     1
 90
        0
176
     1
 62
    18
420
        0
176
     1
 90
       50
176
     1
 90
        3
176
     1
 62
     5
420
      255
176
     1
290
     0
176
     1
 90
       50
176
     1
 90
       50
176
     1
 90
       50
176
     1
290
     0
176
     1
 90
       50
176
     1
 62
   256
176
     0
 40
1.0
176
     0
 90
        2
176
     1
  1
strokes_ogs.tif
176
     1
290
     0
176
     1
 40
1.0
176
     1
 40
1.0
176
     1
  0
VISUALSTYLE
  5
35
102
{ACAD_REACTORS
330
29
102
}
330
29
100
AcDbVisualStyle
  2
Brighten
 70
    12
177
     3
291
     1
 70
    58
 90
        2
176
     1
 90
        2
176
     1
 90
        0
176
     1
 90
        0
176
     1
 40
0.6
176
     1
 40
30.0
176
     1
 62
     7
420
 16777215
176
     1
 90
        1
176
     1
 90
        4
176
     1
 62
     7
176
     1
 62
   257
176
     1
 90
        1
176
     1
 90
        1
176
     1
 40
1.0
176
     1
 90
        8
176
     1
 62
     7
176
     1
 40
1.0
176
     1
 90
        1
176
     1
 90
        6
176
     1
 90
        2
176
     1
 62
     7
176
     1
 90
        5
176
     1
 90
        0
176
     1
 90
        0
176
     1
290
     0
176
     1
 90
        1
176
     1
 40
50.0
176
     1
 90
        0
176
     1
290
     0
176
     1
290
     1
176
     1
290
     1
176
     1
290
     0
176
     1
290
     0
176
     1
290
     0
176
     1
290
     0
176
     1
290
     0
176
     1
290
     0
176
     1
 90
       50
176
     1
 40
0.0
176
     1
 40
1.0
176
     1
 90
        0
176
     1
 62
    18
420
        0
176
     1
 90
       50
176
     1
 90
        3
176
     1
 62
     5
420
      255
176
     1
290
     0
176
     1
 90
       50
176
     1
 90
       50
176
     1
 90
       50
176
     1
290
     0
176
     1
 90
       50
176
     1
 62
   256
176
     0
 40
1.0
176
     0
 90
        2
176
     1
  1
strokes_ogs.tif
176
     1
290
     0
176
     1
 40
1.0
176
     1
 40
1.0
176
     1
  0
VISUALSTYLE
  5
39
102
{ACAD_REACTORS
330
29
102
}
330
29
100
AcDbVisualStyle
  2
ColorChange
 70
    16
177
     3
291
     1
 70
    58
 90
        2
176
     1
 90
        2
176
     1
 90
        3
176
     1
 90
        0
176
     1
 40
0.6
176
     1
 40
30.0
176
     1
 62
     8
420
  8421504
176
     1
 90
        1
176
     1
 90
        4
176
     1
 62
     7
176
     1
 62
   257
176
     1
 90
        1
176
     1
 90
        1
176
     1
 40
1.0
176
     1
 90
        8
176
     1
 62
     8
420
  8421504
176
     1
 40
1.0
176
     1
 90
        1
176
     1
 90
        6
176
     1
 90
        2
176
     1
 62
     7
176
     1
 90
        5
176
     1
 90
        0
176
     1
 90
        0
176
     1
290
     0
176
     1
 90
        1
176
     1
 40
0.0
176
     1
 90
        0
176
     1
290
     0
176
     1
290
     1
176
     1
290
     1
176
     1
290
     0
176
     1
290
     0
176
     1
290
     0
176
     1
290
     0
176
     1
290
     0
176
     1
290
     0
176
     1
 90
       50
176
     1
 40
0.0
176
     1
 40
1.0
176
     1
 90
        0
176
     1
 62
    18
420
        0
176
     1
 90
       50
176
     1
 90
        3
176
     1
 62
     5
420
      255
176
     1
290
     0
176
     1
 90
       50
176
     1
 90
       50
176
     1
 90
       50
176
     1
290
     0
176
     1
 90
       50
176
     1
 62
   256
176
     0
 40
1.0
176
     0
 90
        2
176
     1
  1
strokes_ogs.tif
176
     1
290
     0
176
     1
 40
1.0
176
     1
 40
1.0
176
     1
  0
VISUALSTYLE
  5
32
102
{ACAD_REACTORS
330
29
102
}
330
29
100
AcDbVisualStyle
  2
Conceptual
 70
     9
177
     3
291
     0
 70
    58
 90
        3
176
     1
 90
        2
176
     1
 90
        0
176
     1
 90
        0
176
     1
 40
0.6
176
     1
 40
30.0
176
     1
 62
     7
420
 16777215
176
     1
 90
        2
176
     1
 90
        2
176
     1
 62
     7
176
     1
 62
   257
176
     1
 90
        1
176
     1
 90
        1
176
     1
 40
179.0
176
     1
 90
        8
176
     1
 62
     7
176
     1
 40
1.0
176
     1
 90
        1
176
     1
 90
        6
176
     1
 90
        2
176
     1
 62
     7
176
     1
 90
        3
176
     1
 90
        0
176
     1
 90
        0
176
     1
290
     0
176
     1
 90
        1
176
     1
 40
0.0
176
     1
 90
        0
176
     1
290
     0
176
     1
290
     1
176
     1
290
     1
176
     1
290
     0
176
     1
290
     0
176
     1
290
     0
176
     1
290
     0
176
     1
290
     0
176
     1
290
     0
176
     1
 90
       50
176
     1
 40
0.0
176
     1
 40
1.0
176
     1
 90
        0
176
     1
 62
    18
420
        0
176
     1
 90
       50
176
     1
 90
        3
176
     1
 62
     5
420
      255
176
     1
290
     0
176
     1
 90
       50
176
     1
 90
       50
176
     1
 90
       50
176
     1
290
     0
176
     1
 90
       50
176
     1
 62
   256
176
     0
 40
1.0
176
     0
 90
        2
176
     1
  1
strokes_ogs.tif
176
     1
290
     0
176
     1
 40
1.0
176
     1
 40
1.0
176
     1
  0
VISUALSTYLE
  5
34
102
{ACAD_REACTORS
330
29
102
}
330
29
100
AcDbVisualStyle
  2
Dim
 70
    11
177
     3
291
     1
 70
    58
 90
        2
176
     1
 90
        2
176
     1
 90
        0
176
     1
 90
        0
176
     1
 40
0.6
176
     1
 40
30.0
176
     1
 62
     7
420
 16777215
176
     1
 90
        1
176
     1
 90
        4
176
     1
 62
     7
176
     1
 62
   257
176
     1
 90
        1
176
     1
 90
        1
176
     1
 40
1.0
176
     1
 90
        8
176
     1
 62
     7
176
     1
 40
1.0
176
     1
 90
        1
176
     1
 90
        6
176
     1
 90
        2
176
     1
 62
     7
176
     1
 90
        5
176
     1
 90
        0
176
     1
 90
        0
176
     1
290
     0
176
     1
 90
        1
176
     1
 40
-50.0
176
     1
 90
        0
176
     1
290
     0
176
     1
290
     1
176
     1
290
     1
176
     1
290
     0
176
     1
290
     0
176
     1
290
     0
176
     1
290
     0
176
     1
290
     0
176
     1
290
     0
176
     1
 90
       50
176
     1
 40
0.0
176
     1
 40
1.0
176
     1
 90
        0
176
     1
 62
    18
420
        0
176
     1
 90
       50
176
     1
 90
        3
176
     1
 62
     5
420
      255
176
     1
290
     0
176
     1
 90
       50
176
     1
 90
       50
176
     1
 90
       50
176
     1
290
     0
176
     1
 90
       50
176
     1
 62
   256
176
     0
 40
1.0
176
     0
 90
        2
176
     1
  1
strokes_ogs.tif
176
     1
290
     0
176
     1
 40
1.0
176
     1
 40
1.0
176
     1
  0
VISUALSTYLE
  5
41
102
{ACAD_REACTORS
330
29
102
}
330
29
100
AcDbVisualStyle
  2
EdgeColorOff
 70
    22
177
     3
291
     1
 70
    58
 90
        2
176
     0
 90
        2
176
     0
 90
        0
176
     0
 90
        0
176
     0
 40
0.6
176
     0
 40
30.0
176
     0
 62
     7
420
 16777215
176
     0
 90
        1
176
     0
 90
        4
176
     0
 62
     7
176
     0
 62
   257
176
     0
 90
        1
176
     0
 90
        1
176
     0
 40
1.0
176
     0
 90
        8
176
     2
 62
     7
176
     0
 40
1.0
176
     0
 90
        1
176
     0
 90
        6
176
     0
 90
        2
176
     0
 62
     7
176
     0
 90
        5
176
     0
 90
        0
176
     0
 90
        0
176
     0
290
     0
176
     0
 90
        1
176
     0
 40
0.0
176
     0
 90
        0
176
     0
290
     0
176
     0
290
     1
176
     0
290
     1
176
     0
290
     0
176
     0
290
     0
176
     0
290
     0
176
     0
290
     0
176
     0
290
     0
176
     0
290
     0
176
     0
 90
       50
176
     0
 40
0.0
176
     0
 40
1.0
176
     0
 90
        0
176
     0
 62
    18
420
        0
176
     0
 90
       50
176
     0
 90
        3
176
     0
 62
     5
420
      255
176
     0
290
     0
176
     0
 90
       50
176
     0
 90
       50
176
     0
 90
       50
176
     0
290
     0
176
     0
 90
       50
176
     0
 62
   256
176
     0
 40
1.0
176
     0
 90
        2
176
     0
  1
strokes_ogs.tif
176
     0
290
     0
176
     0
 40
1.0
176
     0
 40
1.0
176
     0
  0
VISUALSTYLE
  5
38
102
{ACAD_REACTORS
330
29
102
}
330
29
100
AcDbVisualStyle
  2
Facepattern
 70
    15
177
     3
291
     1
 70
    58
 90
        2
176
     1
 90
        2
176
     1
 90
        0
176
     1
 90
        0
176
     1
 40
0.6
176
     1
 40
30.0
176
     1
 62
     7
420
 16777215
176
     1
 90
        1
176
     1
 90
        4
176
     1
 62
     7
176
     1
 62
   257
176
     1
 90
        1
176
     1
 90
        1
176
     1
 40
1.0
176
     1
 90
        8
176
     1
 62
     7
176
     1
 40
1.0
176
     1
 90
        1
176
     1
 90
        6
176
     1
 90
        2
176
     1
 62
     7
176
     1
 90
        5
176
     1
 90
        0
176
     1
 90
        0
176
     1
290
     0
176
     1
 90
        1
176
     1
 40
0.0
176
     1
 90
        0
176
     1
290
     0
176
     1
290
     1
176
     1
290
     1
176
     1
290
     0
176
     1
290
     0
176
     1
290
     0
176
     1
290
     0
176
     1
290
     0
176
     1
290
     0
176
     1
 90
       50
176
     1
 40
0.0
176
     1
 40
1.0
176
     1
 90
        0
176
     1
 62
    18
420
        0
176
     1
 90
       50
176
     1
 90
        3
176
     1
 62
     5
420
      255
176
     1
290
     0
176
     1
 90
       50
176
     1
 90
       50
176
     1
 90
       50
176
     1
290
     0
176
     1
 90
       50
176
     1
 62
   256
176
     0
 40
1.0
176
     0
 90
        2
176
     1
  1
strokes_ogs.tif
176
     1
290
     0
176
     1
 40
1.0
176
     1
 40
1.0
176
     1
  0
VISUALSTYLE
  5
2A
102
{ACAD_REACTORS
330
29
102
}
330
29
100
AcDbVisualStyle
  2
Flat
 70
     0
177
     3
291
     1
 70
    58
 90
        2
176
     1
 90
        1
176
     1
 90
        1
176
     1
 90
        2
176
     1
 40
0.6
176
     1
 40
30.0
176
     1
 62
     7
420
 16777215
176
     1
 90
        0
176
     1
 90
        0
176
     1
 62
     7
176
     1
 62
   257
176
     1
 90
        1
176
     1
 90
        1
176
     1
 40
1.0
176
     1
 90
        8
176
     1
 62
     7
176
     1
 40
1.0
176
     1
 90
        1
176
     1
 90
        6
176
     1
 90
        2
176
     1
 62
     7
176
     1
 90
        5
176
     1
 90
        0
176
     1
 90
        0
176
     1
290
     0
176
     1
 90
       13
176
     1
 40
0.0
176
     1
 90
        0
176
     1
290
     0
176
     1
290
     1
176
     1
290
     1
176
     1
290
     0
176
     1
290
     0
176
     1
290
     0
176
     1
290
     0
176
     1
290
     0
176
     1
290
     0
176
     1
 90
       50
176
     1
 40
0.0
176
     1
 40
1.0
176
     1
 90
        0
176
     1
 62
    18
420
        0
176
     1
 90
       50
176
     1
 90
        3
176
     1
 62
     5
420
      255
176
     1
290
     0
176
     1
 90
       50
176
     1
 90
       50
176
     1
 90
       50
176
     1
290
     0
176
     1
 90
       50
176
     1
 62
   256
176
     0
 40
1.0
176
     0
 90
        2
176
     1
  1
strokes_ogs.tif
176
     1
290
     0
176
     1
 40
1.0
176
     1
 40
1.0
176
     1
  0
VISUALSTYLE
  5
2B
102
{ACAD_REACTORS
330
29
102
}
330
29
100
AcDbVisualStyle
  2
FlatWithEdges
 70
     1
177
     3
291
     1
 70
    58
 90
        2
176
     1
 90
        1
176
     1
 90
        1
176
     1
 90
        2
176
     1
 40
0.6
176
     1
 40
30.0
176
     1
 62
     7
420
 16777215
176
     1
 90
        1
176
     1
 90
        0
176
     1
 62
     7
176
     1
 62
   257
176
     1
 90
        1
176
     1
 90
        1
176
     1
 40
1.0
176
     1
 90
        0
176
     1
 62
   257
176
     1
 40
1.0
176
     1
 90
        1
176
     1
 90
        6
176
     1
 90
        2
176
     1
 62
     7
176
     1
 90
        5
176
     1
 90
        0
176
     1
 90
        0
176
     1
290
     0
176
     1
 90
       13
176
     1
 40
0.0
176
     1
 90
        0
176
     1
290
     0
176
     1
290
     1
176
     1
290
     1
176
     1
290
     0
176
     1
290
     0
176
     1
290
     0
176
     1
290
     0
176
     1
290
     0
176
     1
290
     0
176
     1
 90
       50
176
     1
 40
0.0
176
     1
 40
1.0
176
     1
 90
        0
176
     1
 62
    18
420
        0
176
     1
 90
       50
176
     1
 90
        3
176
     1
 62
     5
420
      255
176
     1
290
     0
176
     1
 90
       50
176
     1
 90
       50
176
     1
 90
       50
176
     1
290
     0
176
     1
 90
       50
176
     1
 62
   256
176
     0
 40
1.0
176
     0
 90
        2
176
     1
  1
strokes_ogs.tif
176
     1
290
     0
176
     1
 40
1.0
176
     1
 40
1.0
176
     1
  0
VISUALSTYLE
  5
2C
102
{ACAD_REACTORS
330
29
102
}
330
29
100
AcDbVisualStyle
  2
Gouraud
 70
     2
177
     3
291
     1
 70
    58
 90
        2
176
     1
 90
        2
176
     1
 90
        1
176
     1
 90
        2
176
     1
 40
0.6
176
     1
 40
30.0
176
     1
 62
     7
420
 16777215
176
     1
 90
        0
176
     1
 90
        0
176
     1
 62
     7
176
     1
 62
   257
176
     1
 90
        1
176
     1
 90
        1
176
     1
 40
1.0
176
     1
 90
        0
176
     1
 62
     7
176
     1
 40
1.0
176
     1
 90
        1
176
     1
 90
        6
176
     1
 90
        2
176
     1
 62
     7
176
     1
 90
        5
176
     1
 90
        0
176
     1
 90
        0
176
     1
290
     0
176
     1
 90
       13
176
     1
 40
0.0
176
     1
 90
        0
176
     1
290
     0
176
     1
290
     1
176
     1
290
     1
176
     1
290
     0
176
     1
290
     0
176
     1
290
     0
176
     1
290
     0
176
     1
290
     0
176
     1
290
     0
176
     1
 90
       50
176
     1
 40
0.0
176
     1
 40
1.0
176
     1
 90
        0
176
     1
 62
    18
420
        0
176
     1
 90
       50
176
     1
 90
        3
176
     1
 62
     5
420
      255
176
     1
290
     0
176
     1
 90
       50
176
     1
 90
       50
176
     1
 90
       50
176
     1
290
     0
176
     1
 90
       50
176
     1
 62
   256
176
     0
 40
1.0
176
     0
 90
        2
176
     1
  1
strokes_ogs.tif
176
     1
290
     0
176
     1
 40
1.0
176
     1
 40
1.0
176
     1
  0
VISUALSTYLE
  5
2D
102
{ACAD_REACTORS
330
29
102
}
330
29
100
AcDbVisualStyle
  2
GouraudWithEdges
 70
     3
177
     3
291
     1
 70
    58
 90
        2
176
     1
 90
        2
176
     1
 90
        1
176
     1
 90
        2
176
     1
 40
0.6
176
     1
 40
30.0
176
     1
 62
     7
420
 16777215
176
     1
 90
        1
176
     1
 90
        0
176
     1
 62
     7
176
     1
 62
   257
176
     1
 90
        1
176
     1
 90
        1
176
     1
 40
1.0
176
     1
 90
        0
176
     1
 62
   257
176
     1
 40
1.0
176
     1
 90
        1
176
     1
 90
        6
176
     1
 90
        2
176
     1
 62
     7
176
     1
 90
        5
176
     1
 90
        0
176
     1
 90
        0
176
     1
290
     0
176
     1
 90
       13
176
     1
 40
0.0
176
     1
 90
        0
176
     1
290
     0
176
     1
290
     1
176
     1
290
     1
176
     1
290
     0
176
     1
290
     0
176
     1
290
     0
176
     1
290
     0
176
     1
290
     0
176
     1
290
     0
176
     1
 90
       50
176
     1
 40
0.0
176
     1
 40
1.0
176
     1
 90
        0
176
     1
 62
    18
420
        0
176
     1
 90
       50
176
     1
 90
        3
176
     1
 62
     5
420
      255
176
     1
290
     0
176
     1
 90
       50
176
     1
 90
       50
176
     1
 90
       50
176
     1
290
     0
176
     1
 90
       50
176
     1
 62
   256
176
     0
 40
1.0
176
     0
 90
        2
176
     1
  1
strokes_ogs.tif
176
     1
290
     0
176
     1
 40
1.0
176
     1
 40
1.0
176
     1
  0
VISUALSTYLE
  5
31
102
{ACAD_REACTORS
330
29
102
}
330
29
100
AcDbVisualStyle
  2
Hidden
 70
     6
177
     3
291
     0
 70
    58
 90
        1
176
     1
 90
        2
176
     1
 90
        2
176
     1
 90
        0
176
     1
 40
0.6
176
     1
 40
30.0
176
     1
 62
     7
420
 16777215
176
     1
 90
        2
176
     1
 90
        2
176
     1
 62
     7
176
     1
 62
   257
176
     1
 90
        2
176
     1
 90
        1
176
     1
 40
40.0
176
     1
 90
        0
176
     1
 62
   257
176
     1
 40
1.0
176
     1
 90
        1
176
     1
 90
        6
176
     1
 90
        2
176
     1
 62
     7
176
     1
 90
        3
176
     1
 90
        0
176
     1
 90
        0
176
     1
290
     0
176
     1
 90
        1
176
     1
 40
0.0
176
     1
 90
        0
176
     1
290
     0
176
     1
290
     1
176
     1
290
     1
176
     1
290
     0
176
     1
290
     0
176
     1
290
     0
176
     1
290
     0
176
     1
290
     0
176
     1
290
     0
176
     1
 90
       50
176
     1
 40
0.0
176
     1
 40
1.0
176
     1
 90
        0
176
     1
 62
    18
420
        0
176
     1
 90
       50
176
     1
 90
        3
176
     1
 62
     5
420
      255
176
     1
290
     0
176
     1
 90
       50
176
     1
 90
       50
176
     1
 90
       50
176
     1
290
     0
176
     1
 90
       50
176
     1
 62
   256
176
     0
 40
1.0
176
     0
 90
        2
176
     1
  1
strokes_ogs.tif
176
     1
290
     0
176
     1
 40
1.0
176
     1
 40
1.0
176
     1
  0
VISUALSTYLE
  5
3F
102
{ACAD_REACTORS
330
29
102
}
330
29
100
AcDbVisualStyle
  2
JitterOff
 70
    20
177
     3
291
     1
 70
    58
 90
        2
176
     0
 90
        2
176
     0
 90
        0
176
     0
 90
        0
176
     0
 40
0.6
176
     0
 40
30.0
176
     0
 62
     7
420
 16777215
176
     0
 90
        1
176
     0
 90
        4
176
     0
 62
     7
176
     0
 62
   257
176
     0
 90
        1
176
     0
 90
        1
176
     0
 40
1.0
176
     0
 90
       10
176
     2
 62
     7
176
     0
 40
1.0
176
     0
 90
        1
176
     0
 90
        6
176
     0
 90
        2
176
     0
 62
     7
176
     0
 90
        5
176
     0
 90
        0
176
     0
 90
        0
176
     0
290
     0
176
     0
 90
        1
176
     0
 40
0.0
176
     0
 90
        0
176
     0
290
     0
176
     0
290
     1
176
     0
290
     1
176
     0
290
     0
176
     0
290
     0
176
     0
290
     0
176
     0
290
     0
176
     0
290
     0
176
     0
290
     0
176
     0
 90
       50
176
     0
 40
0.0
176
     0
 40
1.0
176
     0
 90
        0
176
     0
 62
    18
420
        0
176
     0
 90
       50
176
     0
 90
        3
176
     0
 62
     5
420
      255
176
     0
290
     0
176
     0
 90
       50
176
     0
 90
       50
176
     0
 90
       50
176
     0
290
     0
176
     0
 90
       50
176
     0
 62
   256
176
     0
 40
1.0
176
     0
 90
        2
176
     0
  1
strokes_ogs.tif
176
     0
290
     0
176
     0
 40
1.0
176
     0
 40
1.0
176
     0
  0
VISUALSTYLE
  5
37
102
{ACAD_REACTORS
330
29
102
}
330
29
100
AcDbVisualStyle
  2
Linepattern
 70
    14
177
     3
291
     1
 70
    58
 90
        2
176
     1
 90
        2
176
     1
 90
        0
176
     1
 90
        0
176
     1
 40
0.6
176
     1
 40
30.0
176
     1
 62
     7
420
 16777215
176
     1
 90
        1
176
     1
 90
        4
176
     1
 62
     7
176
     1
 62
   257
176
     1
 90
        7
176
     1
 90
        7
176
     1
 40
1.0
176
     1
 90
        8
176
     1
 62
     7
176
     1
 40
1.0
176
     1
 90
        1
176
     1
 90
        6
176
     1
 90
        2
176
     1
 62
     7
176
     1
 90
        5
176
     1
 90
        0
176
     1
 90
        0
176
     1
290
     0
176
     1
 90
        1
176
     1
 40
0.0
176
     1
 90
        0
176
     1
290
     0
176
     1
290
     1
176
     1
290
     1
176
     1
290
     0
176
     1
290
     0
176
     1
290
     0
176
     1
290
     0
176
     1
290
     0
176
     1
290
     0
176
     1
 90
       50
176
     1
 40
0.0
176
     1
 40
1.0
176
     1
 90
        0
176
     1
 62
    18
420
        0
176
     1
 90
       50
176
     1
 90
        3
176
     1
 62
     5
420
      255
176
     1
290
     0
176
     1
 90
       50
176
     1
 90
       50
176
     1
 90
       50
176
     1
290
     0
176
     1
 90
       50
176
     1
 62
   256
176
     0
 40
1.0
176
     0
 90
        2
176
     1
  1
strokes_ogs.tif
176
     1
290
     0
176
     1
 40
1.0
176
     1
 40
1.0
176
     1
  0
VISUALSTYLE
  5
40
102
{ACAD_REACTORS
330
29
102
}
330
29
100
AcDbVisualStyle
  2
OverhangOff
 70
    21
177
     3
291
     1
 70
    58
 90
        2
176
     0
 90
        2
176
     0
 90
        0
176
     0
 90
        0
176
     0
 40
0.6
176
     0
 40
30.0
176
     0
 62
     7
420
 16777215
176
     0
 90
        1
176
     0
 90
        4
176
     0
 62
     7
176
     0
 62
   257
176
     0
 90
        1
176
     0
 90
        1
176
     0
 40
1.0
176
     0
 90
        9
176
     2
 62
     7
176
     0
 40
1.0
176
     0
 90
        1
176
     0
 90
        6
176
     0
 90
        2
176
     0
 62
     7
176
     0
 90
        5
176
     0
 90
        0
176
     0
 90
        0
176
     0
290
     0
176
     0
 90
        1
176
     0
 40
0.0
176
     0
 90
        0
176
     0
290
     0
176
     0
290
     1
176
     0
290
     1
176
     0
290
     0
176
     0
290
     0
176
     0
290
     0
176
     0
290
     0
176
     0
290
     0
176
     0
290
     0
176
     0
 90
       50
176
     0
 40
0.0
176
     0
 40
1.0
176
     0
 90
        0
176
     0
 62
    18
420
        0
176
     0
 90
       50
176
     0
 90
        3
176
     0
 62
     5
420
      255
176
     0
290
     0
176
     0
 90
       50
176
     0
 90
       50
176
     0
 90
       50
176
     0
290
     0
176
     0
 90
       50
176
     0
 62
   256
176
     0
 40
1.0
176
     0
 90
        2
176
     0
  1
strokes_ogs.tif
176
     0
290
     0
176
     0
 40
1.0
176
     0
 40
1.0
176
     0
  0
VISUALSTYLE
  5
33
102
{ACAD_REACTORS
330
29
102
}
330
29
100
AcDbVisualStyle
  2
Realistic
 70
     8
177
     3
291
     0
 70
    58
 90
        2
176
     1
 90
        3
176
     1
 90
        0
176
     1
 90
        2
176
     1
 40
0.6
176
     1
 40
30.0
176
     1
 62
     7
420
 16777215
176
     1
 90
        0
176
     1
 90
        0
176
     1
 62
     7
176
     1
 62
   257
176
     1
 90
        1
176
     1
 90
        1
176
     1
 40
1.0
176
     1
 90
        8
176
     1
 62
   257
176
     1
 40
1.0
176
     1
 90
        1
176
     1
 90
        6
176
     1
 90
        2
176
     1
 62
     7
176
     1
 90
        3
176
     1
 90
        0
176
     1
 90
        0
176
     1
290
     0
176
     1
 90
       13
176
     1
 40
0.0
176
     1
 90
        0
176
     1
290
     0
176
     1
290
     1
176
     1
290
     1
176
     1
290
     0
176
     1
290
     0
176
     1
290
     0
176
     1
290
     0
176
     1
290
     0
176
     1
290
     0
176
     1
 90
       50
176
     1
 40
0.0
176
     1
 40
1.0
176
     1
 90
        0
176
     1
 62
    18
420
        0
176
     1
 90
       50
176
     1
 90
        3
176
     1
 62
     5
420
      255
176
     1
290
     0
176
     1
 90
       50
176
     1
 90
       50
176
     1
 90
       50
176
     1
290
     0
176
     1
 90
       50
176
     1
 62
   256
176
     0
 40
1.0
176
     0
 90
        2
176
     1
  1
strokes_ogs.tif
176
     1
290
     0
176
     1
 40
1.0
176
     1
 40
1.0
176
     1
  0
VISUALSTYLE
  5
3E
102
{ACAD_REACTORS
330
29
102
}
330
29
100
AcDbVisualStyle
  2
Shaded
 70
    27
177
     3
291
     0
 70
    58
 90
        2
176
     1
 90
        2
176
     1
 90
        1
176
     1
 90
        2
176
     1
 40
0.6
176
     1
 40
30.0
176
     1
 62
     7
420
 16777215
176
     1
 90
        0
176
     1
 90
        4
176
     1
 62
     7
176
     1
 62
   257
176
     1
 90
        1
176
     1
 90
        1
176
     1
 40
1.0
176
     1
 90
        8
176
     1
 62
   257
176
     1
 40
1.0
176
     1
 90
        1
176
     1
 90
        6
176
     1
 90
        2
176
     1
 62
     8
420
  7895160
176
     1
 90
        3
176
     1
 90
        0
176
     1
 90
        0
176
     1
290
     0
176
     1
 90
        5
176
     1
 40
0.0
176
     1
 90
        0
176
     1
290
     0
176
     1
290
     1
176
     1
290
     1
176
     1
290
     0
176
     1
290
     0
176
     1
290
     0
176
     1
290
     0
176
     1
290
     0
176
     1
290
     0
176
     1
 90
       50
176
     1
 40
0.0
176
     1
 40
1.0
176
     1
 90
        0
176
     1
 62
    18
420
        0
176
     1
 90
       50
176
     1
 90
        3
176
     1
 62
     5
420
      255
176
     1
290
     0
176
     1
 90
       50
176
     1
 90
       50
176
     1
 90
       50
176
     1
290
     0
176
     1
 90
       50
176
     1
 62
   256
176
     0
 40
1.0
176
     0
 90
        2
176
     1
  1
strokes_ogs.tif
176
     1
290
     0
176
     1
 40
1.0
176
     1
 40
1.0
176
     1
  0
VISUALSTYLE
  5
3D
102
{ACAD_REACTORS
330
29
102
}
330
29
100
AcDbVisualStyle
  2
Shaded with edges
 70
    26
177
     3
291
     0
 70
    58
 90
        2
176
     1
 90
        2
176
     1
 90
        1
176
     1
 90
        2
176
     1
 40
0.6
176
     1
 40
30.0
176
     1
 62
     7
420
 16777215
176
     1
 90
        1
176
     1
 90
        2
176
     1
 62
     7
176
     1
 62
   257
176
     1
 90
        2
176
     1
 90
        1
176
     1
 40
1.0
176
     1
 90
        8
176
     1
 62
   257
176
     1
 40
1.0
176
     1
 90
        1
176
     1
 90
        6
176
     1
 90
        2
176
     1
 62
     7
176
     1
 90
        3
176
     1
 90
        0
176
     1
 90
        0
176
     1
290
     0
176
     1
 90
        5
176
     1
 40
0.0
176
     1
 90
        0
176
     1
290
     0
176
     1
290
     1
176
     1
290
     1
176
     1
290
     0
176
     1
290
     0
176
     1
290
     0
176
     1
290
     0
176
     1
290
     0
176
     1
290
     0
176
     1
 90
       50
176
     1
 40
0.0
176
     1
 40
1.0
176
     1
 90
        0
176
     1
 62
    18
420
        0
176
     1
 90
       50
176
     1
 90
        3
176
     1
 62
     5
420
      255
176
     1
290
     0
176
     1
 90
       50
176
     1
 90
       50
176
     1
 90
       50
176
     1
290
     0
176
     1
 90
       50
176
     1
 62
   256
176
     0
 40
1.0
176
     0
 90
        2
176
     1
  1
strokes_ogs.tif
176
     1
290
     0
176
     1
 40
1.0
176
     1
 40
1.0
176
     1
  0
VISUALSTYLE
  5
3A
102
{ACAD_REACTORS
330
29
102
}
330
29
100
AcDbVisualStyle
  2
Shades of Gray
 70
    23
177
     3
291
     0
 70
    58
 90
        2
176
     1
 90
        2
176
     1
 90
        3
176
     1
 90
        0
176
     1
 40
0.6
176
     1
 40
30.0
176
     1
 62
     7
420
 16777215
176
     1
 90
        2
176
     1
 90
        2
176
     1
 62
     7
176
     1
 62
     7
176
     1
 90
        1
176
     1
 90
        1
176
     1
 40
40.0
176
     1
 90
        8
176
     1
 62
     7
176
     1
 40
1.0
176
     1
 90
        1
176
     1
 90
        6
176
     1
 90
        2
176
     1
 62
     7
176
     1
 90
        3
176
     1
 90
        0
176
     1
 90
        0
176
     1
290
     0
176
     1
 90
        1
176
     1
 40
0.0
176
     1
 90
        0
176
     1
290
     0
176
     1
290
     1
176
     1
290
     1
176
     1
290
     0
176
     1
290
     0
176
     1
290
     0
176
     1
290
     0
176
     1
290
     0
176
     1
290
     0
176
     1
 90
       50
176
     1
 40
0.0
176
     1
 40
1.0
176
     1
 90
        0
176
     1
 62
    18
420
        0
176
     1
 90
       50
176
     1
 90
        3
176
     1
 62
     5
420
      255
176
     1
290
     0
176
     1
 90
       50
176
     1
 90
       50
176
     1
 90
       50
176
     1
290
     0
176
     1
 90
       50
176
     1
 62
   256
176
     0
 40
1.0
176
     0
 90
        2
176
     1
  1
strokes_ogs.tif
176
     1
290
     0
176
     1
 40
1.0
176
     1
 40
1.0
176
     1
  0
VISUALSTYLE
  5
3B
102
{ACAD_REACTORS
330
29
102
}
330
29
100
AcDbVisualStyle
  2
Sketchy
 70
    24
177
     3
291
     0
 70
    58
 90
        1
176
     1
 90
        2
176
     1
 90
        2
176
     1
 90
        0
176
     1
 40
0.6
176
     1
 40
30.0
176
     1
 62
     7
420
 16777215
176
     1
 90
        2
176
     1
 90
        2
176
     1
 62
     7
176
     1
 62
     7
176
     1
 90
        1
176
     1
 90
        1
176
     1
 40
40.0
176
     1
 90
       11
176
     1
 62
     7
176
     1
 40
1.0
176
     1
 90
        1
176
     1
 90
        6
176
     1
 90
        2
176
     1
 62
     7
176
     1
 90
        6
176
     1
 90
        0
176
     1
 90
        0
176
     1
290
     0
176
     1
 90
        1
176
     1
 40
0.0
176
     1
 90
        0
176
     1
290
     0
176
     1
290
     1
176
     1
290
     1
176
     1
290
     0
176
     1
290
     0
176
     1
290
     0
176
     1
290
     0
176
     1
290
     0
176
     1
290
     0
176
     1
 90
       50
176
     1
 40
0.0
176
     1
 40
1.0
176
     1
 90
        0
176
     1
 62
    18
420
        0
176
     1
 90
       50
176
     1
 90
        3
176
     1
 62
     5
420
      255
176
     1
290
     0
176
     1
 90
       50
176
     1
 90
       50
176
     1
 90
       50
176
     1
290
     0
176
     1
 90
       50
176
     1
 62
   256
176
     0
 40
1.0
176
     0
 90
        2
176
     1
  1
strokes_ogs.tif
176
     1
290
     0
176
     1
 40
1.0
176
     1
 40
1.0
176
     1
  0
VISUALSTYLE
  5
36
102
{ACAD_REACTORS
330
29
102
}
330
29
100
AcDbVisualStyle
  2
Thicken
 70
    13
177
     3
291
     1
 70
    58
 90
        2
176
     1
 90
        2
176
     1
 90
        0
176
     1
 90
        0
176
     1
 40
0.6
176
     1
 40
30.0
176
     1
 62
     7
420
 16777215
176
     1
 90
        1
176
     1
 90
        4
176
     1
 62
     7
176
     1
 62
   257
176
     1
 90
        1
176
     1
 90
        1
176
     1
 40
1.0
176
     1
 90
       12
176
     1
 62
     7
176
     1
 40
1.0
176
     1
 90
        1
176
     1
 90
        6
176
     1
 90
        2
176
     1
 62
     7
176
     1
 90
        5
176
     1
 90
        0
176
     1
 90
        0
176
     1
290
     0
176
     1
 90
        1
176
     1
 40
0.0
176
     1
 90
        0
176
     1
290
     0
176
     1
290
     1
176
     1
290
     1
176
     1
290
     0
176
     1
290
     0
176
     1
290
     0
176
     1
290
     0
176
     1
290
     0
176
     1
290
     0
176
     1
 90
       50
176
     1
 40
0.0
176
     1
 40
1.0
176
     1
 90
        0
176
     1
 62
    18
420
        0
176
     1
 90
       50
176
     1
 90
        3
176
     1
 62
     5
420
      255
176
     1
290
     0
176
     1
 90
       50
176
     1
 90
       50
176
     1
 90
       50
176
     1
290
     0
176
     1
 90
       50
176
     1
 62
   256
176
     0
 40
1.0
176
     0
 90
        2
176
     1
  1
strokes_ogs.tif
176
     1
290
     0
176
     1
 40
1.0
176
     1
 40
1.0
176
     1
  0
VISUALSTYLE
  5
30
102
{ACAD_REACTORS
330
29
102
}
330
29
100
AcDbVisualStyle
  2
Wireframe
 70
     5
177
     3
291
     0
 70
    58
 90
        0
176
     1
 90
        2
176
     1
 90
        0
176
     1
 90
        0
176
     1
 40
0.6
176
     1
 40
30.0
176
     1
 62
     7
420
 16777215
176
     1
 90
        1
176
     1
 90
        4
176
     1
 62
     7
176
     1
 62
   257
176
     1
 90
        1
176
     1
 90
        1
176
     1
 40
1.0
176
     1
 90
        0
176
     1
 62
   257
176
     1
 40
1.0
176
     1
 90
        1
176
     1
 90
        6
176
     1
 90
        2
176
     1
 62
     7
176
     1
 90
        3
176
     1
 90
        0
176
     1
 90
        0
176
     1
290
     0
176
     1
 90
        1
176
     1
 40
0.0
176
     1
 90
        0
176
     1
290
     0
176
     1
290
     1
176
     1
290
     1
176
     1
290
     0
176
     1
290
     0
176
     1
290
     0
176
     1
290
     0
176
     1
290
     0
176
     1
290
     0
176
     1
 90
       50
176
     1
 40
0.0
176
     1
 40
1.0
176
     1
 90
        0
176
     1
 62
    18
420
        0
176
     1
 90
       50
176
     1
 90
        3
176
     1
 62
     5
420
      255
176
     1
290
     0
176
     1
 90
       50
176
     1
 90
       50
176
     1
 90
       50
176
     1
290
     0
176
     1
 90
       50
176
     1
 62
   256
176
     0
 40
1.0
176
     0
 90
        2
176
     1
  1
strokes_ogs.tif
176
     1
290
     0
176
     1
 40
1.0
176
     1
 40
1.0
176
     1
  0
VISUALSTYLE
  5
3C
102
{ACAD_REACTORS
330
29
102
}
330
29
100
AcDbVisualStyle
  2
X-Ray
 70
    25
177
     3
291
     0
 70
    58
 90
        2
176
     1
 90
        2
176
     1
 90
        1
176
     1
 90
        1
176
     1
 40
0.5
176
     1
 40
30.0
176
     1
 62
     7
420
 16777215
176
     1
 90
        1
176
     1
 90
        0
176
     1
 62
     7
176
     1
 62
   257
176
     1
 90
        1
176
     1
 90
        1
176
     1
 40
1.0
176
     1
 90
        8
176
     1
 62
     7
176
     1
 40
1.0
176
     1
 90
        1
176
     1
 90
        6
176
     1
 90
        2
176
     1
 62
     7
176
     1
 90
        3
176
     1
 90
        0
176
     1
 90
        0
176
     1
290
     0
176
     1
 90
       13
176
     1
 40
0.0
176
     1
 90
        0
176
     1
290
     0
176
     1
290
     1
176
     1
290
     1
176
     1
290
     0
176
     1
290
     0
176
     1
290
     0
176
     1
290
     0
176
     1
290
     0
176
     1
290
     0
176
     1
 90
       50
176
     1
 40
0.0
176
     1
 40
1.0
176
     1
 90
        0
176
     1
 62
    18
420
        0
176
     1
 90
       50
176
     1
 90
        3
176
     1
 62
     5
420
      255
176
     1
290
     0
176
     1
 90
       50
176
     1
 90
       50
176
     1
 90
       50
176
     1
290
     0
176
     1
 90
       50
176
     1
 62
   256
176
     0
 40
1.0
176
     0
 90
        2
176
     1
  1
strokes_ogs.tif
176
     1
290
     0
176
     1
 40
1.0
176
     1
 40
1.0
176
     1
  0
DICTIONARYVAR
  5
2F9
102
{ACAD_REACTORS
330
2F4
102
}
330
2F4
100
DictionaryVariables
280
     0
  1
1:1
  0
DICTIONARYVAR
  5
2F6
102
{ACAD_REACTORS
330
2F4
102
}
330
2F4
100
DictionaryVariables
280
     0
  1
STANDARD
  0
DICTIONARYVAR
  5
2F5
102
{ACAD_REACTORS
330
2F4
102
}
330
2F4
100
DictionaryVariables
280
     0
  1
STANDARD
  0
DICTIONARYVAR
  5
2F7
102
{ACAD_REACTORS
330
2F4
102
}
330
2F4
100
DictionaryVariables
280
     0
  1
Imperial24
  0
DICTIONARYVAR
  5
2F8
102
{ACAD_REACTORS
330
2F4
102
}
330
2F4
100
DictionaryVariables
280
     0
  1
Imperial24
  0
DICTIONARY
  5
1A
330
19
100
AcDbDictionary
280
     1
281
     1
  3
BUMPTILE
360
1C
  3
DIFFUSETILE
360
1B
  3
OPACITYTILE
360
1F
  3
REFLECTIONTILE
360
1E
  3
REFRACTIONTILE
360
20
  3
SPECULARTILE
360
1D
  0
DICTIONARY
  5
12
330
11
100
AcDbDictionary
280
     1
281
     1
  3
BUMPTILE
360
14
  3
DIFFUSETILE
360
13
  3
OPACITYTILE
360
17
  3
REFLECTIONTILE
360
16
  3
REFRACTIONTILE
360
18
  3
SPECULARTILE
360
15
  0
DICTIONARY
  5
22
330
21
100
AcDbDictionary
280
     1
281
     1
  3
BUMPTILE
360
24
  3
DIFFUSETILE
360
23
  3
OPACITYTILE
360
27
  3
REFLECTIONTILE
360
26
  3
REFRACTIONTILE
360
28
  3
SPECULARTILE
360
25
  0
DICTIONARY
  5
2FA
330
65
100
AcDbDictionary
280
     1
281
     1
  3
ACAD_ROUNDTRIP_2008_TABLESTYLE_CELLSTYLEMAP
360
2FB
  0
XRECORD
  5
1C
102
{ACAD_REACTORS
330
1A
102
}
330
1A
100
AcDbXrecord
280
     1
270
     1
271
     1
  0
XRECORD
  5
1B
102
{ACAD_REACTORS
330
1A
102
}
330
1A
100
AcDbXrecord
280
     1
270
     1
271
     1
  0
XRECORD
  5
1F
102
{ACAD_REACTORS
330
1A
102
}
330
1A
100
AcDbXrecord
280
     1
270
     1
271
     1
  0
XRECORD
  5
1E
102
{ACAD_REACTORS
330
1A
102
}
330
1A
100
AcDbXrecord
280
     1
270
     1
271
     1
  0
XRECORD
  5
20
102
{ACAD_REACTORS
330
1A
102
}
330
1A
100
AcDbXrecord
280
     1
270
     1
271
     1
  0
XRECORD
  5
1D
102
{ACAD_REACTORS
330
1A
102
}
330
1A
100
AcDbXrecord
280
     1
270
     1
271
     1
  0
XRECORD
  5
14
102
{ACAD_REACTORS
330
12
102
}
330
12
100
AcDbXrecord
280
     1
270
     1
271
     1
  0
XRECORD
  5
13
102
{ACAD_REACTORS
330
12
102
}
330
12
100
AcDbXrecord
280
     1
270
     1
271
     1
  0
XRECORD
  5
17
102
{ACAD_REACTORS
330
12
102
}
330
12
100
AcDbXrecord
280
     1
270
     1
271
     1
  0
XRECORD
  5
16
102
{ACAD_REACTORS
330
12
102
}
330
12
100
AcDbXrecord
280
     1
270
     1
271
     1
  0
XRECORD
  5
18
102
{ACAD_REACTORS
330
12
102
}
330
12
100
AcDbXrecord
280
     1
270
     1
271
     1
  0
XRECORD
  5
15
102
{ACAD_REACTORS
330
12
102
}
330
12
100
AcDbXrecord
280
     1
270
     1
271
     1
  0
XRECORD
  5
24
102
{ACAD_REACTORS
330
22
102
}
330
22
100
AcDbXrecord
280
     1
270
     1
271
     1
  0
XRECORD
  5
23
102
{ACAD_REACTORS
330
22
102
}
330
22
100
AcDbXrecord
280
     1
270
     1
271
     1
  0
XRECORD
  5
27
102
{ACAD_REACTORS
330
22
102
}
330
22
100
AcDbXrecord
280
     1
270
     1
271
     1
  0
XRECORD
  5
26
102
{ACAD_REACTORS
330
22
102
}
330
22
100
AcDbXrecord
280
     1
270
     1
271
     1
  0
XRECORD
  5
28
102
{ACAD_REACTORS
330
22
102
}
330
22
100
AcDbXrecord
280
     1
270
     1
271
     1
  0
XRECORD
  5
25
102
{ACAD_REACTORS
330
22
102
}
330
22
100
AcDbXrecord
280
     1
270
     1
271
     1
  0
CELLSTYLEMAP
  5
2FB
102
{ACAD_REACTORS
330
2FA
102
}
330
2FA
100
AcDbCellStyleMap
 90
        3
300
CELLSTYLE
  1
TABLEFORMAT_BEGIN
 90
        5
170
     1
 91
        0
 92
    32768
 62
   257
 93
        1
300
CONTENTFORMAT
  1
CONTENTFORMAT_BEGIN
 90
        0
 91
        0
 92
      512
 93
        0
300

 40
0.0
140
1.0
 94
        5
 62
     0
340
55
144
0.25
309
CONTENTFORMAT_END
171
     0
 94
        0
309
TABLEFORMAT_END
  1
CELLSTYLE_BEGIN
 90
        1
 91
        1
300
_TITLE
309
CELLSTYLE_END
300
CELLSTYLE
  1
TABLEFORMAT_BEGIN
 90
        5
170
     1
 91
        0
 92
        0
 62
   257
 93
        1
300
CONTENTFORMAT
  1
CONTENTFORMAT_BEGIN
 90
        0
 91
        0
 92
      512
 93
        0
300

 40
0.0
140
1.0
 94
        5
 62
     0
340
55
144
0.18
309
CONTENTFORMAT_END
171
     0
 94
        0
309
TABLEFORMAT_END
  1
CELLSTYLE_BEGIN
 90
        2
 91
        1
300
_HEADER
309
CELLSTYLE_END
300
CELLSTYLE
  1
TABLEFORMAT_BEGIN
 90
        5
170
     1
 91
        0
 92
        0
 62
   257
 93
        1
300
CONTENTFORMAT
  1
CONTENTFORMAT_BEGIN
 90
        0
 91
        0
 92
      512
 93
        0
300

 40
0.0
140
1.0
 94
        2
 62
     0
340
55
144
0.18
309
CONTENTFORMAT_END
171
     0
 94
        0
309
TABLEFORMAT_END
  1
CELLSTYLE_BEGIN
 90
        3
 91
        2
300
_DATA
309
CELLSTYLE_END
  0
ENDSEC
  0
EOF
