  0
SECTION
  2
HEADER
  9
$ACADVER
  1
AC1032
  9
$ACADMAINTVER
 90
      251
  9
$DWGCODEPAGE
  3
ANSI_1252
  9
$REQUIREDVERSIONS
160
                 0
  9
$INSBASE
 10
0.0
 20
0.0
 30
0.0
  9
$EXTMIN
 10
1.000000000000000E+20
 20
1.000000000000000E+20
 30
1.000000000000000E+20
  9
$EXTMAX
 10
-1.000000000000000E+20
 20
-1.000000000000000E+20
 30
-1.000000000000000E+20
  9
$LIMMIN
 10
0.0
 20
0.0
  9
$LIMMAX
 10
12.0
 20
9.0
  9
$ORTHOMODE
 70
     0
  9
$REGENMODE
 70
     1
  9
$FILLMODE
 70
     1
  9
$QTEXTMODE
 70
     0
  9
$MIRRTEXT
 70
     0
  9
$LTSCALE
 40
1.0
  9
$ATTMODE
 70
     1
  9
$TEXTSIZE
 40
0.2
  9
$TRACEWID
 40
0.05
  9
$TEXTSTYLE
  7
Standard
  9
$CLAYER
  8
0
  9
$CELTYPE
  6
ByLayer
  9
$CECOLOR
 62
   256
  9
$CELTSCALE
 40
1.0
  9
$DISPSILH
 70
     0
  9
$DIMSCALE
 40
1.0
  9
$DIMASZ
 40
0.18
  9
$DIMEXO
 40
0.0625
  9
$DIMDLI
 40
0.38
  9
$DIMRND
 40
0.0
  9
$DIMDLE
 40
0.0
  9
$DIMEXE
 40
0.18
  9
$DIMTP
 40
0.0
  9
$DIMTM
 40
0.0
  9
$DIMTXT
 40
0.18
  9
$DIMCEN
 40
0.09
  9
$DIMTSZ
 40
0.0
  9
$DIMTOL
 70
     0
  9
$DIMLIM
 70
     0
  9
$DIMTIH
 70
     1
  9
$DIMTOH
 70
     1
  9
$DIMSE1
 70
     0
  9
$DIMSE2
 70
     0
  9
$DIMTAD
 70
     0
  9
$DIMZIN
 70
     0
  9
$DIMBLK
  1

  9
$DIMASO
 70
     1
  9
$DIMSHO
 70
     1
  9
$DIMPOST
  1

  9
$DIMAPOST
  1

  9
$DIMALT
 70
     0
  9
$DIMALTD
 70
     2
  9
$DIMALTF
 40
25.4
  9
$DIMLFAC
 40
1.0
  9
$DIMTOFL
 70
     0
  9
$DIMTVP
 40
0.0
  9
$DIMTIX
 70
     0
  9
$DIMSOXD
 70
     0
  9
$DIMSAH
 70
     0
  9
$DIMBLK1
  1

  9
$DIMBLK2
  1

  9
$DIMSTYLE
  2
Standard
  9
$DIMCLRD
 70
     0
  9
$DIMCLRE
 70
     0
  9
$DIMCLRT
 70
     0
  9
$DIMTFAC
 40
1.0
  9
$DIMGAP
 40
0.09
  9
$DIMJUST
 70
     0
  9
$DIMSD1
 70
     0
  9
$DIMSD2
 70
     0
  9
$DIMTOLJ
 70
     1
  9
$DIMTZIN
 70
     0
  9
$DIMALTZ
 70
     0
  9
$DIMALTTZ
 70
     0
  9
$DIMUPT
 70
     0
  9
$DIMDEC
 70
     4
  9
$DIMTDEC
 70
     4
  9
$DIMALTU
 70
     2
  9
$DIMALTTD
 70
     2
  9
$DIMTXSTY
  7
Standard
  9
$DIMAUNIT
 70
     0
  9
$DIMADEC
 70
     0
  9
$DIMALTRND
 40
0.0
  9
$DIMAZIN
 70
     0
  9
$DIMDSEP
 70
    46
  9
$DIMATFIT
 70
     3
  9
$DIMFRAC
 70
     0
  9
$DIMLDRBLK
  1

  9
$DIMLUNIT
 70
     2
  9
$DIMLWD
 70
    -2
  9
$DIMLWE
 70
    -2
  9
$DIMTMOVE
 70
     0
  9
$DIMFXL
 40
1.0
  9
$DIMFXLON
 70
     0
  9
$DIMJOGANG
 40
0.7853981633974483
  9
$DIMTFILL
 70
     0
  9
$DIMTFILLCLR
 70
     0
  9
$DIMARCSYM
 70
     0
  9
$DIMLTYPE
  6

  9
$DIMLTEX1
  6

  9
$DIMLTEX2
  6

  9
$DIMTXTDIRECTION
 70
     0
  9
$LUNITS
 70
     2
  9
$LUPREC
 70
     4
  9
$SKETCHINC
 40
0.1
  9
$FILLETRAD
 40
0.0
  9
$AUNITS
 70
     0
  9
$AUPREC
 70
     0
  9
$MENU
  1
.
  9
$ELEVATION
 40
0.0
  9
$PELEVATION
 40
0.0
  9
$THICKNESS
 40
0.0
  9
$LIMCHECK
 70
     0
  9
$CHAMFERA
 40
0.0
  9
$CHAMFERB
 40
0.0
  9
$CHAMFERC
 40
0.0
  9
$CHAMFERD
 40
0.0
  9
$SKPOLY
 70
     0
  9
$TDCREATE
 40
2459963.394432870
  9
$TDUCREATE
 40
2459963.352766204
  9
$TDUPDATE
 40
2459963.394432870
  9
$TDUUPDATE
 40
2459963.352766204
  9
$TDINDWG
 40
0.0000000000
  9
$TDUSRTIMER
 40
0.0000000000
  9
$USRTIMER
 70
     1
  9
$ANGBASE
 50
0.0
  9
$ANGDIR
 70
     0
  9
$PDMODE
 70
     0
  9
$PDSIZE
 40
0.0
  9
$PLINEWID
 40
0.0
  9
$SPLFRAME
 70
     0
  9
$SPLINETYPE
 70
     6
  9
$SPLINESEGS
 70
     8
  9
$HANDSEED
  5
2C8
  9
$SURFTAB1
 70
     6
  9
$SURFTAB2
 70
     6
  9
$SURFTYPE
 70
     6
  9
$SURFU
 70
     6
  9
$SURFV
 70
     6
  9
$UCSBASE
  2

  9
$UCSNAME
  2

  9
$UCSORG
 10
0.0
 20
0.0
 30
0.0
  9
$UCSXDIR
 10
1.0
 20
0.0
 30
0.0
  9
$UCSYDIR
 10
0.0
 20
1.0
 30
0.0
  9
$UCSORTHOREF
  2

  9
$UCSORTHOVIEW
 70
     0
  9
$UCSORGTOP
 10
0.0
 20
0.0
 30
0.0
  9
$UCSORGBOTTOM
 10
0.0
 20
0.0
 30
0.0
  9
$UCSORGLEFT
 10
0.0
 20
0.0
 30
0.0
  9
$UCSORGRIGHT
 10
0.0
 20
0.0
 30
0.0
  9
$UCSORGFRONT
 10
0.0
 20
0.0
 30
0.0
  9
$UCSORGBACK
 10
0.0
 20
0.0
 30
0.0
  9
$PUCSBASE
  2

  9
$PUCSNAME
  2

  9
$PUCSORG
 10
0.0
 20
0.0
 30
0.0
  9
$PUCSXDIR
 10
1.0
 20
0.0
 30
0.0
  9
$PUCSYDIR
 10
0.0
 20
1.0
 30
0.0
  9
$PUCSORTHOREF
  2

  9
$PUCSORTHOVIEW
 70
     0
  9
$PUCSORGTOP
 10
0.0
 20
0.0
 30
0.0
  9
$PUCSORGBOTTOM
 10
0.0
 20
0.0
 30
0.0
  9
$PUCSORGLEFT
 10
0.0
 20
0.0
 30
0.0
  9
$PUCSORGRIGHT
 10
0.0
 20
0.0
 30
0.0
  9
$PUCSORGFRONT
 10
0.0
 20
0.0
 30
0.0
  9
$PUCSORGBACK
 10
0.0
 20
0.0
 30
0.0
  9
$USERI1
 70
     0
  9
$USERI2
 70
     0
  9
$USERI3
 70
     0
  9
$USERI4
 70
     0
  9
$USERI5
 70
     0
  9
$USERR1
 40
0.0
  9
$USERR2
 40
0.0
  9
$USERR3
 40
0.0
  9
$USERR4
 40
0.0
  9
$USERR5
 40
0.0
  9
$WORLDVIEW
 70
     1
  9
$SHADEDGE
 70
     3
  9
$SHADEDIF
 70
    70
  9
$TILEMODE
 70
     1
  9
$MAXACTVP
 70
    64
  9
$PINSBASE
 10
0.0
 20
0.0
 30
0.0
  9
$PLIMCHECK
 70
     0
  9
$PEXTMIN
 10
1.000000000000000E+20
 20
1.000000000000000E+20
 30
1.000000000000000E+20
  9
$PEXTMAX
 10
-1.000000000000000E+20
 20
-1.000000000000000E+20
 30
-1.000000000000000E+20
  9
$PLIMMIN
 10
0.0
 20
0.0
  9
$PLIMMAX
 10
12.0
 20
9.0
  9
$UNITMODE
 70
     0
  9
$VISRETAIN
 70
     1
  9
$PLINEGEN
 70
     0
  9
$PSLTSCALE
 70
     1
  9
$TREEDEPTH
 70
  3020
  9
$CMLSTYLE
  2
Standard
  9
$CMLJUST
 70
     0
  9
$CMLSCALE
 40
1.0
  9
$PROXYGRAPHICS
 70
     1
  9
$MEASUREMENT
 70
     0
  9
$CELWEIGHT
370
    -1
  9
$ENDCAPS
280
     0
  9
$JOINSTYLE
280
     0
  9
$LWDISPLAY
290
     1
  9
$INSUNITS
 70
     4
  9
$HYPERLINKBASE
  1

  9
$STYLESHEET
  1

  9
$XEDIT
290
     1
  9
$CEPSNTYPE
380
     0
  9
$PSTYLEMODE
290
     1
  9
$FINGERPRINTGUID
  2
{F6B04736-CC4D-FC4B-8B7A-DEAF02074221}
  9
$VERSIONGUID
  2
{7353E2F8-5557-054E-B771-F14C3BC9FAC5}
  9
$EXTNAMES
290
     1
  9
$PSVPSCALE
 40
0.0
  9
$OLESTARTUP
290
     0
  9
$SORTENTS
280
   127
  9
$INDEXCTL
280
     0
  9
$HIDETEXT
280
     1
  9
$XCLIPFRAME
280
     2
  9
$HALOGAP
280
     0
  9
$OBSCOLOR
 70
   257
  9
$OBSLTYPE
280
     0
  9
$INTERSECTIONDISPLAY
280
     0
  9
$INTERSECTIONCOLOR
 70
   257
  9
$DIMASSOC
280
     2
  9
$PROJECTNAME
  1

  9
$CAMERADISPLAY
290
     0
  9
$LENSLENGTH
 40
50.0
  9
$CAMERAHEIGHT
 40
0.0
  9
$STEPSPERSEC
 40
2.0
  9
$STEPSIZE
 40
6.0
  9
$3DDWFPREC
 40
2.0
  9
$PSOLWIDTH
 40
0.25
  9
$PSOLHEIGHT
 40
4.0
  9
$LOFTANG1
 40
1.570796326794896
  9
$LOFTANG2
 40
1.570796326794896
  9
$LOFTMAG1
 40
0.0
  9
$LOFTMAG2
 40
0.0
  9
$LOFTPARAM
 70
     7
  9
$LOFTNORMALS
280
     1
  9
$LATITUDE
 40
37.795
  9
$LONGITUDE
 40
-122.394
  9
$NORTHDIRECTION
 40
0.0
  9
$TIMEZONE
 70
 -8000
  9
$LIGHTGLYPHDISPLAY
280
     1
  9
$TILEMODELIGHTSYNCH
280
     1
  9
$CMATERIAL
347
11
  9
$SOLIDHIST
280
     0
  9
$SHOWHIST
280
     1
  9
$DWFFRAME
280
     2
  9
$DGNFRAME
280
     0
  9
$REALWORLDSCALE
290
     1
  9
$INTERFERECOLOR
 62
     1
  9
$INTERFEREOBJVS
345
33
  9
$INTERFEREVPVS
346
30
  9
$CSHADOW
280
     0
  9
$SHADOWPLANELOCATION
 40
0.0
  0
ENDSEC
  0
SECTION
  2
CLASSES
  0
CLASS
  1
ACDBDICTIONARYWDFLT
  2
AcDbDictionaryWithDefault
  3
ObjectDBX Classes
 90
        0
 91
        1
280
     0
281
     0
  0
CLASS
  1
MATERIAL
  2
AcDbMaterial
  3
ObjectDBX Classes
 90
     1153
 91
        3
280
     0
281
     0
  0
CLASS
  1
VISUALSTYLE
  2
AcDbVisualStyle
  3
ObjectDBX Classes
 90
     4095
 91
       24
280
     0
281
     0
  0
CLASS
  1
SCALE
  2
AcDbScale
  3
ObjectDBX Classes
 90
     1153
 91
       17
280
     0
281
     0
  0
CLASS
  1
TABLESTYLE
  2
AcDbTableStyle
  3
ObjectDBX Classes
 90
     4095
 91
        1
280
     0
281
     0
  0
CLASS
  1
MLEADERSTYLE
  2
AcDbMLeaderStyle
  3
ACDB_MLEADERSTYLE_CLASS
 90
     4095
 91
        1
280
     0
281
     0
  0
CLASS
  1
ACDBSECTIONVIEWSTYLE
  2
AcDbSectionViewStyle
  3
ObjectDBX Classes
 90
     1025
 91
        1
280
     0
281
     0
  0
CLASS
  1
ACDBDETAILVIEWSTYLE
  2
AcDbDetailViewStyle
  3
ObjectDBX Classes
 90
     1025
 91
        1
280
     0
281
     0
  0
CLASS
  1
DICTIONARYVAR
  2
AcDbDictionaryVar
  3
ObjectDBX Classes
 90
        0
 91
        5
280
     0
281
     0
  0
CLASS
  1
CELLSTYLEMAP
  2
AcDbCellStyleMap
  3
ObjectDBX Classes
 90
     1152
 91
        1
280
     0
281
     0
  0
ENDSEC
  0
SECTION
  2
TABLES
  0
TABLE
  2
VPORT
  5
8
330
0
100
AcDbSymbolTable
 70
     1
  0
VPORT
  5
57
330
8
100
AcDbSymbolTableRecord
100
AcDbViewportTableRecord
  2
*Active
 70
     0
 10
0.0
 20
0.0
 11
1.0
 21
1.0
 12
0.0
 22
0.0
 13
0.0
 23
0.0
 14
1.0
 24
1.0
 15
0.0
 25
0.0
 16
0.0
 26
0.0
 36
1.0
 17
105.0000721959721
 27
148.5000416295418
 37
0.0
 40
89.75999997755987
 41
1.0
 42
50.0
 43
0.0
 44
0.0
 50
0.0
 51
0.0
 71
     0
 72
   100
 73
     1
 74
     1
 75
     0
 76
     0
 77
     0
 78
     0
281
     0
 65
     1
110
0.0
120
0.0
130
0.0
111
1.0
121
0.0
131
0.0
112
0.0
122
1.0
132
0.0
 79
     0
146
0.0
 60
     3
 61
     5
292
     1
282
     1
141
0.0
142
0.0
 63
   250
421
  3355443
  0
ENDTAB
  0
TABLE
  2
LTYPE
  5
5
330
0
100
AcDbSymbolTable
 70
     2
  0
LTYPE
  5
5B
330
5
100
AcDbSymbolTableRecord
100
AcDbLinetypeTableRecord
  2
ByBlock
 70
     0
  3

 72
    65
 73
     0
 40
0.0
  0
LTYPE
  5
5C
330
5
100
AcDbSymbolTableRecord
100
AcDbLinetypeTableRecord
  2
ByLayer
 70
     0
  3

 72
    65
 73
     0
 40
0.0
  0
LTYPE
  5
5D
330
5
100
AcDbSymbolTableRecord
100
AcDbLinetypeTableRecord
  2
Continuous
 70
     0
  3
Solid line
 72
    65
 73
     0
 40
0.0
  0
LTYPE
  5
1F8
330
5
100
AcDbSymbolTableRecord
100
AcDbLinetypeTableRecord
  2
AI-Linetype-0
 70
     0
  3
Adobe Illustrator Linetype No. 0
 72
    65
 73
     2
 40
1.411111110758333
 49
0.7055555553791667
 74
     0
 49
-0.7055555553791667
 74
     0
  0
ENDTAB
  0
TABLE
  2
LAYER
  5
2
330
0
100
AcDbSymbolTable
 70
     6
  0
LAYER
  5
54
330
2
100
AcDbSymbolTableRecord
100
AcDbLayerTableRecord
  2
0
 70
     0
 62
     7
  6
Continuous
370
     0
390
F
347
21
348
0
  0
LAYER
  5
8C
330
2
100
AcDbSymbolTableRecord
100
AcDbLayerTableRecord
  2
Rahmen (ISO)
 70
     0
 62
     7
  6
Continuous
370
     0
390
F
347
21
348
0
  0
LAYER
  5
8D
330
2
100
AcDbSymbolTableRecord
100
AcDbLayerTableRecord
  2
Titel (ISO)
 70
     0
 62
     7
  6
Continuous
370
     0
390
F
347
21
348
0
  0
LAYER
  5
B2
330
2
100
AcDbSymbolTableRecord
100
AcDbLayerTableRecord
  2
Sichtbar (ISO)
 70
     0
 62
     7
  6
Continuous
370
     0
390
F
347
21
348
0
  0
LAYER
  5
B3
330
2
100
AcDbSymbolTableRecord
100
AcDbLayerTableRecord
  2
Sichtbar schmal (ISO)
 70
     0
 62
     7
  6
Continuous
370
     0
390
F
347
21
348
0
  0
LAYER
  5
2BE
330
2
100
AcDbSymbolTableRecord
100
AcDbLayerTableRecord
  2
Bemaßung (ISO)
 70
     0
 62
     7
  6
Continuous
370
     0
390
F
347
21
348
0
  0
ENDTAB
  0
TABLE
  2
STYLE
  5
3
330
0
100
AcDbSymbolTable
 70
     2
  0
STYLE
  5
55
330
3
100
AcDbSymbolTableRecord
100
AcDbTextStyleTableRecord
  2
Standard
 70
     0
 40
0.0
 41
1.0
 50
0.0
 71
     0
 42
0.2
  3
txt
  4

  0
STYLE
  5
5A
330
3
100
AcDbSymbolTableRecord
100
AcDbTextStyleTableRecord
  2
Annotative
 70
     0
 40
0.0
 41
1.0
 50
0.0
 71
     0
 42
0.2
  3
txt
  4

1001
AcadAnnotative
1000
AnnotativeData
1002
{
1070
     1
1070
     1
1002
}
  0
ENDTAB
  0
TABLE
  2
VIEW
  5
6
330
0
100
AcDbSymbolTable
 70
     0
  0
ENDTAB
  0
TABLE
  2
UCS
  5
7
330
0
100
AcDbSymbolTable
 70
     0
  0
ENDTAB
  0
TABLE
  2
APPID
  5
9
330
0
100
AcDbSymbolTable
 70
     2
  0
APPID
  5
56
330
9
100
AcDbSymbolTableRecord
100
AcDbRegAppTableRecord
  2
ACAD
 70
     0
  0
APPID
  5
5E
330
9
100
AcDbSymbolTableRecord
100
AcDbRegAppTableRecord
  2
AcadAnnotative
 70
     0
  0
ENDTAB
  0
TABLE
  2
DIMSTYLE
  5
A
330
0
100
AcDbSymbolTable
 70
     2
100
AcDbDimStyleTable
 71
     0
  0
DIMSTYLE
105
58
330
A
100
AcDbSymbolTableRecord
100
AcDbDimStyleTableRecord
  2
Standard
 70
     0
340
55
  0
DIMSTYLE
105
59
330
A
100
AcDbSymbolTableRecord
100
AcDbDimStyleTableRecord
  2
Annotative
 70
     0
340
55
1001
AcadAnnotative
1000
AnnotativeData
1002
{
1070
     1
1070
     1
1002
}
  0
ENDTAB
  0
TABLE
  2
BLOCK_RECORD
  5
1
330
0
100
AcDbSymbolTable
 70
    48
  0
BLOCK_RECORD
  5
70
330
1
100
AcDbSymbolTableRecord
100
AcDbBlockTableRecord
  2
*Model_Space
340
73
 70
     0
280
     1
281
     0
  0
BLOCK_RECORD
  5
6C
330
1
100
AcDbSymbolTableRecord
100
AcDbBlockTableRecord
  2
*Paper_Space
340
6F
 70
     0
280
     1
281
     0
  0
BLOCK_RECORD
  5
74
330
1
100
AcDbSymbolTableRecord
100
AcDbBlockTableRecord
  2
*Paper_Space0
340
77
 70
     0
280
     1
281
     0
  0
BLOCK_RECORD
  5
78
330
1
100
AcDbSymbolTableRecord
100
AcDbBlockTableRecord
  2
Block_0
340
0
102
{BLKREFS
331
79
102
}
 70
     0
280
     1
281
     0
  0
BLOCK_RECORD
  5
7C
330
1
100
AcDbSymbolTableRecord
100
AcDbBlockTableRecord
  2
Block_1
340
0
102
{BLKREFS
331
7D
102
}
 70
     0
280
     1
281
     0
  0
BLOCK_RECORD
  5
80
330
1
100
AcDbSymbolTableRecord
100
AcDbBlockTableRecord
  2
Block_2
340
0
102
{BLKREFS
331
81
102
}
 70
     0
280
     1
281
     0
  0
BLOCK_RECORD
  5
84
330
1
100
AcDbSymbolTableRecord
100
AcDbBlockTableRecord
  2
Block_3
340
0
102
{BLKREFS
331
85
102
}
 70
     0
280
     1
281
     0
  0
BLOCK_RECORD
  5
88
330
1
100
AcDbSymbolTableRecord
100
AcDbBlockTableRecord
  2
Block_4
340
0
102
{BLKREFS
331
89
102
}
 70
     0
280
     1
281
     0
  0
BLOCK_RECORD
  5
8E
330
1
100
AcDbSymbolTableRecord
100
AcDbBlockTableRecord
  2
Block_5
340
0
102
{BLKREFS
331
8F
102
}
 70
     0
280
     1
281
     0
  0
BLOCK_RECORD
  5
92
330
1
100
AcDbSymbolTableRecord
100
AcDbBlockTableRecord
  2
Block_6
340
0
102
{BLKREFS
331
93
102
}
 70
     0
280
     1
281
     0
  0
BLOCK_RECORD
  5
96
330
1
100
AcDbSymbolTableRecord
100
AcDbBlockTableRecord
  2
Block_7
340
0
102
{BLKREFS
331
97
102
}
 70
     0
280
     1
281
     0
  0
BLOCK_RECORD
  5
9A
330
1
100
AcDbSymbolTableRecord
100
AcDbBlockTableRecord
  2
Block_8
340
0
102
{BLKREFS
331
9B
102
}
 70
     0
280
     1
281
     0
  0
BLOCK_RECORD
  5
9E
330
1
100
AcDbSymbolTableRecord
100
AcDbBlockTableRecord
  2
Block_9
340
0
102
{BLKREFS
331
9F
102
}
 70
     0
280
     1
281
     0
  0
BLOCK_RECORD
  5
A2
330
1
100
AcDbSymbolTableRecord
100
AcDbBlockTableRecord
  2
Block_10
340
0
102
{BLKREFS
331
A3
102
}
 70
     0
280
     1
281
     0
  0
BLOCK_RECORD
  5
A6
330
1
100
AcDbSymbolTableRecord
100
AcDbBlockTableRecord
  2
Block_11
340
0
102
{BLKREFS
331
A7
102
}
 70
     0
280
     1
281
     0
  0
BLOCK_RECORD
  5
AA
330
1
100
AcDbSymbolTableRecord
100
AcDbBlockTableRecord
  2
Block_12
340
0
102
{BLKREFS
331
AB
102
}
 70
     0
280
     1
281
     0
  0
BLOCK_RECORD
  5
AE
330
1
100
AcDbSymbolTableRecord
100
AcDbBlockTableRecord
  2
Block_13
340
0
102
{BLKREFS
331
AF
102
}
 70
     0
280
     1
281
     0
  0
BLOCK_RECORD
  5
B4
330
1
100
AcDbSymbolTableRecord
100
AcDbBlockTableRecord
  2
Block_14
340
0
102
{BLKREFS
331
B5
102
}
 70
     0
280
     1
281
     0
  0
BLOCK_RECORD
  5
BA
330
1
100
AcDbSymbolTableRecord
100
AcDbBlockTableRecord
  2
Block_15
340
0
102
{BLKREFS
331
BB
102
}
 70
     0
280
     1
281
     0
  0
BLOCK_RECORD
  5
1CD
330
1
100
AcDbSymbolTableRecord
100
AcDbBlockTableRecord
  2
Block_16
340
0
102
{BLKREFS
331
1CE
102
}
 70
     0
280
     1
281
     0
  0
BLOCK_RECORD
  5
1F9
330
1
100
AcDbSymbolTableRecord
100
AcDbBlockTableRecord
  2
Block_17
340
0
102
{BLKREFS
331
1FA
102
}
 70
     0
280
     1
281
     0
  0
BLOCK_RECORD
  5
1FD
330
1
100
AcDbSymbolTableRecord
100
AcDbBlockTableRecord
  2
Block_18
340
0
102
{BLKREFS
331
1FE
102
}
 70
     0
280
     1
281
     0
  0
BLOCK_RECORD
  5
202
330
1
100
AcDbSymbolTableRecord
100
AcDbBlockTableRecord
  2
Block_19
340
0
102
{BLKREFS
331
203
102
}
 70
     0
280
     1
281
     0
  0
BLOCK_RECORD
  5
208
330
1
100
AcDbSymbolTableRecord
100
AcDbBlockTableRecord
  2
Block_20
340
0
102
{BLKREFS
331
209
102
}
 70
     0
280
     1
281
     0
  0
BLOCK_RECORD
  5
20F
330
1
100
AcDbSymbolTableRecord
100
AcDbBlockTableRecord
  2
Block_21
340
0
102
{BLKREFS
331
210
102
}
 70
     0
280
     1
281
     0
  0
BLOCK_RECORD
  5
213
330
1
100
AcDbSymbolTableRecord
100
AcDbBlockTableRecord
  2
Block_22
340
0
102
{BLKREFS
331
214
102
}
 70
     0
280
     1
281
     0
  0
BLOCK_RECORD
  5
218
330
1
100
AcDbSymbolTableRecord
100
AcDbBlockTableRecord
  2
Block_23
340
0
102
{BLKREFS
331
219
102
}
 70
     0
280
     1
281
     0
  0
BLOCK_RECORD
  5
21E
330
1
100
AcDbSymbolTableRecord
100
AcDbBlockTableRecord
  2
Block_24
340
0
102
{BLKREFS
331
21F
102
}
 70
     0
280
     1
281
     0
  0
BLOCK_RECORD
  5
224
330
1
100
AcDbSymbolTableRecord
100
AcDbBlockTableRecord
  2
Block_25
340
0
102
{BLKREFS
331
225
102
}
 70
     0
280
     1
281
     0
  0
BLOCK_RECORD
  5
228
330
1
100
AcDbSymbolTableRecord
100
AcDbBlockTableRecord
  2
Block_26
340
0
102
{BLKREFS
331
229
102
}
 70
     0
280
     1
281
     0
  0
BLOCK_RECORD
  5
232
330
1
100
AcDbSymbolTableRecord
100
AcDbBlockTableRecord
  2
Block_27
340
0
102
{BLKREFS
331
233
102
}
 70
     0
280
     1
281
     0
  0
BLOCK_RECORD
  5
236
330
1
100
AcDbSymbolTableRecord
100
AcDbBlockTableRecord
  2
Block_28
340
0
102
{BLKREFS
331
237
102
}
 70
     0
280
     1
281
     0
  0
BLOCK_RECORD
  5
240
330
1
100
AcDbSymbolTableRecord
100
AcDbBlockTableRecord
  2
Block_29
340
0
102
{BLKREFS
331
241
102
}
 70
     0
280
     1
281
     0
  0
BLOCK_RECORD
  5
244
330
1
100
AcDbSymbolTableRecord
100
AcDbBlockTableRecord
  2
Block_30
340
0
102
{BLKREFS
331
245
102
}
 70
     0
280
     1
281
     0
  0
BLOCK_RECORD
  5
249
330
1
100
AcDbSymbolTableRecord
100
AcDbBlockTableRecord
  2
Block_31
340
0
102
{BLKREFS
331
24A
102
}
 70
     0
280
     1
281
     0
  0
BLOCK_RECORD
  5
24F
330
1
100
AcDbSymbolTableRecord
100
AcDbBlockTableRecord
  2
Block_32
340
0
102
{BLKREFS
331
250
102
}
 70
     0
280
     1
281
     0
  0
BLOCK_RECORD
  5
258
330
1
100
AcDbSymbolTableRecord
100
AcDbBlockTableRecord
  2
Block_33
340
0
102
{BLKREFS
331
259
102
}
 70
     0
280
     1
281
     0
  0
BLOCK_RECORD
  5
25C
330
1
100
AcDbSymbolTableRecord
100
AcDbBlockTableRecord
  2
Block_34
340
0
102
{BLKREFS
331
25D
102
}
 70
     0
280
     1
281
     0
  0
BLOCK_RECORD
  5
261
330
1
100
AcDbSymbolTableRecord
100
AcDbBlockTableRecord
  2
Block_35
340
0
102
{BLKREFS
331
262
102
}
 70
     0
280
     1
281
     0
  0
BLOCK_RECORD
  5
267
330
1
100
AcDbSymbolTableRecord
100
AcDbBlockTableRecord
  2
Block_36
340
0
102
{BLKREFS
331
268
102
}
 70
     0
280
     1
281
     0
  0
BLOCK_RECORD
  5
271
330
1
100
AcDbSymbolTableRecord
100
AcDbBlockTableRecord
  2
Block_37
340
0
102
{BLKREFS
331
272
102
}
 70
     0
280
     1
281
     0
  0
BLOCK_RECORD
  5
275
330
1
100
AcDbSymbolTableRecord
100
AcDbBlockTableRecord
  2
Block_38
340
0
102
{BLKREFS
331
276
102
}
 70
     0
280
     1
281
     0
  0
BLOCK_RECORD
  5
27A
330
1
100
AcDbSymbolTableRecord
100
AcDbBlockTableRecord
  2
Block_39
340
0
102
{BLKREFS
331
27B
102
}
 70
     0
280
     1
281
     0
  0
BLOCK_RECORD
  5
280
330
1
100
AcDbSymbolTableRecord
100
AcDbBlockTableRecord
  2
Block_40
340
0
102
{BLKREFS
331
281
102
}
 70
     0
280
     1
281
     0
  0
BLOCK_RECORD
  5
286
330
1
100
AcDbSymbolTableRecord
100
AcDbBlockTableRecord
  2
Block_41
340
0
102
{BLKREFS
331
287
102
}
 70
     0
280
     1
281
     0
  0
BLOCK_RECORD
  5
28A
330
1
100
AcDbSymbolTableRecord
100
AcDbBlockTableRecord
  2
Block_42
340
0
102
{BLKREFS
331
28B
102
}
 70
     0
280
     1
281
     0
  0
BLOCK_RECORD
  5
298
330
1
100
AcDbSymbolTableRecord
100
AcDbBlockTableRecord
  2
Block_43
340
0
102
{BLKREFS
331
299
102
}
 70
     0
280
     1
281
     0
  0
BLOCK_RECORD
  5
29C
330
1
100
AcDbSymbolTableRecord
100
AcDbBlockTableRecord
  2
Block_44
340
0
102
{BLKREFS
331
29D
102
}
 70
     0
280
     1
281
     0
  0
BLOCK_RECORD
  5
2AB
330
1
100
AcDbSymbolTableRecord
100
AcDbBlockTableRecord
  2
Block_45
340
0
102
{BLKREFS
331
2AC
102
}
 70
     0
280
     1
281
     0
  0
BLOCK_RECORD
  5
2AF
330
1
100
AcDbSymbolTableRecord
100
AcDbBlockTableRecord
  2
Block_46
340
0
102
{BLKREFS
331
2B0
102
}
 70
     0
280
     1
281
     0
  0
ENDTAB
  0
ENDSEC
  0
SECTION
  2
BLOCKS
  0
BLOCK
  5
71
330
70
100
AcDbEntity
  8
0
100
AcDbBlockBegin
  2
*Model_Space
 70
     0
 10
0.0
 20
0.0
 30
0.0
  3
*Model_Space
  1

  0
ENDBLK
  5
72
330
70
100
AcDbEntity
  8
0
100
AcDbBlockEnd
  0
BLOCK
  5
6D
330
6C
100
AcDbEntity
 67
     1
  8
0
100
AcDbBlockBegin
  2
*Paper_Space
 70
     0
 10
0.0
 20
0.0
 30
0.0
  3
*Paper_Space
  1

  0
ENDBLK
  5
6E
330
6C
100
AcDbEntity
 67
     1
  8
0
100
AcDbBlockEnd
  0
BLOCK
  5
75
330
74
100
AcDbEntity
 67
     1
  8
0
100
AcDbBlockBegin
  2
*Paper_Space0
 70
     0
 10
0.0
 20
0.0
 30
0.0
  3
*Paper_Space0
  1

  0
ENDBLK
  5
76
330
74
100
AcDbEntity
 67
     1
  8
0
100
AcDbBlockEnd
  0
BLOCK
  5
7A
330
78
100
AcDbEntity
  8
0
100
AcDbBlockBegin
  2
Block_0
 70
     0
 10
0.0
 20
0.0
 30
0.0
  3
Block_0
  1

  0
ENDBLK
  5
7B
330
78
100
AcDbEntity
  8
0
100
AcDbBlockEnd
  0
BLOCK
  5
7E
330
7C
100
AcDbEntity
  8
0
100
AcDbBlockBegin
  2
Block_1
 70
     0
 10
0.0
 20
0.0
 30
0.0
  3
Block_1
  1

  0
ENDBLK
  5
7F
330
7C
100
AcDbEntity
  8
0
100
AcDbBlockEnd
  0
BLOCK
  5
82
330
80
100
AcDbEntity
  8
0
100
AcDbBlockBegin
  2
Block_2
 70
     0
 10
0.0
 20
0.0
 30
0.0
  3
Block_2
  1

  0
ENDBLK
  5
83
330
80
100
AcDbEntity
  8
0
100
AcDbBlockEnd
  0
BLOCK
  5
86
330
84
100
AcDbEntity
  8
0
100
AcDbBlockBegin
  2
Block_3
 70
     0
 10
0.0
 20
0.0
 30
0.0
  3
Block_3
  1

  0
ENDBLK
  5
87
330
84
100
AcDbEntity
  8
0
100
AcDbBlockEnd
  0
BLOCK
  5
8A
330
88
100
AcDbEntity
  8
0
100
AcDbBlockBegin
  2
Block_4
 70
     0
 10
0.0
 20
0.0
 30
0.0
  3
Block_4
  1

  0
ENDBLK
  5
8B
330
88
100
AcDbEntity
  8
0
100
AcDbBlockEnd
  0
BLOCK
  5
90
330
8E
100
AcDbEntity
  8
0
100
AcDbBlockBegin
  2
Block_5
 70
     0
 10
0.0
 20
0.0
 30
0.0
  3
Block_5
  1

  0
ENDBLK
  5
91
330
8E
100
AcDbEntity
  8
0
100
AcDbBlockEnd
  0
BLOCK
  5
94
330
92
100
AcDbEntity
  8
0
100
AcDbBlockBegin
  2
Block_6
 70
     0
 10
0.0
 20
0.0
 30
0.0
  3
Block_6
  1

  0
ENDBLK
  5
95
330
92
100
AcDbEntity
  8
0
100
AcDbBlockEnd
  0
BLOCK
  5
98
330
96
100
AcDbEntity
  8
0
100
AcDbBlockBegin
  2
Block_7
 70
     0
 10
0.0
 20
0.0
 30
0.0
  3
Block_7
  1

  0
ENDBLK
  5
99
330
96
100
AcDbEntity
  8
0
100
AcDbBlockEnd
  0
BLOCK
  5
9C
330
9A
100
AcDbEntity
  8
0
100
AcDbBlockBegin
  2
Block_8
 70
     0
 10
0.0
 20
0.0
 30
0.0
  3
Block_8
  1

  0
ENDBLK
  5
9D
330
9A
100
AcDbEntity
  8
0
100
AcDbBlockEnd
  0
BLOCK
  5
A0
330
9E
100
AcDbEntity
  8
0
100
AcDbBlockBegin
  2
Block_9
 70
     0
 10
0.0
 20
0.0
 30
0.0
  3
Block_9
  1

  0
ENDBLK
  5
A1
330
9E
100
AcDbEntity
  8
0
100
AcDbBlockEnd
  0
BLOCK
  5
A4
330
A2
100
AcDbEntity
  8
0
100
AcDbBlockBegin
  2
Block_10
 70
     0
 10
0.0
 20
0.0
 30
0.0
  3
Block_10
  1

  0
ENDBLK
  5
A5
330
A2
100
AcDbEntity
  8
0
100
AcDbBlockEnd
  0
BLOCK
  5
A8
330
A6
100
AcDbEntity
  8
0
100
AcDbBlockBegin
  2
Block_11
 70
     0
 10
0.0
 20
0.0
 30
0.0
  3
Block_11
  1

  0
ENDBLK
  5
A9
330
A6
100
AcDbEntity
  8
0
100
AcDbBlockEnd
  0
BLOCK
  5
AC
330
AA
100
AcDbEntity
  8
0
100
AcDbBlockBegin
  2
Block_12
 70
     0
 10
0.0
 20
0.0
 30
0.0
  3
Block_12
  1

  0
ENDBLK
  5
AD
330
AA
100
AcDbEntity
  8
0
100
AcDbBlockEnd
  0
BLOCK
  5
B0
330
AE
100
AcDbEntity
  8
0
100
AcDbBlockBegin
  2
Block_13
 70
     0
 10
0.0
 20
0.0
 30
0.0
  3
Block_13
  1

  0
ENDBLK
  5
B1
330
AE
100
AcDbEntity
  8
0
100
AcDbBlockEnd
  0
BLOCK
  5
B6
330
B4
100
AcDbEntity
  8
0
100
AcDbBlockBegin
  2
Block_14
 70
     0
 10
0.0
 20
0.0
 30
0.0
  3
Block_14
  1

  0
SPLINE
  5
B8
330
B4
100
AcDbEntity
  8
Sichtbar schmal (ISO)
100
AcDbSpline
210
0.0
220
0.0
230
1.0
 70
     8
 71
     3
 72
    38
 73
    34
 74
     0
 42
0.0000000001
 43
0.0000000001
 40
0.0
 40
0.0
 40
0.0
 40
0.0
 40
1.0
 40
1.0
 40
1.0
 40
2.0
 40
2.0
 40
2.0
 40
3.0
 40
3.0
 40
3.0
 40
4.0
 40
4.0
 40
4.0
 40
5.0
 40
5.0
 40
5.0
 40
6.0
 40
6.0
 40
6.0
 40
7.0
 40
7.0
 40
7.0
 40
8.0
 40
8.0
 40
8.0
 40
9.0
 40
9.0
 40
9.0
 40
10.0
 40
10.0
 40
10.0
 40
11.0
 40
11.0
 40
11.0
 40
11.0
 10
114.2279029497756
 20
184.1913527015283
 30
0.0
 10
114.2279029497756
 20
184.1913527015283
 30
0.0
 10
114.6977939301624
 20
184.1913527015283
 30
0.0
 10
114.6977939301624
 20
184.1913527015283
 30
0.0
 10
114.6977939301624
 20
184.1913527015283
 30
0.0
 10
114.6977939301624
 20
180.2668187951386
 30
0.0
 10
114.6977939301624
 20
180.2668187951386
 30
0.0
 10
114.6977939301624
 20
180.2668187951386
 30
0.0
 10
114.6977939301624
 20
179.873170884427
 30
0.0
 10
114.6977939301624
 20
179.873170884427
 30
0.0
 10
114.6977939301624
 20
179.4966131005448
 30
0.0
 10
114.3822278934097
 20
179.1913527027785
 30
0.0
 10
113.9929574595825
 20
179.1913527027785
 30
0.0
 10
113.9929574595825
 20
179.1913527027785
 30
0.0
 10
68.64847785229355
 20
179.1913527027785
 30
0.0
 10
68.64847785229355
 20
179.1913527027785
 30
0.0
 10
68.25920741846856
 20
179.1913527027785
 30
0.0
 10
67.94364138171363
 20
179.4966131005448
 30
0.0
 10
67.94364138171363
 20
179.873170884427
 30
0.0
 10
67.94364138171363
 20
179.873170884427
 30
0.0
 10
67.94364138171363
 20
180.2668187951386
 30
0.0
 10
67.94364138171363
 20
180.2668187951386
 30
0.0
 10
67.94364138171363
 20
180.2668187951386
 30
0.0
 10
67.94364138171363
 20
184.1913527015283
 30
0.0
 10
67.94364138171363
 20
184.1913527015283
 30
0.0
 10
67.94364138171363
 20
184.1913527015283
 30
0.0
 10
68.41353236210078
 20
184.1913527015283
 30
0.0
 10
68.41353236210078
 20
184.1913527015283
 30
0.0
 10
68.41353236210078
 20
184.1913527015283
 30
0.0
 10
68.43702691111977
 20
184.1913527015283
 30
0.0
 10
68.43702691111977
 20
184.1913527015283
 30
0.0
 10
68.43702691111977
 20
184.1913527015283
 30
0.0
 10
114.2044084007559
 20
184.1913527015283
 30
0.0
 10
114.2044084007559
 20
184.1913527015283
 30
0.0
  0
HATCH
  5
B9
330
B4
100
AcDbEntity
  8
Sichtbar schmal (ISO)
 62
   254
420
 14606046
440
 33554687
100
AcDbHatch
 10
0.0
 20
0.0
 30
0.0
210
0.0
220
0.0
230
1.0
  2
SOLID
 70
     1
 71
     1
 91
        1
 92
        1
 93
        2
 72
     4
 94
        3
 73
     0
 74
     0
 95
       38
 96
       34
 40
0.0
 40
0.0
 40
0.0
 40
0.0
 40
1.0
 40
1.0
 40
1.0
 40
2.0
 40
2.0
 40
2.0
 40
3.0
 40
3.0
 40
3.0
 40
4.0
 40
4.0
 40
4.0
 40
5.0
 40
5.0
 40
5.0
 40
6.0
 40
6.0
 40
6.0
 40
7.0
 40
7.0
 40
7.0
 40
8.0
 40
8.0
 40
8.0
 40
9.0
 40
9.0
 40
9.0
 40
10.0
 40
10.0
 40
10.0
 40
11.0
 40
11.0
 40
11.0
 40
11.0
 10
114.2279029497756
 20
184.1913527015283
 10
114.2279029497756
 20
184.1913527015283
 10
114.6977939301624
 20
184.1913527015283
 10
114.6977939301624
 20
184.1913527015283
 10
114.6977939301624
 20
184.1913527015283
 10
114.6977939301624
 20
180.2668187951386
 10
114.6977939301624
 20
180.2668187951386
 10
114.6977939301624
 20
180.2668187951386
 10
114.6977939301624
 20
179.873170884427
 10
114.6977939301624
 20
179.873170884427
 10
114.6977939301624
 20
179.4966131005448
 10
114.3822278934097
 20
179.1913527027785
 10
113.9929574595825
 20
179.1913527027785
 10
113.9929574595825
 20
179.1913527027785
 10
68.64847785229355
 20
179.1913527027785
 10
68.64847785229355
 20
179.1913527027785
 10
68.25920741846856
 20
179.1913527027785
 10
67.94364138171363
 20
179.4966131005448
 10
67.94364138171363
 20
179.873170884427
 10
67.94364138171363
 20
179.873170884427
 10
67.94364138171363
 20
180.2668187951386
 10
67.94364138171363
 20
180.2668187951386
 10
67.94364138171363
 20
180.2668187951386
 10
67.94364138171363
 20
184.1913527015283
 10
67.94364138171363
 20
184.1913527015283
 10
67.94364138171363
 20
184.1913527015283
 10
68.41353236210078
 20
184.1913527015283
 10
68.41353236210078
 20
184.1913527015283
 10
68.41353236210078
 20
184.1913527015283
 10
68.43702691111977
 20
184.1913527015283
 10
68.43702691111977
 20
184.1913527015283
 10
68.43702691111977
 20
184.1913527015283
 10
114.2044084007559
 20
184.1913527015283
 10
114.2044084007559
 20
184.1913527015283
 97
        0
 72
     1
 10
114.2044084007559
 20
184.1913527015283
 11
114.2279029497756
 21
184.1913527015283
 97
        0
 75
     2
 76
     1
 98
        1
 10
0.0
 20
0.0
450
        0
451
        0
460
0.0
461
0.0
452
        0
462
0.0
453
        0
470

  0
ENDBLK
  5
B7
330
B4
100
AcDbEntity
  8
0
100
AcDbBlockEnd
  0
BLOCK
  5
BC
330
BA
100
AcDbEntity
  8
0
100
AcDbBlockBegin
  2
Block_15
 70
     0
 10
0.0
 20
0.0
 30
0.0
  3
Block_15
  1

  0
LINE
  5
BE
330
BA
100
AcDbEntity
  8
Sichtbar schmal (ISO)
 62
    18
420
        0
370
     5
100
AcDbLine
 10
66.79571311416165
 20
176.8567732641092
 30
0.0
 11
88.75502407109491
 21
176.8567732641092
 31
0.0
  0
LINE
  5
BF
330
BA
100
AcDbEntity
  8
Sichtbar schmal (ISO)
 62
    18
420
        0
370
     5
100
AcDbLine
 10
88.75715254703102
 20
176.8567732641092
 30
0.0
 11
115.8457131018994
 21
176.8567732641092
 31
0.0
  0
LINE
  5
C0
330
BA
100
AcDbEntity
  8
Sichtbar schmal (ISO)
 62
    18
420
        0
370
     5
100
AcDbLine
 10
66.79571311416165
 20
184.1913527015283
 30
0.0
 11
88.75502407109491
 21
184.1913527015283
 31
0.0
  0
LINE
  5
C1
330
BA
100
AcDbEntity
  8
Sichtbar schmal (ISO)
 62
    18
420
        0
370
     5
100
AcDbLine
 10
88.75715254703102
 20
184.1913527015283
 30
0.0
 11
115.8457131018994
 21
184.1913527015283
 31
0.0
  0
LINE
  5
C2
330
BA
100
AcDbEntity
  8
Sichtbar schmal (ISO)
 62
    18
420
        0
370
     5
100
AcDbLine
 10
88.75502407109394
 20
176.8567732641092
 30
0.0
 11
88.75715254703102
 21
176.8567732641092
 31
0.0
  0
LINE
  5
C3
330
BA
100
AcDbEntity
  8
Sichtbar schmal (ISO)
 62
    18
420
        0
370
     5
100
AcDbLine
 10
88.75502407109394
 20
184.1913527015283
 30
0.0
 11
88.75715254703102
 21
184.1913527015283
 31
0.0
  0
LINE
  5
C4
330
BA
100
AcDbEntity
  8
Sichtbar schmal (ISO)
 62
    18
420
        0
370
     5
100
AcDbLine
 10
115.8457131018994
 20
184.1913527015283
 30
0.0
 11
115.8457131018994
 21
176.8567732641092
 31
0.0
  0
LINE
  5
C5
330
BA
100
AcDbEntity
  8
Sichtbar schmal (ISO)
 62
    18
420
        0
370
     5
100
AcDbLine
 10
66.79571311416165
 20
184.1913527015283
 30
0.0
 11
66.79571311416165
 21
176.8567732641092
 31
0.0
  0
LINE
  5
C6
330
BA
100
AcDbEntity
  8
Sichtbar schmal (ISO)
 62
    18
420
        0
370
     5
100
AcDbLine
 10
112.5222317943191
 20
164.250464856046
 30
0.0
 11
115.2726990833507
 21
164.250464856046
 31
0.0
  0
LINE
  5
C7
330
BA
100
AcDbEntity
  8
Sichtbar schmal (ISO)
 62
    18
420
        0
370
     5
100
AcDbLine
 10
115.2726990833507
 20
176.8567732641092
 30
0.0
 11
115.2726990833507
 21
164.250464856046
 31
0.0
  0
LINE
  5
C8
330
BA
100
AcDbEntity
  8
Sichtbar schmal (ISO)
 62
    18
420
        0
370
     5
100
AcDbLine
 10
112.5222317943191
 20
176.8567732641092
 30
0.0
 11
112.5222317943191
 21
164.250464856046
 31
0.0
  0
LINE
  5
C9
330
BA
100
AcDbEntity
  8
Sichtbar schmal (ISO)
 62
    18
420
        0
370
     5
100
AcDbLine
 10
89.94547946351472
 20
164.250464856046
 30
0.0
 11
92.695946752546
 21
164.250464856046
 31
0.0
  0
LINE
  5
CA
330
BA
100
AcDbEntity
  8
Sichtbar schmal (ISO)
 62
    18
420
        0
370
     5
100
AcDbLine
 10
92.695946752546
 20
176.8567732641092
 30
0.0
 11
92.695946752546
 21
164.250464856046
 31
0.0
  0
LINE
  5
CB
330
BA
100
AcDbEntity
  8
Sichtbar schmal (ISO)
 62
    18
420
        0
370
     5
100
AcDbLine
 10
89.94547946351408
 20
176.8567732641092
 30
0.0
 11
89.94547946351408
 21
164.250464856046
 31
0.0
  0
LINE
  5
CC
330
BA
100
AcDbEntity
  8
Sichtbar schmal (ISO)
 62
    18
420
        0
370
     5
100
AcDbLine
 10
67.36872713270969
 20
164.250464856046
 30
0.0
 11
70.11919442174193
 21
164.250464856046
 31
0.0
  0
LINE
  5
CD
330
BA
100
AcDbEntity
  8
Sichtbar schmal (ISO)
 62
    18
420
        0
370
     5
100
AcDbLine
 10
70.11919442174193
 20
176.8567732641092
 30
0.0
 11
70.11919442174193
 21
164.250464856046
 31
0.0
  0
LINE
  5
CE
330
BA
100
AcDbEntity
  8
Sichtbar schmal (ISO)
 62
    18
420
        0
370
     5
100
AcDbLine
 10
67.36872713270969
 20
176.8567732641092
 30
0.0
 11
67.36872713270969
 21
164.250464856046
 31
0.0
  0
LINE
  5
CF
330
BA
100
AcDbEntity
  8
Sichtbar schmal (ISO)
 62
    18
420
        0
370
     5
100
AcDbLine
 10
89.94547946351408
 20
167.4593433599164
 30
0.0
 11
89.5558299309013
 21
167.4593433599164
 31
0.0
  0
LINE
  5
D0
330
BA
100
AcDbEntity
  8
Sichtbar schmal (ISO)
 62
    18
420
        0
370
     5
100
AcDbLine
 10
89.5558299309013
 20
167.4593433599164
 30
0.0
 11
89.25786264125617
 21
167.4593433599164
 31
0.0
  0
LINE
  5
D1
330
BA
100
AcDbEntity
  8
Sichtbar schmal (ISO)
 62
    18
420
        0
370
     5
100
AcDbLine
 10
88.34104021157887
 20
167.4593433599164
 30
0.0
 11
89.25786264125617
 21
167.4593433599164
 31
0.0
  0
LINE
  5
D2
330
BA
100
AcDbEntity
  8
Sichtbar schmal (ISO)
 62
    18
420
        0
370
     5
100
AcDbLine
 10
88.34104021157887
 20
167.4593433599164
 30
0.0
 11
87.19501217448247
 21
167.4593433599164
 31
0.0
  0
LINE
  5
D3
330
BA
100
AcDbEntity
  8
Sichtbar schmal (ISO)
 62
    18
420
        0
370
     5
100
AcDbLine
 10
86.27818974480517
 20
167.4593433599164
 30
0.0
 11
87.19501217448247
 21
167.4593433599164
 31
0.0
  0
LINE
  5
D4
330
BA
100
AcDbEntity
  8
Sichtbar schmal (ISO)
 62
    18
420
        0
370
     5
100
AcDbLine
 10
86.27818974480517
 20
167.4593433599164
 30
0.0
 11
78.48519909254758
 21
167.4593433599164
 31
0.0
  0
LINE
  5
D5
330
BA
100
AcDbEntity
  8
Sichtbar schmal (ISO)
 62
    18
420
        0
370
     5
100
AcDbLine
 10
78.48519909254758
 20
167.4593433599164
 30
0.0
 11
77.86634395251539
 21
167.4593433599164
 31
0.0
  0
LINE
  5
D6
330
BA
100
AcDbEntity
  8
Sichtbar schmal (ISO)
 62
    18
420
        0
370
     5
100
AcDbLine
 10
77.86634395251539
 20
167.4593433599164
 30
0.0
 11
77.53642050825217
 21
167.4593433599164
 31
0.0
  0
LINE
  5
D7
330
BA
100
AcDbEntity
  8
Sichtbar schmal (ISO)
 62
    18
420
        0
370
     5
100
AcDbLine
 10
73.44267572932253
 20
167.4593433599164
 30
0.0
 11
77.53642050825217
 21
167.4593433599164
 31
0.0
  0
LINE
  5
D8
330
BA
100
AcDbEntity
  8
Sichtbar schmal (ISO)
 62
    18
420
        0
370
     5
100
AcDbLine
 10
73.28223180412949
 20
167.4593433599164
 30
0.0
 11
73.44267572932253
 21
167.4593433599164
 31
0.0
  0
LINE
  5
D9
330
BA
100
AcDbEntity
  8
Sichtbar schmal (ISO)
 62
    18
420
        0
370
     5
100
AcDbLine
 10
72.86966171077385
 20
167.4593433599164
 30
0.0
 11
73.28223180412949
 21
167.4593433599164
 31
0.0
  0
LINE
  5
DA
330
BA
100
AcDbEntity
  8
Sichtbar schmal (ISO)
 62
    18
420
        0
370
     5
100
AcDbLine
 10
109.3591944119312
 20
167.4593433599164
 30
0.0
 11
109.7717645052868
 21
167.4593433599164
 31
0.0
  0
LINE
  5
DB
330
BA
100
AcDbEntity
  8
Sichtbar schmal (ISO)
 62
    18
420
        0
370
     5
100
AcDbLine
 10
109.1987504867382
 20
167.4593433599164
 30
0.0
 11
109.3591944119312
 21
167.4593433599164
 31
0.0
  0
LINE
  5
DC
330
BA
100
AcDbEntity
  8
Sichtbar schmal (ISO)
 62
    18
420
        0
370
     5
100
AcDbLine
 10
109.1987504867382
 20
167.4593433599164
 30
0.0
 11
105.1050057078085
 21
167.4593433599164
 31
0.0
  0
LINE
  5
DD
330
BA
100
AcDbEntity
  8
Sichtbar schmal (ISO)
 62
    18
420
        0
370
     5
100
AcDbLine
 10
104.7750822635456
 20
167.4593433599164
 30
0.0
 11
105.1050057078085
 21
167.4593433599164
 31
0.0
  0
LINE
  5
DE
330
BA
100
AcDbEntity
  8
Sichtbar schmal (ISO)
 62
    18
420
        0
370
     5
100
AcDbLine
 10
104.1562271235131
 20
167.4593433599164
 30
0.0
 11
104.7750822635456
 21
167.4593433599164
 31
0.0
  0
LINE
  5
DF
330
BA
100
AcDbEntity
  8
Sichtbar schmal (ISO)
 62
    18
420
        0
370
     5
100
AcDbLine
 10
96.36323647125587
 20
167.4593433599164
 30
0.0
 11
104.1562271235131
 21
167.4593433599164
 31
0.0
  0
LINE
  5
E0
330
BA
100
AcDbEntity
  8
Sichtbar schmal (ISO)
 62
    18
420
        0
370
     5
100
AcDbLine
 10
96.36323647125587
 20
167.4593433599164
 30
0.0
 11
95.44641404157889
 21
167.4593433599164
 31
0.0
  0
LINE
  5
E1
330
BA
100
AcDbEntity
  8
Sichtbar schmal (ISO)
 62
    18
420
        0
370
     5
100
AcDbLine
 10
94.30038600448185
 20
167.4593433599164
 30
0.0
 11
95.44641404157889
 21
167.4593433599164
 31
0.0
  0
LINE
  5
E2
330
BA
100
AcDbEntity
  8
Sichtbar schmal (ISO)
 62
    18
420
        0
370
     5
100
AcDbLine
 10
94.30038600448185
 20
167.4593433599164
 30
0.0
 11
93.38356357480455
 21
167.4593433599164
 31
0.0
  0
LINE
  5
E3
330
BA
100
AcDbEntity
  8
Sichtbar schmal (ISO)
 62
    18
420
        0
370
     5
100
AcDbLine
 10
93.08559628515974
 20
167.4593433599164
 30
0.0
 11
93.38356357480455
 21
167.4593433599164
 31
0.0
  0
LINE
  5
E4
330
BA
100
AcDbEntity
  8
Sichtbar schmal (ISO)
 62
    18
420
        0
370
     5
100
AcDbLine
 10
92.695946752546
 20
167.4593433599164
 30
0.0
 11
93.08559628515974
 21
167.4593433599164
 31
0.0
  0
LINE
  5
E5
330
BA
100
AcDbEntity
  8
Sichtbar schmal (ISO)
 62
    18
420
        0
370
     5
100
AcDbLine
 10
77.86634395251539
 20
175.2523340121737
 30
0.0
 11
77.86634395251539
 21
167.4593433599164
 31
0.0
  0
LINE
  5
E6
330
BA
100
AcDbEntity
  8
Sichtbar schmal (ISO)
 62
    18
420
        0
370
     5
100
AcDbLine
 10
78.48519909254758
 20
175.2523340121737
 30
0.0
 11
78.48519909254758
 21
167.4593433599164
 31
0.0
  0
LINE
  5
E7
330
BA
100
AcDbEntity
  8
Sichtbar schmal (ISO)
 62
    18
420
        0
370
     5
100
AcDbLine
 10
82.37113702535966
 20
174.6793199936253
 30
0.0
 11
82.37113702535966
 21
175.2523340121737
 31
0.0
  0
LINE
  5
E8
330
BA
100
AcDbEntity
  8
Sichtbar schmal (ISO)
 62
    18
420
        0
370
     5
100
AcDbLine
 10
83.41311965206338
 20
174.6793199936253
 30
0.0
 11
82.37113702535966
 21
174.6793199936253
 31
0.0
  0
LINE
  5
E9
330
BA
100
AcDbEntity
  8
Sichtbar schmal (ISO)
 62
    18
420
        0
370
     5
100
AcDbLine
 10
83.41311965206338
 20
174.4501143862059
 30
0.0
 11
83.41311965206338
 21
174.6793199936253
 31
0.0
  0
LINE
  5
EA
330
BA
100
AcDbEntity
  8
Sichtbar schmal (ISO)
 62
    18
420
        0
370
     5
100
AcDbLine
 10
85.93438133367621
 20
174.4501143862059
 30
0.0
 11
83.41311965206338
 21
174.4501143862059
 31
0.0
  0
SPLINE
  5
EB
330
BA
100
AcDbEntity
  8
Sichtbar schmal (ISO)
 62
    18
420
        0
370
     5
100
AcDbSpline
210
0.0
220
0.0
230
1.0
 70
     8
 71
     3
 72
     8
 73
     4
 74
     0
 42
0.0000000001
 43
0.0000000001
 40
0.0
 40
0.0
 40
0.0
 40
0.0
 40
1.0
 40
1.0
 40
1.0
 40
1.0
 10
86.16358694109562
 20
174.2209087787868
 30
0.0
 10
86.16358694109562
 20
174.3474955403404
 30
0.0
 10
86.06096809522918
 20
174.4501143862059
 30
0.0
 10
85.93438133367621
 20
174.4501143862059
 30
0.0
  0
LINE
  5
EC
330
BA
100
AcDbEntity
  8
Sichtbar schmal (ISO)
 62
    18
420
        0
370
     5
100
AcDbLine
 10
86.16358694109562
 20
174.0260840124804
 30
0.0
 11
86.16358694109562
 21
174.2209087787868
 31
0.0
  0
SPLINE
  5
ED
330
BA
100
AcDbEntity
  8
Sichtbar schmal (ISO)
 62
    18
420
        0
370
     5
100
AcDbSpline
210
0.0
220
0.0
230
1.0
 70
     8
 71
     3
 72
     8
 73
     4
 74
     0
 42
0.0000000001
 43
0.0000000001
 40
0.0
 40
0.0
 40
0.0
 40
0.0
 40
1.0
 40
1.0
 40
1.0
 40
1.0
 10
85.93438133367621
 20
173.7968784050613
 30
0.0
 10
86.06096809522918
 20
173.7968784050613
 30
0.0
 10
86.16358694109562
 20
173.8994972509271
 30
0.0
 10
86.16358694109562
 20
174.0260840124804
 30
0.0
  0
LINE
  5
EE
330
BA
100
AcDbEntity
  8
Sichtbar schmal (ISO)
 62
    18
420
        0
370
     5
100
AcDbLine
 10
83.42457993243449
 20
173.7968784050613
 30
0.0
 11
85.93438133367621
 21
173.7968784050613
 31
0.0
  0
LINE
  5
EF
330
BA
100
AcDbEntity
  8
Sichtbar schmal (ISO)
 62
    18
420
        0
370
     5
100
AcDbLine
 10
83.42457993243449
 20
174.0260840124804
 30
0.0
 11
83.42457993243449
 21
173.7968784050613
 31
0.0
  0
LINE
  5
F0
330
BA
100
AcDbEntity
  8
Sichtbar schmal (ISO)
 62
    18
420
        0
370
     5
100
AcDbLine
 10
82.02642572717582
 20
174.0260840124804
 30
0.0
 11
83.42457993243449
 21
174.0260840124804
 31
0.0
  0
LINE
  5
F1
330
BA
100
AcDbEntity
  8
Sichtbar schmal (ISO)
 62
    18
420
        0
370
     5
100
AcDbLine
 10
82.02642572717582
 20
173.7968784050613
 30
0.0
 11
82.02642572717582
 21
174.0260840124804
 31
0.0
  0
LINE
  5
F2
330
BA
100
AcDbEntity
  8
Sichtbar schmal (ISO)
 62
    18
420
        0
370
     5
100
AcDbLine
 10
79.51662432593474
 20
173.7968784050613
 30
0.0
 11
82.02642572717582
 21
173.7968784050613
 31
0.0
  0
SPLINE
  5
F3
330
BA
100
AcDbEntity
  8
Sichtbar schmal (ISO)
 62
    18
420
        0
370
     5
100
AcDbSpline
210
0.0
220
0.0
230
1.0
 70
     8
 71
     3
 72
     8
 73
     4
 74
     0
 42
0.0000000001
 43
0.0000000001
 40
0.0
 40
0.0
 40
0.0
 40
0.0
 40
1.0
 40
1.0
 40
1.0
 40
1.0
 10
79.28741871851534
 20
174.0260840124804
 30
0.0
 10
79.28741871851534
 20
173.8994972509271
 30
0.0
 10
79.39003756438144
 20
173.7968784050613
 30
0.0
 10
79.51662432593474
 20
173.7968784050613
 30
0.0
  0
LINE
  5
F4
330
BA
100
AcDbEntity
  8
Sichtbar schmal (ISO)
 62
    18
420
        0
370
     5
100
AcDbLine
 10
79.28741871851534
 20
174.2209087787868
 30
0.0
 11
79.28741871851534
 21
174.0260840124804
 31
0.0
  0
SPLINE
  5
F5
330
BA
100
AcDbEntity
  8
Sichtbar schmal (ISO)
 62
    18
420
        0
370
     5
100
AcDbSpline
210
0.0
220
0.0
230
1.0
 70
     8
 71
     3
 72
     8
 73
     4
 74
     0
 42
0.0000000001
 43
0.0000000001
 40
0.0
 40
0.0
 40
0.0
 40
0.0
 40
1.0
 40
1.0
 40
1.0
 40
1.0
 10
79.51662432593474
 20
174.4501143862059
 30
0.0
 10
79.39003756438144
 20
174.4501143862059
 30
0.0
 10
79.28741871851534
 20
174.3474955403404
 30
0.0
 10
79.28741871851534
 20
174.2209087787868
 30
0.0
  0
LINE
  5
F6
330
BA
100
AcDbEntity
  8
Sichtbar schmal (ISO)
 62
    18
420
        0
370
     5
100
AcDbLine
 10
82.03788600754725
 20
174.4501143862059
 30
0.0
 11
79.51662432593474
 21
174.4501143862059
 31
0.0
  0
LINE
  5
F7
330
BA
100
AcDbEntity
  8
Sichtbar schmal (ISO)
 62
    18
420
        0
370
     5
100
AcDbLine
 10
82.03788600754725
 20
174.5647171899161
 30
0.0
 11
82.03788600754725
 21
174.4501143862059
 31
0.0
  0
LINE
  5
F8
330
BA
100
AcDbEntity
  8
Sichtbar schmal (ISO)
 62
    18
420
        0
370
     5
100
AcDbLine
 10
81.93384059715457
 20
174.5647171899161
 30
0.0
 11
82.03788600754725
 21
174.5647171899161
 31
0.0
  0
LINE
  5
F9
330
BA
100
AcDbEntity
  8
Sichtbar schmal (ISO)
 62
    18
420
        0
370
     5
100
AcDbLine
 10
81.93384059715457
 20
174.5647171899161
 30
0.0
 11
81.93384059715457
 21
175.2523340121737
 31
0.0
  0
LINE
  5
FA
330
BA
100
AcDbEntity
  8
Sichtbar schmal (ISO)
 62
    18
420
        0
370
     5
100
AcDbLine
 10
77.53642050825217
 20
176.7421704603997
 30
0.0
 11
77.53642050825217
 21
176.8567732641092
 31
0.0
  0
LINE
  5
FB
330
BA
100
AcDbEntity
  8
Sichtbar schmal (ISO)
 62
    18
420
        0
370
     5
100
AcDbLine
 10
77.53642050825217
 20
176.7421704603997
 30
0.0
 11
77.53642050825217
 21
167.4593433599164
 31
0.0
  0
LINE
  5
FC
330
BA
100
AcDbEntity
  8
Sichtbar schmal (ISO)
 62
    18
420
        0
370
     5
100
AcDbLine
 10
83.42457993243449
 20
168.5251494344166
 30
0.0
 11
83.42457993243449
 21
168.2959438269969
 31
0.0
  0
LINE
  5
FD
330
BA
100
AcDbEntity
  8
Sichtbar schmal (ISO)
 62
    18
420
        0
370
     5
100
AcDbLine
 10
82.02642572717582
 20
168.5251494344166
 30
0.0
 11
83.42457993243449
 21
168.5251494344166
 31
0.0
  0
LINE
  5
FE
330
BA
100
AcDbEntity
  8
Sichtbar schmal (ISO)
 62
    18
420
        0
370
     5
100
AcDbLine
 10
82.02642572717582
 20
168.2959438269969
 30
0.0
 11
82.02642572717582
 21
168.5251494344166
 31
0.0
  0
LINE
  5
FF
330
BA
100
AcDbEntity
  8
Sichtbar schmal (ISO)
 62
    18
420
        0
370
     5
100
AcDbLine
 10
79.51662432593474
 20
168.2959438269969
 30
0.0
 11
82.02642572717582
 21
168.2959438269969
 31
0.0
  0
SPLINE
  5
100
330
BA
100
AcDbEntity
  8
Sichtbar schmal (ISO)
 62
    18
420
        0
370
     5
100
AcDbSpline
210
0.0
220
0.0
230
1.0
 70
     8
 71
     3
 72
     8
 73
     4
 74
     0
 42
0.0000000001
 43
0.0000000001
 40
0.0
 40
0.0
 40
0.0
 40
0.0
 40
1.0
 40
1.0
 40
1.0
 40
1.0
 10
79.28741871851534
 20
168.5251494344166
 30
0.0
 10
79.28741871851534
 20
168.398562672863
 30
0.0
 10
79.39003756438144
 20
168.2959438269969
 30
0.0
 10
79.51662432593474
 20
168.2959438269969
 30
0.0
  0
LINE
  5
101
330
BA
100
AcDbEntity
  8
Sichtbar schmal (ISO)
 62
    18
420
        0
370
     5
100
AcDbLine
 10
79.28741871851534
 20
168.719974200723
 30
0.0
 11
79.28741871851534
 21
168.5251494344166
 31
0.0
  0
SPLINE
  5
102
330
BA
100
AcDbEntity
  8
Sichtbar schmal (ISO)
 62
    18
420
        0
370
     5
100
AcDbSpline
210
0.0
220
0.0
230
1.0
 70
     8
 71
     3
 72
     8
 73
     4
 74
     0
 42
0.0000000001
 43
0.0000000001
 40
0.0
 40
0.0
 40
0.0
 40
0.0
 40
1.0
 40
1.0
 40
1.0
 40
1.0
 10
79.51662432593474
 20
168.949179808142
 30
0.0
 10
79.39003756438144
 20
168.949179808142
 30
0.0
 10
79.28741871851534
 20
168.8465609622759
 30
0.0
 10
79.28741871851534
 20
168.719974200723
 30
0.0
  0
LINE
  5
103
330
BA
100
AcDbEntity
  8
Sichtbar schmal (ISO)
 62
    18
420
        0
370
     5
100
AcDbLine
 10
82.03788600754725
 20
168.949179808142
 30
0.0
 11
79.51662432593474
 21
168.949179808142
 31
0.0
  0
LINE
  5
104
330
BA
100
AcDbEntity
  8
Sichtbar schmal (ISO)
 62
    18
420
        0
370
     5
100
AcDbLine
 10
82.03788600754725
 20
169.1783854155618
 30
0.0
 11
82.03788600754725
 21
168.949179808142
 31
0.0
  0
LINE
  5
105
330
BA
100
AcDbEntity
  8
Sichtbar schmal (ISO)
 62
    18
420
        0
370
     5
100
AcDbLine
 10
83.41311965206338
 20
169.1783854155618
 30
0.0
 11
82.03788600754725
 21
169.1783854155618
 31
0.0
  0
LINE
  5
106
330
BA
100
AcDbEntity
  8
Sichtbar schmal (ISO)
 62
    18
420
        0
370
     5
100
AcDbLine
 10
83.41311965206338
 20
168.949179808142
 30
0.0
 11
83.41311965206338
 21
169.1783854155618
 31
0.0
  0
LINE
  5
107
330
BA
100
AcDbEntity
  8
Sichtbar schmal (ISO)
 62
    18
420
        0
370
     5
100
AcDbLine
 10
85.93438133367621
 20
168.949179808142
 30
0.0
 11
83.41311965206338
 21
168.949179808142
 31
0.0
  0
SPLINE
  5
108
330
BA
100
AcDbEntity
  8
Sichtbar schmal (ISO)
 62
    18
420
        0
370
     5
100
AcDbSpline
210
0.0
220
0.0
230
1.0
 70
     8
 71
     3
 72
     8
 73
     4
 74
     0
 42
0.0000000001
 43
0.0000000001
 40
0.0
 40
0.0
 40
0.0
 40
0.0
 40
1.0
 40
1.0
 40
1.0
 40
1.0
 10
86.16358694109562
 20
168.719974200723
 30
0.0
 10
86.16358694109562
 20
168.8465609622759
 30
0.0
 10
86.06096809522918
 20
168.949179808142
 30
0.0
 10
85.93438133367621
 20
168.949179808142
 30
0.0
  0
LINE
  5
109
330
BA
100
AcDbEntity
  8
Sichtbar schmal (ISO)
 62
    18
420
        0
370
     5
100
AcDbLine
 10
86.16358694109562
 20
168.5251494344166
 30
0.0
 11
86.16358694109562
 21
168.719974200723
 31
0.0
  0
SPLINE
  5
10A
330
BA
100
AcDbEntity
  8
Sichtbar schmal (ISO)
 62
    18
420
        0
370
     5
100
AcDbSpline
210
0.0
220
0.0
230
1.0
 70
     8
 71
     3
 72
     8
 73
     4
 74
     0
 42
0.0000000001
 43
0.0000000001
 40
0.0
 40
0.0
 40
0.0
 40
0.0
 40
1.0
 40
1.0
 40
1.0
 40
1.0
 10
85.93438133367621
 20
168.2959438269969
 30
0.0
 10
86.06096809522918
 20
168.2959438269969
 30
0.0
 10
86.16358694109562
 20
168.398562672863
 30
0.0
 10
86.16358694109562
 20
168.5251494344166
 30
0.0
  0
LINE
  5
10B
330
BA
100
AcDbEntity
  8
Sichtbar schmal (ISO)
 62
    18
420
        0
370
     5
100
AcDbLine
 10
83.42457993243449
 20
168.2959438269969
 30
0.0
 11
85.93438133367621
 21
168.2959438269969
 31
0.0
  0
LINE
  5
10C
330
BA
100
AcDbEntity
  8
Sichtbar schmal (ISO)
 62
    18
420
        0
370
     5
100
AcDbLine
 10
83.42457993243449
 20
169.9003830789324
 30
0.0
 11
83.42457993243449
 21
169.671177471513
 31
0.0
  0
LINE
  5
10D
330
BA
100
AcDbEntity
  8
Sichtbar schmal (ISO)
 62
    18
420
        0
370
     5
100
AcDbLine
 10
82.02642572717582
 20
169.9003830789324
 30
0.0
 11
83.42457993243449
 21
169.9003830789324
 31
0.0
  0
LINE
  5
10E
330
BA
100
AcDbEntity
  8
Sichtbar schmal (ISO)
 62
    18
420
        0
370
     5
100
AcDbLine
 10
82.02642572717582
 20
169.671177471513
 30
0.0
 11
82.02642572717582
 21
169.9003830789324
 31
0.0
  0
LINE
  5
10F
330
BA
100
AcDbEntity
  8
Sichtbar schmal (ISO)
 62
    18
420
        0
370
     5
100
AcDbLine
 10
79.51662432593474
 20
169.671177471513
 30
0.0
 11
82.02642572717582
 21
169.671177471513
 31
0.0
  0
SPLINE
  5
110
330
BA
100
AcDbEntity
  8
Sichtbar schmal (ISO)
 62
    18
420
        0
370
     5
100
AcDbSpline
210
0.0
220
0.0
230
1.0
 70
     8
 71
     3
 72
     8
 73
     4
 74
     0
 42
0.0000000001
 43
0.0000000001
 40
0.0
 40
0.0
 40
0.0
 40
0.0
 40
1.0
 40
1.0
 40
1.0
 40
1.0
 10
79.28741871851534
 20
169.9003830789324
 30
0.0
 10
79.28741871851534
 20
169.7737963173788
 30
0.0
 10
79.39003756438144
 20
169.671177471513
 30
0.0
 10
79.51662432593474
 20
169.671177471513
 30
0.0
  0
LINE
  5
111
330
BA
100
AcDbEntity
  8
Sichtbar schmal (ISO)
 62
    18
420
        0
370
     5
100
AcDbLine
 10
79.28741871851534
 20
170.0952078452387
 30
0.0
 11
79.28741871851534
 21
169.9003830789324
 31
0.0
  0
SPLINE
  5
112
330
BA
100
AcDbEntity
  8
Sichtbar schmal (ISO)
 62
    18
420
        0
370
     5
100
AcDbSpline
210
0.0
220
0.0
230
1.0
 70
     8
 71
     3
 72
     8
 73
     4
 74
     0
 42
0.0000000001
 43
0.0000000001
 40
0.0
 40
0.0
 40
0.0
 40
0.0
 40
1.0
 40
1.0
 40
1.0
 40
1.0
 10
79.51662432593474
 20
170.3244134526578
 30
0.0
 10
79.39003756438144
 20
170.3244134526578
 30
0.0
 10
79.28741871851534
 20
170.2217946067924
 30
0.0
 10
79.28741871851534
 20
170.0952078452387
 30
0.0
  0
LINE
  5
113
330
BA
100
AcDbEntity
  8
Sichtbar schmal (ISO)
 62
    18
420
        0
370
     5
100
AcDbLine
 10
82.03788600754725
 20
170.3244134526578
 30
0.0
 11
79.51662432593474
 21
170.3244134526578
 31
0.0
  0
LINE
  5
114
330
BA
100
AcDbEntity
  8
Sichtbar schmal (ISO)
 62
    18
420
        0
370
     5
100
AcDbLine
 10
82.03788600754725
 20
170.5536190600776
 30
0.0
 11
82.03788600754725
 21
170.3244134526578
 31
0.0
  0
LINE
  5
115
330
BA
100
AcDbEntity
  8
Sichtbar schmal (ISO)
 62
    18
420
        0
370
     5
100
AcDbLine
 10
83.41311965206338
 20
170.5536190600776
 30
0.0
 11
82.03788600754725
 21
170.5536190600776
 31
0.0
  0
LINE
  5
116
330
BA
100
AcDbEntity
  8
Sichtbar schmal (ISO)
 62
    18
420
        0
370
     5
100
AcDbLine
 10
83.41311965206338
 20
170.3244134526578
 30
0.0
 11
83.41311965206338
 21
170.5536190600776
 31
0.0
  0
LINE
  5
117
330
BA
100
AcDbEntity
  8
Sichtbar schmal (ISO)
 62
    18
420
        0
370
     5
100
AcDbLine
 10
85.93438133367621
 20
170.3244134526578
 30
0.0
 11
83.41311965206338
 21
170.3244134526578
 31
0.0
  0
SPLINE
  5
118
330
BA
100
AcDbEntity
  8
Sichtbar schmal (ISO)
 62
    18
420
        0
370
     5
100
AcDbSpline
210
0.0
220
0.0
230
1.0
 70
     8
 71
     3
 72
     8
 73
     4
 74
     0
 42
0.0000000001
 43
0.0000000001
 40
0.0
 40
0.0
 40
0.0
 40
0.0
 40
1.0
 40
1.0
 40
1.0
 40
1.0
 10
86.16358694109562
 20
170.0952078452387
 30
0.0
 10
86.16358694109562
 20
170.2217946067924
 30
0.0
 10
86.06096809522918
 20
170.3244134526578
 30
0.0
 10
85.93438133367621
 20
170.3244134526578
 30
0.0
  0
LINE
  5
119
330
BA
100
AcDbEntity
  8
Sichtbar schmal (ISO)
 62
    18
420
        0
370
     5
100
AcDbLine
 10
86.16358694109562
 20
169.9003830789324
 30
0.0
 11
86.16358694109562
 21
170.0952078452387
 31
0.0
  0
SPLINE
  5
11A
330
BA
100
AcDbEntity
  8
Sichtbar schmal (ISO)
 62
    18
420
        0
370
     5
100
AcDbSpline
210
0.0
220
0.0
230
1.0
 70
     8
 71
     3
 72
     8
 73
     4
 74
     0
 42
0.0000000001
 43
0.0000000001
 40
0.0
 40
0.0
 40
0.0
 40
0.0
 40
1.0
 40
1.0
 40
1.0
 40
1.0
 10
85.93438133367621
 20
169.671177471513
 30
0.0
 10
86.06096809522918
 20
169.671177471513
 30
0.0
 10
86.16358694109562
 20
169.7737963173788
 30
0.0
 10
86.16358694109562
 20
169.9003830789324
 30
0.0
  0
LINE
  5
11B
330
BA
100
AcDbEntity
  8
Sichtbar schmal (ISO)
 62
    18
420
        0
370
     5
100
AcDbLine
 10
83.42457993243449
 20
169.671177471513
 30
0.0
 11
85.93438133367621
 21
169.671177471513
 31
0.0
  0
LINE
  5
11C
330
BA
100
AcDbEntity
  8
Sichtbar schmal (ISO)
 62
    18
420
        0
370
     5
100
AcDbLine
 10
83.42457993243449
 20
171.2756167234485
 30
0.0
 11
83.42457993243449
 21
171.0464111160288
 31
0.0
  0
LINE
  5
11D
330
BA
100
AcDbEntity
  8
Sichtbar schmal (ISO)
 62
    18
420
        0
370
     5
100
AcDbLine
 10
82.02642572717582
 20
171.2756167234485
 30
0.0
 11
83.42457993243449
 21
171.2756167234485
 31
0.0
  0
LINE
  5
11E
330
BA
100
AcDbEntity
  8
Sichtbar schmal (ISO)
 62
    18
420
        0
370
     5
100
AcDbLine
 10
82.02642572717582
 20
171.0464111160288
 30
0.0
 11
82.02642572717582
 21
171.2756167234485
 31
0.0
  0
LINE
  5
11F
330
BA
100
AcDbEntity
  8
Sichtbar schmal (ISO)
 62
    18
420
        0
370
     5
100
AcDbLine
 10
79.51662432593474
 20
171.0464111160288
 30
0.0
 11
82.02642572717582
 21
171.0464111160288
 31
0.0
  0
SPLINE
  5
120
330
BA
100
AcDbEntity
  8
Sichtbar schmal (ISO)
 62
    18
420
        0
370
     5
100
AcDbSpline
210
0.0
220
0.0
230
1.0
 70
     8
 71
     3
 72
     8
 73
     4
 74
     0
 42
0.0000000001
 43
0.0000000001
 40
0.0
 40
0.0
 40
0.0
 40
0.0
 40
1.0
 40
1.0
 40
1.0
 40
1.0
 10
79.28741871851534
 20
171.2756167234485
 30
0.0
 10
79.28741871851534
 20
171.1490299618949
 30
0.0
 10
79.39003756438144
 20
171.0464111160288
 30
0.0
 10
79.51662432593474
 20
171.0464111160288
 30
0.0
  0
LINE
  5
121
330
BA
100
AcDbEntity
  8
Sichtbar schmal (ISO)
 62
    18
420
        0
370
     5
100
AcDbLine
 10
79.28741871851534
 20
171.4704414897549
 30
0.0
 11
79.28741871851534
 21
171.2756167234485
 31
0.0
  0
SPLINE
  5
122
330
BA
100
AcDbEntity
  8
Sichtbar schmal (ISO)
 62
    18
420
        0
370
     5
100
AcDbSpline
210
0.0
220
0.0
230
1.0
 70
     8
 71
     3
 72
     8
 73
     4
 74
     0
 42
0.0000000001
 43
0.0000000001
 40
0.0
 40
0.0
 40
0.0
 40
0.0
 40
1.0
 40
1.0
 40
1.0
 40
1.0
 10
79.51662432593474
 20
171.6996470971746
 30
0.0
 10
79.39003756438144
 20
171.6996470971746
 30
0.0
 10
79.28741871851534
 20
171.5970282513085
 30
0.0
 10
79.28741871851534
 20
171.4704414897549
 30
0.0
  0
LINE
  5
123
330
BA
100
AcDbEntity
  8
Sichtbar schmal (ISO)
 62
    18
420
        0
370
     5
100
AcDbLine
 10
82.03788600754725
 20
171.6996470971746
 30
0.0
 11
79.51662432593474
 21
171.6996470971746
 31
0.0
  0
LINE
  5
124
330
BA
100
AcDbEntity
  8
Sichtbar schmal (ISO)
 62
    18
420
        0
370
     5
100
AcDbLine
 10
82.03788600754725
 20
171.9288527045934
 30
0.0
 11
82.03788600754725
 21
171.6996470971746
 31
0.0
  0
LINE
  5
125
330
BA
100
AcDbEntity
  8
Sichtbar schmal (ISO)
 62
    18
420
        0
370
     5
100
AcDbLine
 10
83.41311965206338
 20
171.9288527045934
 30
0.0
 11
82.03788600754725
 21
171.9288527045934
 31
0.0
  0
LINE
  5
126
330
BA
100
AcDbEntity
  8
Sichtbar schmal (ISO)
 62
    18
420
        0
370
     5
100
AcDbLine
 10
83.41311965206338
 20
171.6996470971746
 30
0.0
 11
83.41311965206338
 21
171.9288527045934
 31
0.0
  0
LINE
  5
127
330
BA
100
AcDbEntity
  8
Sichtbar schmal (ISO)
 62
    18
420
        0
370
     5
100
AcDbLine
 10
85.93438133367621
 20
171.6996470971746
 30
0.0
 11
83.41311965206338
 21
171.6996470971746
 31
0.0
  0
SPLINE
  5
128
330
BA
100
AcDbEntity
  8
Sichtbar schmal (ISO)
 62
    18
420
        0
370
     5
100
AcDbSpline
210
0.0
220
0.0
230
1.0
 70
     8
 71
     3
 72
     8
 73
     4
 74
     0
 42
0.0000000001
 43
0.0000000001
 40
0.0
 40
0.0
 40
0.0
 40
0.0
 40
1.0
 40
1.0
 40
1.0
 40
1.0
 10
86.16358694109562
 20
171.4704414897549
 30
0.0
 10
86.16358694109562
 20
171.5970282513085
 30
0.0
 10
86.06096809522918
 20
171.6996470971746
 30
0.0
 10
85.93438133367589
 20
171.6996470971746
 30
0.0
  0
LINE
  5
129
330
BA
100
AcDbEntity
  8
Sichtbar schmal (ISO)
 62
    18
420
        0
370
     5
100
AcDbLine
 10
86.16358694109562
 20
171.2756167234485
 30
0.0
 11
86.16358694109562
 21
171.4704414897549
 31
0.0
  0
SPLINE
  5
12A
330
BA
100
AcDbEntity
  8
Sichtbar schmal (ISO)
 62
    18
420
        0
370
     5
100
AcDbSpline
210
0.0
220
0.0
230
1.0
 70
     8
 71
     3
 72
     8
 73
     4
 74
     0
 42
0.0000000001
 43
0.0000000001
 40
0.0
 40
0.0
 40
0.0
 40
0.0
 40
1.0
 40
1.0
 40
1.0
 40
1.0
 10
85.93438133367621
 20
171.0464111160288
 30
0.0
 10
86.06096809522918
 20
171.0464111160288
 30
0.0
 10
86.16358694109562
 20
171.1490299618949
 30
0.0
 10
86.16358694109562
 20
171.2756167234485
 30
0.0
  0
LINE
  5
12B
330
BA
100
AcDbEntity
  8
Sichtbar schmal (ISO)
 62
    18
420
        0
370
     5
100
AcDbLine
 10
83.42457993243449
 20
171.0464111160288
 30
0.0
 11
85.93438133367621
 21
171.0464111160288
 31
0.0
  0
LINE
  5
12C
330
BA
100
AcDbEntity
  8
Sichtbar schmal (ISO)
 62
    18
420
        0
370
     5
100
AcDbLine
 10
83.42457993243449
 20
172.6508503679643
 30
0.0
 11
83.42457993243449
 21
172.4216447605449
 31
0.0
  0
LINE
  5
12D
330
BA
100
AcDbEntity
  8
Sichtbar schmal (ISO)
 62
    18
420
        0
370
     5
100
AcDbLine
 10
82.02642572717582
 20
172.6508503679643
 30
0.0
 11
83.42457993243449
 21
172.6508503679643
 31
0.0
  0
LINE
  5
12E
330
BA
100
AcDbEntity
  8
Sichtbar schmal (ISO)
 62
    18
420
        0
370
     5
100
AcDbLine
 10
82.02642572717582
 20
172.4216447605449
 30
0.0
 11
82.02642572717582
 21
172.6508503679643
 31
0.0
  0
LINE
  5
12F
330
BA
100
AcDbEntity
  8
Sichtbar schmal (ISO)
 62
    18
420
        0
370
     5
100
AcDbLine
 10
79.51662432593474
 20
172.4216447605449
 30
0.0
 11
82.02642572717582
 21
172.4216447605449
 31
0.0
  0
SPLINE
  5
130
330
BA
100
AcDbEntity
  8
Sichtbar schmal (ISO)
 62
    18
420
        0
370
     5
100
AcDbSpline
210
0.0
220
0.0
230
1.0
 70
     8
 71
     3
 72
     8
 73
     4
 74
     0
 42
0.0000000001
 43
0.0000000001
 40
0.0
 40
0.0
 40
0.0
 40
0.0
 40
1.0
 40
1.0
 40
1.0
 40
1.0
 10
79.28741871851534
 20
172.6508503679643
 30
0.0
 10
79.28741871851534
 20
172.5242636064107
 30
0.0
 10
79.39003756438144
 20
172.4216447605449
 30
0.0
 10
79.51662432593474
 20
172.4216447605449
 30
0.0
  0
LINE
  5
131
330
BA
100
AcDbEntity
  8
Sichtbar schmal (ISO)
 62
    18
420
        0
370
     5
100
AcDbLine
 10
79.28741871851534
 20
172.8456751342707
 30
0.0
 11
79.28741871851534
 21
172.6508503679643
 31
0.0
  0
SPLINE
  5
132
330
BA
100
AcDbEntity
  8
Sichtbar schmal (ISO)
 62
    18
420
        0
370
     5
100
AcDbSpline
210
0.0
220
0.0
230
1.0
 70
     8
 71
     3
 72
     8
 73
     4
 74
     0
 42
0.0000000001
 43
0.0000000001
 40
0.0
 40
0.0
 40
0.0
 40
0.0
 40
1.0
 40
1.0
 40
1.0
 40
1.0
 10
79.51662432593474
 20
173.0748807416904
 30
0.0
 10
79.39003756438144
 20
173.0748807416904
 30
0.0
 10
79.28741871851534
 20
172.972261895824
 30
0.0
 10
79.28741871851534
 20
172.8456751342707
 30
0.0
  0
LINE
  5
133
330
BA
100
AcDbEntity
  8
Sichtbar schmal (ISO)
 62
    18
420
        0
370
     5
100
AcDbLine
 10
82.03788600754725
 20
173.0748807416904
 30
0.0
 11
79.51662432593474
 21
173.0748807416904
 31
0.0
  0
LINE
  5
134
330
BA
100
AcDbEntity
  8
Sichtbar schmal (ISO)
 62
    18
420
        0
370
     5
100
AcDbLine
 10
82.03788600754725
 20
173.3040863491095
 30
0.0
 11
82.03788600754725
 21
173.0748807416904
 31
0.0
  0
LINE
  5
135
330
BA
100
AcDbEntity
  8
Sichtbar schmal (ISO)
 62
    18
420
        0
370
     5
100
AcDbLine
 10
83.41311965206338
 20
173.3040863491095
 30
0.0
 11
82.03788600754725
 21
173.3040863491095
 31
0.0
  0
LINE
  5
136
330
BA
100
AcDbEntity
  8
Sichtbar schmal (ISO)
 62
    18
420
        0
370
     5
100
AcDbLine
 10
83.41311965206338
 20
173.0748807416904
 30
0.0
 11
83.41311965206338
 21
173.3040863491095
 31
0.0
  0
LINE
  5
137
330
BA
100
AcDbEntity
  8
Sichtbar schmal (ISO)
 62
    18
420
        0
370
     5
100
AcDbLine
 10
85.93438133367621
 20
173.0748807416904
 30
0.0
 11
83.41311965206338
 21
173.0748807416904
 31
0.0
  0
SPLINE
  5
138
330
BA
100
AcDbEntity
  8
Sichtbar schmal (ISO)
 62
    18
420
        0
370
     5
100
AcDbSpline
210
0.0
220
0.0
230
1.0
 70
     8
 71
     3
 72
     8
 73
     4
 74
     0
 42
0.0000000001
 43
0.0000000001
 40
0.0
 40
0.0
 40
0.0
 40
0.0
 40
1.0
 40
1.0
 40
1.0
 40
1.0
 10
86.16358694109562
 20
172.8456751342707
 30
0.0
 10
86.16358694109562
 20
172.972261895824
 30
0.0
 10
86.06096809522918
 20
173.0748807416904
 30
0.0
 10
85.93438133367621
 20
173.0748807416904
 30
0.0
  0
LINE
  5
139
330
BA
100
AcDbEntity
  8
Sichtbar schmal (ISO)
 62
    18
420
        0
370
     5
100
AcDbLine
 10
86.16358694109562
 20
172.6508503679643
 30
0.0
 11
86.16358694109562
 21
172.8456751342707
 31
0.0
  0
SPLINE
  5
13A
330
BA
100
AcDbEntity
  8
Sichtbar schmal (ISO)
 62
    18
420
        0
370
     5
100
AcDbSpline
210
0.0
220
0.0
230
1.0
 70
     8
 71
     3
 72
     8
 73
     4
 74
     0
 42
0.0000000001
 43
0.0000000001
 40
0.0
 40
0.0
 40
0.0
 40
0.0
 40
1.0
 40
1.0
 40
1.0
 40
1.0
 10
85.93438133367621
 20
172.4216447605449
 30
0.0
 10
86.06096809522918
 20
172.4216447605449
 30
0.0
 10
86.16358694109562
 20
172.5242636064107
 30
0.0
 10
86.16358694109562
 20
172.6508503679643
 30
0.0
  0
LINE
  5
13B
330
BA
100
AcDbEntity
  8
Sichtbar schmal (ISO)
 62
    18
420
        0
370
     5
100
AcDbLine
 10
83.42457993243449
 20
172.4216447605449
 30
0.0
 11
85.93438133367621
 21
172.4216447605449
 31
0.0
  0
LINE
  5
13C
330
BA
100
AcDbEntity
  8
Sichtbar schmal (ISO)
 62
    18
420
        0
370
     5
100
AcDbLine
 10
88.34104021157887
 20
170.3931751348839
 30
0.0
 11
87.19501217448247
 21
170.3931751348839
 31
0.0
  0
LINE
  5
13D
330
BA
100
AcDbEntity
  8
Sichtbar schmal (ISO)
 62
    18
420
        0
370
     5
100
AcDbLine
 10
87.19501217448247
 20
168.5595302755293
 30
0.0
 11
88.34104021157887
 21
168.5595302755293
 31
0.0
  0
LINE
  5
13E
330
BA
100
AcDbEntity
  8
Sichtbar schmal (ISO)
 62
    18
420
        0
370
     5
100
AcDbLine
 10
95.44641404157889
 20
168.5595302755293
 30
0.0
 11
94.30038600448185
 21
168.5595302755293
 31
0.0
  0
LINE
  5
13F
330
BA
100
AcDbEntity
  8
Sichtbar schmal (ISO)
 62
    18
420
        0
370
     5
100
AcDbLine
 10
94.30038600448185
 20
170.3931751348839
 30
0.0
 11
95.44641404157889
 21
170.3931751348839
 31
0.0
  0
LINE
  5
140
330
BA
100
AcDbEntity
  8
Sichtbar schmal (ISO)
 62
    18
420
        0
370
     5
100
AcDbLine
 10
104.7750822635456
 20
175.2523340121743
 30
0.0
 11
104.7750822635456
 21
167.4593433599164
 31
0.0
  0
LINE
  5
141
330
BA
100
AcDbEntity
  8
Sichtbar schmal (ISO)
 62
    18
420
        0
370
     5
100
AcDbLine
 10
105.1050057078085
 20
176.7421704603997
 30
0.0
 11
105.1050057078085
 21
167.4593433599164
 31
0.0
  0
LINE
  5
142
330
BA
100
AcDbEntity
  8
Sichtbar schmal (ISO)
 62
    18
420
        0
370
     5
100
AcDbLine
 10
105.1050057078085
 20
176.7421704603997
 30
0.0
 11
105.1050057078085
 21
176.8567732641092
 31
0.0
  0
LINE
  5
143
330
BA
100
AcDbEntity
  8
Sichtbar schmal (ISO)
 62
    18
420
        0
370
     5
100
AcDbLine
 10
100.7075856189068
 20
174.5647171899161
 30
0.0
 11
100.7075856189068
 21
175.2523340121743
 31
0.0
  0
LINE
  5
144
330
BA
100
AcDbEntity
  8
Sichtbar schmal (ISO)
 62
    18
420
        0
370
     5
100
AcDbLine
 10
100.7075856189068
 20
174.5647171899161
 30
0.0
 11
100.6035402085131
 21
174.5647171899161
 31
0.0
  0
LINE
  5
145
330
BA
100
AcDbEntity
  8
Sichtbar schmal (ISO)
 62
    18
420
        0
370
     5
100
AcDbLine
 10
100.6035402085131
 20
174.5647171899161
 30
0.0
 11
100.6035402085131
 21
174.4501143862059
 31
0.0
  0
LINE
  5
146
330
BA
100
AcDbEntity
  8
Sichtbar schmal (ISO)
 62
    18
420
        0
370
     5
100
AcDbLine
 10
100.6035402085131
 20
174.4501143862059
 30
0.0
 11
103.1248018901263
 21
174.4501143862059
 31
0.0
  0
SPLINE
  5
147
330
BA
100
AcDbEntity
  8
Sichtbar schmal (ISO)
 62
    18
420
        0
370
     5
100
AcDbSpline
210
0.0
220
0.0
230
1.0
 70
     8
 71
     3
 72
     8
 73
     4
 74
     0
 42
0.0000000001
 43
0.0000000001
 40
0.0
 40
0.0
 40
0.0
 40
0.0
 40
1.0
 40
1.0
 40
1.0
 40
1.0
 10
103.3540074975453
 20
174.2209087787868
 30
0.0
 10
103.3540074975453
 20
174.3474955403404
 30
0.0
 10
103.2513886516793
 20
174.4501143862059
 30
0.0
 10
103.1248018901263
 20
174.4501143862059
 30
0.0
  0
LINE
  5
148
330
BA
100
AcDbEntity
  8
Sichtbar schmal (ISO)
 62
    18
420
        0
370
     5
100
AcDbLine
 10
103.3540074975453
 20
174.2209087787868
 30
0.0
 11
103.3540074975453
 21
174.0260840124804
 31
0.0
  0
SPLINE
  5
149
330
BA
100
AcDbEntity
  8
Sichtbar schmal (ISO)
 62
    18
420
        0
370
     5
100
AcDbSpline
210
0.0
220
0.0
230
1.0
 70
     8
 71
     3
 72
     8
 73
     4
 74
     0
 42
0.0000000001
 43
0.0000000001
 40
0.0
 40
0.0
 40
0.0
 40
0.0
 40
1.0
 40
1.0
 40
1.0
 40
1.0
 10
103.1248018901263
 20
173.7968784050613
 30
0.0
 10
103.2513886516793
 20
173.7968784050613
 30
0.0
 10
103.3540074975453
 20
173.8994972509271
 30
0.0
 10
103.3540074975453
 20
174.0260840124804
 30
0.0
  0
LINE
  5
14A
330
BA
100
AcDbEntity
  8
Sichtbar schmal (ISO)
 62
    18
420
        0
370
     5
100
AcDbLine
 10
103.1248018901263
 20
173.7968784050613
 30
0.0
 11
100.6150004888846
 21
173.7968784050613
 31
0.0
  0
LINE
  5
14B
330
BA
100
AcDbEntity
  8
Sichtbar schmal (ISO)
 62
    18
420
        0
370
     5
100
AcDbLine
 10
100.6150004888846
 20
173.7968784050613
 30
0.0
 11
100.6150004888846
 21
174.0260840124804
 31
0.0
  0
LINE
  5
14C
330
BA
100
AcDbEntity
  8
Sichtbar schmal (ISO)
 62
    18
420
        0
370
     5
100
AcDbLine
 10
100.6150004888846
 20
174.0260840124804
 30
0.0
 11
99.21684628362623
 21
174.0260840124804
 31
0.0
  0
LINE
  5
14D
330
BA
100
AcDbEntity
  8
Sichtbar schmal (ISO)
 62
    18
420
        0
370
     5
100
AcDbLine
 10
99.21684628362623
 20
174.0260840124804
 30
0.0
 11
99.21684628362623
 21
173.7968784050613
 31
0.0
  0
LINE
  5
14E
330
BA
100
AcDbEntity
  8
Sichtbar schmal (ISO)
 62
    18
420
        0
370
     5
100
AcDbLine
 10
99.21684628362623
 20
173.7968784050613
 30
0.0
 11
96.70704488238515
 21
173.7968784050613
 31
0.0
  0
SPLINE
  5
14F
330
BA
100
AcDbEntity
  8
Sichtbar schmal (ISO)
 62
    18
420
        0
370
     5
100
AcDbSpline
210
0.0
220
0.0
230
1.0
 70
     8
 71
     3
 72
     8
 73
     4
 74
     0
 42
0.0000000001
 43
0.0000000001
 40
0.0
 40
0.0
 40
0.0
 40
0.0
 40
1.0
 40
1.0
 40
1.0
 40
1.0
 10
96.47783927496542
 20
174.0260840124804
 30
0.0
 10
96.47783927496542
 20
173.8994972509271
 30
0.0
 10
96.58045812083122
 20
173.7968784050613
 30
0.0
 10
96.70704488238515
 20
173.7968784050613
 30
0.0
  0
LINE
  5
150
330
BA
100
AcDbEntity
  8
Sichtbar schmal (ISO)
 62
    18
420
        0
370
     5
100
AcDbLine
 10
96.47783927496542
 20
174.0260840124804
 30
0.0
 11
96.47783927496542
 21
174.2209087787868
 31
0.0
  0
SPLINE
  5
151
330
BA
100
AcDbEntity
  8
Sichtbar schmal (ISO)
 62
    18
420
        0
370
     5
100
AcDbSpline
210
0.0
220
0.0
230
1.0
 70
     8
 71
     3
 72
     8
 73
     4
 74
     0
 42
0.0000000001
 43
0.0000000001
 40
0.0
 40
0.0
 40
0.0
 40
0.0
 40
1.0
 40
1.0
 40
1.0
 40
1.0
 10
96.70704488238515
 20
174.4501143862059
 30
0.0
 10
96.58045812083122
 20
174.4501143862059
 30
0.0
 10
96.47783927496542
 20
174.3474955403404
 30
0.0
 10
96.47783927496542
 20
174.2209087787868
 30
0.0
  0
LINE
  5
152
330
BA
100
AcDbEntity
  8
Sichtbar schmal (ISO)
 62
    18
420
        0
370
     5
100
AcDbLine
 10
96.70704488238515
 20
174.4501143862059
 30
0.0
 11
99.22830656399733
 21
174.4501143862059
 31
0.0
  0
LINE
  5
153
330
BA
100
AcDbEntity
  8
Sichtbar schmal (ISO)
 62
    18
420
        0
370
     5
100
AcDbLine
 10
99.22830656399733
 20
174.4501143862059
 30
0.0
 11
99.22830656399733
 21
174.6793199936253
 31
0.0
  0
LINE
  5
154
330
BA
100
AcDbEntity
  8
Sichtbar schmal (ISO)
 62
    18
420
        0
370
     5
100
AcDbLine
 10
99.22830656399733
 20
174.6793199936253
 30
0.0
 11
100.2702891907014
 21
174.6793199936253
 31
0.0
  0
LINE
  5
155
330
BA
100
AcDbEntity
  8
Sichtbar schmal (ISO)
 62
    18
420
        0
370
     5
100
AcDbLine
 10
100.2702891907014
 20
174.6793199936253
 30
0.0
 11
100.2702891907014
 21
175.2523340121743
 31
0.0
  0
LINE
  5
156
330
BA
100
AcDbEntity
  8
Sichtbar schmal (ISO)
 62
    18
420
        0
370
     5
100
AcDbLine
 10
104.1562271235131
 20
175.2523340121743
 30
0.0
 11
104.1562271235131
 21
167.4593433599164
 31
0.0
  0
LINE
  5
157
330
BA
100
AcDbEntity
  8
Sichtbar schmal (ISO)
 62
    18
420
        0
370
     5
100
AcDbLine
 10
99.21684628362623
 20
172.6508503679643
 30
0.0
 11
99.21684628362623
 21
172.4216447605449
 31
0.0
  0
LINE
  5
158
330
BA
100
AcDbEntity
  8
Sichtbar schmal (ISO)
 62
    18
420
        0
370
     5
100
AcDbLine
 10
99.21684628362623
 20
172.4216447605449
 30
0.0
 11
96.70704488238515
 21
172.4216447605449
 31
0.0
  0
SPLINE
  5
159
330
BA
100
AcDbEntity
  8
Sichtbar schmal (ISO)
 62
    18
420
        0
370
     5
100
AcDbSpline
210
0.0
220
0.0
230
1.0
 70
     8
 71
     3
 72
     8
 73
     4
 74
     0
 42
0.0000000001
 43
0.0000000001
 40
0.0
 40
0.0
 40
0.0
 40
0.0
 40
1.0
 40
1.0
 40
1.0
 40
1.0
 10
96.47783927496542
 20
172.6508503679643
 30
0.0
 10
96.47783927496542
 20
172.5242636064107
 30
0.0
 10
96.58045812083122
 20
172.4216447605449
 30
0.0
 10
96.70704488238515
 20
172.4216447605449
 30
0.0
  0
LINE
  5
15A
330
BA
100
AcDbEntity
  8
Sichtbar schmal (ISO)
 62
    18
420
        0
370
     5
100
AcDbLine
 10
96.47783927496542
 20
172.6508503679643
 30
0.0
 11
96.47783927496542
 21
172.8456751342707
 31
0.0
  0
SPLINE
  5
15B
330
BA
100
AcDbEntity
  8
Sichtbar schmal (ISO)
 62
    18
420
        0
370
     5
100
AcDbSpline
210
0.0
220
0.0
230
1.0
 70
     8
 71
     3
 72
     8
 73
     4
 74
     0
 42
0.0000000001
 43
0.0000000001
 40
0.0
 40
0.0
 40
0.0
 40
0.0
 40
1.0
 40
1.0
 40
1.0
 40
1.0
 10
96.70704488238515
 20
173.0748807416904
 30
0.0
 10
96.58045812083122
 20
173.0748807416904
 30
0.0
 10
96.47783927496542
 20
172.972261895824
 30
0.0
 10
96.47783927496542
 20
172.8456751342707
 30
0.0
  0
LINE
  5
15C
330
BA
100
AcDbEntity
  8
Sichtbar schmal (ISO)
 62
    18
420
        0
370
     5
100
AcDbLine
 10
96.70704488238515
 20
173.0748807416904
 30
0.0
 11
99.22830656399733
 21
173.0748807416904
 31
0.0
  0
LINE
  5
15D
330
BA
100
AcDbEntity
  8
Sichtbar schmal (ISO)
 62
    18
420
        0
370
     5
100
AcDbLine
 10
99.22830656399733
 20
173.0748807416904
 30
0.0
 11
99.22830656399733
 21
173.3040863491095
 31
0.0
  0
LINE
  5
15E
330
BA
100
AcDbEntity
  8
Sichtbar schmal (ISO)
 62
    18
420
        0
370
     5
100
AcDbLine
 10
99.22830656399733
 20
173.3040863491095
 30
0.0
 11
100.6035402085131
 21
173.3040863491095
 31
0.0
  0
LINE
  5
15F
330
BA
100
AcDbEntity
  8
Sichtbar schmal (ISO)
 62
    18
420
        0
370
     5
100
AcDbLine
 10
100.6035402085131
 20
173.3040863491095
 30
0.0
 11
100.6035402085131
 21
173.0748807416904
 31
0.0
  0
LINE
  5
160
330
BA
100
AcDbEntity
  8
Sichtbar schmal (ISO)
 62
    18
420
        0
370
     5
100
AcDbLine
 10
100.6035402085131
 20
173.0748807416904
 30
0.0
 11
103.1248018901263
 21
173.0748807416904
 31
0.0
  0
SPLINE
  5
161
330
BA
100
AcDbEntity
  8
Sichtbar schmal (ISO)
 62
    18
420
        0
370
     5
100
AcDbSpline
210
0.0
220
0.0
230
1.0
 70
     8
 71
     3
 72
     8
 73
     4
 74
     0
 42
0.0000000001
 43
0.0000000001
 40
0.0
 40
0.0
 40
0.0
 40
0.0
 40
1.0
 40
1.0
 40
1.0
 40
1.0
 10
103.3540074975453
 20
172.8456751342707
 30
0.0
 10
103.3540074975453
 20
172.972261895824
 30
0.0
 10
103.2513886516793
 20
173.0748807416904
 30
0.0
 10
103.1248018901263
 20
173.0748807416904
 30
0.0
  0
LINE
  5
162
330
BA
100
AcDbEntity
  8
Sichtbar schmal (ISO)
 62
    18
420
        0
370
     5
100
AcDbLine
 10
103.3540074975453
 20
172.8456751342707
 30
0.0
 11
103.3540074975453
 21
172.6508503679643
 31
0.0
  0
SPLINE
  5
163
330
BA
100
AcDbEntity
  8
Sichtbar schmal (ISO)
 62
    18
420
        0
370
     5
100
AcDbSpline
210
0.0
220
0.0
230
1.0
 70
     8
 71
     3
 72
     8
 73
     4
 74
     0
 42
0.0000000001
 43
0.0000000001
 40
0.0
 40
0.0
 40
0.0
 40
0.0
 40
1.0
 40
1.0
 40
1.0
 40
1.0
 10
103.1248018901263
 20
172.4216447605449
 30
0.0
 10
103.2513886516793
 20
172.4216447605449
 30
0.0
 10
103.3540074975453
 20
172.5242636064107
 30
0.0
 10
103.3540074975453
 20
172.6508503679643
 30
0.0
  0
LINE
  5
164
330
BA
100
AcDbEntity
  8
Sichtbar schmal (ISO)
 62
    18
420
        0
370
     5
100
AcDbLine
 10
103.1248018901263
 20
172.4216447605449
 30
0.0
 11
100.6150004888846
 21
172.4216447605449
 31
0.0
  0
LINE
  5
165
330
BA
100
AcDbEntity
  8
Sichtbar schmal (ISO)
 62
    18
420
        0
370
     5
100
AcDbLine
 10
100.6150004888846
 20
172.4216447605449
 30
0.0
 11
100.6150004888846
 21
172.6508503679643
 31
0.0
  0
LINE
  5
166
330
BA
100
AcDbEntity
  8
Sichtbar schmal (ISO)
 62
    18
420
        0
370
     5
100
AcDbLine
 10
100.6150004888846
 20
172.6508503679643
 30
0.0
 11
99.21684628362623
 21
172.6508503679643
 31
0.0
  0
LINE
  5
167
330
BA
100
AcDbEntity
  8
Sichtbar schmal (ISO)
 62
    18
420
        0
370
     5
100
AcDbLine
 10
99.21684628362623
 20
171.2756167234485
 30
0.0
 11
99.21684628362623
 21
171.0464111160288
 31
0.0
  0
LINE
  5
168
330
BA
100
AcDbEntity
  8
Sichtbar schmal (ISO)
 62
    18
420
        0
370
     5
100
AcDbLine
 10
99.21684628362623
 20
171.0464111160288
 30
0.0
 11
96.70704488238515
 21
171.0464111160288
 31
0.0
  0
SPLINE
  5
169
330
BA
100
AcDbEntity
  8
Sichtbar schmal (ISO)
 62
    18
420
        0
370
     5
100
AcDbSpline
210
0.0
220
0.0
230
1.0
 70
     8
 71
     3
 72
     8
 73
     4
 74
     0
 42
0.0000000001
 43
0.0000000001
 40
0.0
 40
0.0
 40
0.0
 40
0.0
 40
1.0
 40
1.0
 40
1.0
 40
1.0
 10
96.47783927496542
 20
171.2756167234485
 30
0.0
 10
96.47783927496542
 20
171.1490299618949
 30
0.0
 10
96.58045812083122
 20
171.0464111160288
 30
0.0
 10
96.70704488238515
 20
171.0464111160288
 30
0.0
  0
LINE
  5
16A
330
BA
100
AcDbEntity
  8
Sichtbar schmal (ISO)
 62
    18
420
        0
370
     5
100
AcDbLine
 10
96.47783927496542
 20
171.2756167234485
 30
0.0
 11
96.47783927496542
 21
171.4704414897549
 31
0.0
  0
SPLINE
  5
16B
330
BA
100
AcDbEntity
  8
Sichtbar schmal (ISO)
 62
    18
420
        0
370
     5
100
AcDbSpline
210
0.0
220
0.0
230
1.0
 70
     8
 71
     3
 72
     8
 73
     4
 74
     0
 42
0.0000000001
 43
0.0000000001
 40
0.0
 40
0.0
 40
0.0
 40
0.0
 40
1.0
 40
1.0
 40
1.0
 40
1.0
 10
96.70704488238515
 20
171.6996470971746
 30
0.0
 10
96.58045812083122
 20
171.6996470971746
 30
0.0
 10
96.47783927496542
 20
171.5970282513085
 30
0.0
 10
96.47783927496542
 20
171.4704414897549
 30
0.0
  0
LINE
  5
16C
330
BA
100
AcDbEntity
  8
Sichtbar schmal (ISO)
 62
    18
420
        0
370
     5
100
AcDbLine
 10
96.70704488238515
 20
171.6996470971746
 30
0.0
 11
99.22830656399733
 21
171.6996470971746
 31
0.0
  0
LINE
  5
16D
330
BA
100
AcDbEntity
  8
Sichtbar schmal (ISO)
 62
    18
420
        0
370
     5
100
AcDbLine
 10
99.22830656399733
 20
171.6996470971746
 30
0.0
 11
99.22830656399733
 21
171.9288527045934
 31
0.0
  0
LINE
  5
16E
330
BA
100
AcDbEntity
  8
Sichtbar schmal (ISO)
 62
    18
420
        0
370
     5
100
AcDbLine
 10
99.22830656399733
 20
171.9288527045934
 30
0.0
 11
100.6035402085131
 21
171.9288527045934
 31
0.0
  0
LINE
  5
16F
330
BA
100
AcDbEntity
  8
Sichtbar schmal (ISO)
 62
    18
420
        0
370
     5
100
AcDbLine
 10
100.6035402085131
 20
171.9288527045934
 30
0.0
 11
100.6035402085131
 21
171.6996470971746
 31
0.0
  0
LINE
  5
170
330
BA
100
AcDbEntity
  8
Sichtbar schmal (ISO)
 62
    18
420
        0
370
     5
100
AcDbLine
 10
100.6035402085131
 20
171.6996470971746
 30
0.0
 11
103.1248018901263
 21
171.6996470971746
 31
0.0
  0
SPLINE
  5
171
330
BA
100
AcDbEntity
  8
Sichtbar schmal (ISO)
 62
    18
420
        0
370
     5
100
AcDbSpline
210
0.0
220
0.0
230
1.0
 70
     8
 71
     3
 72
     8
 73
     4
 74
     0
 42
0.0000000001
 43
0.0000000001
 40
0.0
 40
0.0
 40
0.0
 40
0.0
 40
1.0
 40
1.0
 40
1.0
 40
1.0
 10
103.3540074975453
 20
171.4704414897549
 30
0.0
 10
103.3540074975453
 20
171.5970282513085
 30
0.0
 10
103.2513886516793
 20
171.6996470971746
 30
0.0
 10
103.1248018901263
 20
171.6996470971746
 30
0.0
  0
LINE
  5
172
330
BA
100
AcDbEntity
  8
Sichtbar schmal (ISO)
 62
    18
420
        0
370
     5
100
AcDbLine
 10
103.3540074975453
 20
171.4704414897549
 30
0.0
 11
103.3540074975453
 21
171.2756167234485
 31
0.0
  0
SPLINE
  5
173
330
BA
100
AcDbEntity
  8
Sichtbar schmal (ISO)
 62
    18
420
        0
370
     5
100
AcDbSpline
210
0.0
220
0.0
230
1.0
 70
     8
 71
     3
 72
     8
 73
     4
 74
     0
 42
0.0000000001
 43
0.0000000001
 40
0.0
 40
0.0
 40
0.0
 40
0.0
 40
1.0
 40
1.0
 40
1.0
 40
1.0
 10
103.1248018901263
 20
171.0464111160288
 30
0.0
 10
103.2513886516793
 20
171.0464111160288
 30
0.0
 10
103.3540074975453
 20
171.1490299618949
 30
0.0
 10
103.3540074975453
 20
171.2756167234485
 30
0.0
  0
LINE
  5
174
330
BA
100
AcDbEntity
  8
Sichtbar schmal (ISO)
 62
    18
420
        0
370
     5
100
AcDbLine
 10
103.1248018901263
 20
171.0464111160288
 30
0.0
 11
100.6150004888846
 21
171.0464111160288
 31
0.0
  0
LINE
  5
175
330
BA
100
AcDbEntity
  8
Sichtbar schmal (ISO)
 62
    18
420
        0
370
     5
100
AcDbLine
 10
100.6150004888846
 20
171.0464111160288
 30
0.0
 11
100.6150004888846
 21
171.2756167234485
 31
0.0
  0
LINE
  5
176
330
BA
100
AcDbEntity
  8
Sichtbar schmal (ISO)
 62
    18
420
        0
370
     5
100
AcDbLine
 10
100.6150004888846
 20
171.2756167234485
 30
0.0
 11
99.21684628362623
 21
171.2756167234485
 31
0.0
  0
LINE
  5
177
330
BA
100
AcDbEntity
  8
Sichtbar schmal (ISO)
 62
    18
420
        0
370
     5
100
AcDbLine
 10
99.21684628362623
 20
169.9003830789324
 30
0.0
 11
99.21684628362623
 21
169.671177471513
 31
0.0
  0
LINE
  5
178
330
BA
100
AcDbEntity
  8
Sichtbar schmal (ISO)
 62
    18
420
        0
370
     5
100
AcDbLine
 10
99.21684628362623
 20
169.671177471513
 30
0.0
 11
96.70704488238515
 21
169.671177471513
 31
0.0
  0
SPLINE
  5
179
330
BA
100
AcDbEntity
  8
Sichtbar schmal (ISO)
 62
    18
420
        0
370
     5
100
AcDbSpline
210
0.0
220
0.0
230
1.0
 70
     8
 71
     3
 72
     8
 73
     4
 74
     0
 42
0.0000000001
 43
0.0000000001
 40
0.0
 40
0.0
 40
0.0
 40
0.0
 40
1.0
 40
1.0
 40
1.0
 40
1.0
 10
96.47783927496542
 20
169.9003830789324
 30
0.0
 10
96.47783927496542
 20
169.7737963173788
 30
0.0
 10
96.58045812083122
 20
169.671177471513
 30
0.0
 10
96.70704488238515
 20
169.671177471513
 30
0.0
  0
LINE
  5
17A
330
BA
100
AcDbEntity
  8
Sichtbar schmal (ISO)
 62
    18
420
        0
370
     5
100
AcDbLine
 10
96.47783927496542
 20
169.9003830789324
 30
0.0
 11
96.47783927496542
 21
170.0952078452387
 31
0.0
  0
SPLINE
  5
17B
330
BA
100
AcDbEntity
  8
Sichtbar schmal (ISO)
 62
    18
420
        0
370
     5
100
AcDbSpline
210
0.0
220
0.0
230
1.0
 70
     8
 71
     3
 72
     8
 73
     4
 74
     0
 42
0.0000000001
 43
0.0000000001
 40
0.0
 40
0.0
 40
0.0
 40
0.0
 40
1.0
 40
1.0
 40
1.0
 40
1.0
 10
96.70704488238515
 20
170.3244134526578
 30
0.0
 10
96.58045812083122
 20
170.3244134526578
 30
0.0
 10
96.47783927496542
 20
170.2217946067924
 30
0.0
 10
96.47783927496542
 20
170.0952078452387
 30
0.0
  0
LINE
  5
17C
330
BA
100
AcDbEntity
  8
Sichtbar schmal (ISO)
 62
    18
420
        0
370
     5
100
AcDbLine
 10
96.70704488238515
 20
170.3244134526578
 30
0.0
 11
99.22830656399733
 21
170.3244134526578
 31
0.0
  0
LINE
  5
17D
330
BA
100
AcDbEntity
  8
Sichtbar schmal (ISO)
 62
    18
420
        0
370
     5
100
AcDbLine
 10
99.22830656399733
 20
170.3244134526578
 30
0.0
 11
99.22830656399733
 21
170.5536190600776
 31
0.0
  0
LINE
  5
17E
330
BA
100
AcDbEntity
  8
Sichtbar schmal (ISO)
 62
    18
420
        0
370
     5
100
AcDbLine
 10
99.22830656399733
 20
170.5536190600776
 30
0.0
 11
100.6035402085131
 21
170.5536190600776
 31
0.0
  0
LINE
  5
17F
330
BA
100
AcDbEntity
  8
Sichtbar schmal (ISO)
 62
    18
420
        0
370
     5
100
AcDbLine
 10
100.6035402085131
 20
170.5536190600776
 30
0.0
 11
100.6035402085131
 21
170.3244134526578
 31
0.0
  0
LINE
  5
180
330
BA
100
AcDbEntity
  8
Sichtbar schmal (ISO)
 62
    18
420
        0
370
     5
100
AcDbLine
 10
100.6035402085131
 20
170.3244134526578
 30
0.0
 11
103.1248018901263
 21
170.3244134526578
 31
0.0
  0
SPLINE
  5
181
330
BA
100
AcDbEntity
  8
Sichtbar schmal (ISO)
 62
    18
420
        0
370
     5
100
AcDbSpline
210
0.0
220
0.0
230
1.0
 70
     8
 71
     3
 72
     8
 73
     4
 74
     0
 42
0.0000000001
 43
0.0000000001
 40
0.0
 40
0.0
 40
0.0
 40
0.0
 40
1.0
 40
1.0
 40
1.0
 40
1.0
 10
103.3540074975453
 20
170.0952078452387
 30
0.0
 10
103.3540074975453
 20
170.2217946067924
 30
0.0
 10
103.2513886516793
 20
170.3244134526578
 30
0.0
 10
103.1248018901263
 20
170.3244134526578
 30
0.0
  0
LINE
  5
182
330
BA
100
AcDbEntity
  8
Sichtbar schmal (ISO)
 62
    18
420
        0
370
     5
100
AcDbLine
 10
103.3540074975453
 20
170.0952078452387
 30
0.0
 11
103.3540074975453
 21
169.9003830789324
 31
0.0
  0
SPLINE
  5
183
330
BA
100
AcDbEntity
  8
Sichtbar schmal (ISO)
 62
    18
420
        0
370
     5
100
AcDbSpline
210
0.0
220
0.0
230
1.0
 70
     8
 71
     3
 72
     8
 73
     4
 74
     0
 42
0.0000000001
 43
0.0000000001
 40
0.0
 40
0.0
 40
0.0
 40
0.0
 40
1.0
 40
1.0
 40
1.0
 40
1.0
 10
103.1248018901263
 20
169.671177471513
 30
0.0
 10
103.2513886516793
 20
169.671177471513
 30
0.0
 10
103.3540074975453
 20
169.7737963173788
 30
0.0
 10
103.3540074975453
 20
169.9003830789324
 30
0.0
  0
LINE
  5
184
330
BA
100
AcDbEntity
  8
Sichtbar schmal (ISO)
 62
    18
420
        0
370
     5
100
AcDbLine
 10
103.1248018901263
 20
169.671177471513
 30
0.0
 11
100.6150004888846
 21
169.671177471513
 31
0.0
  0
LINE
  5
185
330
BA
100
AcDbEntity
  8
Sichtbar schmal (ISO)
 62
    18
420
        0
370
     5
100
AcDbLine
 10
100.6150004888846
 20
169.671177471513
 30
0.0
 11
100.6150004888846
 21
169.9003830789324
 31
0.0
  0
LINE
  5
186
330
BA
100
AcDbEntity
  8
Sichtbar schmal (ISO)
 62
    18
420
        0
370
     5
100
AcDbLine
 10
100.6150004888846
 20
169.9003830789324
 30
0.0
 11
99.21684628362623
 21
169.9003830789324
 31
0.0
  0
LINE
  5
187
330
BA
100
AcDbEntity
  8
Sichtbar schmal (ISO)
 62
    18
420
        0
370
     5
100
AcDbLine
 10
99.21684628362623
 20
168.5251494344166
 30
0.0
 11
99.21684628362623
 21
168.2959438269969
 31
0.0
  0
LINE
  5
188
330
BA
100
AcDbEntity
  8
Sichtbar schmal (ISO)
 62
    18
420
        0
370
     5
100
AcDbLine
 10
99.21684628362623
 20
168.2959438269969
 30
0.0
 11
96.70704488238515
 21
168.2959438269969
 31
0.0
  0
SPLINE
  5
189
330
BA
100
AcDbEntity
  8
Sichtbar schmal (ISO)
 62
    18
420
        0
370
     5
100
AcDbSpline
210
0.0
220
0.0
230
1.0
 70
     8
 71
     3
 72
     8
 73
     4
 74
     0
 42
0.0000000001
 43
0.0000000001
 40
0.0
 40
0.0
 40
0.0
 40
0.0
 40
1.0
 40
1.0
 40
1.0
 40
1.0
 10
96.47783927496542
 20
168.5251494344166
 30
0.0
 10
96.47783927496542
 20
168.398562672863
 30
0.0
 10
96.58045812083122
 20
168.2959438269969
 30
0.0
 10
96.70704488238515
 20
168.2959438269969
 30
0.0
  0
LINE
  5
18A
330
BA
100
AcDbEntity
  8
Sichtbar schmal (ISO)
 62
    18
420
        0
370
     5
100
AcDbLine
 10
96.47783927496542
 20
168.5251494344166
 30
0.0
 11
96.47783927496542
 21
168.719974200723
 31
0.0
  0
SPLINE
  5
18B
330
BA
100
AcDbEntity
  8
Sichtbar schmal (ISO)
 62
    18
420
        0
370
     5
100
AcDbSpline
210
0.0
220
0.0
230
1.0
 70
     8
 71
     3
 72
     8
 73
     4
 74
     0
 42
0.0000000001
 43
0.0000000001
 40
0.0
 40
0.0
 40
0.0
 40
0.0
 40
1.0
 40
1.0
 40
1.0
 40
1.0
 10
96.70704488238515
 20
168.949179808142
 30
0.0
 10
96.58045812083122
 20
168.949179808142
 30
0.0
 10
96.47783927496542
 20
168.8465609622759
 30
0.0
 10
96.47783927496542
 20
168.719974200723
 30
0.0
  0
LINE
  5
18C
330
BA
100
AcDbEntity
  8
Sichtbar schmal (ISO)
 62
    18
420
        0
370
     5
100
AcDbLine
 10
96.70704488238515
 20
168.949179808142
 30
0.0
 11
99.22830656399733
 21
168.949179808142
 31
0.0
  0
LINE
  5
18D
330
BA
100
AcDbEntity
  8
Sichtbar schmal (ISO)
 62
    18
420
        0
370
     5
100
AcDbLine
 10
99.22830656399733
 20
168.949179808142
 30
0.0
 11
99.22830656399733
 21
169.1783854155618
 31
0.0
  0
LINE
  5
18E
330
BA
100
AcDbEntity
  8
Sichtbar schmal (ISO)
 62
    18
420
        0
370
     5
100
AcDbLine
 10
99.22830656399733
 20
169.1783854155618
 30
0.0
 11
100.6035402085131
 21
169.1783854155618
 31
0.0
  0
LINE
  5
18F
330
BA
100
AcDbEntity
  8
Sichtbar schmal (ISO)
 62
    18
420
        0
370
     5
100
AcDbLine
 10
100.6035402085131
 20
169.1783854155618
 30
0.0
 11
100.6035402085131
 21
168.949179808142
 31
0.0
  0
LINE
  5
190
330
BA
100
AcDbEntity
  8
Sichtbar schmal (ISO)
 62
    18
420
        0
370
     5
100
AcDbLine
 10
100.6035402085131
 20
168.949179808142
 30
0.0
 11
103.1248018901263
 21
168.949179808142
 31
0.0
  0
SPLINE
  5
191
330
BA
100
AcDbEntity
  8
Sichtbar schmal (ISO)
 62
    18
420
        0
370
     5
100
AcDbSpline
210
0.0
220
0.0
230
1.0
 70
     8
 71
     3
 72
     8
 73
     4
 74
     0
 42
0.0000000001
 43
0.0000000001
 40
0.0
 40
0.0
 40
0.0
 40
0.0
 40
1.0
 40
1.0
 40
1.0
 40
1.0
 10
103.3540074975453
 20
168.719974200723
 30
0.0
 10
103.3540074975453
 20
168.8465609622759
 30
0.0
 10
103.2513886516793
 20
168.949179808142
 30
0.0
 10
103.1248018901263
 20
168.949179808142
 30
0.0
  0
LINE
  5
192
330
BA
100
AcDbEntity
  8
Sichtbar schmal (ISO)
 62
    18
420
        0
370
     5
100
AcDbLine
 10
103.3540074975453
 20
168.719974200723
 30
0.0
 11
103.3540074975453
 21
168.5251494344166
 31
0.0
  0
SPLINE
  5
193
330
BA
100
AcDbEntity
  8
Sichtbar schmal (ISO)
 62
    18
420
        0
370
     5
100
AcDbSpline
210
0.0
220
0.0
230
1.0
 70
     8
 71
     3
 72
     8
 73
     4
 74
     0
 42
0.0000000001
 43
0.0000000001
 40
0.0
 40
0.0
 40
0.0
 40
0.0
 40
1.0
 40
1.0
 40
1.0
 40
1.0
 10
103.1248018901263
 20
168.2959438269969
 30
0.0
 10
103.2513886516793
 20
168.2959438269969
 30
0.0
 10
103.3540074975453
 20
168.398562672863
 30
0.0
 10
103.3540074975453
 20
168.5251494344166
 30
0.0
  0
LINE
  5
194
330
BA
100
AcDbEntity
  8
Sichtbar schmal (ISO)
 62
    18
420
        0
370
     5
100
AcDbLine
 10
103.1248018901263
 20
168.2959438269969
 30
0.0
 11
100.6150004888846
 21
168.2959438269969
 31
0.0
  0
LINE
  5
195
330
BA
100
AcDbEntity
  8
Sichtbar schmal (ISO)
 62
    18
420
        0
370
     5
100
AcDbLine
 10
100.6150004888846
 20
168.2959438269969
 30
0.0
 11
100.6150004888846
 21
168.5251494344166
 31
0.0
  0
LINE
  5
196
330
BA
100
AcDbEntity
  8
Sichtbar schmal (ISO)
 62
    18
420
        0
370
     5
100
AcDbLine
 10
100.6150004888846
 20
168.5251494344166
 30
0.0
 11
99.21684628362623
 21
168.5251494344166
 31
0.0
  0
LINE
  5
197
330
BA
100
AcDbEntity
  8
Sichtbar schmal (ISO)
 62
    18
420
        0
370
     5
100
AcDbLine
 10
93.38356357480455
 20
172.9602779379802
 30
0.0
 11
92.695946752546
 21
172.9602779379802
 31
0.0
  0
LINE
  5
198
330
BA
100
AcDbEntity
  8
Sichtbar schmal (ISO)
 62
    18
420
        0
370
     5
100
AcDbLine
 10
89.94547946351408
 20
172.9602779379802
 30
0.0
 11
89.25786264125617
 21
172.9602779379802
 31
0.0
  0
LINE
  5
199
330
BA
100
AcDbEntity
  8
Sichtbar schmal (ISO)
 62
    18
420
        0
370
     5
100
AcDbLine
 10
89.25786264125617
 20
172.5018667231417
 30
0.0
 11
89.94547946351408
 21
172.5018667231417
 31
0.0
  0
LINE
  5
19A
330
BA
100
AcDbEntity
  8
Sichtbar schmal (ISO)
 62
    18
420
        0
370
     5
100
AcDbLine
 10
92.695946752546
 20
172.5018667231417
 30
0.0
 11
93.38356357480455
 21
172.5018667231417
 31
0.0
  0
LINE
  5
19B
330
BA
100
AcDbEntity
  8
Sichtbar schmal (ISO)
 62
    18
420
        0
370
     5
100
AcDbLine
 10
93.38356357480455
 20
172.5018667231417
 30
0.0
 11
93.38356357480455
 21
167.4593433599164
 31
0.0
  0
LINE
  5
19C
330
BA
100
AcDbEntity
  8
Sichtbar schmal (ISO)
 62
    18
420
        0
370
     5
100
AcDbLine
 10
94.30038600448185
 20
167.4593433599164
 30
0.0
 11
94.30038600448185
 21
175.2523340121737
 31
0.0
  0
LINE
  5
19D
330
BA
100
AcDbEntity
  8
Sichtbar schmal (ISO)
 62
    18
420
        0
370
     5
100
AcDbLine
 10
94.30038600448185
 20
175.2523340121737
 30
0.0
 11
95.44641404157889
 21
175.2523340121737
 31
0.0
  0
LINE
  5
19E
330
BA
100
AcDbEntity
  8
Sichtbar schmal (ISO)
 62
    18
420
        0
370
     5
100
AcDbLine
 10
95.44641404157889
 20
167.4593433599164
 30
0.0
 11
95.44641404157889
 21
175.2523340121737
 31
0.0
  0
LINE
  5
19F
330
BA
100
AcDbEntity
  8
Sichtbar schmal (ISO)
 62
    18
420
        0
370
     5
100
AcDbLine
 10
96.36323647125587
 20
167.4593433599164
 30
0.0
 11
96.36323647125587
 21
175.2523340121737
 31
0.0
  0
LINE
  5
1A0
330
BA
100
AcDbEntity
  8
Sichtbar schmal (ISO)
 62
    18
420
        0
370
     5
100
AcDbLine
 10
96.36323647125587
 20
175.2523340121737
 30
0.0
 11
103.3860962825838
 21
175.2523340121743
 31
0.0
  0
LINE
  5
1A1
330
BA
100
AcDbEntity
  8
Sichtbar schmal (ISO)
 62
    18
420
        0
370
     5
100
AcDbLine
 10
93.38356357480455
 20
175.7107452270122
 30
0.0
 11
103.3860962825838
 21
175.7107452270122
 31
0.0
  0
LINE
  5
1A2
330
BA
100
AcDbEntity
  8
Sichtbar schmal (ISO)
 62
    18
420
        0
370
     5
100
AcDbLine
 10
93.38356357480455
 20
175.7107452270122
 30
0.0
 11
93.38356357480455
 21
172.9602779379802
 31
0.0
  0
LINE
  5
1A3
330
BA
100
AcDbEntity
  8
Sichtbar schmal (ISO)
 62
    18
420
        0
370
     5
100
AcDbLine
 10
89.25786264125617
 20
175.7107452270122
 30
0.0
 11
89.25786264125617
 21
172.9602779379802
 31
0.0
  0
LINE
  5
1A4
330
BA
100
AcDbEntity
  8
Sichtbar schmal (ISO)
 62
    18
420
        0
370
     5
100
AcDbLine
 10
89.25786264125617
 20
175.7107452270122
 30
0.0
 11
79.25532993347717
 21
175.7107452270122
 31
0.0
  0
LINE
  5
1A5
330
BA
100
AcDbEntity
  8
Sichtbar schmal (ISO)
 62
    18
420
        0
370
     5
100
AcDbLine
 10
86.27818974480517
 20
175.2523340121737
 30
0.0
 11
79.25532993347717
 21
175.2523340121737
 31
0.0
  0
LINE
  5
1A6
330
BA
100
AcDbEntity
  8
Sichtbar schmal (ISO)
 62
    18
420
        0
370
     5
100
AcDbLine
 10
86.27818974480517
 20
167.4593433599164
 30
0.0
 11
86.27818974480517
 21
175.2523340121737
 31
0.0
  0
LINE
  5
1A7
330
BA
100
AcDbEntity
  8
Sichtbar schmal (ISO)
 62
    18
420
        0
370
     5
100
AcDbLine
 10
87.19501217448247
 20
167.4593433599164
 30
0.0
 11
87.19501217448247
 21
175.2523340121737
 31
0.0
  0
LINE
  5
1A8
330
BA
100
AcDbEntity
  8
Sichtbar schmal (ISO)
 62
    18
420
        0
370
     5
100
AcDbLine
 10
88.34104021157887
 20
175.2523340121737
 30
0.0
 11
87.19501217448247
 21
175.2523340121737
 31
0.0
  0
LINE
  5
1A9
330
BA
100
AcDbEntity
  8
Sichtbar schmal (ISO)
 62
    18
420
        0
370
     5
100
AcDbLine
 10
88.34104021157887
 20
167.4593433599164
 30
0.0
 11
88.34104021157887
 21
175.2523340121737
 31
0.0
  0
LINE
  5
1AA
330
BA
100
AcDbEntity
  8
Sichtbar schmal (ISO)
 62
    18
420
        0
370
     5
100
AcDbLine
 10
89.25786264125617
 20
172.5018667231417
 30
0.0
 11
89.25786264125617
 21
167.4593433599164
 31
0.0
  0
LINE
  5
1AB
330
BA
100
AcDbEntity
  8
Sichtbar schmal (ISO)
 62
    18
420
        0
370
     5
100
AcDbLine
 10
78.91152152234758
 20
175.7107452270122
 30
0.0
 11
79.25532993347717
 21
175.7107452270122
 31
0.0
  0
LINE
  5
1AC
330
BA
100
AcDbEntity
  8
Sichtbar schmal (ISO)
 62
    18
420
        0
370
     5
100
AcDbLine
 10
82.84010563351502
 20
176.8567732641092
 30
0.0
 11
82.84010563351502
 21
175.7107452270122
 31
0.0
  0
LINE
  5
1AD
330
BA
100
AcDbEntity
  8
Sichtbar schmal (ISO)
 62
    18
420
        0
370
     5
100
AcDbLine
 10
81.46487198899889
 20
176.8567732641092
 30
0.0
 11
81.46487198899889
 21
175.7107452270122
 31
0.0
  0
LINE
  5
1AE
330
BA
100
AcDbEntity
  8
Sichtbar schmal (ISO)
 62
    18
420
        0
370
     5
100
AcDbLine
 10
79.25532993347717
 20
175.2523340121737
 30
0.0
 11
78.91152152234758
 21
175.2523340121737
 31
0.0
  0
LINE
  5
1AF
330
BA
100
AcDbEntity
  8
Sichtbar schmal (ISO)
 62
    18
420
        0
370
     5
100
AcDbLine
 10
78.91152152234758
 20
175.7107452270122
 30
0.0
 11
78.91152152234758
 21
175.2523340121737
 31
0.0
  0
LINE
  5
1B0
330
BA
100
AcDbEntity
  8
Sichtbar schmal (ISO)
 62
    18
420
        0
370
     5
100
AcDbLine
 10
73.44267572932221
 20
176.7421704603997
 30
0.0
 11
73.44267572932221
 21
167.4593433599164
 31
0.0
  0
LINE
  5
1B1
330
BA
100
AcDbEntity
  8
Sichtbar schmal (ISO)
 62
    18
420
        0
370
     5
100
AcDbLine
 10
73.44267572932221
 20
176.8567732641092
 30
0.0
 11
73.44267572932221
 21
176.7421704603997
 31
0.0
  0
LINE
  5
1B2
330
BA
100
AcDbEntity
  8
Sichtbar schmal (ISO)
 62
    18
420
        0
370
     5
100
AcDbLine
 10
72.86966171077385
 20
176.8567732641092
 30
0.0
 11
72.86966171077385
 21
167.4593433599164
 31
0.0
  0
LINE
  5
1B3
330
BA
100
AcDbEntity
  8
Sichtbar schmal (ISO)
 62
    18
420
        0
370
     5
100
AcDbLine
 10
109.1987504867382
 20
176.8567732641092
 30
0.0
 11
109.1987504867382
 21
176.7421704603997
 31
0.0
  0
LINE
  5
1B4
330
BA
100
AcDbEntity
  8
Sichtbar schmal (ISO)
 62
    18
420
        0
370
     5
100
AcDbLine
 10
109.1987504867382
 20
176.7421704603997
 30
0.0
 11
109.1987504867382
 21
167.4593433599164
 31
0.0
  0
LINE
  5
1B5
330
BA
100
AcDbEntity
  8
Sichtbar schmal (ISO)
 62
    18
420
        0
370
     5
100
AcDbLine
 10
109.7717645052868
 20
174.5647171899161
 30
0.0
 11
109.7717645052868
 21
167.4593433599164
 31
0.0
  0
LINE
  5
1B6
330
BA
100
AcDbEntity
  8
Sichtbar schmal (ISO)
 62
    18
420
        0
370
     5
100
AcDbLine
 10
109.7717645052868
 20
176.8567732641092
 30
0.0
 11
109.7717645052868
 21
174.5647171899161
 31
0.0
  0
LINE
  5
1B7
330
BA
100
AcDbEntity
  8
Sichtbar schmal (ISO)
 62
    18
420
        0
370
     5
100
AcDbLine
 10
82.03788600754725
 20
174.5647171899161
 30
0.0
 11
82.03788600754725
 21
174.6793199936253
 31
0.0
  0
LINE
  5
1B8
330
BA
100
AcDbEntity
  8
Sichtbar schmal (ISO)
 62
    18
420
        0
370
     5
100
AcDbLine
 10
82.03788600754725
 20
174.6793199936253
 30
0.0
 11
82.37113702535902
 21
174.6793199936253
 31
0.0
  0
LINE
  5
1B9
330
BA
100
AcDbEntity
  8
Sichtbar schmal (ISO)
 62
    18
420
        0
370
     5
100
AcDbLine
 10
100.6035402085141
 20
174.6793199936253
 30
0.0
 11
100.2702891907023
 21
174.6793199936253
 31
0.0
  0
LINE
  5
1BA
330
BA
100
AcDbEntity
  8
Sichtbar schmal (ISO)
 62
    18
420
        0
370
     5
100
AcDbLine
 10
100.6035402085131
 20
174.5647171899161
 30
0.0
 11
100.6035402085131
 21
174.6793199936253
 31
0.0
  0
LINE
  5
1BB
330
BA
100
AcDbEntity
  8
Sichtbar schmal (ISO)
 62
    18
420
        0
370
     5
100
AcDbLine
 10
103.3860962825838
 20
175.2523340121743
 30
0.0
 11
103.7299046937128
 21
175.2523340121743
 31
0.0
  0
LINE
  5
1BC
330
BA
100
AcDbEntity
  8
Sichtbar schmal (ISO)
 62
    18
420
        0
370
     5
100
AcDbLine
 10
103.7299046937128
 20
175.7107452270122
 30
0.0
 11
103.7299046937128
 21
175.2523340121743
 31
0.0
  0
LINE
  5
1BD
330
BA
100
AcDbEntity
  8
Sichtbar schmal (ISO)
 62
    18
420
        0
370
     5
100
AcDbLine
 10
103.7299046937128
 20
175.7107452270122
 30
0.0
 11
103.3860962825838
 21
175.7107452270122
 31
0.0
  0
LINE
  5
1BE
330
BA
100
AcDbEntity
  8
Sichtbar schmal (ISO)
 62
    18
420
        0
370
     5
100
AcDbLine
 10
99.8013205825457
 20
176.8567732641092
 30
0.0
 11
99.8013205825457
 21
175.7107452270122
 31
0.0
  0
LINE
  5
1BF
330
BA
100
AcDbEntity
  8
Sichtbar schmal (ISO)
 62
    18
420
        0
370
     5
100
AcDbLine
 10
101.1765542270618
 20
176.8567732641092
 30
0.0
 11
101.1765542270618
 21
175.7107452270122
 31
0.0
  0
LINE
  5
1C0
330
BA
100
AcDbEntity
  8
Sichtbar schmal (ISO)
 62
    18
420
        0
370
     5
100
AcDbLine
 10
78.48519909254758
 20
175.2523340121737
 30
0.0
 11
77.86634395251539
 21
175.2523340121737
 31
0.0
  0
LINE
  5
1C1
330
BA
100
AcDbEntity
  8
Sichtbar schmal (ISO)
 62
    18
420
        0
370
     5
100
AcDbLine
 10
104.1562271235131
 20
175.2523340121743
 30
0.0
 11
104.7750822635456
 21
175.2523340121743
 31
0.0
  0
LINE
  5
1C2
330
BA
100
AcDbEntity
  8
Sichtbar schmal (ISO)
 62
    18
420
        0
370
     5
100
AcDbLine
 10
100.3259140767067
 20
175.2523340155772
 30
0.0
 11
100.3259816965146
 21
175.2522333762199
 31
0.0
  0
LINE
  5
1C3
330
BA
100
AcDbEntity
  8
Sichtbar schmal (ISO)
 62
    18
420
        0
370
     5
100
AcDbLine
 10
81.98946548315989
 20
175.2523340155772
 30
0.0
 11
81.98953310296781
 21
175.2522333762199
 31
0.0
  0
LINE
  5
1C4
330
BA
100
AcDbEntity
  8
Sichtbar schmal (ISO)
 62
    18
420
        0
370
     5
100
AcDbLine
 10
110.7720088440778
 20
174.5303363488034
 30
0.0
 11
109.7717645052868
 21
174.5303363488034
 31
0.0
  0
LINE
  5
1C5
330
BA
100
AcDbEntity
  8
Sichtbar schmal (ISO)
 62
    18
420
        0
370
     5
100
AcDbLine
 10
110.7720088440778
 20
175.9743316755452
 30
0.0
 11
110.7720088440778
 21
174.5303363488034
 31
0.0
  0
LINE
  5
1C6
330
BA
100
AcDbEntity
  8
Sichtbar schmal (ISO)
 62
    18
420
        0
370
     5
100
AcDbLine
 10
109.7717645052868
 20
175.9743316755452
 30
0.0
 11
110.7720088440778
 21
175.9743316755452
 31
0.0
  0
ELLIPSE
  5
1C7
330
BA
100
AcDbEntity
  8
Sichtbar schmal (ISO)
 62
    18
420
        0
370
     5
100
AcDbEllipse
 10
110.2501343015573
 20
175.2523340121739
 30
0.0
 11
0.0
 21
0.2005549064923422
 31
0.0
210
0.0
220
0.0
230
1.0
 40
0.7071067811837524
 41
0.0
 42
6.283185307179586
  0
LINE
  5
1C8
330
BA
100
AcDbEntity
  8
Sichtbar schmal (ISO)
 62
    18
420
        0
370
     5
100
AcDbLine
 10
110.7720088440778
 20
174.5303363488034
 30
0.0
 11
110.8951842019395
 21
174.5303363488034
 31
0.0
  0
LINE
  5
1C9
330
BA
100
AcDbEntity
  8
Sichtbar schmal (ISO)
 62
    18
420
        0
370
     5
100
AcDbLine
 10
110.8951842019395
 20
175.9743316755452
 30
0.0
 11
110.7720088440778
 21
175.9743316755452
 31
0.0
  0
LINE
  5
1CA
330
BA
100
AcDbEntity
  8
Sichtbar schmal (ISO)
 62
    18
420
        0
370
     5
100
AcDbLine
 10
110.8951842019395
 20
175.9743316755452
 30
0.0
 11
111.0138297548292
 21
175.7451260681255
 31
0.0
  0
LINE
  5
1CB
330
BA
100
AcDbEntity
  8
Sichtbar schmal (ISO)
 62
    18
420
        0
370
     5
100
AcDbLine
 10
111.0138297548292
 20
175.7451260681255
 30
0.0
 11
111.0138297548292
 21
174.7595419562224
 31
0.0
  0
LINE
  5
1CC
330
BA
100
AcDbEntity
  8
Sichtbar schmal (ISO)
 62
    18
420
        0
370
     5
100
AcDbLine
 10
111.0138297548292
 20
174.7595419562224
 30
0.0
 11
110.8951842019395
 21
174.5303363488034
 31
0.0
  0
ENDBLK
  5
BD
330
BA
100
AcDbEntity
  8
0
100
AcDbBlockEnd
  0
BLOCK
  5
1CF
330
1CD
100
AcDbEntity
  8
0
100
AcDbBlockBegin
  2
Block_16
 70
     0
 10
0.0
 20
0.0
 30
0.0
  3
Block_16
  1

  0
SPLINE
  5
1D1
330
1CD
100
AcDbEntity
  8
Sichtbar schmal (ISO)
 62
    18
420
        0
370
     5
100
AcDbSpline
210
0.0
220
0.0
230
1.0
 70
     8
 71
     3
 72
    17
 73
    13
 74
     0
 42
0.0000000001
 43
0.0000000001
 40
0.0
 40
0.0
 40
0.0
 40
0.0
 40
1.0
 40
1.0
 40
1.0
 40
2.0
 40
2.0
 40
2.0
 40
3.0
 40
3.0
 40
3.0
 40
4.0
 40
4.0
 40
4.0
 40
4.0
 10
66.93203680277083
 20
139.8970837236322
 30
0.0
 10
65.51633593733027
 20
126.4275897316775
 30
0.0
 10
75.28786594386801
 20
114.3607551116058
 30
0.0
 10
88.75735993582233
 20
112.9450542461656
 30
0.0
 10
102.226853927776
 20
111.5293533807253
 30
0.0
 10
114.2936885478477
 20
121.3008833872624
 30
0.0
 10
115.7093894132886
 20
134.7703773792171
 30
0.0
 10
117.1250902787288
 20
148.2398713711708
 30
0.0
 10
107.3535602721917
 20
160.3067059912425
 30
0.0
 10
93.88406628023711
 20
161.7224068566834
 30
0.0
 10
80.41540343889758
 20
163.1380203646742
 30
0.0
 10
68.34904945556042
 20
153.3677512818489
 30
0.0
 10
66.93226059039925
 20
139.8992120273773
 30
0.0
  0
SPLINE
  5
1D2
330
1CD
100
AcDbEntity
  8
Sichtbar schmal (ISO)
 62
    18
420
        0
370
     5
100
AcDbSpline
210
0.0
220
0.0
230
1.0
 70
     8
 71
     3
 72
     8
 73
     4
 74
     0
 42
0.0000000001
 43
0.0000000001
 40
0.0
 40
0.0
 40
0.0
 40
0.0
 40
1.0
 40
1.0
 40
1.0
 40
1.0
 10
67.94364138171363
 20
137.354130900158
 30
0.0
 10
67.94362951327108
 20
137.3405306702581
 30
0.0
 10
67.94362951327108
 20
137.3269304325924
 30
0.0
 10
67.94364138171363
 20
137.3133302026938
 30
0.0
  0
SPLINE
  5
1D3
330
1CD
100
AcDbEntity
  8
Sichtbar schmal (ISO)
 62
    18
420
        0
370
     5
100
AcDbSpline
210
0.0
220
0.0
230
1.0
 70
     8
 71
     3
 72
    17
 73
    13
 74
     0
 42
0.0000000001
 43
0.0000000001
 40
0.0
 40
0.0
 40
0.0
 40
0.0
 40
1.0
 40
1.0
 40
1.0
 40
2.0
 40
2.0
 40
2.0
 40
3.0
 40
3.0
 40
3.0
 40
4.0
 40
4.0
 40
4.0
 40
4.0
 10
67.48526742629566
 20
137.3129301958552
 30
0.0
 10
67.49675514546904
 20
124.1489770404132
 30
0.0
 10
78.17756030815892
 20
113.4867971505196
 30
0.0
 10
91.34151346360154
 20
113.4982848696923
 30
0.0
 10
104.5054666190428
 20
113.5097725888663
 30
0.0
 10
115.1676465089365
 20
124.1905777515559
 30
0.0
 10
115.1561587897637
 20
137.3545309069979
 30
0.0
 10
115.1446710705904
 20
150.5184840624395
 30
0.0
 10
104.4638659079002
 20
161.1806639523338
 30
0.0
 10
91.29991275245759
 20
161.1691762331608
 30
0.0
 10
78.15220274647463
 20
161.1577026888124
 30
0.0
 10
67.49674097064015
 20
150.5022409129754
 30
0.0
 10
67.48526742629566
 20
137.3545309069915
 30
0.0
  0
LINE
  5
1D4
330
1CD
100
AcDbEntity
  8
Sichtbar schmal (ISO)
 62
    18
420
        0
370
     5
100
AcDbLine
 10
67.48526742629566
 20
137.3129301958526
 30
0.0
 11
67.94364138171363
 21
137.31333020269
 31
0.0
  0
LINE
  5
1D5
330
1CD
100
AcDbEntity
  8
Sichtbar schmal (ISO)
 62
    18
420
        0
370
     5
100
AcDbLine
 10
67.48526742629149
 20
137.3545309069953
 30
0.0
 11
67.94364138170337
 21
137.354130900158
 31
0.0
  0
SPLINE
  5
1D6
330
1CD
100
AcDbEntity
  8
Sichtbar schmal (ISO)
 62
    18
420
        0
370
     5
100
AcDbSpline
210
0.0
220
0.0
230
1.0
 70
     8
 71
     3
 72
    17
 73
    13
 74
     0
 42
0.0000000001
 43
0.0000000001
 40
0.0
 40
0.0
 40
0.0
 40
0.0
 40
1.0
 40
1.0
 40
1.0
 40
2.0
 40
2.0
 40
2.0
 40
3.0
 40
3.0
 40
3.0
 40
4.0
 40
4.0
 40
4.0
 40
4.0
 10
67.94364138171363
 20
137.3133302026938
 30
0.0
 10
67.95490818320908
 20
124.4025299925493
 30
0.0
 10
78.43031324661524
 20
113.9453920236142
 30
0.0
 10
91.34111345676036
 20
113.9566588251087
 30
0.0
 10
104.2519136669054
 20
113.9679256266045
 30
0.0
 10
114.7090516358406
 20
124.4433306900109
 30
0.0
 10
114.6977848343455
 20
137.3541309001554
 30
0.0
 10
114.686518032851
 20
150.2649311103002
 30
0.0
 10
104.2111129694438
 20
160.722069079236
 30
0.0
 10
91.30031275929876
 20
160.7108022777409
 30
0.0
 10
78.40544333035345
 20
160.6995493784786
 30
0.0
 10
67.95489428097619
 20
150.2490003291007
 30
0.0
 10
67.94364138171363
 20
137.3541309001554
 30
0.0
  0
LINE
  5
1D7
330
1CD
100
AcDbEntity
  8
Sichtbar schmal (ISO)
 62
    18
420
        0
370
     5
100
AcDbLine
 10
115.1561678656316
 20
137.2191370189356
 30
0.0
 11
115.1561678656316
 21
137.4483240839136
 31
0.0
  0
LINE
  5
1D8
330
1CD
100
AcDbEntity
  8
Sichtbar schmal (ISO)
 62
    18
420
        0
370
     5
100
AcDbLine
 10
115.1558923988172
 20
137.4483240839136
 30
0.0
 11
115.1561678656316
 21
137.4483240839136
 31
0.0
  0
LINE
  5
1D9
330
1CD
100
AcDbEntity
  8
Sichtbar schmal (ISO)
 62
    18
420
        0
370
     5
100
AcDbLine
 10
115.1558923988172
 20
137.2191370189356
 30
0.0
 11
115.1561678656316
 21
137.2191370189356
 31
0.0
  0
LINE
  5
1DA
330
1CD
100
AcDbEntity
  8
Sichtbar schmal (ISO)
 62
    18
420
        0
370
     5
100
AcDbLine
 10
79.50236437288032
 20
116.6345630156011
 30
0.0
 11
79.50222663947314
 21
116.6343244543423
 31
0.0
  0
LINE
  5
1DB
330
1CD
100
AcDbEntity
  8
Sichtbar schmal (ISO)
 62
    18
420
        0
370
     5
100
AcDbLine
 10
79.30388255239114
 20
116.7491565480901
 30
0.0
 11
79.30374481898461
 21
116.7489179868313
 31
0.0
  0
LINE
  5
1DC
330
1CD
100
AcDbEntity
  8
Sichtbar schmal (ISO)
 62
    18
420
        0
370
     5
100
AcDbLine
 10
79.30388255239114
 20
157.9183045547588
 30
0.0
 11
79.30374481898461
 21
157.9185431160176
 31
0.0
  0
LINE
  5
1DD
330
1CD
100
AcDbEntity
  8
Sichtbar schmal (ISO)
 62
    18
420
        0
370
     5
100
AcDbLine
 10
79.50236437288032
 20
158.0328980872475
 30
0.0
 11
79.50222663947314
 21
158.033136648506
 31
0.0
  0
LINE
  5
1DE
330
1CD
100
AcDbEntity
  8
Sichtbar schmal (ISO)
 62
    18
420
        0
370
     5
100
AcDbLine
 10
114.4436322306702
 20
140.7715365260788
 30
0.0
 11
114.4227692577055
 21
140.7715365260788
 31
0.0
  0
LINE
  5
1DF
330
1CD
100
AcDbEntity
  8
Sichtbar schmal (ISO)
 62
    18
420
        0
370
     5
100
AcDbLine
 10
114.4227692577055
 20
140.7715365260788
 30
0.0
 11
114.4227692577055
 21
133.8959245767704
 31
0.0
  0
LINE
  5
1E0
330
1CD
100
AcDbEntity
  8
Sichtbar schmal (ISO)
 62
    18
420
        0
370
     5
100
AcDbLine
 10
114.4436322306702
 20
133.8959245767704
 30
0.0
 11
114.4227692577055
 21
133.8959245767704
 31
0.0
  0
LINE
  5
1E1
330
1CD
100
AcDbEntity
  8
Sichtbar schmal (ISO)
 62
    18
420
        0
370
     5
100
AcDbLine
 10
82.73648085404198
 20
115.589792194238
 30
0.0
 11
82.74691234052431
 21
115.6078600588235
 31
0.0
  0
LINE
  5
1E2
330
1CD
100
AcDbEntity
  8
Sichtbar schmal (ISO)
 62
    18
420
        0
370
     5
100
AcDbLine
 10
82.74691234052431
 20
115.6078600588235
 30
0.0
 11
76.79245772585947
 21
119.0456660334777
 31
0.0
  0
LINE
  5
1E3
330
1CD
100
AcDbEntity
  8
Sichtbar schmal (ISO)
 62
    18
420
        0
370
     5
100
AcDbLine
 10
76.78202623937714
 20
119.0275981688922
 30
0.0
 11
76.79245772585947
 21
119.0456660334777
 31
0.0
  0
LINE
  5
1E4
330
1CD
100
AcDbEntity
  8
Sichtbar schmal (ISO)
 62
    18
420
        0
370
     5
100
AcDbLine
 10
76.78202623937714
 20
155.6398629339574
 30
0.0
 11
76.79245772585947
 21
155.6217950693709
 31
0.0
  0
LINE
  5
1E5
330
1CD
100
AcDbEntity
  8
Sichtbar schmal (ISO)
 62
    18
420
        0
370
     5
100
AcDbLine
 10
76.79245772585947
 20
155.6217950693709
 30
0.0
 11
82.74691234052431
 21
159.0596010440251
 31
0.0
  0
LINE
  5
1E6
330
1CD
100
AcDbEntity
  8
Sichtbar schmal (ISO)
 62
    18
420
        0
370
     5
100
AcDbLine
 10
82.73648085404198
 20
159.0776689086119
 30
0.0
 11
82.74691234052431
 21
159.0596010440251
 31
0.0
  0
SPLINE
  5
1E7
330
1CD
100
AcDbEntity
  8
Sichtbar schmal (ISO)
 62
    18
420
        0
370
     5
100
AcDbSpline
210
0.0
220
0.0
230
1.0
 70
     8
 71
     3
 72
     8
 73
     4
 74
     0
 42
0.0000000001
 43
0.0000000001
 40
0.0
 40
0.0
 40
0.0
 40
0.0
 40
1.0
 40
1.0
 40
1.0
 40
1.0
 10
80.21724164663742
 20
143.7708343735002
 30
0.0
 10
80.2162288921666
 20
143.7690874558377
 30
0.0
 10
80.21545144309845
 20
143.7672143580529
 30
0.0
 10
80.21492949108813
 20
143.7652637276335
 30
0.0
  0
CIRCLE
  5
1E8
330
1CD
100
AcDbEntity
  8
Sichtbar schmal (ISO)
 62
    18
420
        0
370
     5
100
AcDbCircle
 10
91.32071310802972
 20
137.3337305514245
 30
0.0
 40
13.17825623617421
  0
LINE
  5
1E9
330
1CD
100
AcDbEntity
  8
Sichtbar schmal (ISO)
 62
    18
420
        0
370
     5
100
AcDbLine
 10
80.21724164663742
 20
143.7708343735002
 30
0.0
 11
80.21792761520023
 21
143.7704380205588
 31
0.0
  0
LINE
  5
1EA
330
1CD
100
AcDbEntity
  8
Sichtbar schmal (ISO)
 62
    18
420
        0
370
     5
100
AcDbLine
 10
80.2010402219666
 20
143.7428068512576
 30
0.0
 11
80.20020530533564
 21
143.7408245719606
 31
0.0
  0
CIRCLE
  5
1EB
330
1CD
100
AcDbEntity
  8
Sichtbar schmal (ISO)
 62
    18
420
        0
370
     5
100
AcDbCircle
 10
91.32071310802947
 20
137.3337305514245
 30
0.0
 40
12.78143038820971
  0
SPLINE
  5
1EC
330
1CD
100
AcDbEntity
  8
Sichtbar schmal (ISO)
 62
    18
420
        0
370
     5
100
AcDbSpline
210
0.0
220
0.0
230
1.0
 70
     8
 71
     3
 72
     8
 73
     4
 74
     0
 42
0.0000000001
 43
0.0000000001
 40
0.0
 40
0.0
 40
0.0
 40
0.0
 40
1.0
 40
1.0
 40
1.0
 40
1.0
 10
88.54764433803751
 20
137.0244633038464
 30
0.0
 10
88.54765759601388
 20
136.9866181056793
 30
0.0
 10
88.58081766110396
 20
136.9561616633429
 30
0.0
 10
88.62200360991561
 20
136.9561667287354
 30
0.0
  0
LINE
  5
1ED
330
1CD
100
AcDbEntity
  8
Sichtbar schmal (ISO)
 62
    18
420
        0
370
     5
100
AcDbLine
 10
88.54764433803751
 20
137.0244633037848
 30
0.0
 11
88.54764433107636
 21
137.642997798963
 31
0.0
  0
SPLINE
  5
1EE
330
1CD
100
AcDbEntity
  8
Sichtbar schmal (ISO)
 62
    18
420
        0
370
     5
100
AcDbSpline
210
0.0
220
0.0
230
1.0
 70
     8
 71
     3
 72
     8
 73
     4
 74
     0
 42
0.0000000001
 43
0.0000000001
 40
0.0
 40
0.0
 40
0.0
 40
0.0
 40
1.0
 40
1.0
 40
1.0
 40
1.0
 10
88.62200356812591
 20
137.7112943741138
 30
0.0
 10
88.58082094530617
 20
137.7113024117652
 30
0.0
 10
88.54765250918859
 20
137.6808382666211
 30
0.0
 10
88.54764433107636
 20
137.6429977989515
 30
0.0
  0
LINE
  5
1EF
330
1CD
100
AcDbEntity
  8
Sichtbar schmal (ISO)
 62
    18
420
        0
370
     5
100
AcDbLine
 10
88.62200356812591
 20
137.7112943741138
 30
0.0
 11
94.01942260614383
 21
137.7112943741138
 31
0.0
  0
SPLINE
  5
1F0
330
1CD
100
AcDbEntity
  8
Sichtbar schmal (ISO)
 62
    18
420
        0
370
     5
100
AcDbSpline
210
0.0
220
0.0
230
1.0
 70
     8
 71
     3
 72
     8
 73
     4
 74
     0
 42
0.0000000001
 43
0.0000000001
 40
0.0
 40
0.0
 40
0.0
 40
0.0
 40
1.0
 40
1.0
 40
1.0
 40
1.0
 10
94.09378187802161
 20
137.6429977990028
 30
0.0
 10
94.09376862004524
 20
137.6808429971686
 30
0.0
 10
94.06060855495516
 20
137.7112994395051
 30
0.0
 10
94.01942260614383
 20
137.7112943741138
 30
0.0
  0
LINE
  5
1F1
330
1CD
100
AcDbEntity
  8
Sichtbar schmal (ISO)
 62
    18
420
        0
370
     5
100
AcDbLine
 10
94.09378187802161
 20
137.6429977990644
 30
0.0
 11
94.09378188498308
 21
137.0244633038862
 31
0.0
  0
SPLINE
  5
1F2
330
1CD
100
AcDbEntity
  8
Sichtbar schmal (ISO)
 62
    18
420
        0
370
     5
100
AcDbSpline
210
0.0
220
0.0
230
1.0
 70
     8
 71
     3
 72
     8
 73
     4
 74
     0
 42
0.0000000001
 43
0.0000000001
 40
0.0
 40
0.0
 40
0.0
 40
0.0
 40
1.0
 40
1.0
 40
1.0
 40
1.0
 10
94.01942264793353
 20
136.9561667287354
 30
0.0
 10
94.06060527075037
 20
136.9561586910802
 30
0.0
 10
94.09377370687149
 20
136.9866228362282
 30
0.0
 10
94.09378188498308
 20
137.0244633038978
 30
0.0
  0
LINE
  5
1F3
330
1CD
100
AcDbEntity
  8
Sichtbar schmal (ISO)
 62
    18
420
        0
370
     5
100
AcDbLine
 10
94.01942264793353
 20
136.9561667287354
 30
0.0
 11
88.62200360991561
 21
136.9561667287354
 31
0.0
  0
ENDBLK
  5
1D0
330
1CD
100
AcDbEntity
  8
0
100
AcDbBlockEnd
  0
BLOCK
  5
1FB
330
1F9
100
AcDbEntity
  8
0
100
AcDbBlockBegin
  2
Block_17
 70
     0
 10
0.0
 20
0.0
 30
0.0
  3
Block_17
  1

  0
INSERT
  5
1FE
330
1F9
100
AcDbEntity
  8
Sichtbar schmal (ISO)
100
AcDbBlockReference
  2
Block_18
 10
0.0
 20
0.0
 30
0.0
  0
ENDBLK
  5
1FC
330
1F9
100
AcDbEntity
  8
0
100
AcDbBlockEnd
  0
BLOCK
  5
1FF
330
1FD
100
AcDbEntity
  8
0
100
AcDbBlockBegin
  2
Block_18
 70
     0
 10
0.0
 20
0.0
 30
0.0
  3
Block_18
  1

  0
LINE
  5
201
330
1FD
100
AcDbEntity
  8
Sichtbar schmal (ISO)
 62
    18
420
        0
370
     5
100
AcDbLine
 10
125.6640565346105
 20
183.1048871748184
 30
0.0
 11
125.6643041508484
 21
180.2560085269846
 31
0.0
  0
INSERT
  5
203
330
1FD
100
AcDbEntity
  8
Sichtbar schmal (ISO)
100
AcDbBlockReference
  2
Block_19
 10
0.0
 20
0.0
 30
0.0
  0
INSERT
  5
209
330
1FD
100
AcDbEntity
  8
Sichtbar schmal (ISO)
100
AcDbBlockReference
  2
Block_20
 10
0.0
 20
0.0
 30
0.0
  0
ENDBLK
  5
200
330
1FD
100
AcDbEntity
  8
0
100
AcDbBlockEnd
  0
BLOCK
  5
204
330
202
100
AcDbEntity
  8
0
100
AcDbBlockBegin
  2
Block_19
 70
     0
 10
0.0
 20
0.0
 30
0.0
  3
Block_19
  1

  0
LWPOLYLINE
  5
206
330
202
100
AcDbEntity
  8
Sichtbar schmal (ISO)
100
AcDbPolyline
 90
        3
 70
     1
 43
0.0
 10
125.4428060429937
 20
182.4724107074201
 10
125.6632813881263
 20
184.153617304222
 10
125.8854254513845
 20
182.4724537711136
  0
HATCH
  5
207
330
202
100
AcDbEntity
  8
Sichtbar schmal (ISO)
 62
    18
420
        0
440
 33554687
100
AcDbHatch
 10
0.0
 20
0.0
 30
0.0
210
0.0
220
0.0
230
1.0
  2
SOLID
 70
     1
 71
     1
 91
        1
 92
        1
 93
        3
 72
     1
 10
125.4428060429937
 20
182.4724107074201
 11
125.6632813881263
 21
184.153617304222
 72
     1
 10
125.6632813881263
 20
184.153617304222
 11
125.8854254513845
 21
182.4724537711136
 72
     1
 10
125.8854254513845
 20
182.4724537711136
 11
125.4428060429937
 21
182.4724107074201
 97
        1
330
206
 75
     2
 76
     1
 98
        1
 10
0.0
 20
0.0
450
        0
451
        0
460
0.0
461
0.0
452
        0
462
0.0
453
        0
470

  0
ENDBLK
  5
205
330
202
100
AcDbEntity
  8
0
100
AcDbBlockEnd
  0
BLOCK
  5
20A
330
208
100
AcDbEntity
  8
0
100
AcDbBlockBegin
  2
Block_20
 70
     0
 10
0.0
 20
0.0
 30
0.0
  3
Block_20
  1

  0
LWPOLYLINE
  5
20C
330
208
100
AcDbEntity
  8
Sichtbar schmal (ISO)
100
AcDbPolyline
 90
        3
 70
     1
 43
0.0
 10
125.4429352340744
 20
180.8884419306894
 10
125.6637012591385
 20
179.2072891635044
 10
125.8855546424652
 20
180.8884849943829
  0
HATCH
  5
20D
330
208
100
AcDbEntity
  8
Sichtbar schmal (ISO)
 62
    18
420
        0
440
 33554687
100
AcDbHatch
 10
0.0
 20
0.0
 30
0.0
210
0.0
220
0.0
230
1.0
  2
SOLID
 70
     1
 71
     1
 91
        1
 92
        1
 93
        3
 72
     1
 10
125.4429352340744
 20
180.8884419306894
 11
125.6637012591385
 21
179.2072891635044
 72
     1
 10
125.6637012591385
 20
179.2072891635044
 11
125.8855546424652
 21
180.8884849943829
 72
     1
 10
125.8855546424652
 20
180.8884849943829
 11
125.4429352340744
 21
180.8884419306894
 97
        1
330
20C
 75
     2
 76
     1
 98
        1
 10
0.0
 20
0.0
450
        0
451
        0
460
0.0
461
0.0
452
        0
462
0.0
453
        0
470

  0
ENDBLK
  5
20B
330
208
100
AcDbEntity
  8
0
100
AcDbBlockEnd
  0
BLOCK
  5
211
330
20F
100
AcDbEntity
  8
0
100
AcDbBlockBegin
  2
Block_21
 70
     0
 10
0.0
 20
0.0
 30
0.0
  3
Block_21
  1

  0
INSERT
  5
214
330
20F
100
AcDbEntity
  8
Sichtbar schmal (ISO)
100
AcDbBlockReference
  2
Block_22
 10
0.0
 20
0.0
 30
0.0
  0
ENDBLK
  5
212
330
20F
100
AcDbEntity
  8
0
100
AcDbBlockEnd
  0
BLOCK
  5
215
330
213
100
AcDbEntity
  8
0
100
AcDbBlockBegin
  2
Block_22
 70
     0
 10
0.0
 20
0.0
 30
0.0
  3
Block_22
  1

  0
LINE
  5
217
330
213
100
AcDbEntity
  8
Sichtbar schmal (ISO)
 62
    18
420
        0
370
     5
100
AcDbLine
 10
139.6489479563529
 20
165.3009782165961
 30
0.0
 11
139.6308827369022
 21
183.1408453589457
 31
0.0
  0
INSERT
  5
219
330
213
100
AcDbEntity
  8
Sichtbar schmal (ISO)
100
AcDbBlockReference
  2
Block_23
 10
0.0
 20
0.0
 30
0.0
  0
INSERT
  5
21F
330
213
100
AcDbEntity
  8
Sichtbar schmal (ISO)
100
AcDbBlockReference
  2
Block_24
 10
0.0
 20
0.0
 30
0.0
  0
ENDBLK
  5
216
330
213
100
AcDbEntity
  8
0
100
AcDbBlockEnd
  0
BLOCK
  5
21A
330
218
100
AcDbEntity
  8
0
100
AcDbBlockBegin
  2
Block_23
 70
     0
 10
0.0
 20
0.0
 30
0.0
  3
Block_23
  1

  0
LWPOLYLINE
  5
21C
330
218
100
AcDbEntity
  8
Sichtbar schmal (ISO)
100
AcDbPolyline
 90
        3
 70
     1
 43
0.0
 10
139.86962785403
 20
165.9336592365385
 10
139.6507028018657
 20
164.2522588531155
 10
139.4269976797157
 20
165.933207067756
  0
HATCH
  5
21D
330
218
100
AcDbEntity
  8
Sichtbar schmal (ISO)
 62
    18
420
        0
440
 33554687
100
AcDbHatch
 10
0.0
 20
0.0
 30
0.0
210
0.0
220
0.0
230
1.0
  2
SOLID
 70
     1
 71
     1
 91
        1
 92
        1
 93
        3
 72
     1
 10
139.86962785403
 20
165.9336592365385
 11
139.6507028018657
 21
164.2522588531155
 72
     1
 10
139.6507028018657
 20
164.2522588531155
 11
139.4269976797157
 21
165.933207067756
 72
     1
 10
139.4269976797157
 20
165.933207067756
 11
139.86962785403
 21
165.9336592365385
 97
        1
330
21C
 75
     2
 76
     1
 98
        1
 10
0.0
 20
0.0
450
        0
451
        0
460
0.0
461
0.0
452
        0
462
0.0
453
        0
470

  0
ENDBLK
  5
21B
330
218
100
AcDbEntity
  8
0
100
AcDbBlockEnd
  0
BLOCK
  5
220
330
21E
100
AcDbEntity
  8
0
100
AcDbBlockBegin
  2
Block_24
 70
     0
 10
0.0
 20
0.0
 30
0.0
  3
Block_24
  1

  0
LWPOLYLINE
  5
222
330
21E
100
AcDbEntity
  8
Sichtbar schmal (ISO)
100
AcDbPolyline
 90
        3
 70
     1
 43
0.0
 10
139.8528330135394
 20
182.508605741862
 10
139.6305059295835
 20
184.1895539565025
 10
139.4102136051485
 20
182.5081535730795
  0
HATCH
  5
223
330
21E
100
AcDbEntity
  8
Sichtbar schmal (ISO)
 62
    18
420
        0
440
 33554687
100
AcDbHatch
 10
0.0
 20
0.0
 30
0.0
210
0.0
220
0.0
230
1.0
  2
SOLID
 70
     1
 71
     1
 91
        1
 92
        1
 93
        3
 72
     1
 10
139.8528330135394
 20
182.508605741862
 11
139.6305059295835
 21
184.1895539565025
 72
     1
 10
139.6305059295835
 20
184.1895539565025
 11
139.4102136051485
 21
182.5081535730795
 72
     1
 10
139.4102136051485
 20
182.5081535730795
 11
139.8528330135394
 21
182.508605741862
 97
        1
330
222
 75
     2
 76
     1
 98
        1
 10
0.0
 20
0.0
450
        0
451
        0
460
0.0
461
0.0
452
        0
462
0.0
453
        0
470

  0
ENDBLK
  5
221
330
21E
100
AcDbEntity
  8
0
100
AcDbBlockEnd
  0
BLOCK
  5
226
330
224
100
AcDbEntity
  8
0
100
AcDbBlockBegin
  2
Block_25
 70
     0
 10
0.0
 20
0.0
 30
0.0
  3
Block_25
  1

  0
INSERT
  5
229
330
224
100
AcDbEntity
  8
Sichtbar schmal (ISO)
100
AcDbBlockReference
  2
Block_26
 10
0.0
 20
0.0
 30
0.0
  0
ENDBLK
  5
227
330
224
100
AcDbEntity
  8
0
100
AcDbBlockEnd
  0
BLOCK
  5
22A
330
228
100
AcDbEntity
  8
0
100
AcDbBlockBegin
  2
Block_26
 70
     0
 10
0.0
 20
0.0
 30
0.0
  3
Block_26
  1

  0
SPLINE
  5
22C
330
228
100
AcDbEntity
  8
Sichtbar schmal (ISO)
100
AcDbSpline
210
0.0
220
0.0
230
1.0
 70
     9
 71
     3
 72
    41
 73
    37
 74
     0
 42
0.0000000001
 43
0.0000000001
 40
0.0
 40
0.0
 40
0.0
 40
0.0
 40
1.0
 40
1.0
 40
1.0
 40
2.0
 40
2.0
 40
2.0
 40
3.0
 40
3.0
 40
3.0
 40
4.0
 40
4.0
 40
4.0
 40
5.0
 40
5.0
 40
5.0
 40
6.0
 40
6.0
 40
6.0
 40
7.0
 40
7.0
 40
7.0
 40
8.0
 40
8.0
 40
8.0
 40
9.0
 40
9.0
 40
9.0
 40
10.0
 40
10.0
 40
10.0
 40
11.0
 40
11.0
 40
11.0
 40
12.0
 40
12.0
 40
12.0
 40
12.0
 10
127.6059922641054
 20
180.6396199092672
 30
0.0
 10
127.3944634013111
 20
180.978100540693
 30
0.0
 10
127.2759521166185
 20
181.1500108054069
 30
0.0
 10
126.9968993823133
 20
181.1500108054069
 30
0.0
 10
126.779513857194
 20
181.1500108054069
 30
0.0
 10
126.6358533754591
 20
180.9751722095305
 30
0.0
 10
126.6358533754591
 20
180.7636433467362
 30
0.0
 10
126.6358533754591
 20
180.4844183576567
 30
0.0
 10
126.8925129891102
 20
180.3659070729641
 30
0.0
 10
127.1322916348836
 20
180.3743475569029
 30
0.0
 10
127.1322916348836
 20
180.3743475569029
 30
0.0
 10
127.1322916348836
 20
180.1347411659038
 30
0.0
 10
127.1322916348836
 20
180.1347411659038
 30
0.0
 10
126.7261148771726
 20
180.1120035357012
 30
0.0
 10
126.4243245126647
 20
180.354710512637
 30
0.0
 10
126.4243245126647
 20
180.7777682382257
 30
0.0
 10
126.4243245126647
 20
181.1246893535903
 30
0.0
 10
126.6272406367459
 20
181.4039143426698
 30
0.0
 10
126.9996554587015
 20
181.4039143426698
 30
0.0
 10
127.352433236391
 20
181.4039143426698
 30
0.0
 10
127.5270995774932
 20
181.1670640280589
 30
0.0
 10
127.6852294602662
 20
180.9188448983467
 30
0.0
 10
127.834746604326
 20
180.6706257686344
 30
0.0
 10
127.9670382709596
 20
180.402597339882
 30
0.0
 10
128.2126735790579
 20
180.3574665890252
 30
0.0
 10
128.2126735790579
 20
180.3574665890252
 30
0.0
 10
128.2126735790579
 20
181.3842772984039
 30
0.0
 10
128.2126735790579
 20
181.3842772984039
 30
0.0
 10
128.2126735790579
 20
181.3842772984039
 30
0.0
 10
128.4242024418523
 20
181.3842772984039
 30
0.0
 10
128.4242024418523
 20
181.3842772984039
 30
0.0
 10
128.4242024418523
 20
181.3842772984039
 30
0.0
 10
128.4242024418523
 20
180.0782415999457
 30
0.0
 10
128.4242024418523
 20
180.0782415999457
 30
0.0
 10
127.9529133794701
 20
180.1149318668636
 30
0.0
 10
127.7754909619797
 20
180.3574665890252
 30
0.0
 10
127.6059922641054
 20
180.6396199092672
 30
0.0
  0
HATCH
  5
22D
330
228
100
AcDbEntity
  8
Sichtbar schmal (ISO)
 62
    18
420
        0
440
 33554687
100
AcDbHatch
 10
0.0
 20
0.0
 30
0.0
210
0.0
220
0.0
230
1.0
  2
SOLID
 70
     1
 71
     1
 91
        1
 92
        1
 93
        1
 72
     4
 94
        3
 73
     0
 74
     0
 95
       41
 96
       37
 40
0.0
 40
0.0
 40
0.0
 40
0.0
 40
1.0
 40
1.0
 40
1.0
 40
2.0
 40
2.0
 40
2.0
 40
3.0
 40
3.0
 40
3.0
 40
4.0
 40
4.0
 40
4.0
 40
5.0
 40
5.0
 40
5.0
 40
6.0
 40
6.0
 40
6.0
 40
7.0
 40
7.0
 40
7.0
 40
8.0
 40
8.0
 40
8.0
 40
9.0
 40
9.0
 40
9.0
 40
10.0
 40
10.0
 40
10.0
 40
11.0
 40
11.0
 40
11.0
 40
12.0
 40
12.0
 40
12.0
 40
12.0
 10
127.6059922641054
 20
180.6396199092672
 10
127.3944634013111
 20
180.978100540693
 10
127.2759521166185
 20
181.1500108054069
 10
126.9968993823133
 20
181.1500108054069
 10
126.779513857194
 20
181.1500108054069
 10
126.6358533754591
 20
180.9751722095305
 10
126.6358533754591
 20
180.7636433467362
 10
126.6358533754591
 20
180.4844183576567
 10
126.8925129891102
 20
180.3659070729641
 10
127.1322916348836
 20
180.3743475569029
 10
127.1322916348836
 20
180.3743475569029
 10
127.1322916348836
 20
180.1347411659038
 10
127.1322916348836
 20
180.1347411659038
 10
126.7261148771726
 20
180.1120035357012
 10
126.4243245126647
 20
180.354710512637
 10
126.4243245126647
 20
180.7777682382257
 10
126.4243245126647
 20
181.1246893535903
 10
126.6272406367459
 20
181.4039143426698
 10
126.9996554587015
 20
181.4039143426698
 10
127.352433236391
 20
181.4039143426698
 10
127.5270995774932
 20
181.1670640280589
 10
127.6852294602662
 20
180.9188448983467
 10
127.834746604326
 20
180.6706257686344
 10
127.9670382709596
 20
180.402597339882
 10
128.2126735790579
 20
180.3574665890252
 10
128.2126735790579
 20
180.3574665890252
 10
128.2126735790579
 20
181.3842772984039
 10
128.2126735790579
 20
181.3842772984039
 10
128.2126735790579
 20
181.3842772984039
 10
128.4242024418523
 20
181.3842772984039
 10
128.4242024418523
 20
181.3842772984039
 10
128.4242024418523
 20
181.3842772984039
 10
128.4242024418523
 20
180.0782415999457
 10
128.4242024418523
 20
180.0782415999457
 10
127.9529133794701
 20
180.1149318668636
 10
127.7754909619797
 20
180.3574665890252
 10
127.6059922641054
 20
180.6396199092672
 97
        0
 97
        1
330
22C
 75
     2
 76
     1
 98
        1
 10
0.0
 20
0.0
450
        0
451
        0
460
0.0
461
0.0
452
        0
462
0.0
453
        0
470

  0
SPLINE
  5
22E
330
228
100
AcDbEntity
  8
Sichtbar schmal (ISO)
100
AcDbSpline
210
0.0
220
0.0
230
1.0
 70
     9
 71
     3
 72
    53
 73
    49
 74
     0
 42
0.0000000001
 43
0.0000000001
 40
0.0
 40
0.0
 40
0.0
 40
0.0
 40
1.0
 40
1.0
 40
1.0
 40
2.0
 40
2.0
 40
2.0
 40
3.0
 40
3.0
 40
3.0
 40
4.0
 40
4.0
 40
4.0
 40
5.0
 40
5.0
 40
5.0
 40
6.0
 40
6.0
 40
6.0
 40
7.0
 40
7.0
 40
7.0
 40
8.0
 40
8.0
 40
8.0
 40
9.0
 40
9.0
 40
9.0
 40
10.0
 40
10.0
 40
10.0
 40
11.0
 40
11.0
 40
11.0
 40
12.0
 40
12.0
 40
12.0
 40
13.0
 40
13.0
 40
13.0
 40
14.0
 40
14.0
 40
14.0
 40
15.0
 40
15.0
 40
15.0
 40
16.0
 40
16.0
 40
16.0
 40
16.0
 10
127.8853895079592
 20
181.9180948438434
 30
0.0
 10
128.0914062179771
 20
181.9322197353329
 30
0.0
 10
128.2464355148134
 20
182.0986178472705
 30
0.0
 10
128.2464355148134
 20
182.3383964930439
 30
0.0
 10
128.2464355148134
 20
182.5668063237159
 30
0.0
 10
128.0883056320404
 20
182.7614542186325
 30
0.0
 10
127.772390376043
 20
182.7614542186325
 30
0.0
 10
127.5102186096155
 20
182.7614542186325
 30
0.0
 10
127.3183267910871
 20
182.5809312152055
 30
0.0
 10
127.3183267910871
 20
182.3101467100648
 30
0.0
 10
127.3183267910871
 20
182.1549451584543
 30
0.0
 10
127.3944634013111
 20
182.0309217209853
 30
0.0
 10
127.5074625332273
 20
181.9379041428835
 30
0.0
 10
127.5074625332273
 20
181.9379041428835
 30
0.0
 10
127.496093718126
 20
181.7318874328656
 30
0.0
 10
127.496093718126
 20
181.7318874328656
 30
0.0
 10
127.496093718126
 20
181.7318874328656
 30
0.0
 10
126.4580864484202
 20
181.9180948438434
 30
0.0
 10
126.4580864484202
 20
181.9180948438434
 30
0.0
 10
126.4580864484202
 20
181.9180948438434
 30
0.0
 10
126.4580864484202
 20
182.9052869551417
 30
0.0
 10
126.4580864484202
 20
182.9052869551417
 30
0.0
 10
126.4580864484202
 20
182.9052869551417
 30
0.0
 10
126.6696153112145
 20
182.9052869551417
 30
0.0
 10
126.6696153112145
 20
182.9052869551417
 30
0.0
 10
126.6696153112145
 20
182.9052869551417
 30
0.0
 10
126.6696153112145
 20
182.0986178472705
 30
0.0
 10
126.6696153112145
 20
182.0986178472705
 30
0.0
 10
126.6696153112145
 20
182.0986178472705
 30
0.0
 10
127.2449462572512
 20
181.9914753776792
 30
0.0
 10
127.2449462572512
 20
181.9914753776792
 30
0.0
 10
127.2449462572512
 20
181.9914753776792
 30
0.0
 10
127.2508029195762
 20
181.9971597852299
 30
0.0
 10
127.2508029195762
 20
181.9971597852299
 30
0.0
 10
127.1519286791495
 20
182.0844929557809
 30
0.0
 10
127.1067979282927
 20
182.2340100998408
 30
0.0
 10
127.1067979282927
 20
182.3694023524111
 30
0.0
 10
127.1067979282927
 20
182.7247639517146
 30
0.0
 10
127.3324516825766
 20
183.0153577558954
 30
0.0
 10
127.7923719298574
 20
183.0153577558954
 30
0.0
 10
128.130680306509
 20
183.0153577558954
 30
0.0
 10
128.4579643776077
 20
182.7812635176727
 30
0.0
 10
128.4579643776077
 20
182.3158311176155
 30
0.0
 10
128.4579643776077
 20
181.9689100022508
 30
0.0
 10
128.2464355148134
 20
181.6867566820089
 30
0.0
 10
127.8853895079592
 20
181.67831619807
 30
0.0
 10
127.8853895079592
 20
181.67831619807
 30
0.0
 10
127.8853895079592
 20
181.9180948438434
 30
0.0
 10
127.8853895079592
 20
181.9180948438434
 30
0.0
  0
HATCH
  5
22F
330
228
100
AcDbEntity
  8
Sichtbar schmal (ISO)
 62
    18
420
        0
440
 33554687
100
AcDbHatch
 10
0.0
 20
0.0
 30
0.0
210
0.0
220
0.0
230
1.0
  2
SOLID
 70
     1
 71
     1
 91
        1
 92
        1
 93
        1
 72
     4
 94
        3
 73
     0
 74
     0
 95
       53
 96
       49
 40
0.0
 40
0.0
 40
0.0
 40
0.0
 40
1.0
 40
1.0
 40
1.0
 40
2.0
 40
2.0
 40
2.0
 40
3.0
 40
3.0
 40
3.0
 40
4.0
 40
4.0
 40
4.0
 40
5.0
 40
5.0
 40
5.0
 40
6.0
 40
6.0
 40
6.0
 40
7.0
 40
7.0
 40
7.0
 40
8.0
 40
8.0
 40
8.0
 40
9.0
 40
9.0
 40
9.0
 40
10.0
 40
10.0
 40
10.0
 40
11.0
 40
11.0
 40
11.0
 40
12.0
 40
12.0
 40
12.0
 40
13.0
 40
13.0
 40
13.0
 40
14.0
 40
14.0
 40
14.0
 40
15.0
 40
15.0
 40
15.0
 40
16.0
 40
16.0
 40
16.0
 40
16.0
 10
127.8853895079592
 20
181.9180948438434
 10
128.0914062179771
 20
181.9322197353329
 10
128.2464355148134
 20
182.0986178472705
 10
128.2464355148134
 20
182.3383964930439
 10
128.2464355148134
 20
182.5668063237159
 10
128.0883056320404
 20
182.7614542186325
 10
127.772390376043
 20
182.7614542186325
 10
127.5102186096155
 20
182.7614542186325
 10
127.3183267910871
 20
182.5809312152055
 10
127.3183267910871
 20
182.3101467100648
 10
127.3183267910871
 20
182.1549451584543
 10
127.3944634013111
 20
182.0309217209853
 10
127.5074625332273
 20
181.9379041428835
 10
127.5074625332273
 20
181.9379041428835
 10
127.496093718126
 20
181.7318874328656
 10
127.496093718126
 20
181.7318874328656
 10
127.496093718126
 20
181.7318874328656
 10
126.4580864484202
 20
181.9180948438434
 10
126.4580864484202
 20
181.9180948438434
 10
126.4580864484202
 20
181.9180948438434
 10
126.4580864484202
 20
182.9052869551417
 10
126.4580864484202
 20
182.9052869551417
 10
126.4580864484202
 20
182.9052869551417
 10
126.6696153112145
 20
182.9052869551417
 10
126.6696153112145
 20
182.9052869551417
 10
126.6696153112145
 20
182.9052869551417
 10
126.6696153112145
 20
182.0986178472705
 10
126.6696153112145
 20
182.0986178472705
 10
126.6696153112145
 20
182.0986178472705
 10
127.2449462572512
 20
181.9914753776792
 10
127.2449462572512
 20
181.9914753776792
 10
127.2449462572512
 20
181.9914753776792
 10
127.2508029195762
 20
181.9971597852299
 10
127.2508029195762
 20
181.9971597852299
 10
127.1519286791495
 20
182.0844929557809
 10
127.1067979282927
 20
182.2340100998408
 10
127.1067979282927
 20
182.3694023524111
 10
127.1067979282927
 20
182.7247639517146
 10
127.3324516825766
 20
183.0153577558954
 10
127.7923719298574
 20
183.0153577558954
 10
128.130680306509
 20
183.0153577558954
 10
128.4579643776077
 20
182.7812635176727
 10
128.4579643776077
 20
182.3158311176155
 10
128.4579643776077
 20
181.9689100022508
 10
128.2464355148134
 20
181.6867566820089
 10
127.8853895079592
 20
181.67831619807
 10
127.8853895079592
 20
181.67831619807
 10
127.8853895079592
 20
181.9180948438434
 10
127.8853895079592
 20
181.9180948438434
 97
        0
 97
        1
330
22E
 75
     2
 76
     1
 98
        1
 10
0.0
 20
0.0
450
        0
451
        0
460
0.0
461
0.0
452
        0
462
0.0
453
        0
470

  0
ENDBLK
  5
22B
330
228
100
AcDbEntity
  8
0
100
AcDbBlockEnd
  0
BLOCK
  5
234
330
232
100
AcDbEntity
  8
0
100
AcDbBlockBegin
  2
Block_27
 70
     0
 10
0.0
 20
0.0
 30
0.0
  3
Block_27
  1

  0
INSERT
  5
237
330
232
100
AcDbEntity
  8
Sichtbar schmal (ISO)
100
AcDbBlockReference
  2
Block_28
 10
0.0
 20
0.0
 30
0.0
  0
ENDBLK
  5
235
330
232
100
AcDbEntity
  8
0
100
AcDbBlockEnd
  0
BLOCK
  5
238
330
236
100
AcDbEntity
  8
0
100
AcDbBlockBegin
  2
Block_28
 70
     0
 10
0.0
 20
0.0
 30
0.0
  3
Block_28
  1

  0
SPLINE
  5
23A
330
236
100
AcDbEntity
  8
Sichtbar schmal (ISO)
100
AcDbSpline
210
0.0
220
0.0
230
1.0
 70
     9
 71
     3
 72
    17
 73
    13
 74
     0
 42
0.0000000001
 43
0.0000000001
 40
0.0
 40
0.0
 40
0.0
 40
0.0
 40
1.0
 40
1.0
 40
1.0
 40
2.0
 40
2.0
 40
2.0
 40
3.0
 40
3.0
 40
3.0
 40
4.0
 40
4.0
 40
4.0
 40
4.0
 10
142.4750243784437
 20
173.3541042318351
 30
0.0
 10
142.4750243784437
 20
173.5938828776085
 30
0.0
 10
142.3086262665062
 20
173.7632093207085
 30
0.0
 10
142.086073098159
 20
173.7632093207085
 30
0.0
 10
141.871443649428
 20
173.7632093207085
 30
0.0
 10
141.7050455374904
 20
173.5770019097308
 30
0.0
 10
141.7050455374904
 20
173.3513481554469
 30
0.0
 10
141.7050455374904
 20
173.1143255860617
 30
0.0
 10
141.8545626815502
 20
172.9282904298582
 30
0.0
 10
142.0888291745472
 20
172.9282904298582
 30
0.0
 10
142.3286078203206
 20
172.9282904298582
 30
0.0
 10
142.4750243784437
 20
173.1058851021228
 30
0.0
 10
142.4750243784437
 20
173.3541042318351
 30
0.0
  0
SPLINE
  5
23B
330
236
100
AcDbEntity
  8
Sichtbar schmal (ISO)
100
AcDbSpline
210
0.0
220
0.0
230
1.0
 70
     9
 71
     3
 72
    17
 73
    13
 74
     0
 42
0.0000000001
 43
0.0000000001
 40
0.0
 40
0.0
 40
0.0
 40
0.0
 40
1.0
 40
1.0
 40
1.0
 40
2.0
 40
2.0
 40
2.0
 40
3.0
 40
3.0
 40
3.0
 40
4.0
 40
4.0
 40
4.0
 40
4.0
 10
141.1720892659222
 20
173.684144379322
 30
0.0
 10
140.9688286322925
 20
173.684144379322
 30
0.0
 10
140.8644422390894
 20
173.5432399739753
 30
0.0
 10
140.8644422390894
 20
173.3485920790587
 30
0.0
 10
140.8644422390894
 20
173.1567002605302
 30
0.0
 10
140.9719292182292
 20
172.9987426325315
 30
0.0
 10
141.1720892659222
 20
172.9987426325315
 30
0.0
 10
141.389130281493
 20
172.9987426325315
 30
0.0
 10
141.493516674696
 20
173.1594563369185
 30
0.0
 10
141.493516674696
 20
173.3541042318351
 30
0.0
 10
141.493516674696
 20
173.5459960503635
 30
0.0
 10
141.3750053900034
 20
173.684144379322
 30
0.0
 10
141.1720892659222
 20
173.684144379322
 30
0.0
  0
SPLINE
  5
23C
330
236
100
AcDbEntity
  8
Sichtbar schmal (ISO)
100
AcDbSpline
210
0.0
220
0.0
230
1.0
 70
     9
 71
     3
 72
    29
 73
    25
 74
     0
 42
0.0000000001
 43
0.0000000001
 40
0.0
 40
0.0
 40
0.0
 40
0.0
 40
1.0
 40
1.0
 40
1.0
 40
2.0
 40
2.0
 40
2.0
 40
3.0
 40
3.0
 40
3.0
 40
4.0
 40
4.0
 40
4.0
 40
5.0
 40
5.0
 40
5.0
 40
6.0
 40
6.0
 40
6.0
 40
7.0
 40
7.0
 40
7.0
 40
8.0
 40
8.0
 40
8.0
 40
8.0
 10
141.5782660236332
 20
173.0240640843481
 30
0.0
 10
141.5103976425738
 20
172.8549098960224
 30
0.0
 10
141.3439995306362
 20
172.7448390952686
 30
0.0
 10
141.1634765272091
 20
172.7448390952686
 30
0.0
 10
140.8365369656589
 20
172.7448390952686
 30
0.0
 10
140.6529133762951
 20
173.0240640843481
 30
0.0
 10
140.6529133762951
 20
173.3315388564067
 30
0.0
 10
140.6529133762951
 20
173.7688937282591
 30
0.0
 10
140.906816913558
 20
173.9380479165849
 30
0.0
 10
141.1634765272091
 20
173.9380479165849
 30
0.0
 10
141.3439995306362
 20
173.9380479165849
 30
0.0
 10
141.5021294134092
 20
173.8279771158312
 30
0.0
 10
141.5782660236332
 20
173.6615790038936
 30
0.0
 10
141.6544026338572
 20
173.901357649667
 30
0.0
 10
141.8294134845079
 20
174.0169406031971
 30
0.0
 10
142.0774603594459
 20
174.0169406031971
 30
0.0
 10
142.4640000728909
 20
174.0169406031971
 30
0.0
 10
142.6868977507866
 20
173.7237629774024
 30
0.0
 10
142.6868977507866
 20
173.3541042318351
 30
0.0
 10
142.6868977507866
 20
172.9704928495525
 30
0.0
 10
142.4836371171569
 20
172.6743868925953
 30
0.0
 10
142.0774603594459
 20
172.6743868925953
 30
0.0
 10
141.8404377900607
 20
172.6743868925953
 30
0.0
 10
141.6571587102454
 20
172.7984103300643
 30
0.0
 10
141.5782660236332
 20
173.0240640843481
 30
0.0
  0
HATCH
  5
23D
330
236
100
AcDbEntity
  8
Sichtbar schmal (ISO)
 62
    18
420
        0
440
 33554687
100
AcDbHatch
 10
0.0
 20
0.0
 30
0.0
210
0.0
220
0.0
230
1.0
  2
SOLID
 70
     1
 71
     1
 91
        3
 92
        1
 93
        1
 72
     4
 94
        3
 73
     0
 74
     0
 95
       17
 96
       13
 40
0.0
 40
0.0
 40
0.0
 40
0.0
 40
1.0
 40
1.0
 40
1.0
 40
2.0
 40
2.0
 40
2.0
 40
3.0
 40
3.0
 40
3.0
 40
4.0
 40
4.0
 40
4.0
 40
4.0
 10
142.4750243784437
 20
173.3541042318351
 10
142.4750243784437
 20
173.5938828776085
 10
142.3086262665062
 20
173.7632093207085
 10
142.086073098159
 20
173.7632093207085
 10
141.871443649428
 20
173.7632093207085
 10
141.7050455374904
 20
173.5770019097308
 10
141.7050455374904
 20
173.3513481554469
 10
141.7050455374904
 20
173.1143255860617
 10
141.8545626815502
 20
172.9282904298582
 10
142.0888291745472
 20
172.9282904298582
 10
142.3286078203206
 20
172.9282904298582
 10
142.4750243784437
 20
173.1058851021228
 10
142.4750243784437
 20
173.3541042318351
 97
        0
 97
        1
330
23A
 92
        1
 93
        1
 72
     4
 94
        3
 73
     0
 74
     0
 95
       17
 96
       13
 40
0.0
 40
0.0
 40
0.0
 40
0.0
 40
1.0
 40
1.0
 40
1.0
 40
2.0
 40
2.0
 40
2.0
 40
3.0
 40
3.0
 40
3.0
 40
4.0
 40
4.0
 40
4.0
 40
4.0
 10
141.1720892659222
 20
173.684144379322
 10
140.9688286322925
 20
173.684144379322
 10
140.8644422390894
 20
173.5432399739753
 10
140.8644422390894
 20
173.3485920790587
 10
140.8644422390894
 20
173.1567002605302
 10
140.9719292182292
 20
172.9987426325315
 10
141.1720892659222
 20
172.9987426325315
 10
141.389130281493
 20
172.9987426325315
 10
141.493516674696
 20
173.1594563369185
 10
141.493516674696
 20
173.3541042318351
 10
141.493516674696
 20
173.5459960503635
 10
141.3750053900034
 20
173.684144379322
 10
141.1720892659222
 20
173.684144379322
 97
        0
 97
        1
330
23B
 92
        1
 93
        1
 72
     4
 94
        3
 73
     0
 74
     0
 95
       29
 96
       25
 40
0.0
 40
0.0
 40
0.0
 40
0.0
 40
1.0
 40
1.0
 40
1.0
 40
2.0
 40
2.0
 40
2.0
 40
3.0
 40
3.0
 40
3.0
 40
4.0
 40
4.0
 40
4.0
 40
5.0
 40
5.0
 40
5.0
 40
6.0
 40
6.0
 40
6.0
 40
7.0
 40
7.0
 40
7.0
 40
8.0
 40
8.0
 40
8.0
 40
8.0
 10
141.5782660236332
 20
173.0240640843481
 10
141.5103976425738
 20
172.8549098960224
 10
141.3439995306362
 20
172.7448390952686
 10
141.1634765272091
 20
172.7448390952686
 10
140.8365369656589
 20
172.7448390952686
 10
140.6529133762951
 20
173.0240640843481
 10
140.6529133762951
 20
173.3315388564067
 10
140.6529133762951
 20
173.7688937282591
 10
140.906816913558
 20
173.9380479165849
 10
141.1634765272091
 20
173.9380479165849
 10
141.3439995306362
 20
173.9380479165849
 10
141.5021294134092
 20
173.8279771158312
 10
141.5782660236332
 20
173.6615790038936
 10
141.6544026338572
 20
173.901357649667
 10
141.8294134845079
 20
174.0169406031971
 10
142.0774603594459
 20
174.0169406031971
 10
142.4640000728909
 20
174.0169406031971
 10
142.6868977507866
 20
173.7237629774024
 10
142.6868977507866
 20
173.3541042318351
 10
142.6868977507866
 20
172.9704928495525
 10
142.4836371171569
 20
172.6743868925953
 10
142.0774603594459
 20
172.6743868925953
 10
141.8404377900607
 20
172.6743868925953
 10
141.6571587102454
 20
172.7984103300643
 10
141.5782660236332
 20
173.0240640843481
 97
        0
 97
        1
330
23C
 75
     2
 76
     1
 98
        1
 10
0.0
 20
0.0
450
        0
451
        0
460
0.0
461
0.0
452
        0
462
0.0
453
        0
470

  0
SPLINE
  5
23E
330
236
100
AcDbEntity
  8
Sichtbar schmal (ISO)
100
AcDbSpline
210
0.0
220
0.0
230
1.0
 70
     9
 71
     3
 72
    26
 73
    22
 74
     0
 42
0.0000000001
 43
0.0000000001
 40
0.0
 40
0.0
 40
0.0
 40
0.0
 40
1.0
 40
1.0
 40
1.0
 40
2.0
 40
2.0
 40
2.0
 40
3.0
 40
3.0
 40
3.0
 40
4.0
 40
4.0
 40
4.0
 40
5.0
 40
5.0
 40
5.0
 40
6.0
 40
6.0
 40
6.0
 40
7.0
 40
7.0
 40
7.0
 40
7.0
 10
140.9126735758829
 20
175.3209092443642
 30
0.0
 10
140.9126735758829
 20
175.3209092443642
 30
0.0
 10
140.9126735758829
 20
174.2717054143314
 30
0.0
 10
140.9126735758829
 20
174.2717054143314
 30
0.0
 10
140.9126735758829
 20
174.2717054143314
 30
0.0
 10
140.687019821599
 20
174.2717054143314
 30
0.0
 10
140.687019821599
 20
174.2717054143314
 30
0.0
 10
140.687019821599
 20
174.2717054143314
 30
0.0
 10
140.687019821599
 20
175.5663722976883
 30
0.0
 10
140.687019821599
 20
175.5663722976883
 30
0.0
 10
140.687019821599
 20
175.5663722976883
 30
0.0
 10
140.8926920220685
 20
175.5663722976883
 30
0.0
 10
140.8926920220685
 20
175.5663722976883
 30
0.0
 10
141.2906005506148
 20
175.1629516163655
 30
0.0
 10
142.0295735322009
 20
174.835839800041
 30
0.0
 10
142.6527913054826
 20
174.7991495331231
 30
0.0
 10
142.6527913054826
 20
174.7991495331231
 30
0.0
 10
142.6527913054826
 20
174.5311211043707
 30
0.0
 10
142.6527913054826
 20
174.5311211043707
 30
0.0
 10
141.975830042631
 20
174.5762518552274
 30
0.0
 10
141.3553683457375
 20
174.9006075951637
 30
0.0
 10
140.9126735758829
 20
175.3209092443642
 30
0.0
  0
HATCH
  5
23F
330
236
100
AcDbEntity
  8
Sichtbar schmal (ISO)
 62
    18
420
        0
440
 33554687
100
AcDbHatch
 10
0.0
 20
0.0
 30
0.0
210
0.0
220
0.0
230
1.0
  2
SOLID
 70
     1
 71
     1
 91
        1
 92
        1
 93
        1
 72
     4
 94
        3
 73
     0
 74
     0
 95
       26
 96
       22
 40
0.0
 40
0.0
 40
0.0
 40
0.0
 40
1.0
 40
1.0
 40
1.0
 40
2.0
 40
2.0
 40
2.0
 40
3.0
 40
3.0
 40
3.0
 40
4.0
 40
4.0
 40
4.0
 40
5.0
 40
5.0
 40
5.0
 40
6.0
 40
6.0
 40
6.0
 40
7.0
 40
7.0
 40
7.0
 40
7.0
 10
140.9126735758829
 20
175.3209092443642
 10
140.9126735758829
 20
175.3209092443642
 10
140.9126735758829
 20
174.2717054143314
 10
140.9126735758829
 20
174.2717054143314
 10
140.9126735758829
 20
174.2717054143314
 10
140.687019821599
 20
174.2717054143314
 10
140.687019821599
 20
174.2717054143314
 10
140.687019821599
 20
174.2717054143314
 10
140.687019821599
 20
175.5663722976883
 10
140.687019821599
 20
175.5663722976883
 10
140.687019821599
 20
175.5663722976883
 10
140.8926920220685
 20
175.5663722976883
 10
140.8926920220685
 20
175.5663722976883
 10
141.2906005506148
 20
175.1629516163655
 10
142.0295735322009
 20
174.835839800041
 10
142.6527913054826
 20
174.7991495331231
 10
142.6527913054826
 20
174.7991495331231
 10
142.6527913054826
 20
174.5311211043707
 10
142.6527913054826
 20
174.5311211043707
 10
141.975830042631
 20
174.5762518552274
 10
141.3553683457375
 20
174.9006075951637
 10
140.9126735758829
 20
175.3209092443642
 97
        0
 97
        1
330
23E
 75
     2
 76
     1
 98
        1
 10
0.0
 20
0.0
450
        0
451
        0
460
0.0
461
0.0
452
        0
462
0.0
453
        0
470

  0
ENDBLK
  5
239
330
236
100
AcDbEntity
  8
0
100
AcDbBlockEnd
  0
BLOCK
  5
242
330
240
100
AcDbEntity
  8
0
100
AcDbBlockBegin
  2
Block_29
 70
     0
 10
0.0
 20
0.0
 30
0.0
  3
Block_29
  1

  0
INSERT
  5
245
330
240
100
AcDbEntity
  8
Sichtbar schmal (ISO)
100
AcDbBlockReference
  2
Block_30
 10
0.0
 20
0.0
 30
0.0
  0
ENDBLK
  5
243
330
240
100
AcDbEntity
  8
0
100
AcDbBlockEnd
  0
BLOCK
  5
246
330
244
100
AcDbEntity
  8
0
100
AcDbBlockBegin
  2
Block_30
 70
     0
 10
0.0
 20
0.0
 30
0.0
  3
Block_30
  1

  0
LINE
  5
248
330
244
100
AcDbEntity
  8
Sichtbar schmal (ISO)
 62
    18
420
        0
370
     5
100
AcDbLine
 10
132.6406763380963
 20
159.6691406698537
 30
0.0
 11
132.643776924033
 21
115.010281767173
 31
0.0
  0
INSERT
  5
24A
330
244
100
AcDbEntity
  8
Sichtbar schmal (ISO)
100
AcDbBlockReference
  2
Block_31
 10
0.0
 20
0.0
 30
0.0
  0
INSERT
  5
250
330
244
100
AcDbEntity
  8
Sichtbar schmal (ISO)
100
AcDbBlockReference
  2
Block_32
 10
0.0
 20
0.0
 30
0.0
  0
ENDBLK
  5
247
330
244
100
AcDbEntity
  8
0
100
AcDbBlockEnd
  0
BLOCK
  5
24B
330
249
100
AcDbEntity
  8
0
100
AcDbBlockBegin
  2
Block_31
 70
     0
 10
0.0
 20
0.0
 30
0.0
  3
Block_31
  1

  0
LWPOLYLINE
  5
24D
330
249
100
AcDbEntity
  8
Sichtbar schmal (ISO)
100
AcDbPolyline
 90
        3
 70
     1
 43
0.0
 10
132.4194150805562
 20
159.0366749683792
 10
132.6399227234589
 20
160.7178707992574
 10
132.862034488947
 20
159.036707266149
  0
HATCH
  5
24E
330
249
100
AcDbEntity
  8
Sichtbar schmal (ISO)
 62
    18
420
        0
440
 33554687
100
AcDbHatch
 10
0.0
 20
0.0
 30
0.0
210
0.0
220
0.0
230
1.0
  2
SOLID
 70
     1
 71
     1
 91
        1
 92
        1
 93
        3
 72
     1
 10
132.4194150805562
 20
159.0366749683792
 11
132.6399227234589
 21
160.7178707992574
 72
     1
 10
132.6399227234589
 20
160.7178707992574
 11
132.862034488947
 21
159.036707266149
 72
     1
 10
132.862034488947
 20
159.036707266149
 11
132.4194150805562
 21
159.0366749683792
 97
        1
330
24D
 75
     2
 76
     1
 98
        1
 10
0.0
 20
0.0
450
        0
451
        0
460
0.0
461
0.0
452
        0
462
0.0
453
        0
470

  0
ENDBLK
  5
24C
330
249
100
AcDbEntity
  8
0
100
AcDbBlockEnd
  0
BLOCK
  5
251
330
24F
100
AcDbEntity
  8
0
100
AcDbBlockBegin
  2
Block_32
 70
     0
 10
0.0
 20
0.0
 30
0.0
  3
Block_32
  1

  0
LWPOLYLINE
  5
253
330
24F
100
AcDbEntity
  8
Sichtbar schmal (ISO)
100
AcDbPolyline
 90
        3
 70
     1
 43
0.0
 10
132.4224295391057
 20
115.6427259368011
 10
132.6431632663997
 20
113.9615624036927
 10
132.8650489474966
 20
115.6427582345713
  0
HATCH
  5
254
330
24F
100
AcDbEntity
  8
Sichtbar schmal (ISO)
 62
    18
420
        0
440
 33554687
100
AcDbHatch
 10
0.0
 20
0.0
 30
0.0
210
0.0
220
0.0
230
1.0
  2
SOLID
 70
     1
 71
     1
 91
        1
 92
        1
 93
        3
 72
     1
 10
132.4224295391057
 20
115.6427259368011
 11
132.6431632663997
 21
113.9615624036927
 72
     1
 10
132.6431632663997
 20
113.9615624036927
 11
132.8650489474966
 21
115.6427582345713
 72
     1
 10
132.8650489474966
 20
115.6427582345713
 11
132.4224295391057
 21
115.6427259368011
 97
        1
330
253
 75
     2
 76
     1
 98
        1
 10
0.0
 20
0.0
450
        0
451
        0
460
0.0
461
0.0
452
        0
462
0.0
453
        0
470

  0
ENDBLK
  5
252
330
24F
100
AcDbEntity
  8
0
100
AcDbBlockEnd
  0
BLOCK
  5
25A
330
258
100
AcDbEntity
  8
0
100
AcDbBlockBegin
  2
Block_33
 70
     0
 10
0.0
 20
0.0
 30
0.0
  3
Block_33
  1

  0
INSERT
  5
25D
330
258
100
AcDbEntity
  8
Sichtbar schmal (ISO)
100
AcDbBlockReference
  2
Block_34
 10
0.0
 20
0.0
 30
0.0
  0
ENDBLK
  5
25B
330
258
100
AcDbEntity
  8
0
100
AcDbBlockEnd
  0
BLOCK
  5
25E
330
25C
100
AcDbEntity
  8
0
100
AcDbBlockBegin
  2
Block_34
 70
     0
 10
0.0
 20
0.0
 30
0.0
  3
Block_34
  1

  0
LINE
  5
260
330
25C
100
AcDbEntity
  8
Sichtbar schmal (ISO)
 62
    18
420
        0
370
     5
100
AcDbLine
 10
139.6970393361424
 20
160.8349286842924
 30
0.0
 11
139.6892878713005
 21
113.8690185262202
 31
0.0
  0
INSERT
  5
262
330
25C
100
AcDbEntity
  8
Sichtbar schmal (ISO)
100
AcDbBlockReference
  2
Block_35
 10
0.0
 20
0.0
 30
0.0
  0
INSERT
  5
268
330
25C
100
AcDbEntity
  8
Sichtbar schmal (ISO)
100
AcDbBlockReference
  2
Block_36
 10
0.0
 20
0.0
 30
0.0
  0
ENDBLK
  5
25F
330
25C
100
AcDbEntity
  8
0
100
AcDbBlockEnd
  0
BLOCK
  5
263
330
261
100
AcDbEntity
  8
0
100
AcDbBlockBegin
  2
Block_35
 70
     0
 10
0.0
 20
0.0
 30
0.0
  3
Block_35
  1

  0
LWPOLYLINE
  5
265
330
261
100
AcDbEntity
  8
Sichtbar schmal (ISO)
100
AcDbPolyline
 90
        3
 70
     1
 43
0.0
 10
139.4756273556747
 20
160.2025060465108
 10
139.6965225718195
 20
161.8836480477724
 10
139.9182467640655
 20
160.202430685047
  0
HATCH
  5
266
330
261
100
AcDbEntity
  8
Sichtbar schmal (ISO)
 62
    18
420
        0
440
 33554687
100
AcDbHatch
 10
0.0
 20
0.0
 30
0.0
210
0.0
220
0.0
230
1.0
  2
SOLID
 70
     1
 71
     1
 91
        1
 92
        1
 93
        3
 72
     1
 10
139.4756273556747
 20
160.2025060465108
 11
139.6965225718195
 21
161.8836480477724
 72
     1
 10
139.6965225718195
 20
161.8836480477724
 11
139.9182467640655
 21
160.202430685047
 72
     1
 10
139.9182467640655
 20
160.202430685047
 11
139.4756273556747
 21
160.2025060465108
 97
        1
330
265
 75
     2
 76
     1
 98
        1
 10
0.0
 20
0.0
450
        0
451
        0
460
0.0
461
0.0
452
        0
462
0.0
453
        0
470

  0
ENDBLK
  5
264
330
261
100
AcDbEntity
  8
0
100
AcDbBlockEnd
  0
BLOCK
  5
269
330
267
100
AcDbEntity
  8
0
100
AcDbBlockBegin
  2
Block_36
 70
     0
 10
0.0
 20
0.0
 30
0.0
  3
Block_36
  1

  0
LWPOLYLINE
  5
26B
330
267
100
AcDbEntity
  8
Sichtbar schmal (ISO)
100
AcDbPolyline
 90
        3
 70
     1
 43
0.0
 10
139.4680804433773
 20
114.5015057595419
 10
139.6884265974292
 20
112.82029916274
 10
139.9106998517682
 20
114.5014303980782
  0
HATCH
  5
26C
330
267
100
AcDbEntity
  8
Sichtbar schmal (ISO)
 62
    18
420
        0
440
 33554687
100
AcDbHatch
 10
0.0
 20
0.0
 30
0.0
210
0.0
220
0.0
230
1.0
  2
SOLID
 70
     1
 71
     1
 91
        1
 92
        1
 93
        3
 72
     1
 10
139.4680804433773
 20
114.5015057595419
 11
139.6884265974292
 21
112.82029916274
 72
     1
 10
139.6884265974292
 20
112.82029916274
 11
139.9106998517682
 21
114.5014303980782
 72
     1
 10
139.9106998517682
 20
114.5014303980782
 11
139.4680804433773
 21
114.5015057595419
 97
        1
330
26B
 75
     2
 76
     1
 98
        1
 10
0.0
 20
0.0
450
        0
451
        0
460
0.0
461
0.0
452
        0
462
0.0
453
        0
470

  0
ENDBLK
  5
26A
330
267
100
AcDbEntity
  8
0
100
AcDbBlockEnd
  0
BLOCK
  5
273
330
271
100
AcDbEntity
  8
0
100
AcDbBlockBegin
  2
Block_37
 70
     0
 10
0.0
 20
0.0
 30
0.0
  3
Block_37
  1

  0
INSERT
  5
276
330
271
100
AcDbEntity
  8
Sichtbar schmal (ISO)
100
AcDbBlockReference
  2
Block_38
 10
0.0
 20
0.0
 30
0.0
  0
ENDBLK
  5
274
330
271
100
AcDbEntity
  8
0
100
AcDbBlockEnd
  0
BLOCK
  5
277
330
275
100
AcDbEntity
  8
0
100
AcDbBlockBegin
  2
Block_38
 70
     0
 10
0.0
 20
0.0
 30
0.0
  3
Block_38
  1

  0
LINE
  5
279
330
275
100
AcDbEntity
  8
Sichtbar schmal (ISO)
 62
    18
420
        0
370
     5
100
AcDbLine
 10
125.6541841828605
 20
149.5165196362862
 30
0.0
 11
125.6572094073335
 21
125.2314709668204
 31
0.0
  0
INSERT
  5
27B
330
275
100
AcDbEntity
  8
Sichtbar schmal (ISO)
100
AcDbBlockReference
  2
Block_39
 10
0.0
 20
0.0
 30
0.0
  0
INSERT
  5
281
330
275
100
AcDbEntity
  8
Sichtbar schmal (ISO)
100
AcDbBlockReference
  2
Block_40
 10
0.0
 20
0.0
 30
0.0
  0
ENDBLK
  5
278
330
275
100
AcDbEntity
  8
0
100
AcDbBlockEnd
  0
BLOCK
  5
27C
330
27A
100
AcDbEntity
  8
0
100
AcDbBlockBegin
  2
Block_39
 70
     0
 10
0.0
 20
0.0
 30
0.0
  3
Block_39
  1

  0
LWPOLYLINE
  5
27E
330
27A
100
AcDbEntity
  8
Sichtbar schmal (ISO)
100
AcDbPolyline
 90
        3
 70
     1
 43
0.0
 10
125.4329552230905
 20
148.8840431688879
 10
125.6533659726828
 20
150.5652389997664
 10
125.8755746314814
 20
148.8840969985049
  0
HATCH
  5
27F
330
27A
100
AcDbEntity
  8
Sichtbar schmal (ISO)
 62
    18
420
        0
440
 33554687
100
AcDbHatch
 10
0.0
 20
0.0
 30
0.0
210
0.0
220
0.0
230
1.0
  2
SOLID
 70
     1
 71
     1
 91
        1
 92
        1
 93
        3
 72
     1
 10
125.4329552230905
 20
148.8840431688879
 11
125.6533659726828
 21
150.5652389997664
 72
     1
 10
125.6533659726828
 20
150.5652389997664
 11
125.8755746314814
 21
148.8840969985049
 72
     1
 10
125.8755746314814
 20
148.8840969985049
 11
125.4329552230905
 21
148.8840431688879
 97
        1
330
27E
 75
     2
 76
     1
 98
        1
 10
0.0
 20
0.0
450
        0
451
        0
460
0.0
461
0.0
452
        0
462
0.0
453
        0
470

  0
ENDBLK
  5
27D
330
27A
100
AcDbEntity
  8
0
100
AcDbBlockEnd
  0
BLOCK
  5
282
330
280
100
AcDbEntity
  8
0
100
AcDbBlockBegin
  2
Block_40
 70
     0
 10
0.0
 20
0.0
 30
0.0
  3
Block_40
  1

  0
LWPOLYLINE
  5
284
330
280
100
AcDbEntity
  8
Sichtbar schmal (ISO)
100
AcDbPolyline
 90
        3
 70
     1
 43
0.0
 10
125.4358189587126
 20
125.8638936046017
 10
125.6566495793171
 20
124.1827408374168
 10
125.8784383671035
 20
125.8639474342187
  0
HATCH
  5
285
330
280
100
AcDbEntity
  8
Sichtbar schmal (ISO)
 62
    18
420
        0
440
 33554687
100
AcDbHatch
 10
0.0
 20
0.0
 30
0.0
210
0.0
220
0.0
230
1.0
  2
SOLID
 70
     1
 71
     1
 91
        1
 92
        1
 93
        3
 72
     1
 10
125.4358189587126
 20
125.8638936046017
 11
125.6566495793171
 21
124.1827408374168
 72
     1
 10
125.6566495793171
 20
124.1827408374168
 11
125.8784383671035
 21
125.8639474342187
 72
     1
 10
125.8784383671035
 20
125.8639474342187
 11
125.4358189587126
 21
125.8638936046017
 97
        1
330
284
 75
     2
 76
     1
 98
        1
 10
0.0
 20
0.0
450
        0
451
        0
460
0.0
461
0.0
452
        0
462
0.0
453
        0
470

  0
ENDBLK
  5
283
330
280
100
AcDbEntity
  8
0
100
AcDbBlockEnd
  0
BLOCK
  5
288
330
286
100
AcDbEntity
  8
0
100
AcDbBlockBegin
  2
Block_41
 70
     0
 10
0.0
 20
0.0
 30
0.0
  3
Block_41
  1

  0
INSERT
  5
28B
330
286
100
AcDbEntity
  8
Sichtbar schmal (ISO)
100
AcDbBlockReference
  2
Block_42
 10
0.0
 20
0.0
 30
0.0
  0
ENDBLK
  5
289
330
286
100
AcDbEntity
  8
0
100
AcDbBlockEnd
  0
BLOCK
  5
28C
330
28A
100
AcDbEntity
  8
0
100
AcDbBlockBegin
  2
Block_42
 70
     0
 10
0.0
 20
0.0
 30
0.0
  3
Block_42
  1

  0
SPLINE
  5
28E
330
28A
100
AcDbEntity
  8
Sichtbar schmal (ISO)
100
AcDbSpline
210
0.0
220
0.0
230
1.0
 70
    11
 71
     3
 72
    26
 73
    22
 74
     0
 42
0.0000000001
 43
0.0000000001
 40
0.0
 40
0.0
 40
0.0
 40
0.0
 40
1.0
 40
1.0
 40
1.0
 40
2.0
 40
2.0
 40
2.0
 40
3.0
 40
3.0
 40
3.0
 40
4.0
 40
4.0
 40
4.0
 40
5.0
 40
5.0
 40
5.0
 40
6.0
 40
6.0
 40
6.0
 40
7.0
 40
7.0
 40
7.0
 40
7.0
 10
128.4951714088484
 20
135.1662543064862
 30
0.0
 10
128.5134304149202
 20
135.2193087769591
 30
0.0
 10
128.5223876631819
 20
135.2730522665289
 30
0.0
 10
128.5223876631819
 20
135.3281737942929
 30
0.0
 10
128.5223876631819
 20
135.5035291544922
 30
0.0
 10
128.4407389001815
 20
135.6278971015097
 30
0.0
 10
128.2770968646321
 20
135.701622144894
 30
0.0
 10
128.1789116433025
 20
135.7460638766537
 30
0.0
 10
128.0659125113863
 20
135.7684569973079
 30
0.0
 10
127.9380994688835
 20
135.7684569973079
 30
0.0
 10
127.8554171772375
 20
135.7684569973079
 30
0.0
 10
127.7844482102414
 20
135.7615668063374
 30
0.0
 10
127.724503548798
 20
135.7474419148478
 30
0.0
 10
127.6924641607852
 20
135.7398627047803
 30
0.0
 10
127.654912619996
 20
135.7271158514849
 30
0.0
 10
127.6115044168818
 20
135.7092013549616
 30
0.0
 10
127.6115044168818
 20
135.7092013549616
 30
0.0
 10
128.3897514869998
 20
135.018459710169
 30
0.0
 10
128.3897514869998
 20
135.018459710169
 30
0.0
 10
128.441772428827
 20
135.0642794801228
 30
0.0
 10
128.4769124027766
 20
135.1131998360133
 30
0.0
 10
128.4951714088484
 20
135.1662543064862
 30
0.0
  0
SPLINE
  5
28F
330
28A
100
AcDbEntity
  8
Sichtbar schmal (ISO)
100
AcDbSpline
210
0.0
220
0.0
230
1.0
 70
     9
 71
     3
 72
    26
 73
    22
 74
     0
 42
0.0000000001
 43
0.0000000001
 40
0.0
 40
0.0
 40
0.0
 40
0.0
 40
1.0
 40
1.0
 40
1.0
 40
2.0
 40
2.0
 40
2.0
 40
3.0
 40
3.0
 40
3.0
 40
4.0
 40
4.0
 40
4.0
 40
5.0
 40
5.0
 40
5.0
 40
6.0
 40
6.0
 40
6.0
 40
7.0
 40
7.0
 40
7.0
 40
7.0
 10
127.4209906365475
 20
135.5300563897286
 30
0.0
 10
127.3948079108596
 20
135.4725232951249
 30
0.0
 10
127.3813720384671
 20
135.4084445190993
 30
0.0
 10
127.3813720384671
 20
135.3378200616516
 30
0.0
 10
127.3813720384671
 20
135.2031168281784
 30
0.0
 10
127.4371825853282
 20
135.09528533949
 30
0.0
 10
127.5491481885988
 20
135.0139810860381
 30
0.0
 10
127.6607692823209
 20
134.9326768325862
 30
0.0
 10
127.8047742736043
 20
134.8920247058603
 30
0.0
 10
127.9804741433521
 20
134.8920247058603
 30
0.0
 10
128.0466199766689
 20
134.8920247058603
 30
0.0
 10
128.1100097335975
 20
134.8989148968308
 30
0.0
 10
128.1709879236864
 20
134.9133842978688
 30
0.0
 10
128.2047498594419
 20
134.9216525270334
 30
0.0
 10
128.248158062556
 20
134.9361219280715
 30
0.0
 10
128.3005235139318
 20
134.9557589723374
 30
0.0
 10
128.3005235139318
 20
134.9557589723374
 30
0.0
 10
127.5188313483286
 20
135.6554578653917
 30
0.0
 10
127.5188313483286
 20
135.6554578653917
 30
0.0
 10
127.4802462788938
 20
135.6292751397038
 30
0.0
 10
127.4475178717839
 20
135.5879339938808
 30
0.0
 10
127.4209906365475
 20
135.5300563897286
 30
0.0
  0
SPLINE
  5
290
330
28A
100
AcDbEntity
  8
Sichtbar schmal (ISO)
100
AcDbSpline
210
0.0
220
0.0
230
1.0
 70
    11
 71
     3
 72
    59
 73
    55
 74
     0
 42
0.0000000001
 43
0.0000000001
 40
0.0
 40
0.0
 40
0.0
 40
0.0
 40
1.0
 40
1.0
 40
1.0
 40
2.0
 40
2.0
 40
2.0
 40
3.0
 40
3.0
 40
3.0
 40
4.0
 40
4.0
 40
4.0
 40
5.0
 40
5.0
 40
5.0
 40
6.0
 40
6.0
 40
6.0
 40
7.0
 40
7.0
 40
7.0
 40
8.0
 40
8.0
 40
8.0
 40
9.0
 40
9.0
 40
9.0
 40
10.0
 40
10.0
 40
10.0
 40
11.0
 40
11.0
 40
11.0
 40
12.0
 40
12.0
 40
12.0
 40
13.0
 40
13.0
 40
13.0
 40
14.0
 40
14.0
 40
14.0
 40
15.0
 40
15.0
 40
15.0
 40
16.0
 40
16.0
 40
16.0
 40
17.0
 40
17.0
 40
17.0
 40
18.0
 40
18.0
 40
18.0
 40
18.0
 10
128.6767279409211
 20
134.6081488378757
 30
0.0
 10
128.6767279409211
 20
134.6081488378757
 30
0.0
 10
128.4913818038146
 20
134.7852267458176
 30
0.0
 10
128.4913818038146
 20
134.7852267458176
 30
0.0
 10
128.4235134227552
 20
134.7390624663152
 30
0.0
 10
128.3473768125312
 20
134.7032334732686
 30
0.0
 10
128.2629719731426
 20
134.6784287857748
 30
0.0
 10
128.1782226242054
 20
134.653624098281
 30
0.0
 10
128.0783148551332
 20
134.6412217545341
 30
0.0
 10
127.9625596468288
 20
134.6412217545341
 30
0.0
 10
127.7541313699712
 20
134.6412217545341
 30
0.0
 10
127.5687852328647
 20
134.6997883777834
 30
0.0
 10
127.406865745058
 20
134.8169216242819
 30
0.0
 10
127.2446017477027
 20
134.9337103612318
 30
0.0
 10
127.1636420037993
 20
135.1042425877517
 30
0.0
 10
127.1636420037993
 20
135.3281737942929
 30
0.0
 10
127.1636420037993
 20
135.4446180216944
 30
0.0
 10
127.1846570862594
 20
135.5469373576063
 30
0.0
 10
127.2259982320824
 20
135.6347872924802
 30
0.0
 10
127.2504584100277
 20
135.6864637247589
 30
0.0
 10
127.290077008108
 20
135.7457193671052
 30
0.0
 10
127.345198535872
 20
135.8125542195191
 30
0.0
 10
127.345198535872
 20
135.8125542195191
 30
0.0
 10
127.151584169601
 20
135.9875650701698
 30
0.0
 10
127.151584169601
 20
135.9875650701698
 30
0.0
 10
127.151584169601
 20
135.9875650701698
 30
0.0
 10
127.2215196079515
 20
136.0592230562629
 30
0.0
 10
127.2215196079515
 20
136.0592230562629
 30
0.0
 10
127.2215196079515
 20
136.0592230562629
 30
0.0
 10
127.4189235792564
 20
135.8821451483211
 30
0.0
 10
127.4189235792564
 20
135.8821451483211
 30
0.0
 10
127.5036729281935
 20
135.9400227524733
 30
0.0
 10
127.600480111329
 20
135.9817084078448
 30
0.0
 10
127.7096896382114
 20
136.0068576048872
 30
0.0
 10
127.7803140956591
 20
136.0223605345708
 30
0.0
 10
127.8512830626552
 20
136.0302842541869
 30
0.0
 10
127.9219075201028
 20
136.0302842541869
 30
0.0
 10
128.158930089488
 20
136.0302842541869
 30
0.0
 10
128.3542670035017
 20
135.9658609686127
 30
0.0
 10
128.5079182621438
 20
135.8370143974644
 30
0.0
 10
128.6619140303345
 20
135.708167826316
 30
0.0
 10
128.7387396596556
 20
135.5366020711506
 30
0.0
 10
128.7387396596556
 20
135.322317131968
 30
0.0
 10
128.7387396596556
 20
135.2203423056046
 30
0.0
 10
128.723925749069
 20
135.1297362943425
 30
0.0
 10
128.6942979278959
 20
135.0498100790848
 30
0.0
 10
128.6643255971742
 20
134.969883863827
 30
0.0
 10
128.6240179799968
 20
134.9058050878013
 30
0.0
 10
128.5726860572665
 20
134.8565402223622
 30
0.0
 10
128.5726860572665
 20
134.8565402223622
 30
0.0
 10
128.7483859270143
 20
134.6894530913276
 30
0.0
 10
128.7483859270143
 20
134.6894530913276
 30
0.0
 10
128.7483859270143
 20
134.6894530913276
 30
0.0
 10
128.6767279409211
 20
134.6081488378757
 30
0.0
 10
128.6767279409211
 20
134.6081488378757
 30
0.0
  0
HATCH
  5
291
330
28A
100
AcDbEntity
  8
Sichtbar schmal (ISO)
 62
   250
420
  2039067
440
 33554687
100
AcDbHatch
 10
0.0
 20
0.0
 30
0.0
210
0.0
220
0.0
230
1.0
  2
SOLID
 70
     1
 71
     1
 91
        3
 92
        1
 93
        1
 72
     4
 94
        3
 73
     0
 74
     0
 95
       26
 96
       22
 40
0.0
 40
0.0
 40
0.0
 40
0.0
 40
1.0
 40
1.0
 40
1.0
 40
2.0
 40
2.0
 40
2.0
 40
3.0
 40
3.0
 40
3.0
 40
4.0
 40
4.0
 40
4.0
 40
5.0
 40
5.0
 40
5.0
 40
6.0
 40
6.0
 40
6.0
 40
7.0
 40
7.0
 40
7.0
 40
7.0
 10
128.4951714088484
 20
135.1662543064862
 10
128.5134304149202
 20
135.2193087769591
 10
128.5223876631819
 20
135.2730522665289
 10
128.5223876631819
 20
135.3281737942929
 10
128.5223876631819
 20
135.5035291544922
 10
128.4407389001815
 20
135.6278971015097
 10
128.2770968646321
 20
135.701622144894
 10
128.1789116433025
 20
135.7460638766537
 10
128.0659125113863
 20
135.7684569973079
 10
127.9380994688835
 20
135.7684569973079
 10
127.8554171772375
 20
135.7684569973079
 10
127.7844482102414
 20
135.7615668063374
 10
127.724503548798
 20
135.7474419148478
 10
127.6924641607852
 20
135.7398627047803
 10
127.654912619996
 20
135.7271158514849
 10
127.6115044168818
 20
135.7092013549616
 10
127.6115044168818
 20
135.7092013549616
 10
128.3897514869998
 20
135.018459710169
 10
128.3897514869998
 20
135.018459710169
 10
128.441772428827
 20
135.0642794801228
 10
128.4769124027766
 20
135.1131998360133
 10
128.4951714088484
 20
135.1662543064862
 97
        0
 97
        1
330
28E
 92
        1
 93
        1
 72
     4
 94
        3
 73
     0
 74
     0
 95
       26
 96
       22
 40
0.0
 40
0.0
 40
0.0
 40
0.0
 40
1.0
 40
1.0
 40
1.0
 40
2.0
 40
2.0
 40
2.0
 40
3.0
 40
3.0
 40
3.0
 40
4.0
 40
4.0
 40
4.0
 40
5.0
 40
5.0
 40
5.0
 40
6.0
 40
6.0
 40
6.0
 40
7.0
 40
7.0
 40
7.0
 40
7.0
 10
127.4209906365475
 20
135.5300563897286
 10
127.3948079108596
 20
135.4725232951249
 10
127.3813720384671
 20
135.4084445190993
 10
127.3813720384671
 20
135.3378200616516
 10
127.3813720384671
 20
135.2031168281784
 10
127.4371825853282
 20
135.09528533949
 10
127.5491481885988
 20
135.0139810860381
 10
127.6607692823209
 20
134.9326768325862
 10
127.8047742736043
 20
134.8920247058603
 10
127.9804741433521
 20
134.8920247058603
 10
128.0466199766689
 20
134.8920247058603
 10
128.1100097335975
 20
134.8989148968308
 10
128.1709879236864
 20
134.9133842978688
 10
128.2047498594419
 20
134.9216525270334
 10
128.248158062556
 20
134.9361219280715
 10
128.3005235139318
 20
134.9557589723374
 10
128.3005235139318
 20
134.9557589723374
 10
127.5188313483286
 20
135.6554578653917
 10
127.5188313483286
 20
135.6554578653917
 10
127.4802462788938
 20
135.6292751397038
 10
127.4475178717839
 20
135.5879339938808
 10
127.4209906365475
 20
135.5300563897286
 97
        0
 97
        1
330
28F
 92
        1
 93
        1
 72
     4
 94
        3
 73
     0
 74
     0
 95
       59
 96
       55
 40
0.0
 40
0.0
 40
0.0
 40
0.0
 40
1.0
 40
1.0
 40
1.0
 40
2.0
 40
2.0
 40
2.0
 40
3.0
 40
3.0
 40
3.0
 40
4.0
 40
4.0
 40
4.0
 40
5.0
 40
5.0
 40
5.0
 40
6.0
 40
6.0
 40
6.0
 40
7.0
 40
7.0
 40
7.0
 40
8.0
 40
8.0
 40
8.0
 40
9.0
 40
9.0
 40
9.0
 40
10.0
 40
10.0
 40
10.0
 40
11.0
 40
11.0
 40
11.0
 40
12.0
 40
12.0
 40
12.0
 40
13.0
 40
13.0
 40
13.0
 40
14.0
 40
14.0
 40
14.0
 40
15.0
 40
15.0
 40
15.0
 40
16.0
 40
16.0
 40
16.0
 40
17.0
 40
17.0
 40
17.0
 40
18.0
 40
18.0
 40
18.0
 40
18.0
 10
128.6767279409211
 20
134.6081488378757
 10
128.6767279409211
 20
134.6081488378757
 10
128.4913818038146
 20
134.7852267458176
 10
128.4913818038146
 20
134.7852267458176
 10
128.4235134227552
 20
134.7390624663152
 10
128.3473768125312
 20
134.7032334732686
 10
128.2629719731426
 20
134.6784287857748
 10
128.1782226242054
 20
134.653624098281
 10
128.0783148551332
 20
134.6412217545341
 10
127.9625596468288
 20
134.6412217545341
 10
127.7541313699712
 20
134.6412217545341
 10
127.5687852328647
 20
134.6997883777834
 10
127.406865745058
 20
134.8169216242819
 10
127.2446017477027
 20
134.9337103612318
 10
127.1636420037993
 20
135.1042425877517
 10
127.1636420037993
 20
135.3281737942929
 10
127.1636420037993
 20
135.4446180216944
 10
127.1846570862594
 20
135.5469373576063
 10
127.2259982320824
 20
135.6347872924802
 10
127.2504584100277
 20
135.6864637247589
 10
127.290077008108
 20
135.7457193671052
 10
127.345198535872
 20
135.8125542195191
 10
127.345198535872
 20
135.8125542195191
 10
127.151584169601
 20
135.9875650701698
 10
127.151584169601
 20
135.9875650701698
 10
127.151584169601
 20
135.9875650701698
 10
127.2215196079515
 20
136.0592230562629
 10
127.2215196079515
 20
136.0592230562629
 10
127.2215196079515
 20
136.0592230562629
 10
127.4189235792564
 20
135.8821451483211
 10
127.4189235792564
 20
135.8821451483211
 10
127.5036729281935
 20
135.9400227524733
 10
127.600480111329
 20
135.9817084078448
 10
127.7096896382114
 20
136.0068576048872
 10
127.7803140956591
 20
136.0223605345708
 10
127.8512830626552
 20
136.0302842541869
 10
127.9219075201028
 20
136.0302842541869
 10
128.158930089488
 20
136.0302842541869
 10
128.3542670035017
 20
135.9658609686127
 10
128.5079182621438
 20
135.8370143974644
 10
128.6619140303345
 20
135.708167826316
 10
128.7387396596556
 20
135.5366020711506
 10
128.7387396596556
 20
135.322317131968
 10
128.7387396596556
 20
135.2203423056046
 10
128.723925749069
 20
135.1297362943425
 10
128.6942979278959
 20
135.0498100790848
 10
128.6643255971742
 20
134.969883863827
 10
128.6240179799968
 20
134.9058050878013
 10
128.5726860572665
 20
134.8565402223622
 10
128.5726860572665
 20
134.8565402223622
 10
128.7483859270143
 20
134.6894530913276
 10
128.7483859270143
 20
134.6894530913276
 10
128.7483859270143
 20
134.6894530913276
 10
128.6767279409211
 20
134.6081488378757
 10
128.6767279409211
 20
134.6081488378757
 97
        0
 97
        1
330
290
 75
     2
 76
     1
 98
        1
 10
0.0
 20
0.0
450
        0
451
        0
460
0.0
461
0.0
452
        0
462
0.0
453
        0
470

  0
SPLINE
  5
292
330
28A
100
AcDbEntity
  8
Sichtbar schmal (ISO)
100
AcDbSpline
210
0.0
220
0.0
230
1.0
 70
    11
 71
     3
 72
    26
 73
    22
 74
     0
 42
0.0000000001
 43
0.0000000001
 40
0.0
 40
0.0
 40
0.0
 40
0.0
 40
1.0
 40
1.0
 40
1.0
 40
2.0
 40
2.0
 40
2.0
 40
3.0
 40
3.0
 40
3.0
 40
4.0
 40
4.0
 40
4.0
 40
5.0
 40
5.0
 40
5.0
 40
6.0
 40
6.0
 40
6.0
 40
7.0
 40
7.0
 40
7.0
 40
7.0
 10
127.2494248813821
 20
136.9697617930145
 30
0.0
 10
127.2494248813821
 20
136.9697617930145
 30
0.0
 10
127.2494248813821
 20
136.4505859033873
 30
0.0
 10
127.2494248813821
 20
136.4505859033873
 30
0.0
 10
127.2494248813821
 20
136.4505859033873
 30
0.0
 10
127.0575330628537
 20
136.4505859033873
 30
0.0
 10
127.0575330628537
 20
136.4505859033873
 30
0.0
 10
127.0575330628537
 20
136.7241264849162
 30
0.0
 10
126.9872531149546
 20
136.9725178694027
 30
0.0
 10
126.6823621645099
 20
137.0259168494241
 30
0.0
 10
126.6823621645099
 20
137.0259168494241
 30
0.0
 10
126.6823621645099
 20
137.2095404387879
 30
0.0
 10
126.6823621645099
 20
137.2095404387879
 30
0.0
 10
126.6823621645099
 20
137.2095404387879
 30
0.0
 10
128.6822400936975
 20
137.2095404387879
 30
0.0
 10
128.6822400936975
 20
137.2095404387879
 30
0.0
 10
128.6822400936975
 20
137.2095404387879
 30
0.0
 10
128.6822400936975
 20
136.9697617930145
 30
0.0
 10
128.6822400936975
 20
136.9697617930145
 30
0.0
 10
128.6822400936975
 20
136.9697617930145
 30
0.0
 10
127.2494248813821
 20
136.9697617930145
 30
0.0
 10
127.2494248813821
 20
136.9697617930145
 30
0.0
  0
HATCH
  5
293
330
28A
100
AcDbEntity
  8
Sichtbar schmal (ISO)
 62
    18
420
        0
440
 33554687
100
AcDbHatch
 10
0.0
 20
0.0
 30
0.0
210
0.0
220
0.0
230
1.0
  2
SOLID
 70
     1
 71
     1
 91
        1
 92
        1
 93
        1
 72
     4
 94
        3
 73
     0
 74
     0
 95
       26
 96
       22
 40
0.0
 40
0.0
 40
0.0
 40
0.0
 40
1.0
 40
1.0
 40
1.0
 40
2.0
 40
2.0
 40
2.0
 40
3.0
 40
3.0
 40
3.0
 40
4.0
 40
4.0
 40
4.0
 40
5.0
 40
5.0
 40
5.0
 40
6.0
 40
6.0
 40
6.0
 40
7.0
 40
7.0
 40
7.0
 40
7.0
 10
127.2494248813821
 20
136.9697617930145
 10
127.2494248813821
 20
136.9697617930145
 10
127.2494248813821
 20
136.4505859033873
 10
127.2494248813821
 20
136.4505859033873
 10
127.2494248813821
 20
136.4505859033873
 10
127.0575330628537
 20
136.4505859033873
 10
127.0575330628537
 20
136.4505859033873
 10
127.0575330628537
 20
136.7241264849162
 10
126.9872531149546
 20
136.9725178694027
 10
126.6823621645099
 20
137.0259168494241
 10
126.6823621645099
 20
137.0259168494241
 10
126.6823621645099
 20
137.2095404387879
 10
126.6823621645099
 20
137.2095404387879
 10
126.6823621645099
 20
137.2095404387879
 10
128.6822400936975
 20
137.2095404387879
 10
128.6822400936975
 20
137.2095404387879
 10
128.6822400936975
 20
137.2095404387879
 10
128.6822400936975
 20
136.9697617930145
 10
128.6822400936975
 20
136.9697617930145
 10
128.6822400936975
 20
136.9697617930145
 10
127.2494248813821
 20
136.9697617930145
 10
127.2494248813821
 20
136.9697617930145
 97
        0
 97
        1
330
292
 75
     2
 76
     1
 98
        1
 10
0.0
 20
0.0
450
        0
451
        0
460
0.0
461
0.0
452
        0
462
0.0
453
        0
470

  0
SPLINE
  5
294
330
28A
100
AcDbEntity
  8
Sichtbar schmal (ISO)
100
AcDbSpline
210
0.0
220
0.0
230
1.0
 70
    11
 71
     3
 72
    26
 73
    22
 74
     0
 42
0.0000000001
 43
0.0000000001
 40
0.0
 40
0.0
 40
0.0
 40
0.0
 40
1.0
 40
1.0
 40
1.0
 40
2.0
 40
2.0
 40
2.0
 40
3.0
 40
3.0
 40
3.0
 40
4.0
 40
4.0
 40
4.0
 40
5.0
 40
5.0
 40
5.0
 40
6.0
 40
6.0
 40
6.0
 40
7.0
 40
7.0
 40
7.0
 40
7.0
 10
127.2494248813821
 20
138.5390027865458
 30
0.0
 10
127.2494248813821
 20
138.5390027865458
 30
0.0
 10
127.2494248813821
 20
138.0201714064672
 30
0.0
 10
127.2494248813821
 20
138.0201714064672
 30
0.0
 10
127.2494248813821
 20
138.0201714064672
 30
0.0
 10
127.0575330628537
 20
138.0201714064672
 30
0.0
 10
127.0575330628537
 20
138.0201714064672
 30
0.0
 10
127.0575330628537
 20
138.293711987996
 30
0.0
 10
126.9872531149546
 20
138.541758862934
 30
0.0
 10
126.6823621645099
 20
138.5955023525039
 30
0.0
 10
126.6823621645099
 20
138.5955023525039
 30
0.0
 10
126.6823621645099
 20
138.7787814323192
 30
0.0
 10
126.6823621645099
 20
138.7787814323192
 30
0.0
 10
126.6823621645099
 20
138.7787814323192
 30
0.0
 10
128.6822400936975
 20
138.7787814323192
 30
0.0
 10
128.6822400936975
 20
138.7787814323192
 30
0.0
 10
128.6822400936975
 20
138.7787814323192
 30
0.0
 10
128.6822400936975
 20
138.5390027865458
 30
0.0
 10
128.6822400936975
 20
138.5390027865458
 30
0.0
 10
128.6822400936975
 20
138.5390027865458
 30
0.0
 10
127.2494248813821
 20
138.5390027865458
 30
0.0
 10
127.2494248813821
 20
138.5390027865458
 30
0.0
  0
HATCH
  5
295
330
28A
100
AcDbEntity
  8
Sichtbar schmal (ISO)
 62
    18
420
        0
440
 33554687
100
AcDbHatch
 10
0.0
 20
0.0
 30
0.0
210
0.0
220
0.0
230
1.0
  2
SOLID
 70
     1
 71
     1
 91
        1
 92
        1
 93
        1
 72
     4
 94
        3
 73
     0
 74
     0
 95
       26
 96
       22
 40
0.0
 40
0.0
 40
0.0
 40
0.0
 40
1.0
 40
1.0
 40
1.0
 40
2.0
 40
2.0
 40
2.0
 40
3.0
 40
3.0
 40
3.0
 40
4.0
 40
4.0
 40
4.0
 40
5.0
 40
5.0
 40
5.0
 40
6.0
 40
6.0
 40
6.0
 40
7.0
 40
7.0
 40
7.0
 40
7.0
 10
127.2494248813821
 20
138.5390027865458
 10
127.2494248813821
 20
138.5390027865458
 10
127.2494248813821
 20
138.0201714064672
 10
127.2494248813821
 20
138.0201714064672
 10
127.2494248813821
 20
138.0201714064672
 10
127.0575330628537
 20
138.0201714064672
 10
127.0575330628537
 20
138.0201714064672
 10
127.0575330628537
 20
138.293711987996
 10
126.9872531149546
 20
138.541758862934
 10
126.6823621645099
 20
138.5955023525039
 10
126.6823621645099
 20
138.5955023525039
 10
126.6823621645099
 20
138.7787814323192
 10
126.6823621645099
 20
138.7787814323192
 10
126.6823621645099
 20
138.7787814323192
 10
128.6822400936975
 20
138.7787814323192
 10
128.6822400936975
 20
138.7787814323192
 10
128.6822400936975
 20
138.7787814323192
 10
128.6822400936975
 20
138.5390027865458
 10
128.6822400936975
 20
138.5390027865458
 10
128.6822400936975
 20
138.5390027865458
 10
127.2494248813821
 20
138.5390027865458
 10
127.2494248813821
 20
138.5390027865458
 97
        0
 97
        1
330
294
 75
     2
 76
     1
 98
        1
 10
0.0
 20
0.0
450
        0
451
        0
460
0.0
461
0.0
452
        0
462
0.0
453
        0
470

  0
SPLINE
  5
296
330
28A
100
AcDbEntity
  8
Sichtbar schmal (ISO)
100
AcDbSpline
210
0.0
220
0.0
230
1.0
 70
     9
 71
     3
 72
    53
 73
    49
 74
     0
 42
0.0000000001
 43
0.0000000001
 40
0.0
 40
0.0
 40
0.0
 40
0.0
 40
1.0
 40
1.0
 40
1.0
 40
2.0
 40
2.0
 40
2.0
 40
3.0
 40
3.0
 40
3.0
 40
4.0
 40
4.0
 40
4.0
 40
5.0
 40
5.0
 40
5.0
 40
6.0
 40
6.0
 40
6.0
 40
7.0
 40
7.0
 40
7.0
 40
8.0
 40
8.0
 40
8.0
 40
9.0
 40
9.0
 40
9.0
 40
10.0
 40
10.0
 40
10.0
 40
11.0
 40
11.0
 40
11.0
 40
12.0
 40
12.0
 40
12.0
 40
13.0
 40
13.0
 40
13.0
 40
14.0
 40
14.0
 40
14.0
 40
15.0
 40
15.0
 40
15.0
 40
16.0
 40
16.0
 40
16.0
 40
16.0
 10
128.1434271598044
 20
139.6820854685517
 30
0.0
 10
128.3494438698224
 20
139.6965548695897
 30
0.0
 10
128.5044731666586
 20
139.8626084719788
 30
0.0
 10
128.5044731666586
 20
140.1023871177522
 30
0.0
 10
128.5044731666586
 20
140.3311414579727
 30
0.0
 10
128.3466877934341
 20
140.5254448433408
 30
0.0
 10
128.0307725374367
 20
140.5254448433408
 30
0.0
 10
127.7682562614607
 20
140.5254448433408
 30
0.0
 10
127.5767089524808
 20
140.3449218399138
 30
0.0
 10
127.5767089524808
 20
140.0741373347731
 30
0.0
 10
127.5767089524808
 20
139.9191080379369
 30
0.0
 10
127.6528455627048
 20
139.7950846004679
 30
0.0
 10
127.7655001850725
 20
139.7020670223661
 30
0.0
 10
127.7655001850725
 20
139.7020670223661
 30
0.0
 10
127.7544758795197
 20
139.4960503123482
 30
0.0
 10
127.7544758795197
 20
139.4960503123482
 30
0.0
 10
127.7544758795197
 20
139.4960503123482
 30
0.0
 10
126.7164686098139
 20
139.6820854685517
 30
0.0
 10
126.7164686098139
 20
139.6820854685517
 30
0.0
 10
126.7164686098139
 20
139.6820854685517
 30
0.0
 10
126.7164686098139
 20
140.6694498346243
 30
0.0
 10
126.7164686098139
 20
140.6694498346243
 30
0.0
 10
126.7164686098139
 20
140.6694498346243
 30
0.0
 10
126.9279974726083
 20
140.6694498346243
 30
0.0
 10
126.9279974726083
 20
140.6694498346243
 30
0.0
 10
126.9279974726083
 20
140.6694498346243
 30
0.0
 10
126.9279974726083
 20
139.8626084719788
 30
0.0
 10
126.9279974726083
 20
139.8626084719788
 30
0.0
 10
126.9279974726083
 20
139.8626084719788
 30
0.0
 10
127.503328418645
 20
139.755810511936
 30
0.0
 10
127.503328418645
 20
139.755810511936
 30
0.0
 10
127.503328418645
 20
139.755810511936
 30
0.0
 10
127.5088405714214
 20
139.7613226647124
 30
0.0
 10
127.5088405714214
 20
139.7613226647124
 30
0.0
 10
127.4103108405432
 20
139.8488280900378
 30
0.0
 10
127.3651800896865
 20
139.9983452340976
 30
0.0
 10
127.3651800896865
 20
140.1333929771194
 30
0.0
 10
127.3651800896865
 20
140.4889268311972
 30
0.0
 10
127.5908338439703
 20
140.7796928901523
 30
0.0
 10
128.0504095817027
 20
140.7796928901523
 30
0.0
 10
128.3890624679027
 20
140.7796928901523
 30
0.0
 10
128.7160020294529
 20
140.5454263971553
 30
0.0
 10
128.7160020294529
 20
140.079993997098
 30
0.0
 10
128.7160020294529
 20
139.7330728817334
 30
0.0
 10
128.5044731666586
 20
139.4509195614914
 30
0.0
 10
128.1434271598044
 20
139.4423068227783
 30
0.0
 10
128.1434271598044
 20
139.4423068227783
 30
0.0
 10
128.1434271598044
 20
139.6820854685517
 30
0.0
 10
128.1434271598044
 20
139.6820854685517
 30
0.0
  0
HATCH
  5
297
330
28A
100
AcDbEntity
  8
Sichtbar schmal (ISO)
 62
    18
420
        0
440
 33554687
100
AcDbHatch
 10
0.0
 20
0.0
 30
0.0
210
0.0
220
0.0
230
1.0
  2
SOLID
 70
     1
 71
     1
 91
        1
 92
        1
 93
        1
 72
     4
 94
        3
 73
     0
 74
     0
 95
       53
 96
       49
 40
0.0
 40
0.0
 40
0.0
 40
0.0
 40
1.0
 40
1.0
 40
1.0
 40
2.0
 40
2.0
 40
2.0
 40
3.0
 40
3.0
 40
3.0
 40
4.0
 40
4.0
 40
4.0
 40
5.0
 40
5.0
 40
5.0
 40
6.0
 40
6.0
 40
6.0
 40
7.0
 40
7.0
 40
7.0
 40
8.0
 40
8.0
 40
8.0
 40
9.0
 40
9.0
 40
9.0
 40
10.0
 40
10.0
 40
10.0
 40
11.0
 40
11.0
 40
11.0
 40
12.0
 40
12.0
 40
12.0
 40
13.0
 40
13.0
 40
13.0
 40
14.0
 40
14.0
 40
14.0
 40
15.0
 40
15.0
 40
15.0
 40
16.0
 40
16.0
 40
16.0
 40
16.0
 10
128.1434271598044
 20
139.6820854685517
 10
128.3494438698224
 20
139.6965548695897
 10
128.5044731666586
 20
139.8626084719788
 10
128.5044731666586
 20
140.1023871177522
 10
128.5044731666586
 20
140.3311414579727
 10
128.3466877934341
 20
140.5254448433408
 10
128.0307725374367
 20
140.5254448433408
 10
127.7682562614607
 20
140.5254448433408
 10
127.5767089524808
 20
140.3449218399138
 10
127.5767089524808
 20
140.0741373347731
 10
127.5767089524808
 20
139.9191080379369
 10
127.6528455627048
 20
139.7950846004679
 10
127.7655001850725
 20
139.7020670223661
 10
127.7655001850725
 20
139.7020670223661
 10
127.7544758795197
 20
139.4960503123482
 10
127.7544758795197
 20
139.4960503123482
 10
127.7544758795197
 20
139.4960503123482
 10
126.7164686098139
 20
139.6820854685517
 10
126.7164686098139
 20
139.6820854685517
 10
126.7164686098139
 20
139.6820854685517
 10
126.7164686098139
 20
140.6694498346243
 10
126.7164686098139
 20
140.6694498346243
 10
126.7164686098139
 20
140.6694498346243
 10
126.9279974726083
 20
140.6694498346243
 10
126.9279974726083
 20
140.6694498346243
 10
126.9279974726083
 20
140.6694498346243
 10
126.9279974726083
 20
139.8626084719788
 10
126.9279974726083
 20
139.8626084719788
 10
126.9279974726083
 20
139.8626084719788
 10
127.503328418645
 20
139.755810511936
 10
127.503328418645
 20
139.755810511936
 10
127.503328418645
 20
139.755810511936
 10
127.5088405714214
 20
139.7613226647124
 10
127.5088405714214
 20
139.7613226647124
 10
127.4103108405432
 20
139.8488280900378
 10
127.3651800896865
 20
139.9983452340976
 10
127.3651800896865
 20
140.1333929771194
 10
127.3651800896865
 20
140.4889268311972
 10
127.5908338439703
 20
140.7796928901523
 10
128.0504095817027
 20
140.7796928901523
 10
128.3890624679027
 20
140.7796928901523
 10
128.7160020294529
 20
140.5454263971553
 10
128.7160020294529
 20
140.079993997098
 10
128.7160020294529
 20
139.7330728817334
 10
128.5044731666586
 20
139.4509195614914
 10
128.1434271598044
 20
139.4423068227783
 10
128.1434271598044
 20
139.4423068227783
 10
128.1434271598044
 20
139.6820854685517
 10
128.1434271598044
 20
139.6820854685517
 97
        0
 97
        1
330
296
 75
     2
 76
     1
 98
        1
 10
0.0
 20
0.0
450
        0
451
        0
460
0.0
461
0.0
452
        0
462
0.0
453
        0
470

  0
ENDBLK
  5
28D
330
28A
100
AcDbEntity
  8
0
100
AcDbBlockEnd
  0
BLOCK
  5
29A
330
298
100
AcDbEntity
  8
0
100
AcDbBlockBegin
  2
Block_43
 70
     0
 10
0.0
 20
0.0
 30
0.0
  3
Block_43
  1

  0
INSERT
  5
29D
330
298
100
AcDbEntity
  8
Sichtbar schmal (ISO)
100
AcDbBlockReference
  2
Block_44
 10
0.0
 20
0.0
 30
0.0
  0
ENDBLK
  5
29B
330
298
100
AcDbEntity
  8
0
100
AcDbBlockEnd
  0
BLOCK
  5
29E
330
29C
100
AcDbEntity
  8
0
100
AcDbBlockBegin
  2
Block_44
 70
     0
 10
0.0
 20
0.0
 30
0.0
  3
Block_44
  1

  0
SPLINE
  5
2A0
330
29C
100
AcDbEntity
  8
Sichtbar schmal (ISO)
100
AcDbSpline
210
0.0
220
0.0
230
1.0
 70
     9
 71
     3
 72
    26
 73
    22
 74
     0
 42
0.0000000001
 43
0.0000000001
 40
0.0
 40
0.0
 40
0.0
 40
0.0
 40
1.0
 40
1.0
 40
1.0
 40
2.0
 40
2.0
 40
2.0
 40
3.0
 40
3.0
 40
3.0
 40
4.0
 40
4.0
 40
4.0
 40
5.0
 40
5.0
 40
5.0
 40
6.0
 40
6.0
 40
6.0
 40
7.0
 40
7.0
 40
7.0
 40
7.0
 10
135.4677001614456
 20
135.1528184340937
 30
0.0
 10
135.4859591675174
 20
135.2058729045666
 30
0.0
 10
135.494916415779
 20
135.259960903685
 30
0.0
 10
135.494916415779
 20
135.3143934123519
 30
0.0
 10
135.494916415779
 20
135.4900932820997
 30
0.0
 10
135.4132676527786
 20
135.6148057386657
 30
0.0
 10
135.2496256172292
 20
135.6881862725016
 30
0.0
 10
135.1514403958996
 20
135.7326280042613
 30
0.0
 10
135.0384412639834
 20
135.7550211249154
 30
0.0
 10
134.9106282214807
 20
135.7550211249154
 30
0.0
 10
134.8279459298347
 20
135.7550211249154
 30
0.0
 10
134.7569769628385
 20
135.7477864243964
 30
0.0
 10
134.6970323013952
 20
135.7340060424554
 30
0.0
 10
134.6649929133824
 20
135.7264268323878
 30
0.0
 10
134.6274413725931
 20
135.7136799790924
 30
0.0
 10
134.584033169479
 20
135.6961099921176
 30
0.0
 10
134.584033169479
 20
135.6961099921176
 30
0.0
 10
135.3622802395969
 20
135.0050238377765
 30
0.0
 10
135.3622802395969
 20
135.0050238377765
 30
0.0
 10
135.4143011814242
 20
135.0504990981818
 30
0.0
 10
135.4494411553737
 20
135.1001084731694
 30
0.0
 10
135.4677001614456
 20
135.1528184340937
 30
0.0
  0
SPLINE
  5
2A1
330
29C
100
AcDbEntity
  8
Sichtbar schmal (ISO)
100
AcDbSpline
210
0.0
220
0.0
230
1.0
 70
     9
 71
     3
 72
    26
 73
    22
 74
     0
 42
0.0000000001
 43
0.0000000001
 40
0.0
 40
0.0
 40
0.0
 40
0.0
 40
1.0
 40
1.0
 40
1.0
 40
2.0
 40
2.0
 40
2.0
 40
3.0
 40
3.0
 40
3.0
 40
4.0
 40
4.0
 40
4.0
 40
5.0
 40
5.0
 40
5.0
 40
6.0
 40
6.0
 40
6.0
 40
7.0
 40
7.0
 40
7.0
 40
7.0
 10
134.3935193891446
 20
135.5166205173361
 30
0.0
 10
134.3673366634568
 20
135.4590874227324
 30
0.0
 10
134.3539007910643
 20
135.3950086467068
 30
0.0
 10
134.3539007910643
 20
135.3243841892592
 30
0.0
 10
134.3539007910643
 20
135.1896809557859
 30
0.0
 10
134.4097113379253
 20
135.0818494670976
 30
0.0
 10
134.521676941196
 20
135.0005452136457
 30
0.0
 10
134.6332980349181
 20
134.9192409601938
 30
0.0
 10
134.7773030262015
 20
134.8785888334678
 30
0.0
 10
134.9530028959492
 20
134.8785888334678
 30
0.0
 10
135.019148729266
 20
134.8785888334678
 30
0.0
 10
135.0825384861946
 20
134.8858235339869
 30
0.0
 10
135.1435166762836
 20
134.8999484254764
 30
0.0
 10
135.177278612039
 20
134.9085611641895
 30
0.0
 10
135.2206868151531
 20
134.9223415461305
 30
0.0
 10
135.2730522665289
 20
134.942323099945
 30
0.0
 10
135.2730522665289
 20
134.942323099945
 30
0.0
 10
134.4913601009258
 20
135.6420219929992
 30
0.0
 10
134.4913601009258
 20
135.6420219929992
 30
0.0
 10
134.452775031491
 20
135.6161837768598
 30
0.0
 10
134.4200466243811
 20
135.5741536119398
 30
0.0
 10
134.3935193891446
 20
135.5166205173361
 30
0.0
  0
SPLINE
  5
2A2
330
29C
100
AcDbEntity
  8
Sichtbar schmal (ISO)
100
AcDbSpline
210
0.0
220
0.0
230
1.0
 70
    11
 71
     3
 72
    59
 73
    55
 74
     0
 42
0.0000000001
 43
0.0000000001
 40
0.0
 40
0.0
 40
0.0
 40
0.0
 40
1.0
 40
1.0
 40
1.0
 40
2.0
 40
2.0
 40
2.0
 40
3.0
 40
3.0
 40
3.0
 40
4.0
 40
4.0
 40
4.0
 40
5.0
 40
5.0
 40
5.0
 40
6.0
 40
6.0
 40
6.0
 40
7.0
 40
7.0
 40
7.0
 40
8.0
 40
8.0
 40
8.0
 40
9.0
 40
9.0
 40
9.0
 40
10.0
 40
10.0
 40
10.0
 40
11.0
 40
11.0
 40
11.0
 40
12.0
 40
12.0
 40
12.0
 40
13.0
 40
13.0
 40
13.0
 40
14.0
 40
14.0
 40
14.0
 40
15.0
 40
15.0
 40
15.0
 40
16.0
 40
16.0
 40
16.0
 40
17.0
 40
17.0
 40
17.0
 40
18.0
 40
18.0
 40
18.0
 40
18.0
 10
135.6492566935182
 20
134.5947129654832
 30
0.0
 10
135.6492566935182
 20
134.5947129654832
 30
0.0
 10
135.4639105564118
 20
134.7714463638766
 30
0.0
 10
135.4639105564118
 20
134.7714463638766
 30
0.0
 10
135.3960421753524
 20
134.7252820843742
 30
0.0
 10
135.3199055651283
 20
134.6901421104247
 30
0.0
 10
135.2355007257397
 20
134.6653374229309
 30
0.0
 10
135.1507513768026
 20
134.6401882258886
 30
0.0
 10
135.0508436077303
 20
134.6277858821416
 30
0.0
 10
134.9350883994259
 20
134.6277858821416
 30
0.0
 10
134.7266601225683
 20
134.6277858821416
 30
0.0
 10
134.5413139854619
 20
134.6863525053909
 30
0.0
 10
134.3793944976551
 20
134.8031412423409
 30
0.0
 10
134.2171305002999
 20
134.9202744888393
 30
0.0
 10
134.1361707563965
 20
135.0908067153592
 30
0.0
 10
134.1361707563965
 20
135.3147379219005
 30
0.0
 10
134.1361707563965
 20
135.4311821493019
 30
0.0
 10
134.1571858388565
 20
135.5335014852138
 30
0.0
 10
134.1985269846795
 20
135.6213514200877
 30
0.0
 10
134.2229871626248
 20
135.6730278523664
 30
0.0
 10
134.2626057607052
 20
135.7322834947127
 30
0.0
 10
134.3177272884692
 20
135.7987738375781
 30
0.0
 10
134.3177272884692
 20
135.7987738375781
 30
0.0
 10
134.1241129221981
 20
135.9744737073258
 30
0.0
 10
134.1241129221981
 20
135.9744737073258
 30
0.0
 10
134.1241129221981
 20
135.9744737073258
 30
0.0
 10
134.1940483605487
 20
136.0457871838705
 30
0.0
 10
134.1940483605487
 20
136.0457871838705
 30
0.0
 10
134.1940483605487
 20
136.0457871838705
 30
0.0
 10
134.3914523318535
 20
135.8687092759286
 30
0.0
 10
134.3914523318535
 20
135.8687092759286
 30
0.0
 10
134.4762016807906
 20
135.9269313896293
 30
0.0
 10
134.5730088639262
 20
135.9682725354524
 30
0.0
 10
134.6822183908086
 20
135.9930772229462
 30
0.0
 10
134.7528428482562
 20
136.0089246621783
 30
0.0
 10
134.8238118152524
 20
136.0168483817944
 30
0.0
 10
134.8944362727
 20
136.0168483817944
 30
0.0
 10
135.1314588420852
 20
136.0168483817944
 30
0.0
 10
135.3267957560988
 20
135.9524250962202
 30
0.0
 10
135.480447014741
 20
135.8235785250719
 30
0.0
 10
135.6344427829316
 20
135.6947319539235
 30
0.0
 10
135.7112684122527
 20
135.5231661987581
 30
0.0
 10
135.7112684122527
 20
135.3088812595755
 30
0.0
 10
135.7112684122527
 20
135.2069064332122
 30
0.0
 10
135.6964545016662
 20
135.1159559124015
 30
0.0
 10
135.666826680493
 20
135.0363742066923
 30
0.0
 10
135.6368543497713
 20
134.956792500983
 30
0.0
 10
135.5965467325939
 20
134.8920247058603
 30
0.0
 10
135.5452148098637
 20
134.8431043499698
 30
0.0
 10
135.5452148098637
 20
134.8431043499698
 30
0.0
 10
135.7209146796114
 20
134.6760172189351
 30
0.0
 10
135.7209146796114
 20
134.6760172189351
 30
0.0
 10
135.7209146796114
 20
134.6760172189351
 30
0.0
 10
135.6492566935182
 20
134.5947129654832
 30
0.0
 10
135.6492566935182
 20
134.5947129654832
 30
0.0
  0
HATCH
  5
2A3
330
29C
100
AcDbEntity
  8
Sichtbar schmal (ISO)
 62
   250
420
  2039067
440
 33554687
100
AcDbHatch
 10
0.0
 20
0.0
 30
0.0
210
0.0
220
0.0
230
1.0
  2
SOLID
 70
     1
 71
     1
 91
        3
 92
        1
 93
        1
 72
     4
 94
        3
 73
     0
 74
     0
 95
       26
 96
       22
 40
0.0
 40
0.0
 40
0.0
 40
0.0
 40
1.0
 40
1.0
 40
1.0
 40
2.0
 40
2.0
 40
2.0
 40
3.0
 40
3.0
 40
3.0
 40
4.0
 40
4.0
 40
4.0
 40
5.0
 40
5.0
 40
5.0
 40
6.0
 40
6.0
 40
6.0
 40
7.0
 40
7.0
 40
7.0
 40
7.0
 10
135.4677001614456
 20
135.1528184340937
 10
135.4859591675174
 20
135.2058729045666
 10
135.494916415779
 20
135.259960903685
 10
135.494916415779
 20
135.3143934123519
 10
135.494916415779
 20
135.4900932820997
 10
135.4132676527786
 20
135.6148057386657
 10
135.2496256172292
 20
135.6881862725016
 10
135.1514403958996
 20
135.7326280042613
 10
135.0384412639834
 20
135.7550211249154
 10
134.9106282214807
 20
135.7550211249154
 10
134.8279459298347
 20
135.7550211249154
 10
134.7569769628385
 20
135.7477864243964
 10
134.6970323013952
 20
135.7340060424554
 10
134.6649929133824
 20
135.7264268323878
 10
134.6274413725931
 20
135.7136799790924
 10
134.584033169479
 20
135.6961099921176
 10
134.584033169479
 20
135.6961099921176
 10
135.3622802395969
 20
135.0050238377765
 10
135.3622802395969
 20
135.0050238377765
 10
135.4143011814242
 20
135.0504990981818
 10
135.4494411553737
 20
135.1001084731694
 10
135.4677001614456
 20
135.1528184340937
 97
        0
 97
        1
330
2A0
 92
        1
 93
        1
 72
     4
 94
        3
 73
     0
 74
     0
 95
       26
 96
       22
 40
0.0
 40
0.0
 40
0.0
 40
0.0
 40
1.0
 40
1.0
 40
1.0
 40
2.0
 40
2.0
 40
2.0
 40
3.0
 40
3.0
 40
3.0
 40
4.0
 40
4.0
 40
4.0
 40
5.0
 40
5.0
 40
5.0
 40
6.0
 40
6.0
 40
6.0
 40
7.0
 40
7.0
 40
7.0
 40
7.0
 10
134.3935193891446
 20
135.5166205173361
 10
134.3673366634568
 20
135.4590874227324
 10
134.3539007910643
 20
135.3950086467068
 10
134.3539007910643
 20
135.3243841892592
 10
134.3539007910643
 20
135.1896809557859
 10
134.4097113379253
 20
135.0818494670976
 10
134.521676941196
 20
135.0005452136457
 10
134.6332980349181
 20
134.9192409601938
 10
134.7773030262015
 20
134.8785888334678
 10
134.9530028959492
 20
134.8785888334678
 10
135.019148729266
 20
134.8785888334678
 10
135.0825384861946
 20
134.8858235339869
 10
135.1435166762836
 20
134.8999484254764
 10
135.177278612039
 20
134.9085611641895
 10
135.2206868151531
 20
134.9223415461305
 10
135.2730522665289
 20
134.942323099945
 10
135.2730522665289
 20
134.942323099945
 10
134.4913601009258
 20
135.6420219929992
 10
134.4913601009258
 20
135.6420219929992
 10
134.452775031491
 20
135.6161837768598
 10
134.4200466243811
 20
135.5741536119398
 10
134.3935193891446
 20
135.5166205173361
 97
        0
 97
        1
330
2A1
 92
        1
 93
        1
 72
     4
 94
        3
 73
     0
 74
     0
 95
       59
 96
       55
 40
0.0
 40
0.0
 40
0.0
 40
0.0
 40
1.0
 40
1.0
 40
1.0
 40
2.0
 40
2.0
 40
2.0
 40
3.0
 40
3.0
 40
3.0
 40
4.0
 40
4.0
 40
4.0
 40
5.0
 40
5.0
 40
5.0
 40
6.0
 40
6.0
 40
6.0
 40
7.0
 40
7.0
 40
7.0
 40
8.0
 40
8.0
 40
8.0
 40
9.0
 40
9.0
 40
9.0
 40
10.0
 40
10.0
 40
10.0
 40
11.0
 40
11.0
 40
11.0
 40
12.0
 40
12.0
 40
12.0
 40
13.0
 40
13.0
 40
13.0
 40
14.0
 40
14.0
 40
14.0
 40
15.0
 40
15.0
 40
15.0
 40
16.0
 40
16.0
 40
16.0
 40
17.0
 40
17.0
 40
17.0
 40
18.0
 40
18.0
 40
18.0
 40
18.0
 10
135.6492566935182
 20
134.5947129654832
 10
135.6492566935182
 20
134.5947129654832
 10
135.4639105564118
 20
134.7714463638766
 10
135.4639105564118
 20
134.7714463638766
 10
135.3960421753524
 20
134.7252820843742
 10
135.3199055651283
 20
134.6901421104247
 10
135.2355007257397
 20
134.6653374229309
 10
135.1507513768026
 20
134.6401882258886
 10
135.0508436077303
 20
134.6277858821416
 10
134.9350883994259
 20
134.6277858821416
 10
134.7266601225683
 20
134.6277858821416
 10
134.5413139854619
 20
134.6863525053909
 10
134.3793944976551
 20
134.8031412423409
 10
134.2171305002999
 20
134.9202744888393
 10
134.1361707563965
 20
135.0908067153592
 10
134.1361707563965
 20
135.3147379219005
 10
134.1361707563965
 20
135.4311821493019
 10
134.1571858388565
 20
135.5335014852138
 10
134.1985269846795
 20
135.6213514200877
 10
134.2229871626248
 20
135.6730278523664
 10
134.2626057607052
 20
135.7322834947127
 10
134.3177272884692
 20
135.7987738375781
 10
134.3177272884692
 20
135.7987738375781
 10
134.1241129221981
 20
135.9744737073258
 10
134.1241129221981
 20
135.9744737073258
 10
134.1241129221981
 20
135.9744737073258
 10
134.1940483605487
 20
136.0457871838705
 10
134.1940483605487
 20
136.0457871838705
 10
134.1940483605487
 20
136.0457871838705
 10
134.3914523318535
 20
135.8687092759286
 10
134.3914523318535
 20
135.8687092759286
 10
134.4762016807906
 20
135.9269313896293
 10
134.5730088639262
 20
135.9682725354524
 10
134.6822183908086
 20
135.9930772229462
 10
134.7528428482562
 20
136.0089246621783
 10
134.8238118152524
 20
136.0168483817944
 10
134.8944362727
 20
136.0168483817944
 10
135.1314588420852
 20
136.0168483817944
 10
135.3267957560988
 20
135.9524250962202
 10
135.480447014741
 20
135.8235785250719
 10
135.6344427829316
 20
135.6947319539235
 10
135.7112684122527
 20
135.5231661987581
 10
135.7112684122527
 20
135.3088812595755
 10
135.7112684122527
 20
135.2069064332122
 10
135.6964545016662
 20
135.1159559124015
 10
135.666826680493
 20
135.0363742066923
 10
135.6368543497713
 20
134.956792500983
 10
135.5965467325939
 20
134.8920247058603
 10
135.5452148098637
 20
134.8431043499698
 10
135.5452148098637
 20
134.8431043499698
 10
135.7209146796114
 20
134.6760172189351
 10
135.7209146796114
 20
134.6760172189351
 10
135.7209146796114
 20
134.6760172189351
 10
135.6492566935182
 20
134.5947129654832
 10
135.6492566935182
 20
134.5947129654832
 97
        0
 97
        1
330
2A2
 75
     2
 76
     1
 98
        1
 10
0.0
 20
0.0
450
        0
451
        0
460
0.0
461
0.0
452
        0
462
0.0
453
        0
470

  0
SPLINE
  5
2A4
330
29C
100
AcDbEntity
  8
Sichtbar schmal (ISO)
100
AcDbSpline
210
0.0
220
0.0
230
1.0
 70
     9
 71
     3
 72
    41
 73
    37
 74
     0
 42
0.0000000001
 43
0.0000000001
 40
0.0
 40
0.0
 40
0.0
 40
0.0
 40
1.0
 40
1.0
 40
1.0
 40
2.0
 40
2.0
 40
2.0
 40
3.0
 40
3.0
 40
3.0
 40
4.0
 40
4.0
 40
4.0
 40
5.0
 40
5.0
 40
5.0
 40
6.0
 40
6.0
 40
6.0
 40
7.0
 40
7.0
 40
7.0
 40
8.0
 40
8.0
 40
8.0
 40
9.0
 40
9.0
 40
9.0
 40
10.0
 40
10.0
 40
10.0
 40
11.0
 40
11.0
 40
11.0
 40
12.0
 40
12.0
 40
12.0
 40
12.0
 10
134.8369031780963
 20
136.8209336680517
 30
0.0
 10
134.625374315302
 20
137.1595865542518
 30
0.0
 10
134.5068630306094
 20
137.3314968189657
 30
0.0
 10
134.2274657867556
 20
137.3314968189657
 30
0.0
 10
134.0104247711849
 20
137.3314968189657
 30
0.0
 10
133.8664197799014
 20
137.156485968315
 30
0.0
 10
133.8664197799014
 20
136.9449571055207
 30
0.0
 10
133.8664197799014
 20
136.6655598616669
 30
0.0
 10
134.1230793935525
 20
136.5470485769743
 30
0.0
 10
134.3628580393259
 20
136.5556613156875
 30
0.0
 10
134.3628580393259
 20
136.5556613156875
 30
0.0
 10
134.3628580393259
 20
136.3158826699141
 30
0.0
 10
134.3628580393259
 20
136.3158826699141
 30
0.0
 10
133.956681281615
 20
136.2934895492599
 30
0.0
 10
133.6548909171071
 20
136.5360242714215
 30
0.0
 10
133.6548909171071
 20
136.9590819970102
 30
0.0
 10
133.6548909171071
 20
137.3060031123749
 30
0.0
 10
133.8581515507368
 20
137.5854003562286
 30
0.0
 10
134.2305663726923
 20
137.5854003562286
 30
0.0
 10
134.5829996408334
 20
137.5854003562286
 30
0.0
 10
134.7580104914841
 20
137.3483777868434
 30
0.0
 10
134.9157958647085
 20
137.1003309119054
 30
0.0
 10
135.0653130087684
 20
136.851939527419
 30
0.0
 10
135.1979491849505
 20
136.5839110986665
 30
0.0
 10
135.4432399835003
 20
136.5387803478097
 30
0.0
 10
135.4432399835003
 20
136.5387803478097
 30
0.0
 10
135.4432399835003
 20
137.5654188024142
 30
0.0
 10
135.4432399835003
 20
137.5654188024142
 30
0.0
 10
135.4432399835003
 20
137.5654188024142
 30
0.0
 10
135.6547688462946
 20
137.5654188024142
 30
0.0
 10
135.6547688462946
 20
137.5654188024142
 30
0.0
 10
135.6547688462946
 20
137.5654188024142
 30
0.0
 10
135.6547688462946
 20
136.2597276135045
 30
0.0
 10
135.6547688462946
 20
136.2597276135045
 30
0.0
 10
135.183824293461
 20
136.2962456256481
 30
0.0
 10
135.0060573664221
 20
136.5387803478097
 30
0.0
 10
134.8369031780963
 20
136.8209336680517
 30
0.0
  0
HATCH
  5
2A5
330
29C
100
AcDbEntity
  8
Sichtbar schmal (ISO)
 62
    18
420
        0
440
 33554687
100
AcDbHatch
 10
0.0
 20
0.0
 30
0.0
210
0.0
220
0.0
230
1.0
  2
SOLID
 70
     1
 71
     1
 91
        1
 92
        1
 93
        1
 72
     4
 94
        3
 73
     0
 74
     0
 95
       41
 96
       37
 40
0.0
 40
0.0
 40
0.0
 40
0.0
 40
1.0
 40
1.0
 40
1.0
 40
2.0
 40
2.0
 40
2.0
 40
3.0
 40
3.0
 40
3.0
 40
4.0
 40
4.0
 40
4.0
 40
5.0
 40
5.0
 40
5.0
 40
6.0
 40
6.0
 40
6.0
 40
7.0
 40
7.0
 40
7.0
 40
8.0
 40
8.0
 40
8.0
 40
9.0
 40
9.0
 40
9.0
 40
10.0
 40
10.0
 40
10.0
 40
11.0
 40
11.0
 40
11.0
 40
12.0
 40
12.0
 40
12.0
 40
12.0
 10
134.8369031780963
 20
136.8209336680517
 10
134.625374315302
 20
137.1595865542518
 10
134.5068630306094
 20
137.3314968189657
 10
134.2274657867556
 20
137.3314968189657
 10
134.0104247711849
 20
137.3314968189657
 10
133.8664197799014
 20
137.156485968315
 10
133.8664197799014
 20
136.9449571055207
 10
133.8664197799014
 20
136.6655598616669
 10
134.1230793935525
 20
136.5470485769743
 10
134.3628580393259
 20
136.5556613156875
 10
134.3628580393259
 20
136.5556613156875
 10
134.3628580393259
 20
136.3158826699141
 10
134.3628580393259
 20
136.3158826699141
 10
133.956681281615
 20
136.2934895492599
 10
133.6548909171071
 20
136.5360242714215
 10
133.6548909171071
 20
136.9590819970102
 10
133.6548909171071
 20
137.3060031123749
 10
133.8581515507368
 20
137.5854003562286
 10
134.2305663726923
 20
137.5854003562286
 10
134.5829996408334
 20
137.5854003562286
 10
134.7580104914841
 20
137.3483777868434
 10
134.9157958647085
 20
137.1003309119054
 10
135.0653130087684
 20
136.851939527419
 10
135.1979491849505
 20
136.5839110986665
 10
135.4432399835003
 20
136.5387803478097
 10
135.4432399835003
 20
136.5387803478097
 10
135.4432399835003
 20
137.5654188024142
 10
135.4432399835003
 20
137.5654188024142
 10
135.4432399835003
 20
137.5654188024142
 10
135.6547688462946
 20
137.5654188024142
 10
135.6547688462946
 20
137.5654188024142
 10
135.6547688462946
 20
137.5654188024142
 10
135.6547688462946
 20
136.2597276135045
 10
135.6547688462946
 20
136.2597276135045
 10
135.183824293461
 20
136.2962456256481
 10
135.0060573664221
 20
136.5387803478097
 10
134.8369031780963
 20
136.8209336680517
 97
        0
 97
        1
330
2A4
 75
     2
 76
     1
 98
        1
 10
0.0
 20
0.0
450
        0
451
        0
460
0.0
461
0.0
452
        0
462
0.0
453
        0
470

  0
SPLINE
  5
2A6
330
29C
100
AcDbEntity
  8
Sichtbar schmal (ISO)
100
AcDbSpline
210
0.0
220
0.0
230
1.0
 70
     9
 71
     3
 72
    17
 73
    13
 74
     0
 42
0.0000000001
 43
0.0000000001
 40
0.0
 40
0.0
 40
0.0
 40
0.0
 40
1.0
 40
1.0
 40
1.0
 40
2.0
 40
2.0
 40
2.0
 40
3.0
 40
3.0
 40
3.0
 40
4.0
 40
4.0
 40
4.0
 40
4.0
 10
134.3235839507941
 20
138.914518194438
 30
0.0
 10
134.0779486426958
 20
138.914518194438
 30
0.0
 10
133.8664197799014
 20
138.7708577127031
 30
0.0
 10
133.8664197799014
 20
138.5031737934992
 30
0.0
 10
133.8664197799014
 20
138.2179198873205
 30
0.0
 10
134.095174120122
 20
138.1107774177292
 30
0.0
 10
134.3404649186718
 20
138.1107774177292
 30
0.0
 10
134.5575059342426
 20
138.1107774177292
 30
0.0
 10
134.7635226442605
 20
138.2744194532786
 30
0.0
 10
134.7635226442605
 20
138.5059298698874
 30
0.0
 10
134.7635226442605
 20
138.7567328212136
 30
0.0
 10
134.5602620106307
 20
138.914518194438
 30
0.0
 10
134.3235839507941
 20
138.914518194438
 30
0.0
  0
SPLINE
  5
2A7
330
29C
100
AcDbEntity
  8
Sichtbar schmal (ISO)
100
AcDbSpline
210
0.0
220
0.0
230
1.0
 70
     9
 71
     3
 72
    35
 73
    31
 74
     0
 42
0.0000000001
 43
0.0000000001
 40
0.0
 40
0.0
 40
0.0
 40
0.0
 40
1.0
 40
1.0
 40
1.0
 40
2.0
 40
2.0
 40
2.0
 40
3.0
 40
3.0
 40
3.0
 40
4.0
 40
4.0
 40
4.0
 40
5.0
 40
5.0
 40
5.0
 40
6.0
 40
6.0
 40
6.0
 40
7.0
 40
7.0
 40
7.0
 40
8.0
 40
8.0
 40
8.0
 40
9.0
 40
9.0
 40
9.0
 40
10.0
 40
10.0
 40
10.0
 40
10.0
 10
135.1724554783596
 20
138.1390272007083
 30
0.0
 10
135.3671033732763
 20
138.1586642449742
 30
0.0
 10
135.4770019192558
 20
138.314038051359
 30
0.0
 10
135.4770019192558
 20
138.5059298698874
 30
0.0
 10
135.4770019192558
 20
138.7991074956821
 30
0.0
 10
135.2234428915414
 20
138.9427679774171
 30
0.0
 10
134.7042670019142
 20
138.9572373784551
 30
0.0
 10
134.7042670019142
 20
138.9572373784551
 30
0.0
 10
134.6987548491378
 20
138.9513807161302
 30
0.0
 10
134.6987548491378
 20
138.9513807161302
 30
0.0
 10
134.8679090374636
 20
138.8611192144167
 30
0.0
 10
134.9750515070548
 20
138.6836967969263
 30
0.0
 10
134.9750515070548
 20
138.4887043924611
 30
0.0
 10
134.9750515070548
 20
138.079771558362
 30
0.0
 10
134.701510925526
 20
137.8568738804663
 30
0.0
 10
134.3067029829164
 20
137.8568738804663
 30
0.0
 10
133.9229193458595
 20
137.8568738804663
 30
0.0
 10
133.6548909171071
 20
138.127658385607
 30
0.0
 10
133.6548909171071
 20
138.514198099052
 30
0.0
 10
133.6548909171071
 20
138.8866129210075
 30
0.0
 10
133.8553954743486
 20
139.1997721006167
 30
0.0
 10
134.6112494238124
 20
139.1997721006167
 30
0.0
 10
135.3023355781536
 20
139.1997721006167
 30
0.0
 10
135.6885307820501
 20
138.9909993142106
 30
0.0
 10
135.6885307820501
 20
138.5059298698874
 30
0.0
 10
135.6885307820501
 20
138.1700330600755
 30
0.0
 10
135.5166205173361
 20
137.9302544143022
 30
0.0
 10
135.1724554783596
 20
137.8992485549349
 30
0.0
 10
135.1724554783596
 20
137.8992485549349
 30
0.0
 10
135.1724554783596
 20
138.1390272007083
 30
0.0
 10
135.1724554783596
 20
138.1390272007083
 30
0.0
  0
HATCH
  5
2A8
330
29C
100
AcDbEntity
  8
Sichtbar schmal (ISO)
 62
    18
420
        0
440
 33554687
100
AcDbHatch
 10
0.0
 20
0.0
 30
0.0
210
0.0
220
0.0
230
1.0
  2
SOLID
 70
     1
 71
     1
 91
        2
 92
        1
 93
        1
 72
     4
 94
        3
 73
     0
 74
     0
 95
       17
 96
       13
 40
0.0
 40
0.0
 40
0.0
 40
0.0
 40
1.0
 40
1.0
 40
1.0
 40
2.0
 40
2.0
 40
2.0
 40
3.0
 40
3.0
 40
3.0
 40
4.0
 40
4.0
 40
4.0
 40
4.0
 10
134.3235839507941
 20
138.914518194438
 10
134.0779486426958
 20
138.914518194438
 10
133.8664197799014
 20
138.7708577127031
 10
133.8664197799014
 20
138.5031737934992
 10
133.8664197799014
 20
138.2179198873205
 10
134.095174120122
 20
138.1107774177292
 10
134.3404649186718
 20
138.1107774177292
 10
134.5575059342426
 20
138.1107774177292
 10
134.7635226442605
 20
138.2744194532786
 10
134.7635226442605
 20
138.5059298698874
 10
134.7635226442605
 20
138.7567328212136
 10
134.5602620106307
 20
138.914518194438
 10
134.3235839507941
 20
138.914518194438
 97
        0
 97
        1
330
2A6
 92
        1
 93
        1
 72
     4
 94
        3
 73
     0
 74
     0
 95
       35
 96
       31
 40
0.0
 40
0.0
 40
0.0
 40
0.0
 40
1.0
 40
1.0
 40
1.0
 40
2.0
 40
2.0
 40
2.0
 40
3.0
 40
3.0
 40
3.0
 40
4.0
 40
4.0
 40
4.0
 40
5.0
 40
5.0
 40
5.0
 40
6.0
 40
6.0
 40
6.0
 40
7.0
 40
7.0
 40
7.0
 40
8.0
 40
8.0
 40
8.0
 40
9.0
 40
9.0
 40
9.0
 40
10.0
 40
10.0
 40
10.0
 40
10.0
 10
135.1724554783596
 20
138.1390272007083
 10
135.3671033732763
 20
138.1586642449742
 10
135.4770019192558
 20
138.314038051359
 10
135.4770019192558
 20
138.5059298698874
 10
135.4770019192558
 20
138.7991074956821
 10
135.2234428915414
 20
138.9427679774171
 10
134.7042670019142
 20
138.9572373784551
 10
134.7042670019142
 20
138.9572373784551
 10
134.6987548491378
 20
138.9513807161302
 10
134.6987548491378
 20
138.9513807161302
 10
134.8679090374636
 20
138.8611192144167
 10
134.9750515070548
 20
138.6836967969263
 10
134.9750515070548
 20
138.4887043924611
 10
134.9750515070548
 20
138.079771558362
 10
134.701510925526
 20
137.8568738804663
 10
134.3067029829164
 20
137.8568738804663
 10
133.9229193458595
 20
137.8568738804663
 10
133.6548909171071
 20
138.127658385607
 10
133.6548909171071
 20
138.514198099052
 10
133.6548909171071
 20
138.8866129210075
 10
133.8553954743486
 20
139.1997721006167
 10
134.6112494238124
 20
139.1997721006167
 10
135.3023355781536
 20
139.1997721006167
 10
135.6885307820501
 20
138.9909993142106
 10
135.6885307820501
 20
138.5059298698874
 10
135.6885307820501
 20
138.1700330600755
 10
135.5166205173361
 20
137.9302544143022
 10
135.1724554783596
 20
137.8992485549349
 10
135.1724554783596
 20
137.8992485549349
 10
135.1724554783596
 20
138.1390272007083
 10
135.1724554783596
 20
138.1390272007083
 97
        0
 97
        1
330
2A7
 75
     2
 76
     1
 98
        1
 10
0.0
 20
0.0
450
        0
451
        0
460
0.0
461
0.0
452
        0
462
0.0
453
        0
470

  0
SPLINE
  5
2A9
330
29C
100
AcDbEntity
  8
Sichtbar schmal (ISO)
100
AcDbSpline
210
0.0
220
0.0
230
1.0
 70
     9
 71
     3
 72
    53
 73
    49
 74
     0
 42
0.0000000001
 43
0.0000000001
 40
0.0
 40
0.0
 40
0.0
 40
0.0
 40
1.0
 40
1.0
 40
1.0
 40
2.0
 40
2.0
 40
2.0
 40
3.0
 40
3.0
 40
3.0
 40
4.0
 40
4.0
 40
4.0
 40
5.0
 40
5.0
 40
5.0
 40
6.0
 40
6.0
 40
6.0
 40
7.0
 40
7.0
 40
7.0
 40
8.0
 40
8.0
 40
8.0
 40
9.0
 40
9.0
 40
9.0
 40
10.0
 40
10.0
 40
10.0
 40
11.0
 40
11.0
 40
11.0
 40
12.0
 40
12.0
 40
12.0
 40
13.0
 40
13.0
 40
13.0
 40
14.0
 40
14.0
 40
14.0
 40
15.0
 40
15.0
 40
15.0
 40
16.0
 40
16.0
 40
16.0
 40
16.0
 10
135.1159559124015
 20
139.6689941057077
 30
0.0
 10
135.3219726224195
 20
139.6827744876487
 30
0.0
 10
135.4770019192558
 20
139.8495171091348
 30
0.0
 10
135.4770019192558
 20
140.0892957549082
 30
0.0
 10
135.4770019192558
 20
140.3173610760317
 30
0.0
 10
135.3192165460313
 20
140.5123534804969
 30
0.0
 10
135.0033012900339
 20
140.5123534804969
 30
0.0
 10
134.7407850140579
 20
140.5123534804969
 30
0.0
 10
134.549237705078
 20
140.3318304770698
 30
0.0
 10
134.549237705078
 20
140.0610459719292
 30
0.0
 10
134.549237705078
 20
139.9056721655444
 30
0.0
 10
134.625374315302
 20
139.7816487280754
 30
0.0
 10
134.7380289376696
 20
139.6886311499736
 30
0.0
 10
134.7380289376696
 20
139.6886311499736
 30
0.0
 10
134.7270046321168
 20
139.4826144399557
 30
0.0
 10
134.7270046321168
 20
139.4826144399557
 30
0.0
 10
134.7270046321168
 20
139.4826144399557
 30
0.0
 10
133.6889973624111
 20
139.6689941057077
 30
0.0
 10
133.6889973624111
 20
139.6689941057077
 30
0.0
 10
133.6889973624111
 20
139.6689941057077
 30
0.0
 10
133.6889973624111
 20
140.6560139622318
 30
0.0
 10
133.6889973624111
 20
140.6560139622318
 30
0.0
 10
133.6889973624111
 20
140.6560139622318
 30
0.0
 10
133.9005262252054
 20
140.6560139622318
 30
0.0
 10
133.9005262252054
 20
140.6560139622318
 30
0.0
 10
133.9005262252054
 20
140.6560139622318
 30
0.0
 10
133.9005262252054
 20
139.8495171091348
 30
0.0
 10
133.9005262252054
 20
139.8495171091348
 30
0.0
 10
133.9005262252054
 20
139.8495171091348
 30
0.0
 10
134.4758571712421
 20
139.742030129995
 30
0.0
 10
134.4758571712421
 20
139.742030129995
 30
0.0
 10
134.4758571712421
 20
139.742030129995
 30
0.0
 10
134.4813693240185
 20
139.7478867923199
 30
0.0
 10
134.4813693240185
 20
139.7478867923199
 30
0.0
 10
134.3828395931404
 20
139.8350477080968
 30
0.0
 10
134.3377088422836
 20
139.9845648521566
 30
0.0
 10
134.3377088422836
 20
140.1203016142755
 30
0.0
 10
134.3377088422836
 20
140.4754909588047
 30
0.0
 10
134.5633625965675
 20
140.7659125082113
 30
0.0
 10
135.0229383342998
 20
140.7659125082113
 30
0.0
 10
135.3615912204999
 20
140.7659125082113
 30
0.0
 10
135.6885307820501
 20
140.5319905247628
 30
0.0
 10
135.6885307820501
 20
140.0665581247056
 30
0.0
 10
135.6885307820501
 20
139.7196370093409
 30
0.0
 10
135.4770019192558
 20
139.4374836890989
 30
0.0
 10
135.1159559124015
 20
139.4292154599343
 30
0.0
 10
135.1159559124015
 20
139.4292154599343
 30
0.0
 10
135.1159559124015
 20
139.6689941057077
 30
0.0
 10
135.1159559124015
 20
139.6689941057077
 30
0.0
  0
HATCH
  5
2AA
330
29C
100
AcDbEntity
  8
Sichtbar schmal (ISO)
 62
    18
420
        0
440
 33554687
100
AcDbHatch
 10
0.0
 20
0.0
 30
0.0
210
0.0
220
0.0
230
1.0
  2
SOLID
 70
     1
 71
     1
 91
        1
 92
        1
 93
        1
 72
     4
 94
        3
 73
     0
 74
     0
 95
       53
 96
       49
 40
0.0
 40
0.0
 40
0.0
 40
0.0
 40
1.0
 40
1.0
 40
1.0
 40
2.0
 40
2.0
 40
2.0
 40
3.0
 40
3.0
 40
3.0
 40
4.0
 40
4.0
 40
4.0
 40
5.0
 40
5.0
 40
5.0
 40
6.0
 40
6.0
 40
6.0
 40
7.0
 40
7.0
 40
7.0
 40
8.0
 40
8.0
 40
8.0
 40
9.0
 40
9.0
 40
9.0
 40
10.0
 40
10.0
 40
10.0
 40
11.0
 40
11.0
 40
11.0
 40
12.0
 40
12.0
 40
12.0
 40
13.0
 40
13.0
 40
13.0
 40
14.0
 40
14.0
 40
14.0
 40
15.0
 40
15.0
 40
15.0
 40
16.0
 40
16.0
 40
16.0
 40
16.0
 10
135.1159559124015
 20
139.6689941057077
 10
135.3219726224195
 20
139.6827744876487
 10
135.4770019192558
 20
139.8495171091348
 10
135.4770019192558
 20
140.0892957549082
 10
135.4770019192558
 20
140.3173610760317
 10
135.3192165460313
 20
140.5123534804969
 10
135.0033012900339
 20
140.5123534804969
 10
134.7407850140579
 20
140.5123534804969
 10
134.549237705078
 20
140.3318304770698
 10
134.549237705078
 20
140.0610459719292
 10
134.549237705078
 20
139.9056721655444
 10
134.625374315302
 20
139.7816487280754
 10
134.7380289376696
 20
139.6886311499736
 10
134.7380289376696
 20
139.6886311499736
 10
134.7270046321168
 20
139.4826144399557
 10
134.7270046321168
 20
139.4826144399557
 10
134.7270046321168
 20
139.4826144399557
 10
133.6889973624111
 20
139.6689941057077
 10
133.6889973624111
 20
139.6689941057077
 10
133.6889973624111
 20
139.6689941057077
 10
133.6889973624111
 20
140.6560139622318
 10
133.6889973624111
 20
140.6560139622318
 10
133.6889973624111
 20
140.6560139622318
 10
133.9005262252054
 20
140.6560139622318
 10
133.9005262252054
 20
140.6560139622318
 10
133.9005262252054
 20
140.6560139622318
 10
133.9005262252054
 20
139.8495171091348
 10
133.9005262252054
 20
139.8495171091348
 10
133.9005262252054
 20
139.8495171091348
 10
134.4758571712421
 20
139.742030129995
 10
134.4758571712421
 20
139.742030129995
 10
134.4758571712421
 20
139.742030129995
 10
134.4813693240185
 20
139.7478867923199
 10
134.4813693240185
 20
139.7478867923199
 10
134.3828395931404
 20
139.8350477080968
 10
134.3377088422836
 20
139.9845648521566
 10
134.3377088422836
 20
140.1203016142755
 10
134.3377088422836
 20
140.4754909588047
 10
134.5633625965675
 20
140.7659125082113
 10
135.0229383342998
 20
140.7659125082113
 10
135.3615912204999
 20
140.7659125082113
 10
135.6885307820501
 20
140.5319905247628
 10
135.6885307820501
 20
140.0665581247056
 10
135.6885307820501
 20
139.7196370093409
 10
135.4770019192558
 20
139.4374836890989
 10
135.1159559124015
 20
139.4292154599343
 10
135.1159559124015
 20
139.4292154599343
 10
135.1159559124015
 20
139.6689941057077
 10
135.1159559124015
 20
139.6689941057077
 97
        0
 97
        1
330
2A9
 75
     2
 76
     1
 98
        1
 10
0.0
 20
0.0
450
        0
451
        0
460
0.0
461
0.0
452
        0
462
0.0
453
        0
470

  0
ENDBLK
  5
29F
330
29C
100
AcDbEntity
  8
0
100
AcDbBlockEnd
  0
BLOCK
  5
2AD
330
2AB
100
AcDbEntity
  8
0
100
AcDbBlockBegin
  2
Block_45
 70
     0
 10
0.0
 20
0.0
 30
0.0
  3
Block_45
  1

  0
INSERT
  5
2B0
330
2AB
100
AcDbEntity
  8
Sichtbar schmal (ISO)
100
AcDbBlockReference
  2
Block_46
 10
0.0
 20
0.0
 30
0.0
  0
ENDBLK
  5
2AE
330
2AB
100
AcDbEntity
  8
0
100
AcDbBlockEnd
  0
BLOCK
  5
2B1
330
2AF
100
AcDbEntity
  8
0
100
AcDbBlockBegin
  2
Block_46
 70
     0
 10
0.0
 20
0.0
 30
0.0
  3
Block_46
  1

  0
SPLINE
  5
2B3
330
2AF
100
AcDbEntity
  8
Sichtbar schmal (ISO)
100
AcDbSpline
210
0.0
220
0.0
230
1.0
 70
     9
 71
     3
 72
    26
 73
    22
 74
     0
 42
0.0000000001
 43
0.0000000001
 40
0.0
 40
0.0
 40
0.0
 40
0.0
 40
1.0
 40
1.0
 40
1.0
 40
2.0
 40
2.0
 40
2.0
 40
3.0
 40
3.0
 40
3.0
 40
4.0
 40
4.0
 40
4.0
 40
5.0
 40
5.0
 40
5.0
 40
6.0
 40
6.0
 40
6.0
 40
7.0
 40
7.0
 40
7.0
 40
7.0
 10
142.5074082760051
 20
135.1659097969376
 30
0.0
 10
142.5256672820769
 20
135.2189642674105
 30
0.0
 10
142.5346245303385
 20
135.2730522665289
 30
0.0
 10
142.5346245303385
 20
135.3274847751959
 30
0.0
 10
142.5346245303385
 20
135.5031846449436
 30
0.0
 10
142.4529757673381
 20
135.6278971015097
 30
0.0
 10
142.2893337317888
 20
135.7012776353455
 30
0.0
 10
142.1911485104591
 20
135.7457193671052
 30
0.0
 10
142.0781493785429
 20
135.7681124877593
 30
0.0
 10
141.9503363360402
 20
135.7681124877593
 30
0.0
 10
141.8676540443942
 20
135.7681124877593
 30
0.0
 10
141.796685077398
 20
135.7608777872403
 30
0.0
 10
141.7367404159547
 20
135.7470974052993
 30
0.0
 10
141.7047010279419
 20
135.7395181952318
 30
0.0
 10
141.6671494871526
 20
135.7267713419364
 30
0.0
 10
141.6237412840385
 20
135.7092013549616
 30
0.0
 10
141.6237412840385
 20
135.7092013549616
 30
0.0
 10
142.4019883541564
 20
135.0181152006205
 30
0.0
 10
142.4019883541564
 20
135.0181152006205
 30
0.0
 10
142.4540092959837
 20
135.0635904610257
 30
0.0
 10
142.4891492699333
 20
135.1131998360133
 30
0.0
 10
142.5074082760051
 20
135.1659097969376
 30
0.0
  0
SPLINE
  5
2B4
330
2AF
100
AcDbEntity
  8
Sichtbar schmal (ISO)
100
AcDbSpline
210
0.0
220
0.0
230
1.0
 70
     9
 71
     3
 72
    26
 73
    22
 74
     0
 42
0.0000000001
 43
0.0000000001
 40
0.0
 40
0.0
 40
0.0
 40
0.0
 40
1.0
 40
1.0
 40
1.0
 40
2.0
 40
2.0
 40
2.0
 40
3.0
 40
3.0
 40
3.0
 40
4.0
 40
4.0
 40
4.0
 40
5.0
 40
5.0
 40
5.0
 40
6.0
 40
6.0
 40
6.0
 40
7.0
 40
7.0
 40
7.0
 40
7.0
 10
141.4332275037042
 20
135.5297118801801
 30
0.0
 10
141.4070447780163
 20
135.4721787855764
 30
0.0
 10
141.3936089056238
 20
135.4081000095507
 30
0.0
 10
141.3936089056238
 20
135.3374755521031
 30
0.0
 10
141.3936089056238
 20
135.2027723186298
 30
0.0
 10
141.4494194524849
 20
135.0949408299415
 30
0.0
 10
141.5613850557555
 20
135.0136365764896
 30
0.0
 10
141.6730061494776
 20
134.9323323230377
 30
0.0
 10
141.817011140761
 20
134.8916801963118
 30
0.0
 10
141.9927110105087
 20
134.8916801963118
 30
0.0
 10
142.0588568438255
 20
134.8916801963118
 30
0.0
 10
142.1222466007542
 20
134.8989148968308
 30
0.0
 10
142.1832247908431
 20
134.9130397883203
 30
0.0
 10
142.2169867265985
 20
134.9216525270334
 30
0.0
 10
142.2603949297126
 20
134.9354329089745
 30
0.0
 10
142.3127603810885
 20
134.9554144627889
 30
0.0
 10
142.3127603810885
 20
134.9554144627889
 30
0.0
 10
141.5310682154853
 20
135.6551133558432
 30
0.0
 10
141.5310682154853
 20
135.6551133558432
 30
0.0
 10
141.4924831460505
 20
135.6292751397038
 30
0.0
 10
141.4597547389406
 20
135.5872449747837
 30
0.0
 10
141.4332275037042
 20
135.5297118801801
 30
0.0
  0
SPLINE
  5
2B5
330
2AF
100
AcDbEntity
  8
Sichtbar schmal (ISO)
100
AcDbSpline
210
0.0
220
0.0
230
1.0
 70
    11
 71
     3
 72
    59
 73
    55
 74
     0
 42
0.0000000001
 43
0.0000000001
 40
0.0
 40
0.0
 40
0.0
 40
0.0
 40
1.0
 40
1.0
 40
1.0
 40
2.0
 40
2.0
 40
2.0
 40
3.0
 40
3.0
 40
3.0
 40
4.0
 40
4.0
 40
4.0
 40
5.0
 40
5.0
 40
5.0
 40
6.0
 40
6.0
 40
6.0
 40
7.0
 40
7.0
 40
7.0
 40
8.0
 40
8.0
 40
8.0
 40
9.0
 40
9.0
 40
9.0
 40
10.0
 40
10.0
 40
10.0
 40
11.0
 40
11.0
 40
11.0
 40
12.0
 40
12.0
 40
12.0
 40
13.0
 40
13.0
 40
13.0
 40
14.0
 40
14.0
 40
14.0
 40
15.0
 40
15.0
 40
15.0
 40
16.0
 40
16.0
 40
16.0
 40
17.0
 40
17.0
 40
17.0
 40
18.0
 40
18.0
 40
18.0
 40
18.0
 10
142.6889648080778
 20
134.6078043283272
 30
0.0
 10
142.6889648080778
 20
134.6078043283272
 30
0.0
 10
142.5036186709713
 20
134.7845377267205
 30
0.0
 10
142.5036186709713
 20
134.7845377267205
 30
0.0
 10
142.4357502899119
 20
134.7383734472181
 30
0.0
 10
142.3596136796879
 20
134.7032334732686
 30
0.0
 10
142.2752088402992
 20
134.6784287857748
 30
0.0
 10
142.1904594913621
 20
134.6532795887325
 30
0.0
 10
142.0905517222898
 20
134.6408772449856
 30
0.0
 10
141.9747965139855
 20
134.6408772449856
 30
0.0
 10
141.7663682371278
 20
134.6408772449856
 30
0.0
 10
141.5810221000214
 20
134.6994438682349
 30
0.0
 10
141.4191026122147
 20
134.8162326051848
 30
0.0
 10
141.2568386148594
 20
134.9333658516833
 30
0.0
 10
141.175878870956
 20
135.1038980782032
 30
0.0
 10
141.175878870956
 20
135.3278292847444
 30
0.0
 10
141.175878870956
 20
135.4442735121459
 30
0.0
 10
141.196893953416
 20
135.5465928480578
 30
0.0
 10
141.238235099239
 20
135.6344427829316
 30
0.0
 10
141.2626952771843
 20
135.6861192152104
 30
0.0
 10
141.3023138752647
 20
135.7453748575567
 30
0.0
 10
141.3574354030287
 20
135.811865200422
 30
0.0
 10
141.3574354030287
 20
135.811865200422
 30
0.0
 10
141.1638210367576
 20
135.9875650701698
 30
0.0
 10
141.1638210367576
 20
135.9875650701698
 30
0.0
 10
141.1638210367576
 20
135.9875650701698
 30
0.0
 10
141.2337564751082
 20
136.0588785467144
 30
0.0
 10
141.2337564751082
 20
136.0588785467144
 30
0.0
 10
141.2337564751082
 20
136.0588785467144
 30
0.0
 10
141.431160446413
 20
135.8818006387726
 30
0.0
 10
141.431160446413
 20
135.8818006387726
 30
0.0
 10
141.5159097953502
 20
135.9400227524733
 30
0.0
 10
141.6127169784857
 20
135.9813638982963
 30
0.0
 10
141.7219265053681
 20
136.0061685857901
 30
0.0
 10
141.7925509628157
 20
136.0220160250223
 30
0.0
 10
141.8635199298119
 20
136.0299397446383
 30
0.0
 10
141.9341443872595
 20
136.0299397446383
 30
0.0
 10
142.1711669566447
 20
136.0299397446383
 30
0.0
 10
142.3665038706584
 20
135.9655164590642
 30
0.0
 10
142.5201551293005
 20
135.8366698879158
 30
0.0
 10
142.6741508974911
 20
135.7078233167675
 30
0.0
 10
142.7509765268122
 20
135.536257561602
 30
0.0
 10
142.7509765268122
 20
135.3219726224195
 30
0.0
 10
142.7509765268122
 20
135.2199977960561
 30
0.0
 10
142.7361626162257
 20
135.1290472752455
 30
0.0
 10
142.7065347950525
 20
135.0494655695362
 30
0.0
 10
142.6765624643308
 20
134.969883863827
 30
0.0
 10
142.6362548471534
 20
134.9051160687043
 30
0.0
 10
142.5849229244232
 20
134.8561957128137
 30
0.0
 10
142.5849229244232
 20
134.8561957128137
 30
0.0
 10
142.7606227941709
 20
134.6891085817791
 30
0.0
 10
142.7606227941709
 20
134.6891085817791
 30
0.0
 10
142.7606227941709
 20
134.6891085817791
 30
0.0
 10
142.6889648080778
 20
134.6078043283272
 30
0.0
 10
142.6889648080778
 20
134.6078043283272
 30
0.0
  0
HATCH
  5
2B6
330
2AF
100
AcDbEntity
  8
Sichtbar schmal (ISO)
 62
   250
420
  2039067
440
 33554687
100
AcDbHatch
 10
0.0
 20
0.0
 30
0.0
210
0.0
220
0.0
230
1.0
  2
SOLID
 70
     1
 71
     1
 91
        3
 92
        1
 93
        1
 72
     4
 94
        3
 73
     0
 74
     0
 95
       26
 96
       22
 40
0.0
 40
0.0
 40
0.0
 40
0.0
 40
1.0
 40
1.0
 40
1.0
 40
2.0
 40
2.0
 40
2.0
 40
3.0
 40
3.0
 40
3.0
 40
4.0
 40
4.0
 40
4.0
 40
5.0
 40
5.0
 40
5.0
 40
6.0
 40
6.0
 40
6.0
 40
7.0
 40
7.0
 40
7.0
 40
7.0
 10
142.5074082760051
 20
135.1659097969376
 10
142.5256672820769
 20
135.2189642674105
 10
142.5346245303385
 20
135.2730522665289
 10
142.5346245303385
 20
135.3274847751959
 10
142.5346245303385
 20
135.5031846449436
 10
142.4529757673381
 20
135.6278971015097
 10
142.2893337317888
 20
135.7012776353455
 10
142.1911485104591
 20
135.7457193671052
 10
142.0781493785429
 20
135.7681124877593
 10
141.9503363360402
 20
135.7681124877593
 10
141.8676540443942
 20
135.7681124877593
 10
141.796685077398
 20
135.7608777872403
 10
141.7367404159547
 20
135.7470974052993
 10
141.7047010279419
 20
135.7395181952318
 10
141.6671494871526
 20
135.7267713419364
 10
141.6237412840385
 20
135.7092013549616
 10
141.6237412840385
 20
135.7092013549616
 10
142.4019883541564
 20
135.0181152006205
 10
142.4019883541564
 20
135.0181152006205
 10
142.4540092959837
 20
135.0635904610257
 10
142.4891492699333
 20
135.1131998360133
 10
142.5074082760051
 20
135.1659097969376
 97
        0
 97
        1
330
2B3
 92
        1
 93
        1
 72
     4
 94
        3
 73
     0
 74
     0
 95
       26
 96
       22
 40
0.0
 40
0.0
 40
0.0
 40
0.0
 40
1.0
 40
1.0
 40
1.0
 40
2.0
 40
2.0
 40
2.0
 40
3.0
 40
3.0
 40
3.0
 40
4.0
 40
4.0
 40
4.0
 40
5.0
 40
5.0
 40
5.0
 40
6.0
 40
6.0
 40
6.0
 40
7.0
 40
7.0
 40
7.0
 40
7.0
 10
141.4332275037042
 20
135.5297118801801
 10
141.4070447780163
 20
135.4721787855764
 10
141.3936089056238
 20
135.4081000095507
 10
141.3936089056238
 20
135.3374755521031
 10
141.3936089056238
 20
135.2027723186298
 10
141.4494194524849
 20
135.0949408299415
 10
141.5613850557555
 20
135.0136365764896
 10
141.6730061494776
 20
134.9323323230377
 10
141.817011140761
 20
134.8916801963118
 10
141.9927110105087
 20
134.8916801963118
 10
142.0588568438255
 20
134.8916801963118
 10
142.1222466007542
 20
134.8989148968308
 10
142.1832247908431
 20
134.9130397883203
 10
142.2169867265985
 20
134.9216525270334
 10
142.2603949297126
 20
134.9354329089745
 10
142.3127603810885
 20
134.9554144627889
 10
142.3127603810885
 20
134.9554144627889
 10
141.5310682154853
 20
135.6551133558432
 10
141.5310682154853
 20
135.6551133558432
 10
141.4924831460505
 20
135.6292751397038
 10
141.4597547389406
 20
135.5872449747837
 10
141.4332275037042
 20
135.5297118801801
 97
        0
 97
        1
330
2B4
 92
        1
 93
        1
 72
     4
 94
        3
 73
     0
 74
     0
 95
       59
 96
       55
 40
0.0
 40
0.0
 40
0.0
 40
0.0
 40
1.0
 40
1.0
 40
1.0
 40
2.0
 40
2.0
 40
2.0
 40
3.0
 40
3.0
 40
3.0
 40
4.0
 40
4.0
 40
4.0
 40
5.0
 40
5.0
 40
5.0
 40
6.0
 40
6.0
 40
6.0
 40
7.0
 40
7.0
 40
7.0
 40
8.0
 40
8.0
 40
8.0
 40
9.0
 40
9.0
 40
9.0
 40
10.0
 40
10.0
 40
10.0
 40
11.0
 40
11.0
 40
11.0
 40
12.0
 40
12.0
 40
12.0
 40
13.0
 40
13.0
 40
13.0
 40
14.0
 40
14.0
 40
14.0
 40
15.0
 40
15.0
 40
15.0
 40
16.0
 40
16.0
 40
16.0
 40
17.0
 40
17.0
 40
17.0
 40
18.0
 40
18.0
 40
18.0
 40
18.0
 10
142.6889648080778
 20
134.6078043283272
 10
142.6889648080778
 20
134.6078043283272
 10
142.5036186709713
 20
134.7845377267205
 10
142.5036186709713
 20
134.7845377267205
 10
142.4357502899119
 20
134.7383734472181
 10
142.3596136796879
 20
134.7032334732686
 10
142.2752088402992
 20
134.6784287857748
 10
142.1904594913621
 20
134.6532795887325
 10
142.0905517222898
 20
134.6408772449856
 10
141.9747965139855
 20
134.6408772449856
 10
141.7663682371278
 20
134.6408772449856
 10
141.5810221000214
 20
134.6994438682349
 10
141.4191026122147
 20
134.8162326051848
 10
141.2568386148594
 20
134.9333658516833
 10
141.175878870956
 20
135.1038980782032
 10
141.175878870956
 20
135.3278292847444
 10
141.175878870956
 20
135.4442735121459
 10
141.196893953416
 20
135.5465928480578
 10
141.238235099239
 20
135.6344427829316
 10
141.2626952771843
 20
135.6861192152104
 10
141.3023138752647
 20
135.7453748575567
 10
141.3574354030287
 20
135.811865200422
 10
141.3574354030287
 20
135.811865200422
 10
141.1638210367576
 20
135.9875650701698
 10
141.1638210367576
 20
135.9875650701698
 10
141.1638210367576
 20
135.9875650701698
 10
141.2337564751082
 20
136.0588785467144
 10
141.2337564751082
 20
136.0588785467144
 10
141.2337564751082
 20
136.0588785467144
 10
141.431160446413
 20
135.8818006387726
 10
141.431160446413
 20
135.8818006387726
 10
141.5159097953502
 20
135.9400227524733
 10
141.6127169784857
 20
135.9813638982963
 10
141.7219265053681
 20
136.0061685857901
 10
141.7925509628157
 20
136.0220160250223
 10
141.8635199298119
 20
136.0299397446383
 10
141.9341443872595
 20
136.0299397446383
 10
142.1711669566447
 20
136.0299397446383
 10
142.3665038706584
 20
135.9655164590642
 10
142.5201551293005
 20
135.8366698879158
 10
142.6741508974911
 20
135.7078233167675
 10
142.7509765268122
 20
135.536257561602
 10
142.7509765268122
 20
135.3219726224195
 10
142.7509765268122
 20
135.2199977960561
 10
142.7361626162257
 20
135.1290472752455
 10
142.7065347950525
 20
135.0494655695362
 10
142.6765624643308
 20
134.969883863827
 10
142.6362548471534
 20
134.9051160687043
 10
142.5849229244232
 20
134.8561957128137
 10
142.5849229244232
 20
134.8561957128137
 10
142.7606227941709
 20
134.6891085817791
 10
142.7606227941709
 20
134.6891085817791
 10
142.7606227941709
 20
134.6891085817791
 10
142.6889648080778
 20
134.6078043283272
 10
142.6889648080778
 20
134.6078043283272
 97
        0
 97
        1
330
2B5
 75
     2
 76
     1
 98
        1
 10
0.0
 20
0.0
450
        0
451
        0
460
0.0
461
0.0
452
        0
462
0.0
453
        0
470

  0
SPLINE
  5
2B7
330
2AF
100
AcDbEntity
  8
Sichtbar schmal (ISO)
100
AcDbSpline
210
0.0
220
0.0
230
1.0
 70
     9
 71
     3
 72
    62
 73
    58
 74
     0
 42
0.0000000001
 43
0.0000000001
 40
0.0
 40
0.0
 40
0.0
 40
0.0
 40
1.0
 40
1.0
 40
1.0
 40
2.0
 40
2.0
 40
2.0
 40
3.0
 40
3.0
 40
3.0
 40
4.0
 40
4.0
 40
4.0
 40
5.0
 40
5.0
 40
5.0
 40
6.0
 40
6.0
 40
6.0
 40
7.0
 40
7.0
 40
7.0
 40
8.0
 40
8.0
 40
8.0
 40
9.0
 40
9.0
 40
9.0
 40
10.0
 40
10.0
 40
10.0
 40
11.0
 40
11.0
 40
11.0
 40
12.0
 40
12.0
 40
12.0
 40
13.0
 40
13.0
 40
13.0
 40
14.0
 40
14.0
 40
14.0
 40
15.0
 40
15.0
 40
15.0
 40
16.0
 40
16.0
 40
16.0
 40
17.0
 40
17.0
 40
17.0
 40
18.0
 40
18.0
 40
18.0
 40
19.0
 40
19.0
 40
19.0
 40
19.0
 10
142.0767713403488
 20
136.529134080451
 30
0.0
 10
142.3361870303881
 20
136.5377468191641
 30
0.0
 10
142.5167100338153
 20
136.6814073008991
 30
0.0
 10
142.5167100338153
 20
136.9552923919764
 30
0.0
 10
142.5167100338153
 20
137.1892143754249
 30
0.0
 10
142.3702934756921
 20
137.3897189326664
 30
0.0
 10
142.1305148299188
 20
137.3897189326664
 30
0.0
 10
141.879367369044
 20
137.3897189326664
 30
0.0
 10
141.7467311928619
 20
137.2005831905262
 30
0.0
 10
141.7467311928619
 20
136.9639051306896
 30
0.0
 10
141.7467311928619
 20
136.9129177175079
 30
0.0
 10
141.7494872692501
 20
136.8650308902629
 30
0.0
 10
141.755343931575
 20
136.8199001394061
 30
0.0
 10
141.755343931575
 20
136.8199001394061
 30
0.0
 10
141.5520832979453
 20
136.8199001394061
 30
0.0
 10
141.5520832979453
 20
136.8199001394061
 30
0.0
 10
141.5548393743335
 20
136.839537183672
 30
0.0
 10
141.5548393743335
 20
136.8564181515498
 30
0.0
 10
141.5548393743335
 20
136.873643628976
 30
0.0
 10
141.5548393743335
 20
136.873643628976
 30
0.0
 10
141.5548393743335
 20
136.9242865326092
 30
0.0
 10
141.5548393743335
 20
136.9242865326092
 30
0.0
 10
141.5548393743335
 20
137.1272026566904
 30
0.0
 10
141.4421847519658
 20
137.3049695837293
 30
0.0
 10
141.2278998127833
 20
137.3049695837293
 30
0.0
 10
141.0163709499889
 20
137.3049695837293
 30
0.0
 10
140.9061278944609
 20
137.1526963632813
 30
0.0
 10
140.9061278944609
 20
136.9494357296515
 30
0.0
 10
140.9061278944609
 20
136.6900200396122
 30
0.0
 10
141.1066324517025
 20
136.5718532644681
 30
0.0
 10
141.340554435151
 20
136.5718532644681
 30
0.0
 10
141.340554435151
 20
136.5718532644681
 30
0.0
 10
141.340554435151
 20
136.3320746186948
 30
0.0
 10
141.340554435151
 20
136.3320746186948
 30
0.0
 10
140.9598713840308
 20
136.3458550006357
 30
0.0
 10
140.6945990316666
 20
136.5491156342655
 30
0.0
 10
140.6945990316666
 20
136.9494357296515
 30
0.0
 10
140.6945990316666
 20
137.2967013545647
 30
0.0
 10
140.8609971436042
 20
137.5588731209922
 30
0.0
 10
141.2306558891715
 20
137.5588731209922
 30
0.0
 10
141.4084228162104
 20
137.5588731209922
 30
0.0
 10
141.5579399602702
 20
137.4376057599114
 30
0.0
 10
141.6282199081693
 20
137.2822319535266
 30
0.0
 10
141.6282199081693
 20
137.2822319535266
 30
0.0
 10
141.6340765704942
 20
137.2822319535266
 30
0.0
 10
141.6340765704942
 20
137.2822319535266
 30
0.0
 10
141.6874755505156
 20
137.527867261625
 30
0.0
 10
141.879367369044
 20
137.6432779603808
 30
0.0
 10
142.1191460148174
 20
137.6432779603808
 30
0.0
 10
142.5167100338153
 20
137.6432779603808
 30
0.0
 10
142.7282388966096
 20
137.3304632903202
 30
0.0
 10
142.7282388966096
 20
136.9552923919764
 30
0.0
 10
142.7282388966096
 20
136.5491156342655
 30
0.0
 10
142.4915608367729
 20
136.2810872055131
 30
0.0
 10
142.0767713403488
 20
136.2893554346777
 30
0.0
 10
142.0767713403488
 20
136.2893554346777
 30
0.0
 10
142.0767713403488
 20
136.529134080451
 30
0.0
 10
142.0767713403488
 20
136.529134080451
 30
0.0
  0
HATCH
  5
2B8
330
2AF
100
AcDbEntity
  8
Sichtbar schmal (ISO)
 62
    18
420
        0
440
 33554687
100
AcDbHatch
 10
0.0
 20
0.0
 30
0.0
210
0.0
220
0.0
230
1.0
  2
SOLID
 70
     1
 71
     1
 91
        1
 92
        1
 93
        1
 72
     4
 94
        3
 73
     0
 74
     0
 95
       62
 96
       58
 40
0.0
 40
0.0
 40
0.0
 40
0.0
 40
1.0
 40
1.0
 40
1.0
 40
2.0
 40
2.0
 40
2.0
 40
3.0
 40
3.0
 40
3.0
 40
4.0
 40
4.0
 40
4.0
 40
5.0
 40
5.0
 40
5.0
 40
6.0
 40
6.0
 40
6.0
 40
7.0
 40
7.0
 40
7.0
 40
8.0
 40
8.0
 40
8.0
 40
9.0
 40
9.0
 40
9.0
 40
10.0
 40
10.0
 40
10.0
 40
11.0
 40
11.0
 40
11.0
 40
12.0
 40
12.0
 40
12.0
 40
13.0
 40
13.0
 40
13.0
 40
14.0
 40
14.0
 40
14.0
 40
15.0
 40
15.0
 40
15.0
 40
16.0
 40
16.0
 40
16.0
 40
17.0
 40
17.0
 40
17.0
 40
18.0
 40
18.0
 40
18.0
 40
19.0
 40
19.0
 40
19.0
 40
19.0
 10
142.0767713403488
 20
136.529134080451
 10
142.3361870303881
 20
136.5377468191641
 10
142.5167100338153
 20
136.6814073008991
 10
142.5167100338153
 20
136.9552923919764
 10
142.5167100338153
 20
137.1892143754249
 10
142.3702934756921
 20
137.3897189326664
 10
142.1305148299188
 20
137.3897189326664
 10
141.879367369044
 20
137.3897189326664
 10
141.7467311928619
 20
137.2005831905262
 10
141.7467311928619
 20
136.9639051306896
 10
141.7467311928619
 20
136.9129177175079
 10
141.7494872692501
 20
136.8650308902629
 10
141.755343931575
 20
136.8199001394061
 10
141.755343931575
 20
136.8199001394061
 10
141.5520832979453
 20
136.8199001394061
 10
141.5520832979453
 20
136.8199001394061
 10
141.5548393743335
 20
136.839537183672
 10
141.5548393743335
 20
136.8564181515498
 10
141.5548393743335
 20
136.873643628976
 10
141.5548393743335
 20
136.873643628976
 10
141.5548393743335
 20
136.9242865326092
 10
141.5548393743335
 20
136.9242865326092
 10
141.5548393743335
 20
137.1272026566904
 10
141.4421847519658
 20
137.3049695837293
 10
141.2278998127833
 20
137.3049695837293
 10
141.0163709499889
 20
137.3049695837293
 10
140.9061278944609
 20
137.1526963632813
 10
140.9061278944609
 20
136.9494357296515
 10
140.9061278944609
 20
136.6900200396122
 10
141.1066324517025
 20
136.5718532644681
 10
141.340554435151
 20
136.5718532644681
 10
141.340554435151
 20
136.5718532644681
 10
141.340554435151
 20
136.3320746186948
 10
141.340554435151
 20
136.3320746186948
 10
140.9598713840308
 20
136.3458550006357
 10
140.6945990316666
 20
136.5491156342655
 10
140.6945990316666
 20
136.9494357296515
 10
140.6945990316666
 20
137.2967013545647
 10
140.8609971436042
 20
137.5588731209922
 10
141.2306558891715
 20
137.5588731209922
 10
141.4084228162104
 20
137.5588731209922
 10
141.5579399602702
 20
137.4376057599114
 10
141.6282199081693
 20
137.2822319535266
 10
141.6282199081693
 20
137.2822319535266
 10
141.6340765704942
 20
137.2822319535266
 10
141.6340765704942
 20
137.2822319535266
 10
141.6874755505156
 20
137.527867261625
 10
141.879367369044
 20
137.6432779603808
 10
142.1191460148174
 20
137.6432779603808
 10
142.5167100338153
 20
137.6432779603808
 10
142.7282388966096
 20
137.3304632903202
 10
142.7282388966096
 20
136.9552923919764
 10
142.7282388966096
 20
136.5491156342655
 10
142.4915608367729
 20
136.2810872055131
 10
142.0767713403488
 20
136.2893554346777
 10
142.0767713403488
 20
136.2893554346777
 10
142.0767713403488
 20
136.529134080451
 10
142.0767713403488
 20
136.529134080451
 97
        0
 97
        1
330
2B7
 75
     2
 76
     1
 98
        1
 10
0.0
 20
0.0
450
        0
451
        0
460
0.0
461
0.0
452
        0
462
0.0
453
        0
470

  0
SPLINE
  5
2B9
330
2AF
100
AcDbEntity
  8
Sichtbar schmal (ISO)
100
AcDbSpline
210
0.0
220
0.0
230
1.0
 70
     9
 71
     3
 72
    17
 73
    13
 74
     0
 42
0.0000000001
 43
0.0000000001
 40
0.0
 40
0.0
 40
0.0
 40
0.0
 40
1.0
 40
1.0
 40
1.0
 40
2.0
 40
2.0
 40
2.0
 40
3.0
 40
3.0
 40
3.0
 40
4.0
 40
4.0
 40
4.0
 40
4.0
 10
141.7102131807182
 20
138.9703287412991
 30
0.0
 10
141.4139349689868
 20
138.9703287412991
 30
0.0
 10
140.9061278944609
 20
138.9675726649109
 30
0.0
 10
140.9061278944609
 20
138.5582953212632
 30
0.0
 10
140.9061278944609
 20
138.149362487164
 30
0.0
 10
141.4139349689868
 20
138.1466064107758
 30
0.0
 10
141.7102131807182
 20
138.1466064107758
 30
0.0
 10
142.0092474688379
 20
138.1466064107758
 30
0.0
 10
142.5167100338153
 20
138.149362487164
 30
0.0
 10
142.5167100338153
 20
138.5582953212632
 30
0.0
 10
142.5167100338153
 20
138.9675726649109
 30
0.0
 10
142.0092474688379
 20
138.9703287412991
 30
0.0
 10
141.7102131807182
 20
138.9703287412991
 30
0.0
  0
SPLINE
  5
2BA
330
2AF
100
AcDbEntity
  8
Sichtbar schmal (ISO)
100
AcDbSpline
210
0.0
220
0.0
230
1.0
 70
    11
 71
     3
 72
    17
 73
    13
 74
     0
 42
0.0000000001
 43
0.0000000001
 40
0.0
 40
0.0
 40
0.0
 40
0.0
 40
1.0
 40
1.0
 40
1.0
 40
2.0
 40
2.0
 40
2.0
 40
3.0
 40
3.0
 40
3.0
 40
4.0
 40
4.0
 40
4.0
 40
4.0
 10
141.7129692571065
 20
137.8927028735129
 30
0.0
 10
141.2730305636401
 20
137.8927028735129
 30
0.0
 10
140.6945990316666
 20
137.9319769620447
 30
0.0
 10
140.6945990316666
 20
138.5582953212632
 30
0.0
 10
140.6945990316666
 20
139.1846136804816
 30
0.0
 10
141.2730305636401
 20
139.2238877690135
 30
0.0
 10
141.7129692571065
 20
139.2238877690135
 30
0.0
 10
142.1529079505729
 20
139.2238877690135
 30
0.0
 10
142.7282388966096
 20
139.1846136804816
 30
0.0
 10
142.7282388966096
 20
138.5582953212632
 30
0.0
 10
142.7282388966096
 20
137.9319769620447
 30
0.0
 10
142.1529079505729
 20
137.8927028735129
 30
0.0
 10
141.7129692571065
 20
137.8927028735129
 30
0.0
  0
HATCH
  5
2BB
330
2AF
100
AcDbEntity
  8
Sichtbar schmal (ISO)
 62
    18
420
        0
440
 33554687
100
AcDbHatch
 10
0.0
 20
0.0
 30
0.0
210
0.0
220
0.0
230
1.0
  2
SOLID
 70
     1
 71
     1
 91
        2
 92
        1
 93
        1
 72
     4
 94
        3
 73
     0
 74
     0
 95
       17
 96
       13
 40
0.0
 40
0.0
 40
0.0
 40
0.0
 40
1.0
 40
1.0
 40
1.0
 40
2.0
 40
2.0
 40
2.0
 40
3.0
 40
3.0
 40
3.0
 40
4.0
 40
4.0
 40
4.0
 40
4.0
 10
141.7102131807182
 20
138.9703287412991
 10
141.4139349689868
 20
138.9703287412991
 10
140.9061278944609
 20
138.9675726649109
 10
140.9061278944609
 20
138.5582953212632
 10
140.9061278944609
 20
138.149362487164
 10
141.4139349689868
 20
138.1466064107758
 10
141.7102131807182
 20
138.1466064107758
 10
142.0092474688379
 20
138.1466064107758
 10
142.5167100338153
 20
138.149362487164
 10
142.5167100338153
 20
138.5582953212632
 10
142.5167100338153
 20
138.9675726649109
 10
142.0092474688379
 20
138.9703287412991
 10
141.7102131807182
 20
138.9703287412991
 97
        0
 97
        1
330
2B9
 92
        1
 93
        1
 72
     4
 94
        3
 73
     0
 74
     0
 95
       17
 96
       13
 40
0.0
 40
0.0
 40
0.0
 40
0.0
 40
1.0
 40
1.0
 40
1.0
 40
2.0
 40
2.0
 40
2.0
 40
3.0
 40
3.0
 40
3.0
 40
4.0
 40
4.0
 40
4.0
 40
4.0
 10
141.7129692571065
 20
137.8927028735129
 10
141.2730305636401
 20
137.8927028735129
 10
140.6945990316666
 20
137.9319769620447
 10
140.6945990316666
 20
138.5582953212632
 10
140.6945990316666
 20
139.1846136804816
 10
141.2730305636401
 20
139.2238877690135
 10
141.7129692571065
 20
139.2238877690135
 10
142.1529079505729
 20
139.2238877690135
 10
142.7282388966096
 20
139.1846136804816
 10
142.7282388966096
 20
138.5582953212632
 10
142.7282388966096
 20
137.9319769620447
 10
142.1529079505729
 20
137.8927028735129
 10
141.7129692571065
 20
137.8927028735129
 97
        0
 97
        1
330
2BA
 75
     2
 76
     1
 98
        1
 10
0.0
 20
0.0
450
        0
451
        0
460
0.0
461
0.0
452
        0
462
0.0
453
        0
470

  0
SPLINE
  5
2BC
330
2AF
100
AcDbEntity
  8
Sichtbar schmal (ISO)
100
AcDbSpline
210
0.0
220
0.0
230
1.0
 70
     9
 71
     3
 72
    53
 73
    49
 74
     0
 42
0.0000000001
 43
0.0000000001
 40
0.0
 40
0.0
 40
0.0
 40
0.0
 40
1.0
 40
1.0
 40
1.0
 40
2.0
 40
2.0
 40
2.0
 40
3.0
 40
3.0
 40
3.0
 40
4.0
 40
4.0
 40
4.0
 40
5.0
 40
5.0
 40
5.0
 40
6.0
 40
6.0
 40
6.0
 40
7.0
 40
7.0
 40
7.0
 40
8.0
 40
8.0
 40
8.0
 40
9.0
 40
9.0
 40
9.0
 40
10.0
 40
10.0
 40
10.0
 40
11.0
 40
11.0
 40
11.0
 40
12.0
 40
12.0
 40
12.0
 40
13.0
 40
13.0
 40
13.0
 40
14.0
 40
14.0
 40
14.0
 40
15.0
 40
15.0
 40
15.0
 40
16.0
 40
16.0
 40
16.0
 40
16.0
 10
142.1556640269611
 20
139.6820854685517
 30
0.0
 10
142.361680736979
 20
139.6958658504927
 30
0.0
 10
142.5167100338153
 20
139.8626084719788
 30
0.0
 10
142.5167100338153
 20
140.1023871177522
 30
0.0
 10
142.5167100338153
 20
140.3304524388757
 30
0.0
 10
142.3589246605908
 20
140.5254448433408
 30
0.0
 10
142.0430094045934
 20
140.5254448433408
 30
0.0
 10
141.7804931286174
 20
140.5254448433408
 30
0.0
 10
141.5889458196375
 20
140.3449218399138
 30
0.0
 10
141.5889458196375
 20
140.0741373347731
 30
0.0
 10
141.5889458196375
 20
139.9187635283884
 30
0.0
 10
141.6650824298615
 20
139.7947400909194
 30
0.0
 10
141.7777370522292
 20
139.7017225128176
 30
0.0
 10
141.7777370522292
 20
139.7017225128176
 30
0.0
 10
141.7667127466764
 20
139.4957058027997
 30
0.0
 10
141.7667127466764
 20
139.4957058027997
 30
0.0
 10
141.7667127466764
 20
139.4957058027997
 30
0.0
 10
140.7287054769706
 20
139.6820854685517
 30
0.0
 10
140.7287054769706
 20
139.6820854685517
 30
0.0
 10
140.7287054769706
 20
139.6820854685517
 30
0.0
 10
140.7287054769706
 20
140.6691053250757
 30
0.0
 10
140.7287054769706
 20
140.6691053250757
 30
0.0
 10
140.7287054769706
 20
140.6691053250757
 30
0.0
 10
140.9402343397649
 20
140.6691053250757
 30
0.0
 10
140.9402343397649
 20
140.6691053250757
 30
0.0
 10
140.9402343397649
 20
140.6691053250757
 30
0.0
 10
140.9402343397649
 20
139.8626084719788
 30
0.0
 10
140.9402343397649
 20
139.8626084719788
 30
0.0
 10
140.9402343397649
 20
139.8626084719788
 30
0.0
 10
141.5155652858016
 20
139.755121492839
 30
0.0
 10
141.5155652858016
 20
139.755121492839
 30
0.0
 10
141.5155652858016
 20
139.755121492839
 30
0.0
 10
141.521077438578
 20
139.7609781551639
 30
0.0
 10
141.521077438578
 20
139.7609781551639
 30
0.0
 10
141.4225477076999
 20
139.8481390709407
 30
0.0
 10
141.3774169568431
 20
139.9976562150006
 30
0.0
 10
141.3774169568431
 20
140.1333929771194
 30
0.0
 10
141.3774169568431
 20
140.4885823216487
 30
0.0
 10
141.603070711127
 20
140.7790038710552
 30
0.0
 10
142.0626464488593
 20
140.7790038710552
 30
0.0
 10
142.4012993350594
 20
140.7790038710552
 30
0.0
 10
142.7282388966096
 20
140.5450818876068
 30
0.0
 10
142.7282388966096
 20
140.0796494875495
 30
0.0
 10
142.7282388966096
 20
139.7327283721849
 30
0.0
 10
142.5167100338153
 20
139.4505750519429
 30
0.0
 10
142.1556640269611
 20
139.4423068227783
 30
0.0
 10
142.1556640269611
 20
139.4423068227783
 30
0.0
 10
142.1556640269611
 20
139.6820854685517
 30
0.0
 10
142.1556640269611
 20
139.6820854685517
 30
0.0
  0
HATCH
  5
2BD
330
2AF
100
AcDbEntity
  8
Sichtbar schmal (ISO)
 62
    18
420
        0
440
 33554687
100
AcDbHatch
 10
0.0
 20
0.0
 30
0.0
210
0.0
220
0.0
230
1.0
  2
SOLID
 70
     1
 71
     1
 91
        1
 92
        1
 93
        1
 72
     4
 94
        3
 73
     0
 74
     0
 95
       53
 96
       49
 40
0.0
 40
0.0
 40
0.0
 40
0.0
 40
1.0
 40
1.0
 40
1.0
 40
2.0
 40
2.0
 40
2.0
 40
3.0
 40
3.0
 40
3.0
 40
4.0
 40
4.0
 40
4.0
 40
5.0
 40
5.0
 40
5.0
 40
6.0
 40
6.0
 40
6.0
 40
7.0
 40
7.0
 40
7.0
 40
8.0
 40
8.0
 40
8.0
 40
9.0
 40
9.0
 40
9.0
 40
10.0
 40
10.0
 40
10.0
 40
11.0
 40
11.0
 40
11.0
 40
12.0
 40
12.0
 40
12.0
 40
13.0
 40
13.0
 40
13.0
 40
14.0
 40
14.0
 40
14.0
 40
15.0
 40
15.0
 40
15.0
 40
16.0
 40
16.0
 40
16.0
 40
16.0
 10
142.1556640269611
 20
139.6820854685517
 10
142.361680736979
 20
139.6958658504927
 10
142.5167100338153
 20
139.8626084719788
 10
142.5167100338153
 20
140.1023871177522
 10
142.5167100338153
 20
140.3304524388757
 10
142.3589246605908
 20
140.5254448433408
 10
142.0430094045934
 20
140.5254448433408
 10
141.7804931286174
 20
140.5254448433408
 10
141.5889458196375
 20
140.3449218399138
 10
141.5889458196375
 20
140.0741373347731
 10
141.5889458196375
 20
139.9187635283884
 10
141.6650824298615
 20
139.7947400909194
 10
141.7777370522292
 20
139.7017225128176
 10
141.7777370522292
 20
139.7017225128176
 10
141.7667127466764
 20
139.4957058027997
 10
141.7667127466764
 20
139.4957058027997
 10
141.7667127466764
 20
139.4957058027997
 10
140.7287054769706
 20
139.6820854685517
 10
140.7287054769706
 20
139.6820854685517
 10
140.7287054769706
 20
139.6820854685517
 10
140.7287054769706
 20
140.6691053250757
 10
140.7287054769706
 20
140.6691053250757
 10
140.7287054769706
 20
140.6691053250757
 10
140.9402343397649
 20
140.6691053250757
 10
140.9402343397649
 20
140.6691053250757
 10
140.9402343397649
 20
140.6691053250757
 10
140.9402343397649
 20
139.8626084719788
 10
140.9402343397649
 20
139.8626084719788
 10
140.9402343397649
 20
139.8626084719788
 10
141.5155652858016
 20
139.755121492839
 10
141.5155652858016
 20
139.755121492839
 10
141.5155652858016
 20
139.755121492839
 10
141.521077438578
 20
139.7609781551639
 10
141.521077438578
 20
139.7609781551639
 10
141.4225477076999
 20
139.8481390709407
 10
141.3774169568431
 20
139.9976562150006
 10
141.3774169568431
 20
140.1333929771194
 10
141.3774169568431
 20
140.4885823216487
 10
141.603070711127
 20
140.7790038710552
 10
142.0626464488593
 20
140.7790038710552
 10
142.4012993350594
 20
140.7790038710552
 10
142.7282388966096
 20
140.5450818876068
 10
142.7282388966096
 20
140.0796494875495
 10
142.7282388966096
 20
139.7327283721849
 10
142.5167100338153
 20
139.4505750519429
 10
142.1556640269611
 20
139.4423068227783
 10
142.1556640269611
 20
139.4423068227783
 10
142.1556640269611
 20
139.6820854685517
 10
142.1556640269611
 20
139.6820854685517
 97
        0
 97
        1
330
2BC
 75
     2
 76
     1
 98
        1
 10
0.0
 20
0.0
450
        0
451
        0
460
0.0
461
0.0
452
        0
462
0.0
453
        0
470

  0
ENDBLK
  5
2B2
330
2AF
100
AcDbEntity
  8
0
100
AcDbBlockEnd
  0
ENDSEC
  0
SECTION
  2
ENTITIES
  0
INSERT
  5
79
330
70
100
AcDbEntity
  8
0
100
AcDbBlockReference
  2
Block_0
 10
0.0
 20
0.0
 30
0.0
  0
INSERT
  5
7D
330
70
100
AcDbEntity
  8
0
100
AcDbBlockReference
  2
Block_1
 10
0.0
 20
0.0
 30
0.0
  0
INSERT
  5
81
330
70
100
AcDbEntity
  8
0
100
AcDbBlockReference
  2
Block_2
 10
0.0
 20
0.0
 30
0.0
  0
INSERT
  5
85
330
70
100
AcDbEntity
  8
0
100
AcDbBlockReference
  2
Block_3
 10
0.0
 20
0.0
 30
0.0
  0
INSERT
  5
89
330
70
100
AcDbEntity
  8
0
100
AcDbBlockReference
  2
Block_4
 10
0.0
 20
0.0
 30
0.0
  0
INSERT
  5
8F
330
70
100
AcDbEntity
  8
Titel (ISO)
100
AcDbBlockReference
  2
Block_5
 10
0.0
 20
0.0
 30
0.0
  0
INSERT
  5
93
330
70
100
AcDbEntity
  8
Titel (ISO)
100
AcDbBlockReference
  2
Block_6
 10
0.0
 20
0.0
 30
0.0
  0
INSERT
  5
97
330
70
100
AcDbEntity
  8
Titel (ISO)
100
AcDbBlockReference
  2
Block_7
 10
0.0
 20
0.0
 30
0.0
  0
INSERT
  5
9B
330
70
100
AcDbEntity
  8
Titel (ISO)
100
AcDbBlockReference
  2
Block_8
 10
0.0
 20
0.0
 30
0.0
  0
INSERT
  5
9F
330
70
100
AcDbEntity
  8
Titel (ISO)
100
AcDbBlockReference
  2
Block_9
 10
0.0
 20
0.0
 30
0.0
  0
INSERT
  5
A3
330
70
100
AcDbEntity
  8
Titel (ISO)
100
AcDbBlockReference
  2
Block_10
 10
0.0
 20
0.0
 30
0.0
  0
INSERT
  5
A7
330
70
100
AcDbEntity
  8
Titel (ISO)
100
AcDbBlockReference
  2
Block_11
 10
0.0
 20
0.0
 30
0.0
  0
INSERT
  5
AB
330
70
100
AcDbEntity
  8
Titel (ISO)
100
AcDbBlockReference
  2
Block_12
 10
0.0
 20
0.0
 30
0.0
  0
INSERT
  5
AF
330
70
100
AcDbEntity
  8
Titel (ISO)
100
AcDbBlockReference
  2
Block_13
 10
0.0
 20
0.0
 30
0.0
  0
INSERT
  5
B5
330
70
100
AcDbEntity
  8
Sichtbar schmal (ISO)
100
AcDbBlockReference
  2
Block_14
 10
0.0
 20
0.0
 30
0.0
  0
INSERT
  5
BB
330
70
100
AcDbEntity
  8
Sichtbar schmal (ISO)
100
AcDbBlockReference
  2
Block_15
 10
0.0
 20
0.0
 30
0.0
  0
INSERT
  5
1CE
330
70
100
AcDbEntity
  8
Sichtbar schmal (ISO)
100
AcDbBlockReference
  2
Block_16
 10
0.0
 20
0.0
 30
0.0
  0
LWPOLYLINE
  5
1F4
330
70
100
AcDbEntity
  8
Sichtbar schmal (ISO)
 62
    18
420
        0
370
     5
100
AcDbPolyline
 90
        1
 70
     0
 43
0.0
 10
144.7702892302909
 20
168.7821153812864
  0
LINE
  5
1F5
330
70
100
AcDbEntity
  8
Sichtbar schmal (ISO)
 62
    18
420
        0
370
     5
100
AcDbLine
 10
115.2671413515578
 20
164.2458115495321
 30
0.0
 11
141.7229848139151
 21
164.2514955165801
 31
0.0
  0
LWPOLYLINE
  5
1F6
330
70
100
AcDbEntity
  8
Sichtbar schmal (ISO)
 62
    18
420
        0
370
     5
100
AcDbPolyline
 90
        1
 70
     0
 43
0.0
 10
136.730918401917
 20
168.5952578948659
  0
LINE
  5
1F7
330
70
100
AcDbEntity
  8
Sichtbar schmal (ISO)
  6
AI-Linetype-0
 62
    18
420
        0
370
     5
100
AcDbLine
 10
127.8024566853999
 20
179.2126077462581
 30
0.0
 11
113.9929574595825
 21
179.1700976592988
 31
0.0
  0
INSERT
  5
1FA
330
70
100
AcDbEntity
  8
Sichtbar schmal (ISO)
100
AcDbBlockReference
  2
Block_17
 10
0.0
 20
0.0
 30
0.0
  0
LWPOLYLINE
  5
20E
330
70
100
AcDbEntity
  8
Sichtbar schmal (ISO)
 62
    18
420
        0
370
     5
100
AcDbPolyline
 90
        1
 70
     0
 43
0.0
 10
125.1622580034061
 20
176.2854211826416
  0
INSERT
  5
210
330
70
100
AcDbEntity
  8
Sichtbar schmal (ISO)
100
AcDbBlockReference
  2
Block_21
 10
0.0
 20
0.0
 30
0.0
  0
INSERT
  5
225
330
70
100
AcDbEntity
  8
Sichtbar schmal (ISO)
100
AcDbBlockReference
  2
Block_25
 10
0.0
 20
0.0
 30
0.0
  0
LINE
  5
230
330
70
100
AcDbEntity
  8
Sichtbar schmal (ISO)
 62
    18
420
        0
370
     5
100
AcDbLine
 10
115.8401089699501
 20
184.1718617467182
 30
0.0
 11
141.7805605500963
 21
184.191161693003
 31
0.0
  0
LWPOLYLINE
  5
231
330
70
100
AcDbEntity
  8
Sichtbar schmal (ISO)
 62
    18
420
        0
370
     5
100
AcDbPolyline
 90
        1
 70
     0
 43
0.0
 10
132.0038728375851
 20
176.8571745035949
  0
INSERT
  5
233
330
70
100
AcDbEntity
  8
Sichtbar schmal (ISO)
100
AcDbBlockReference
  2
Block_27
 10
0.0
 20
0.0
 30
0.0
  0
INSERT
  5
241
330
70
100
AcDbEntity
  8
Sichtbar schmal (ISO)
100
AcDbBlockReference
  2
Block_29
 10
0.0
 20
0.0
 30
0.0
  0
LINE
  5
255
330
70
100
AcDbEntity
  8
Sichtbar schmal (ISO)
 62
    18
420
        0
370
     5
100
AcDbLine
 10
91.32071310802956
 20
113.9512131225362
 30
0.0
 11
134.736298505086
 21
113.9620863360473
 31
0.0
  0
LINE
  5
256
330
70
100
AcDbEntity
  8
Sichtbar schmal (ISO)
 62
    18
420
        0
370
     5
100
AcDbLine
 10
91.18351212365848
 20
160.7030750181436
 30
0.0
 11
134.5468845389637
 21
160.7185477289707
 31
0.0
  0
LINE
  5
257
330
70
100
AcDbEntity
  8
Sichtbar schmal (ISO)
 62
    18
420
        0
370
     5
100
AcDbLine
 10
91.33749524993433
 20
112.8087305575561
 30
0.0
 11
141.6638828039508
 21
112.8205688690324
 31
0.0
  0
INSERT
  5
259
330
70
100
AcDbEntity
  8
Sichtbar schmal (ISO)
100
AcDbBlockReference
  2
Block_33
 10
0.0
 20
0.0
 30
0.0
  0
LINE
  5
26D
330
70
100
AcDbEntity
  8
Sichtbar schmal (ISO)
 62
    18
420
        0
370
     5
100
AcDbLine
 10
91.3207177451127
 20
161.8565327775689
 30
0.0
 11
141.6747695091328
 21
161.8302464613674
 31
0.0
  0
LWPOLYLINE
  5
26E
330
70
100
AcDbEntity
  8
Sichtbar schmal (ISO)
 62
    18
420
        0
370
     5
100
AcDbPolyline
 90
        1
 70
     0
 43
0.0
 10
125.9263544666078
 20
141.8140086622165
  0
LINE
  5
26F
330
70
100
AcDbEntity
  8
Sichtbar schmal (ISO)
 62
    18
420
        0
370
     5
100
AcDbLine
 10
91.47272786857694
 20
150.5435229308062
 30
0.0
 11
127.6541980266524
 21
150.5648257091561
 31
0.0
  0
LINE
  5
270
330
70
100
AcDbEntity
  8
Sichtbar schmal (ISO)
 62
    18
420
        0
370
     5
100
AcDbLine
 10
91.86492226276261
 20
124.1781453700695
 30
0.0
 11
127.6541980266524
 21
124.1827448668439
 31
0.0
  0
INSERT
  5
272
330
70
100
AcDbEntity
  8
Sichtbar schmal (ISO)
100
AcDbBlockReference
  2
Block_37
 10
0.0
 20
0.0
 30
0.0
  0
INSERT
  5
287
330
70
100
AcDbEntity
  8
Sichtbar schmal (ISO)
100
AcDbBlockReference
  2
Block_41
 10
0.0
 20
0.0
 30
0.0
  0
INSERT
  5
299
330
70
100
AcDbEntity
  8
Sichtbar schmal (ISO)
100
AcDbBlockReference
  2
Block_43
 10
0.0
 20
0.0
 30
0.0
  0
INSERT
  5
2AC
330
70
100
AcDbEntity
  8
Sichtbar schmal (ISO)
100
AcDbBlockReference
  2
Block_45
 10
0.0
 20
0.0
 30
0.0
  0
ENDSEC
  0
SECTION
  2
OBJECTS
  0
DICTIONARY
  5
C
330
0
100
AcDbDictionary
281
     1
  3
ACAD_COLOR
350
63
  3
ACAD_DETAILVIEWSTYLE
350
6A
  3
ACAD_GROUP
350
D
  3
ACAD_LAYOUT
350
62
  3
ACAD_MATERIAL
350
10
  3
ACAD_MLEADERSTYLE
350
66
  3
ACAD_MLINESTYLE
350
5F
  3
ACAD_PLOTSETTINGS
350
61
  3
ACAD_PLOTSTYLENAME
350
E
  3
ACAD_SCALELIST
350
42
  3
ACAD_SECTIONVIEWSTYLE
350
68
  3
ACAD_TABLESTYLE
350
64
  3
ACAD_VISUALSTYLE
350
29
  3
ACDB_RECOMPOSE_DATA
350
2C7
  3
AcDbVariableDictionary
350
2BF
  0
DICTIONARY
  5
63
102
{ACAD_REACTORS
330
C
102
}
330
C
100
AcDbDictionary
281
     1
  0
DICTIONARY
  5
6A
102
{ACAD_REACTORS
330
C
102
}
330
C
100
AcDbDictionary
281
     1
  3
Imperial24
350
6B
  0
DICTIONARY
  5
D
102
{ACAD_REACTORS
330
C
102
}
330
C
100
AcDbDictionary
281
     1
  0
DICTIONARY
  5
62
102
{ACAD_REACTORS
330
C
102
}
330
C
100
AcDbDictionary
281
     1
  3
Layout1
350
6F
  3
Layout2
350
77
  3
Model
350
73
  0
DICTIONARY
  5
10
102
{ACAD_REACTORS
330
C
102
}
330
C
100
AcDbDictionary
281
     1
  3
ByBlock
350
19
  3
ByLayer
350
11
  3
Global
350
21
  0
DICTIONARY
  5
66
102
{ACAD_REACTORS
330
C
102
}
330
C
100
AcDbDictionary
281
     1
  3
Standard
350
67
  0
DICTIONARY
  5
5F
102
{ACAD_REACTORS
330
C
102
}
330
C
100
AcDbDictionary
281
     1
  3
Standard
350
60
  0
DICTIONARY
  5
61
102
{ACAD_REACTORS
330
C
102
}
330
C
100
AcDbDictionary
281
     1
  0
ACDBDICTIONARYWDFLT
  5
E
102
{ACAD_REACTORS
330
C
102
}
330
C
100
AcDbDictionary
281
     1
  3
Normal
350
F
100
AcDbDictionaryWithDefault
340
F
  0
DICTIONARY
  5
42
102
{ACAD_REACTORS
330
C
102
}
330
C
100
AcDbDictionary
281
     1
  3
A0
350
43
  3
A1
350
44
  3
A2
350
45
  3
A3
350
46
  3
A4
350
47
  3
A5
350
48
  3
A6
350
49
  3
A7
350
4A
  3
A8
350
4B
  3
A9
350
4C
  3
B0
350
4D
  3
B1
350
4E
  3
B2
350
4F
  3
B3
350
50
  3
B4
350
51
  3
B5
350
52
  3
B6
350
53
  0
DICTIONARY
  5
68
102
{ACAD_REACTORS
330
C
102
}
330
C
100
AcDbDictionary
281
     1
  3
Imperial24
350
69
  0
DICTIONARY
  5
64
102
{ACAD_REACTORS
330
C
102
}
330
C
100
AcDbDictionary
281
     1
  3
Standard
350
65
  0
DICTIONARY
  5
29
102
{ACAD_REACTORS
330
C
102
}
330
C
100
AcDbDictionary
281
     1
  3
2dWireframe
350
2F
  3
Basic
350
2E
  3
Brighten
350
35
  3
ColorChange
350
39
  3
Conceptual
350
32
  3
Dim
350
34
  3
EdgeColorOff
350
41
  3
Facepattern
350
38
  3
Flat
350
2A
  3
FlatWithEdges
350
2B
  3
Gouraud
350
2C
  3
GouraudWithEdges
350
2D
  3
Hidden
350
31
  3
JitterOff
350
3F
  3
Linepattern
350
37
  3
OverhangOff
350
40
  3
Realistic
350
33
  3
Shaded
350
3E
  3
Shaded with edges
350
3D
  3
Shades of Gray
350
3A
  3
Sketchy
350
3B
  3
Thicken
350
36
  3
Wireframe
350
30
  3
X-Ray
350
3C
  0
XRECORD
  5
2C7
102
{ACAD_REACTORS
330
C
102
}
330
C
100
AcDbXrecord
280
     1
 90
        1
330
65
  0
DICTIONARY
  5
2BF
102
{ACAD_REACTORS
330
C
102
}
330
C
100
AcDbDictionary
281
     1
  3
CANNOSCALE
350
2C4
  3
CMLEADERSTYLE
350
2C1
  3
CTABLESTYLE
350
2C0
  3
CVIEWDETAILSTYLE
350
2C2
  3
CVIEWSECTIONSTYLE
350
2C3
  0
ACDBDETAILVIEWSTYLE
  5
6B
102
{ACAD_REACTORS
330
6A
102
}
330
6A
100
AcDbModelDocViewStyle
 70
     0
  3
Imperial24
290
     1
300
Imperial24
 90
        0
100
AcDbDetailViewStyle
 70
     0
 71
     0
 90
        3
 71
     1
340
55
 62
   256
 40
0.24
340
0
 62
   256
 40
0.24
300

 40
0.36
280
     3
 71
     2
340
5D
 90
       25
 62
   256
 71
     3
340
55
 62
   256
 40
0.24
 90
        1
 40
0.75
 90
        1
300
%<\AcVar ViewType \f "%tc1">% %<\AcVar ViewDetailId>%\PSCALE %<\AcVar ViewScale \f "%sn">%
 71
     4
340
5D
 90
       25
 62
   256
340
5D
 90
       25
 62
   256
280
     0
  0
LAYOUT
  5
6F
102
{ACAD_REACTORS
330
62
102
}
330
62
100
AcDbPlotSettings
  1

  2

  4

  6

 40
0.0
 41
0.0
 42
0.0
 43
0.0
 44
0.0
 45
0.0
 46
0.0
 47
0.0
 48
0.0
 49
0.0
140
0.0
141
0.0
142
1.0
143
1.0
 70
   688
 72
     0
 73
     0
 74
     5
  7

 75
    16
147
1.0
 76
     0
 77
     2
 78
   300
148
0.0
149
0.0
100
AcDbLayout
  1
Layout1
 70
     1
 71
     1
 10
0.0
 20
0.0
 11
12.0
 21
9.0
 12
0.0
 22
0.0
 32
0.0
 14
0.0
 24
0.0
 34
0.0
 15
0.0
 25
0.0
 35
0.0
146
0.0
 13
0.0
 23
0.0
 33
0.0
 16
1.0
 26
0.0
 36
0.0
 17
0.0
 27
1.0
 37
0.0
 76
     0
330
6C
  0
LAYOUT
  5
77
102
{ACAD_REACTORS
330
62
102
}
330
62
100
AcDbPlotSettings
  1

  2

  4

  6

 40
0.0
 41
0.0
 42
0.0
 43
0.0
 44
0.0
 45
0.0
 46
0.0
 47
0.0
 48
0.0
 49
0.0
140
0.0
141
0.0
142
1.0
143
1.0
 70
   688
 72
     0
 73
     0
 74
     5
  7

 75
    16
147
1.0
 76
     0
 77
     2
 78
   300
148
0.0
149
0.0
100
AcDbLayout
  1
Layout2
 70
     1
 71
     2
 10
0.0
 20
0.0
 11
12.0
 21
9.0
 12
0.0
 22
0.0
 32
0.0
 14
0.0
 24
0.0
 34
0.0
 15
0.0
 25
0.0
 35
0.0
146
0.0
 13
0.0
 23
0.0
 33
0.0
 16
1.0
 26
0.0
 36
0.0
 17
0.0
 27
1.0
 37
0.0
 76
     0
330
74
  0
LAYOUT
  5
73
102
{ACAD_REACTORS
330
62
102
}
330
62
100
AcDbPlotSettings
  1

  2

  4

  6

 40
0.0
 41
0.0
 42
0.0
 43
0.0
 44
0.0
 45
0.0
 46
0.0
 47
0.0
 48
0.0
 49
0.0
140
0.0
141
0.0
142
1.0
143
1.0
 70
  1712
 72
     0
 73
     0
 74
     0
  7

 75
     0
147
1.0
 76
     0
 77
     2
 78
   300
148
0.0
149
0.0
100
AcDbLayout
  1
Model
 70
     1
 71
     0
 10
0.0
 20
0.0
 11
12.0
 21
9.0
 12
0.0
 22
0.0
 32
0.0
 14
0.0
 24
0.0
 34
0.0
 15
0.0
 25
0.0
 35
0.0
146
0.0
 13
0.0
 23
0.0
 33
0.0
 16
1.0
 26
0.0
 36
0.0
 17
0.0
 27
1.0
 37
0.0
 76
     0
330
70
  0
MATERIAL
  5
19
102
{ACAD_XDICTIONARY
360
1A
102
}
102
{ACAD_REACTORS
330
10
102
}
330
10
100
AcDbMaterial
  1
ByBlock
 72
     0
 43
0.0208333333333333
 43
0.0
 43
0.0
 43
0.0
 43
0.0
 43
0.0208333333333333
 43
0.0
 43
0.0
 43
0.0
 43
0.0
 43
1.0
 43
0.0
 43
0.0
 43
0.0
 43
0.0
 43
1.0
 77
     0
 47
0.0208333333333333
 47
0.0
 47
0.0
 47
0.0
 47
0.0
 47
0.0208333333333333
 47
0.0
 47
0.0
 47
0.0
 47
0.0
 47
1.0
 47
0.0
 47
0.0
 47
0.0
 47
0.0
 47
1.0
171
     0
 49
0.0208333333333333
 49
0.0
 49
0.0
 49
0.0
 49
0.0
 49
0.0208333333333333
 49
0.0
 49
0.0
 49
0.0
 49
0.0
 49
1.0
 49
0.0
 49
0.0
 49
0.0
 49
0.0
 49
1.0
175
     0
142
0.0208333333333333
142
0.0
142
0.0
142
0.0
142
0.0
142
0.0208333333333333
142
0.0
142
0.0
142
0.0
142
0.0
142
1.0
142
0.0
142
0.0
142
0.0
142
0.0
142
1.0
179
     0
144
0.0208333333333333
144
0.0
144
0.0
144
0.0
144
0.0
144
0.0208333333333333
144
0.0
144
0.0
144
0.0
144
0.0
144
1.0
144
0.0
144
0.0
144
0.0
144
0.0
144
1.0
147
0.0208333333333333
147
0.0
147
0.0
147
0.0
147
0.0
147
0.0208333333333333
147
0.0
147
0.0
147
0.0
147
0.0
147
1.0
147
0.0
147
0.0
147
0.0
147
0.0
147
1.0
  0
MATERIAL
  5
11
102
{ACAD_XDICTIONARY
360
12
102
}
102
{ACAD_REACTORS
330
10
102
}
330
10
100
AcDbMaterial
  1
ByLayer
 72
     0
 43
0.0208333333333333
 43
0.0
 43
0.0
 43
0.0
 43
0.0
 43
0.0208333333333333
 43
0.0
 43
0.0
 43
0.0
 43
0.0
 43
1.0
 43
0.0
 43
0.0
 43
0.0
 43
0.0
 43
1.0
 77
     0
 47
0.0208333333333333
 47
0.0
 47
0.0
 47
0.0
 47
0.0
 47
0.0208333333333333
 47
0.0
 47
0.0
 47
0.0
 47
0.0
 47
1.0
 47
0.0
 47
0.0
 47
0.0
 47
0.0
 47
1.0
171
     0
 49
0.0208333333333333
 49
0.0
 49
0.0
 49
0.0
 49
0.0
 49
0.0208333333333333
 49
0.0
 49
0.0
 49
0.0
 49
0.0
 49
1.0
 49
0.0
 49
0.0
 49
0.0
 49
0.0
 49
1.0
175
     0
142
0.0208333333333333
142
0.0
142
0.0
142
0.0
142
0.0
142
0.0208333333333333
142
0.0
142
0.0
142
0.0
142
0.0
142
1.0
142
0.0
142
0.0
142
0.0
142
0.0
142
1.0
179
     0
144
0.0208333333333333
144
0.0
144
0.0
144
0.0
144
0.0
144
0.0208333333333333
144
0.0
144
0.0
144
0.0
144
0.0
144
1.0
144
0.0
144
0.0
144
0.0
144
0.0
144
1.0
147
0.0208333333333333
147
0.0
147
0.0
147
0.0
147
0.0
147
0.0208333333333333
147
0.0
147
0.0
147
0.0
147
0.0
147
1.0
147
0.0
147
0.0
147
0.0
147
0.0
147
1.0
  0
MATERIAL
  5
21
102
{ACAD_XDICTIONARY
360
22
102
}
102
{ACAD_REACTORS
330
10
102
}
330
10
100
AcDbMaterial
  1
Global
 72
     0
 43
0.0208333333333333
 43
0.0
 43
0.0
 43
0.0
 43
0.0
 43
0.0208333333333333
 43
0.0
 43
0.0
 43
0.0
 43
0.0
 43
1.0
 43
0.0
 43
0.0
 43
0.0
 43
0.0
 43
1.0
 77
     0
 47
0.0208333333333333
 47
0.0
 47
0.0
 47
0.0
 47
0.0
 47
0.0208333333333333
 47
0.0
 47
0.0
 47
0.0
 47
0.0
 47
1.0
 47
0.0
 47
0.0
 47
0.0
 47
0.0
 47
1.0
171
     0
 49
0.0208333333333333
 49
0.0
 49
0.0
 49
0.0
 49
0.0
 49
0.0208333333333333
 49
0.0
 49
0.0
 49
0.0
 49
0.0
 49
1.0
 49
0.0
 49
0.0
 49
0.0
 49
0.0
 49
1.0
175
     0
142
0.0208333333333333
142
0.0
142
0.0
142
0.0
142
0.0
142
0.0208333333333333
142
0.0
142
0.0
142
0.0
142
0.0
142
1.0
142
0.0
142
0.0
142
0.0
142
0.0
142
1.0
179
     0
144
0.0208333333333333
144
0.0
144
0.0
144
0.0
144
0.0
144
0.0208333333333333
144
0.0
144
0.0
144
0.0
144
0.0
144
1.0
144
0.0
144
0.0
144
0.0
144
0.0
144
1.0
147
0.0208333333333333
147
0.0
147
0.0
147
0.0
147
0.0
147
0.0208333333333333
147
0.0
147
0.0
147
0.0
147
0.0
147
1.0
147
0.0
147
0.0
147
0.0
147
0.0
147
1.0
  0
MLEADERSTYLE
  5
67
102
{ACAD_REACTORS
330
66
102
}
330
66
100
AcDbMLeaderStyle
179
     2
170
     2
171
     1
172
     0
 90
        2
 40
0.0
 41
0.0
173
     1
 91
-1056964608
340
5B
 92
       -2
290
     1
 42
0.09
291
     1
 43
0.36
  3
Standard
 44
0.18
300

342
55
174
     1
178
     6
175
     1
176
     0
 93
-1056964608
 45
0.18
292
     0
297
     0
 46
0.18
 94
-1056964608
 47
1.0
 49
1.0
140
1.0
293
     1
141
0.0
294
     1
177
     0
142
1.0
295
     1
296
     0
143
0.125
271
     0
272
     9
273
     9
298
     1
  0
MLINESTYLE
  5
60
102
{ACAD_REACTORS
330
5F
102
}
330
5F
100
AcDbMlineStyle
  2
STANDARD
 70
     0
  3

 62
   256
 51
90.0
 52
90.0
 71
     2
 49
0.5
 62
   256
  6
BYLAYER
 49
-0.5
 62
   256
  6
BYLAYER
  0
ACDBPLACEHOLDER
  5
F
102
{ACAD_REACTORS
330
E
102
}
330
E
  0
SCALE
  5
43
102
{ACAD_REACTORS
330
42
102
}
330
42
100
AcDbScale
 70
     0
300
1:1
140
1.0
141
1.0
290
     1
  0
SCALE
  5
44
102
{ACAD_REACTORS
330
42
102
}
330
42
100
AcDbScale
 70
     0
300
1/128" = 1'-0"
140
0.0078125
141
12.0
290
     0
  0
SCALE
  5
45
102
{ACAD_REACTORS
330
42
102
}
330
42
100
AcDbScale
 70
     0
300
1/64" = 1'-0"
140
0.015625
141
12.0
290
     0
  0
SCALE
  5
46
102
{ACAD_REACTORS
330
42
102
}
330
42
100
AcDbScale
 70
     0
300
1/32" = 1'-0"
140
0.03125
141
12.0
290
     0
  0
SCALE
  5
47
102
{ACAD_REACTORS
330
42
102
}
330
42
100
AcDbScale
 70
     0
300
1/16" = 1'-0"
140
0.0625
141
12.0
290
     0
  0
SCALE
  5
48
102
{ACAD_REACTORS
330
42
102
}
330
42
100
AcDbScale
 70
     0
300
3/32" = 1'-0"
140
0.09375
141
12.0
290
     0
  0
SCALE
  5
49
102
{ACAD_REACTORS
330
42
102
}
330
42
100
AcDbScale
 70
     0
300
1/8" = 1'-0"
140
0.125
141
12.0
290
     0
  0
SCALE
  5
4A
102
{ACAD_REACTORS
330
42
102
}
330
42
100
AcDbScale
 70
     0
300
3/16" = 1'-0"
140
0.1875
141
12.0
290
     0
  0
SCALE
  5
4B
102
{ACAD_REACTORS
330
42
102
}
330
42
100
AcDbScale
 70
     0
300
1/4" = 1'-0"
140
0.25
141
12.0
290
     0
  0
SCALE
  5
4C
102
{ACAD_REACTORS
330
42
102
}
330
42
100
AcDbScale
 70
     0
300
3/8" = 1'-0"
140
0.375
141
12.0
290
     0
  0
SCALE
  5
4D
102
{ACAD_REACTORS
330
42
102
}
330
42
100
AcDbScale
 70
     0
300
1/2" = 1'-0"
140
0.5
141
12.0
290
     0
  0
SCALE
  5
4E
102
{ACAD_REACTORS
330
42
102
}
330
42
100
AcDbScale
 70
     0
300
3/4" = 1'-0"
140
0.75
141
12.0
290
     0
  0
SCALE
  5
4F
102
{ACAD_REACTORS
330
42
102
}
330
42
100
AcDbScale
 70
     0
300
1" = 1'-0"
140
1.0
141
12.0
290
     0
  0
SCALE
  5
50
102
{ACAD_REACTORS
330
42
102
}
330
42
100
AcDbScale
 70
     0
300
1-1/2" = 1'-0"
140
1.5
141
12.0
290
     0
  0
SCALE
  5
51
102
{ACAD_REACTORS
330
42
102
}
330
42
100
AcDbScale
 70
     0
300
3" = 1'-0"
140
3.0
141
12.0
290
     0
  0
SCALE
  5
52
102
{ACAD_REACTORS
330
42
102
}
330
42
100
AcDbScale
 70
     0
300
6" = 1'-0"
140
6.0
141
12.0
290
     0
  0
SCALE
  5
53
102
{ACAD_REACTORS
330
42
102
}
330
42
100
AcDbScale
 70
     0
300
1'-0" = 1'-0"
140
12.0
141
12.0
290
     0
  0
ACDBSECTIONVIEWSTYLE
  5
69
102
{ACAD_REACTORS
330
68
102
}
330
68
100
AcDbModelDocViewStyle
 70
     0
  3
Imperial24
290
     1
300
Imperial24
 90
        0
100
AcDbSectionViewStyle
 70
     0
 71
     0
 90
       78
 71
     1
340
55
 62
   256
 40
0.24
340
0
340
0
 62
   256
 40
0.24
300
I, O, Q, S, X, Z
 40
0.48
 90
        3
 40
0.18
 90
        1
 71
     2
340
5D
 90
       25
 62
   256
340
5D
 90
       50
 62
   256
 40
0.24
 40
0.0
 40
0.24
 71
     3
340
55
 62
   256
 40
0.24
 90
        1
 40
0.75
 90
        1
300
%<\AcVar ViewType \f "%tc1">% %<\AcVar ViewSectionStartId>%-%<\AcVar ViewSectionEndId>%\PSCALE %<\AcVar ViewScale \f "%sn">%
 71
     4
 62
   256
 62
   257
300
ANSI31
 40
1.0
 90
        0
290
     0
290
     0
 90
        6
 40
0.0
 40
1.570796326794896
 40
0.2617993877991494
 40
1.308996938995747
 40
-0.2617993877991494
 40
1.832595714594046
  0
TABLESTYLE
  5
65
102
{ACAD_XDICTIONARY
360
2C5
102
}
102
{ACAD_REACTORS
330
64
102
}
330
64
100
AcDbTableStyle
280
     0
  3
Standard
 70
     0
 71
     0
 40
0.06
 41
0.06
280
     0
281
     0
  7
Standard
140
0.18
170
     2
 62
     0
 63
     7
283
     0
 90
      512
 91
        0
  1

274
    -2
284
     1
 64
     0
275
    -2
285
     1
 65
     0
276
    -2
286
     1
 66
     0
277
    -2
287
     1
 67
     0
278
    -2
288
     1
 68
     0
279
    -2
289
     1
 69
     0
  7
Standard
140
0.25
170
     5
 62
     0
 63
     7
283
     0
 90
      512
 91
        0
  1

274
    -2
284
     1
 64
     0
275
    -2
285
     1
 65
     0
276
    -2
286
     1
 66
     0
277
    -2
287
     1
 67
     0
278
    -2
288
     1
 68
     0
279
    -2
289
     1
 69
     0
  7
Standard
140
0.18
170
     5
 62
     0
 63
     7
283
     0
 90
      512
 91
        0
  1

274
    -2
284
     1
 64
     0
275
    -2
285
     1
 65
     0
276
    -2
286
     1
 66
     0
277
    -2
287
     1
 67
     0
278
    -2
288
     1
 68
     0
279
    -2
289
     1
 69
     0
  0
VISUALSTYLE
  5
2F
102
{ACAD_REACTORS
330
29
102
}
330
29
100
AcDbVisualStyle
  2
2dWireframe
 70
     4
177
     3
291
     0
 70
    58
 90
        0
176
     1
 90
        2
176
     1
 90
        0
176
     1
 90
        0
176
     1
 40
0.6
176
     1
 40
30.0
176
     1
 62
     7
420
 16777215
176
     1
 90
        1
176
     1
 90
        4
176
     1
 62
     7
176
     1
 62
   257
176
     1
 90
        1
176
     1
 90
        1
176
     1
 40
1.0
176
     1
 90
        0
176
     1
 62
   257
176
     1
 40
1.0
176
     1
 90
        1
176
     1
 90
        6
176
     1
 90
        2
176
     1
 62
     7
176
     1
 90
        5
176
     1
 90
        0
176
     1
 90
        0
176
     1
290
     0
176
     1
 90
        1
176
     1
 40
0.0
176
     1
 90
        0
176
     1
290
     1
176
     1
290
     1
176
     1
290
     0
176
     1
290
     0
176
     1
290
     0
176
     1
290
     0
176
     1
290
     0
176
     1
290
     0
176
     1
290
     0
176
     1
 90
       50
176
     1
 40
0.0
176
     1
 40
1.0
176
     1
 90
        0
176
     1
 62
    18
420
        0
176
     1
 90
       50
176
     1
 90
        3
176
     1
 62
     5
420
      255
176
     1
290
     0
176
     1
 90
       50
176
     1
 90
       50
176
     1
 90
       50
176
     1
290
     0
176
     1
 90
       50
176
     1
 62
   256
176
     0
 40
1.0
176
     0
 90
        2
176
     1
  1
strokes_ogs.tif
176
     1
290
     0
176
     1
 40
1.0
176
     1
 40
1.0
176
     1
  0
VISUALSTYLE
  5
2E
102
{ACAD_REACTORS
330
29
102
}
330
29
100
AcDbVisualStyle
  2
Basic
 70
     7
177
     3
291
     1
 70
    58
 90
        1
176
     1
 90
        0
176
     1
 90
        1
176
     1
 90
        0
176
     1
 40
0.6
176
     1
 40
30.0
176
     1
 62
     7
420
 16777215
176
     1
 90
        0
176
     1
 90
        4
176
     1
 62
     7
176
     1
 62
   257
176
     1
 90
        1
176
     1
 90
        1
176
     1
 40
1.0
176
     1
 90
        8
176
     1
 62
     7
176
     1
 40
1.0
176
     1
 90
        1
176
     1
 90
        6
176
     1
 90
        2
176
     1
 62
     7
176
     1
 90
        5
176
     1
 90
        0
176
     1
 90
        0
176
     1
290
     0
176
     1
 90
        1
176
     1
 40
0.0
176
     1
 90
        0
176
     1
290
     0
176
     1
290
     1
176
     1
290
     1
176
     1
290
     0
176
     1
290
     0
176
     1
290
     0
176
     1
290
     0
176
     1
290
     0
176
     1
290
     0
176
     1
 90
       50
176
     1
 40
0.0
176
     1
 40
1.0
176
     1
 90
        0
176
     1
 62
    18
420
        0
176
     1
 90
       50
176
     1
 90
        3
176
     1
 62
     5
420
      255
176
     1
290
     0
176
     1
 90
       50
176
     1
 90
       50
176
     1
 90
       50
176
     1
290
     0
176
     1
 90
       50
176
     1
 62
   256
176
     0
 40
1.0
176
     0
 90
        2
176
     1
  1
strokes_ogs.tif
176
     1
290
     0
176
     1
 40
1.0
176
     1
 40
1.0
176
     1
  0
VISUALSTYLE
  5
35
102
{ACAD_REACTORS
330
29
102
}
330
29
100
AcDbVisualStyle
  2
Brighten
 70
    12
177
     3
291
     1
 70
    58
 90
        2
176
     1
 90
        2
176
     1
 90
        0
176
     1
 90
        0
176
     1
 40
0.6
176
     1
 40
30.0
176
     1
 62
     7
420
 16777215
176
     1
 90
        1
176
     1
 90
        4
176
     1
 62
     7
176
     1
 62
   257
176
     1
 90
        1
176
     1
 90
        1
176
     1
 40
1.0
176
     1
 90
        8
176
     1
 62
     7
176
     1
 40
1.0
176
     1
 90
        1
176
     1
 90
        6
176
     1
 90
        2
176
     1
 62
     7
176
     1
 90
        5
176
     1
 90
        0
176
     1
 90
        0
176
     1
290
     0
176
     1
 90
        1
176
     1
 40
50.0
176
     1
 90
        0
176
     1
290
     0
176
     1
290
     1
176
     1
290
     1
176
     1
290
     0
176
     1
290
     0
176
     1
290
     0
176
     1
290
     0
176
     1
290
     0
176
     1
290
     0
176
     1
 90
       50
176
     1
 40
0.0
176
     1
 40
1.0
176
     1
 90
        0
176
     1
 62
    18
420
        0
176
     1
 90
       50
176
     1
 90
        3
176
     1
 62
     5
420
      255
176
     1
290
     0
176
     1
 90
       50
176
     1
 90
       50
176
     1
 90
       50
176
     1
290
     0
176
     1
 90
       50
176
     1
 62
   256
176
     0
 40
1.0
176
     0
 90
        2
176
     1
  1
strokes_ogs.tif
176
     1
290
     0
176
     1
 40
1.0
176
     1
 40
1.0
176
     1
  0
VISUALSTYLE
  5
39
102
{ACAD_REACTORS
330
29
102
}
330
29
100
AcDbVisualStyle
  2
ColorChange
 70
    16
177
     3
291
     1
 70
    58
 90
        2
176
     1
 90
        2
176
     1
 90
        3
176
     1
 90
        0
176
     1
 40
0.6
176
     1
 40
30.0
176
     1
 62
     8
420
  8421504
176
     1
 90
        1
176
     1
 90
        4
176
     1
 62
     7
176
     1
 62
   257
176
     1
 90
        1
176
     1
 90
        1
176
     1
 40
1.0
176
     1
 90
        8
176
     1
 62
     8
420
  8421504
176
     1
 40
1.0
176
     1
 90
        1
176
     1
 90
        6
176
     1
 90
        2
176
     1
 62
     7
176
     1
 90
        5
176
     1
 90
        0
176
     1
 90
        0
176
     1
290
     0
176
     1
 90
        1
176
     1
 40
0.0
176
     1
 90
        0
176
     1
290
     0
176
     1
290
     1
176
     1
290
     1
176
     1
290
     0
176
     1
290
     0
176
     1
290
     0
176
     1
290
     0
176
     1
290
     0
176
     1
290
     0
176
     1
 90
       50
176
     1
 40
0.0
176
     1
 40
1.0
176
     1
 90
        0
176
     1
 62
    18
420
        0
176
     1
 90
       50
176
     1
 90
        3
176
     1
 62
     5
420
      255
176
     1
290
     0
176
     1
 90
       50
176
     1
 90
       50
176
     1
 90
       50
176
     1
290
     0
176
     1
 90
       50
176
     1
 62
   256
176
     0
 40
1.0
176
     0
 90
        2
176
     1
  1
strokes_ogs.tif
176
     1
290
     0
176
     1
 40
1.0
176
     1
 40
1.0
176
     1
  0
VISUALSTYLE
  5
32
102
{ACAD_REACTORS
330
29
102
}
330
29
100
AcDbVisualStyle
  2
Conceptual
 70
     9
177
     3
291
     0
 70
    58
 90
        3
176
     1
 90
        2
176
     1
 90
        0
176
     1
 90
        0
176
     1
 40
0.6
176
     1
 40
30.0
176
     1
 62
     7
420
 16777215
176
     1
 90
        2
176
     1
 90
        2
176
     1
 62
     7
176
     1
 62
   257
176
     1
 90
        1
176
     1
 90
        1
176
     1
 40
179.0
176
     1
 90
        8
176
     1
 62
     7
176
     1
 40
1.0
176
     1
 90
        1
176
     1
 90
        6
176
     1
 90
        2
176
     1
 62
     7
176
     1
 90
        3
176
     1
 90
        0
176
     1
 90
        0
176
     1
290
     0
176
     1
 90
        1
176
     1
 40
0.0
176
     1
 90
        0
176
     1
290
     0
176
     1
290
     1
176
     1
290
     1
176
     1
290
     0
176
     1
290
     0
176
     1
290
     0
176
     1
290
     0
176
     1
290
     0
176
     1
290
     0
176
     1
 90
       50
176
     1
 40
0.0
176
     1
 40
1.0
176
     1
 90
        0
176
     1
 62
    18
420
        0
176
     1
 90
       50
176
     1
 90
        3
176
     1
 62
     5
420
      255
176
     1
290
     0
176
     1
 90
       50
176
     1
 90
       50
176
     1
 90
       50
176
     1
290
     0
176
     1
 90
       50
176
     1
 62
   256
176
     0
 40
1.0
176
     0
 90
        2
176
     1
  1
strokes_ogs.tif
176
     1
290
     0
176
     1
 40
1.0
176
     1
 40
1.0
176
     1
  0
VISUALSTYLE
  5
34
102
{ACAD_REACTORS
330
29
102
}
330
29
100
AcDbVisualStyle
  2
Dim
 70
    11
177
     3
291
     1
 70
    58
 90
        2
176
     1
 90
        2
176
     1
 90
        0
176
     1
 90
        0
176
     1
 40
0.6
176
     1
 40
30.0
176
     1
 62
     7
420
 16777215
176
     1
 90
        1
176
     1
 90
        4
176
     1
 62
     7
176
     1
 62
   257
176
     1
 90
        1
176
     1
 90
        1
176
     1
 40
1.0
176
     1
 90
        8
176
     1
 62
     7
176
     1
 40
1.0
176
     1
 90
        1
176
     1
 90
        6
176
     1
 90
        2
176
     1
 62
     7
176
     1
 90
        5
176
     1
 90
        0
176
     1
 90
        0
176
     1
290
     0
176
     1
 90
        1
176
     1
 40
-50.0
176
     1
 90
        0
176
     1
290
     0
176
     1
290
     1
176
     1
290
     1
176
     1
290
     0
176
     1
290
     0
176
     1
290
     0
176
     1
290
     0
176
     1
290
     0
176
     1
290
     0
176
     1
 90
       50
176
     1
 40
0.0
176
     1
 40
1.0
176
     1
 90
        0
176
     1
 62
    18
420
        0
176
     1
 90
       50
176
     1
 90
        3
176
     1
 62
     5
420
      255
176
     1
290
     0
176
     1
 90
       50
176
     1
 90
       50
176
     1
 90
       50
176
     1
290
     0
176
     1
 90
       50
176
     1
 62
   256
176
     0
 40
1.0
176
     0
 90
        2
176
     1
  1
strokes_ogs.tif
176
     1
290
     0
176
     1
 40
1.0
176
     1
 40
1.0
176
     1
  0
VISUALSTYLE
  5
41
102
{ACAD_REACTORS
330
29
102
}
330
29
100
AcDbVisualStyle
  2
EdgeColorOff
 70
    22
177
     3
291
     1
 70
    58
 90
        2
176
     0
 90
        2
176
     0
 90
        0
176
     0
 90
        0
176
     0
 40
0.6
176
     0
 40
30.0
176
     0
 62
     7
420
 16777215
176
     0
 90
        1
176
     0
 90
        4
176
     0
 62
     7
176
     0
 62
   257
176
     0
 90
        1
176
     0
 90
        1
176
     0
 40
1.0
176
     0
 90
        8
176
     2
 62
     7
176
     0
 40
1.0
176
     0
 90
        1
176
     0
 90
        6
176
     0
 90
        2
176
     0
 62
     7
176
     0
 90
        5
176
     0
 90
        0
176
     0
 90
        0
176
     0
290
     0
176
     0
 90
        1
176
     0
 40
0.0
176
     0
 90
        0
176
     0
290
     0
176
     0
290
     1
176
     0
290
     1
176
     0
290
     0
176
     0
290
     0
176
     0
290
     0
176
     0
290
     0
176
     0
290
     0
176
     0
290
     0
176
     0
 90
       50
176
     0
 40
0.0
176
     0
 40
1.0
176
     0
 90
        0
176
     0
 62
    18
420
        0
176
     0
 90
       50
176
     0
 90
        3
176
     0
 62
     5
420
      255
176
     0
290
     0
176
     0
 90
       50
176
     0
 90
       50
176
     0
 90
       50
176
     0
290
     0
176
     0
 90
       50
176
     0
 62
   256
176
     0
 40
1.0
176
     0
 90
        2
176
     0
  1
strokes_ogs.tif
176
     0
290
     0
176
     0
 40
1.0
176
     0
 40
1.0
176
     0
  0
VISUALSTYLE
  5
38
102
{ACAD_REACTORS
330
29
102
}
330
29
100
AcDbVisualStyle
  2
Facepattern
 70
    15
177
     3
291
     1
 70
    58
 90
        2
176
     1
 90
        2
176
     1
 90
        0
176
     1
 90
        0
176
     1
 40
0.6
176
     1
 40
30.0
176
     1
 62
     7
420
 16777215
176
     1
 90
        1
176
     1
 90
        4
176
     1
 62
     7
176
     1
 62
   257
176
     1
 90
        1
176
     1
 90
        1
176
     1
 40
1.0
176
     1
 90
        8
176
     1
 62
     7
176
     1
 40
1.0
176
     1
 90
        1
176
     1
 90
        6
176
     1
 90
        2
176
     1
 62
     7
176
     1
 90
        5
176
     1
 90
        0
176
     1
 90
        0
176
     1
290
     0
176
     1
 90
        1
176
     1
 40
0.0
176
     1
 90
        0
176
     1
290
     0
176
     1
290
     1
176
     1
290
     1
176
     1
290
     0
176
     1
290
     0
176
     1
290
     0
176
     1
290
     0
176
     1
290
     0
176
     1
290
     0
176
     1
 90
       50
176
     1
 40
0.0
176
     1
 40
1.0
176
     1
 90
        0
176
     1
 62
    18
420
        0
176
     1
 90
       50
176
     1
 90
        3
176
     1
 62
     5
420
      255
176
     1
290
     0
176
     1
 90
       50
176
     1
 90
       50
176
     1
 90
       50
176
     1
290
     0
176
     1
 90
       50
176
     1
 62
   256
176
     0
 40
1.0
176
     0
 90
        2
176
     1
  1
strokes_ogs.tif
176
     1
290
     0
176
     1
 40
1.0
176
     1
 40
1.0
176
     1
  0
VISUALSTYLE
  5
2A
102
{ACAD_REACTORS
330
29
102
}
330
29
100
AcDbVisualStyle
  2
Flat
 70
     0
177
     3
291
     1
 70
    58
 90
        2
176
     1
 90
        1
176
     1
 90
        1
176
     1
 90
        2
176
     1
 40
0.6
176
     1
 40
30.0
176
     1
 62
     7
420
 16777215
176
     1
 90
        0
176
     1
 90
        0
176
     1
 62
     7
176
     1
 62
   257
176
     1
 90
        1
176
     1
 90
        1
176
     1
 40
1.0
176
     1
 90
        8
176
     1
 62
     7
176
     1
 40
1.0
176
     1
 90
        1
176
     1
 90
        6
176
     1
 90
        2
176
     1
 62
     7
176
     1
 90
        5
176
     1
 90
        0
176
     1
 90
        0
176
     1
290
     0
176
     1
 90
       13
176
     1
 40
0.0
176
     1
 90
        0
176
     1
290
     0
176
     1
290
     1
176
     1
290
     1
176
     1
290
     0
176
     1
290
     0
176
     1
290
     0
176
     1
290
     0
176
     1
290
     0
176
     1
290
     0
176
     1
 90
       50
176
     1
 40
0.0
176
     1
 40
1.0
176
     1
 90
        0
176
     1
 62
    18
420
        0
176
     1
 90
       50
176
     1
 90
        3
176
     1
 62
     5
420
      255
176
     1
290
     0
176
     1
 90
       50
176
     1
 90
       50
176
     1
 90
       50
176
     1
290
     0
176
     1
 90
       50
176
     1
 62
   256
176
     0
 40
1.0
176
     0
 90
        2
176
     1
  1
strokes_ogs.tif
176
     1
290
     0
176
     1
 40
1.0
176
     1
 40
1.0
176
     1
  0
VISUALSTYLE
  5
2B
102
{ACAD_REACTORS
330
29
102
}
330
29
100
AcDbVisualStyle
  2
FlatWithEdges
 70
     1
177
     3
291
     1
 70
    58
 90
        2
176
     1
 90
        1
176
     1
 90
        1
176
     1
 90
        2
176
     1
 40
0.6
176
     1
 40
30.0
176
     1
 62
     7
420
 16777215
176
     1
 90
        1
176
     1
 90
        0
176
     1
 62
     7
176
     1
 62
   257
176
     1
 90
        1
176
     1
 90
        1
176
     1
 40
1.0
176
     1
 90
        0
176
     1
 62
   257
176
     1
 40
1.0
176
     1
 90
        1
176
     1
 90
        6
176
     1
 90
        2
176
     1
 62
     7
176
     1
 90
        5
176
     1
 90
        0
176
     1
 90
        0
176
     1
290
     0
176
     1
 90
       13
176
     1
 40
0.0
176
     1
 90
        0
176
     1
290
     0
176
     1
290
     1
176
     1
290
     1
176
     1
290
     0
176
     1
290
     0
176
     1
290
     0
176
     1
290
     0
176
     1
290
     0
176
     1
290
     0
176
     1
 90
       50
176
     1
 40
0.0
176
     1
 40
1.0
176
     1
 90
        0
176
     1
 62
    18
420
        0
176
     1
 90
       50
176
     1
 90
        3
176
     1
 62
     5
420
      255
176
     1
290
     0
176
     1
 90
       50
176
     1
 90
       50
176
     1
 90
       50
176
     1
290
     0
176
     1
 90
       50
176
     1
 62
   256
176
     0
 40
1.0
176
     0
 90
        2
176
     1
  1
strokes_ogs.tif
176
     1
290
     0
176
     1
 40
1.0
176
     1
 40
1.0
176
     1
  0
VISUALSTYLE
  5
2C
102
{ACAD_REACTORS
330
29
102
}
330
29
100
AcDbVisualStyle
  2
Gouraud
 70
     2
177
     3
291
     1
 70
    58
 90
        2
176
     1
 90
        2
176
     1
 90
        1
176
     1
 90
        2
176
     1
 40
0.6
176
     1
 40
30.0
176
     1
 62
     7
420
 16777215
176
     1
 90
        0
176
     1
 90
        0
176
     1
 62
     7
176
     1
 62
   257
176
     1
 90
        1
176
     1
 90
        1
176
     1
 40
1.0
176
     1
 90
        0
176
     1
 62
     7
176
     1
 40
1.0
176
     1
 90
        1
176
     1
 90
        6
176
     1
 90
        2
176
     1
 62
     7
176
     1
 90
        5
176
     1
 90
        0
176
     1
 90
        0
176
     1
290
     0
176
     1
 90
       13
176
     1
 40
0.0
176
     1
 90
        0
176
     1
290
     0
176
     1
290
     1
176
     1
290
     1
176
     1
290
     0
176
     1
290
     0
176
     1
290
     0
176
     1
290
     0
176
     1
290
     0
176
     1
290
     0
176
     1
 90
       50
176
     1
 40
0.0
176
     1
 40
1.0
176
     1
 90
        0
176
     1
 62
    18
420
        0
176
     1
 90
       50
176
     1
 90
        3
176
     1
 62
     5
420
      255
176
     1
290
     0
176
     1
 90
       50
176
     1
 90
       50
176
     1
 90
       50
176
     1
290
     0
176
     1
 90
       50
176
     1
 62
   256
176
     0
 40
1.0
176
     0
 90
        2
176
     1
  1
strokes_ogs.tif
176
     1
290
     0
176
     1
 40
1.0
176
     1
 40
1.0
176
     1
  0
VISUALSTYLE
  5
2D
102
{ACAD_REACTORS
330
29
102
}
330
29
100
AcDbVisualStyle
  2
GouraudWithEdges
 70
     3
177
     3
291
     1
 70
    58
 90
        2
176
     1
 90
        2
176
     1
 90
        1
176
     1
 90
        2
176
     1
 40
0.6
176
     1
 40
30.0
176
     1
 62
     7
420
 16777215
176
     1
 90
        1
176
     1
 90
        0
176
     1
 62
     7
176
     1
 62
   257
176
     1
 90
        1
176
     1
 90
        1
176
     1
 40
1.0
176
     1
 90
        0
176
     1
 62
   257
176
     1
 40
1.0
176
     1
 90
        1
176
     1
 90
        6
176
     1
 90
        2
176
     1
 62
     7
176
     1
 90
        5
176
     1
 90
        0
176
     1
 90
        0
176
     1
290
     0
176
     1
 90
       13
176
     1
 40
0.0
176
     1
 90
        0
176
     1
290
     0
176
     1
290
     1
176
     1
290
     1
176
     1
290
     0
176
     1
290
     0
176
     1
290
     0
176
     1
290
     0
176
     1
290
     0
176
     1
290
     0
176
     1
 90
       50
176
     1
 40
0.0
176
     1
 40
1.0
176
     1
 90
        0
176
     1
 62
    18
420
        0
176
     1
 90
       50
176
     1
 90
        3
176
     1
 62
     5
420
      255
176
     1
290
     0
176
     1
 90
       50
176
     1
 90
       50
176
     1
 90
       50
176
     1
290
     0
176
     1
 90
       50
176
     1
 62
   256
176
     0
 40
1.0
176
     0
 90
        2
176
     1
  1
strokes_ogs.tif
176
     1
290
     0
176
     1
 40
1.0
176
     1
 40
1.0
176
     1
  0
VISUALSTYLE
  5
31
102
{ACAD_REACTORS
330
29
102
}
330
29
100
AcDbVisualStyle
  2
Hidden
 70
     6
177
     3
291
     0
 70
    58
 90
        1
176
     1
 90
        2
176
     1
 90
        2
176
     1
 90
        0
176
     1
 40
0.6
176
     1
 40
30.0
176
     1
 62
     7
420
 16777215
176
     1
 90
        2
176
     1
 90
        2
176
     1
 62
     7
176
     1
 62
   257
176
     1
 90
        2
176
     1
 90
        1
176
     1
 40
40.0
176
     1
 90
        0
176
     1
 62
   257
176
     1
 40
1.0
176
     1
 90
        1
176
     1
 90
        6
176
     1
 90
        2
176
     1
 62
     7
176
     1
 90
        3
176
     1
 90
        0
176
     1
 90
        0
176
     1
290
     0
176
     1
 90
        1
176
     1
 40
0.0
176
     1
 90
        0
176
     1
290
     0
176
     1
290
     1
176
     1
290
     1
176
     1
290
     0
176
     1
290
     0
176
     1
290
     0
176
     1
290
     0
176
     1
290
     0
176
     1
290
     0
176
     1
 90
       50
176
     1
 40
0.0
176
     1
 40
1.0
176
     1
 90
        0
176
     1
 62
    18
420
        0
176
     1
 90
       50
176
     1
 90
        3
176
     1
 62
     5
420
      255
176
     1
290
     0
176
     1
 90
       50
176
     1
 90
       50
176
     1
 90
       50
176
     1
290
     0
176
     1
 90
       50
176
     1
 62
   256
176
     0
 40
1.0
176
     0
 90
        2
176
     1
  1
strokes_ogs.tif
176
     1
290
     0
176
     1
 40
1.0
176
     1
 40
1.0
176
     1
  0
VISUALSTYLE
  5
3F
102
{ACAD_REACTORS
330
29
102
}
330
29
100
AcDbVisualStyle
  2
JitterOff
 70
    20
177
     3
291
     1
 70
    58
 90
        2
176
     0
 90
        2
176
     0
 90
        0
176
     0
 90
        0
176
     0
 40
0.6
176
     0
 40
30.0
176
     0
 62
     7
420
 16777215
176
     0
 90
        1
176
     0
 90
        4
176
     0
 62
     7
176
     0
 62
   257
176
     0
 90
        1
176
     0
 90
        1
176
     0
 40
1.0
176
     0
 90
       10
176
     2
 62
     7
176
     0
 40
1.0
176
     0
 90
        1
176
     0
 90
        6
176
     0
 90
        2
176
     0
 62
     7
176
     0
 90
        5
176
     0
 90
        0
176
     0
 90
        0
176
     0
290
     0
176
     0
 90
        1
176
     0
 40
0.0
176
     0
 90
        0
176
     0
290
     0
176
     0
290
     1
176
     0
290
     1
176
     0
290
     0
176
     0
290
     0
176
     0
290
     0
176
     0
290
     0
176
     0
290
     0
176
     0
290
     0
176
     0
 90
       50
176
     0
 40
0.0
176
     0
 40
1.0
176
     0
 90
        0
176
     0
 62
    18
420
        0
176
     0
 90
       50
176
     0
 90
        3
176
     0
 62
     5
420
      255
176
     0
290
     0
176
     0
 90
       50
176
     0
 90
       50
176
     0
 90
       50
176
     0
290
     0
176
     0
 90
       50
176
     0
 62
   256
176
     0
 40
1.0
176
     0
 90
        2
176
     0
  1
strokes_ogs.tif
176
     0
290
     0
176
     0
 40
1.0
176
     0
 40
1.0
176
     0
  0
VISUALSTYLE
  5
37
102
{ACAD_REACTORS
330
29
102
}
330
29
100
AcDbVisualStyle
  2
Linepattern
 70
    14
177
     3
291
     1
 70
    58
 90
        2
176
     1
 90
        2
176
     1
 90
        0
176
     1
 90
        0
176
     1
 40
0.6
176
     1
 40
30.0
176
     1
 62
     7
420
 16777215
176
     1
 90
        1
176
     1
 90
        4
176
     1
 62
     7
176
     1
 62
   257
176
     1
 90
        7
176
     1
 90
        7
176
     1
 40
1.0
176
     1
 90
        8
176
     1
 62
     7
176
     1
 40
1.0
176
     1
 90
        1
176
     1
 90
        6
176
     1
 90
        2
176
     1
 62
     7
176
     1
 90
        5
176
     1
 90
        0
176
     1
 90
        0
176
     1
290
     0
176
     1
 90
        1
176
     1
 40
0.0
176
     1
 90
        0
176
     1
290
     0
176
     1
290
     1
176
     1
290
     1
176
     1
290
     0
176
     1
290
     0
176
     1
290
     0
176
     1
290
     0
176
     1
290
     0
176
     1
290
     0
176
     1
 90
       50
176
     1
 40
0.0
176
     1
 40
1.0
176
     1
 90
        0
176
     1
 62
    18
420
        0
176
     1
 90
       50
176
     1
 90
        3
176
     1
 62
     5
420
      255
176
     1
290
     0
176
     1
 90
       50
176
     1
 90
       50
176
     1
 90
       50
176
     1
290
     0
176
     1
 90
       50
176
     1
 62
   256
176
     0
 40
1.0
176
     0
 90
        2
176
     1
  1
strokes_ogs.tif
176
     1
290
     0
176
     1
 40
1.0
176
     1
 40
1.0
176
     1
  0
VISUALSTYLE
  5
40
102
{ACAD_REACTORS
330
29
102
}
330
29
100
AcDbVisualStyle
  2
OverhangOff
 70
    21
177
     3
291
     1
 70
    58
 90
        2
176
     0
 90
        2
176
     0
 90
        0
176
     0
 90
        0
176
     0
 40
0.6
176
     0
 40
30.0
176
     0
 62
     7
420
 16777215
176
     0
 90
        1
176
     0
 90
        4
176
     0
 62
     7
176
     0
 62
   257
176
     0
 90
        1
176
     0
 90
        1
176
     0
 40
1.0
176
     0
 90
        9
176
     2
 62
     7
176
     0
 40
1.0
176
     0
 90
        1
176
     0
 90
        6
176
     0
 90
        2
176
     0
 62
     7
176
     0
 90
        5
176
     0
 90
        0
176
     0
 90
        0
176
     0
290
     0
176
     0
 90
        1
176
     0
 40
0.0
176
     0
 90
        0
176
     0
290
     0
176
     0
290
     1
176
     0
290
     1
176
     0
290
     0
176
     0
290
     0
176
     0
290
     0
176
     0
290
     0
176
     0
290
     0
176
     0
290
     0
176
     0
 90
       50
176
     0
 40
0.0
176
     0
 40
1.0
176
     0
 90
        0
176
     0
 62
    18
420
        0
176
     0
 90
       50
176
     0
 90
        3
176
     0
 62
     5
420
      255
176
     0
290
     0
176
     0
 90
       50
176
     0
 90
       50
176
     0
 90
       50
176
     0
290
     0
176
     0
 90
       50
176
     0
 62
   256
176
     0
 40
1.0
176
     0
 90
        2
176
     0
  1
strokes_ogs.tif
176
     0
290
     0
176
     0
 40
1.0
176
     0
 40
1.0
176
     0
  0
VISUALSTYLE
  5
33
102
{ACAD_REACTORS
330
29
102
}
330
29
100
AcDbVisualStyle
  2
Realistic
 70
     8
177
     3
291
     0
 70
    58
 90
        2
176
     1
 90
        3
176
     1
 90
        0
176
     1
 90
        2
176
     1
 40
0.6
176
     1
 40
30.0
176
     1
 62
     7
420
 16777215
176
     1
 90
        0
176
     1
 90
        0
176
     1
 62
     7
176
     1
 62
   257
176
     1
 90
        1
176
     1
 90
        1
176
     1
 40
1.0
176
     1
 90
        8
176
     1
 62
   257
176
     1
 40
1.0
176
     1
 90
        1
176
     1
 90
        6
176
     1
 90
        2
176
     1
 62
     7
176
     1
 90
        3
176
     1
 90
        0
176
     1
 90
        0
176
     1
290
     0
176
     1
 90
       13
176
     1
 40
0.0
176
     1
 90
        0
176
     1
290
     0
176
     1
290
     1
176
     1
290
     1
176
     1
290
     0
176
     1
290
     0
176
     1
290
     0
176
     1
290
     0
176
     1
290
     0
176
     1
290
     0
176
     1
 90
       50
176
     1
 40
0.0
176
     1
 40
1.0
176
     1
 90
        0
176
     1
 62
    18
420
        0
176
     1
 90
       50
176
     1
 90
        3
176
     1
 62
     5
420
      255
176
     1
290
     0
176
     1
 90
       50
176
     1
 90
       50
176
     1
 90
       50
176
     1
290
     0
176
     1
 90
       50
176
     1
 62
   256
176
     0
 40
1.0
176
     0
 90
        2
176
     1
  1
strokes_ogs.tif
176
     1
290
     0
176
     1
 40
1.0
176
     1
 40
1.0
176
     1
  0
VISUALSTYLE
  5
3E
102
{ACAD_REACTORS
330
29
102
}
330
29
100
AcDbVisualStyle
  2
Shaded
 70
    27
177
     3
291
     0
 70
    58
 90
        2
176
     1
 90
        2
176
     1
 90
        1
176
     1
 90
        2
176
     1
 40
0.6
176
     1
 40
30.0
176
     1
 62
     7
420
 16777215
176
     1
 90
        0
176
     1
 90
        4
176
     1
 62
     7
176
     1
 62
   257
176
     1
 90
        1
176
     1
 90
        1
176
     1
 40
1.0
176
     1
 90
        8
176
     1
 62
   257
176
     1
 40
1.0
176
     1
 90
        1
176
     1
 90
        6
176
     1
 90
        2
176
     1
 62
     8
420
  7895160
176
     1
 90
        3
176
     1
 90
        0
176
     1
 90
        0
176
     1
290
     0
176
     1
 90
        5
176
     1
 40
0.0
176
     1
 90
        0
176
     1
290
     0
176
     1
290
     1
176
     1
290
     1
176
     1
290
     0
176
     1
290
     0
176
     1
290
     0
176
     1
290
     0
176
     1
290
     0
176
     1
290
     0
176
     1
 90
       50
176
     1
 40
0.0
176
     1
 40
1.0
176
     1
 90
        0
176
     1
 62
    18
420
        0
176
     1
 90
       50
176
     1
 90
        3
176
     1
 62
     5
420
      255
176
     1
290
     0
176
     1
 90
       50
176
     1
 90
       50
176
     1
 90
       50
176
     1
290
     0
176
     1
 90
       50
176
     1
 62
   256
176
     0
 40
1.0
176
     0
 90
        2
176
     1
  1
strokes_ogs.tif
176
     1
290
     0
176
     1
 40
1.0
176
     1
 40
1.0
176
     1
  0
VISUALSTYLE
  5
3D
102
{ACAD_REACTORS
330
29
102
}
330
29
100
AcDbVisualStyle
  2
Shaded with edges
 70
    26
177
     3
291
     0
 70
    58
 90
        2
176
     1
 90
        2
176
     1
 90
        1
176
     1
 90
        2
176
     1
 40
0.6
176
     1
 40
30.0
176
     1
 62
     7
420
 16777215
176
     1
 90
        1
176
     1
 90
        2
176
     1
 62
     7
176
     1
 62
   257
176
     1
 90
        2
176
     1
 90
        1
176
     1
 40
1.0
176
     1
 90
        8
176
     1
 62
   257
176
     1
 40
1.0
176
     1
 90
        1
176
     1
 90
        6
176
     1
 90
        2
176
     1
 62
     7
176
     1
 90
        3
176
     1
 90
        0
176
     1
 90
        0
176
     1
290
     0
176
     1
 90
        5
176
     1
 40
0.0
176
     1
 90
        0
176
     1
290
     0
176
     1
290
     1
176
     1
290
     1
176
     1
290
     0
176
     1
290
     0
176
     1
290
     0
176
     1
290
     0
176
     1
290
     0
176
     1
290
     0
176
     1
 90
       50
176
     1
 40
0.0
176
     1
 40
1.0
176
     1
 90
        0
176
     1
 62
    18
420
        0
176
     1
 90
       50
176
     1
 90
        3
176
     1
 62
     5
420
      255
176
     1
290
     0
176
     1
 90
       50
176
     1
 90
       50
176
     1
 90
       50
176
     1
290
     0
176
     1
 90
       50
176
     1
 62
   256
176
     0
 40
1.0
176
     0
 90
        2
176
     1
  1
strokes_ogs.tif
176
     1
290
     0
176
     1
 40
1.0
176
     1
 40
1.0
176
     1
  0
VISUALSTYLE
  5
3A
102
{ACAD_REACTORS
330
29
102
}
330
29
100
AcDbVisualStyle
  2
Shades of Gray
 70
    23
177
     3
291
     0
 70
    58
 90
        2
176
     1
 90
        2
176
     1
 90
        3
176
     1
 90
        0
176
     1
 40
0.6
176
     1
 40
30.0
176
     1
 62
     7
420
 16777215
176
     1
 90
        2
176
     1
 90
        2
176
     1
 62
     7
176
     1
 62
     7
176
     1
 90
        1
176
     1
 90
        1
176
     1
 40
40.0
176
     1
 90
        8
176
     1
 62
     7
176
     1
 40
1.0
176
     1
 90
        1
176
     1
 90
        6
176
     1
 90
        2
176
     1
 62
     7
176
     1
 90
        3
176
     1
 90
        0
176
     1
 90
        0
176
     1
290
     0
176
     1
 90
        1
176
     1
 40
0.0
176
     1
 90
        0
176
     1
290
     0
176
     1
290
     1
176
     1
290
     1
176
     1
290
     0
176
     1
290
     0
176
     1
290
     0
176
     1
290
     0
176
     1
290
     0
176
     1
290
     0
176
     1
 90
       50
176
     1
 40
0.0
176
     1
 40
1.0
176
     1
 90
        0
176
     1
 62
    18
420
        0
176
     1
 90
       50
176
     1
 90
        3
176
     1
 62
     5
420
      255
176
     1
290
     0
176
     1
 90
       50
176
     1
 90
       50
176
     1
 90
       50
176
     1
290
     0
176
     1
 90
       50
176
     1
 62
   256
176
     0
 40
1.0
176
     0
 90
        2
176
     1
  1
strokes_ogs.tif
176
     1
290
     0
176
     1
 40
1.0
176
     1
 40
1.0
176
     1
  0
VISUALSTYLE
  5
3B
102
{ACAD_REACTORS
330
29
102
}
330
29
100
AcDbVisualStyle
  2
Sketchy
 70
    24
177
     3
291
     0
 70
    58
 90
        1
176
     1
 90
        2
176
     1
 90
        2
176
     1
 90
        0
176
     1
 40
0.6
176
     1
 40
30.0
176
     1
 62
     7
420
 16777215
176
     1
 90
        2
176
     1
 90
        2
176
     1
 62
     7
176
     1
 62
     7
176
     1
 90
        1
176
     1
 90
        1
176
     1
 40
40.0
176
     1
 90
       11
176
     1
 62
     7
176
     1
 40
1.0
176
     1
 90
        1
176
     1
 90
        6
176
     1
 90
        2
176
     1
 62
     7
176
     1
 90
        6
176
     1
 90
        0
176
     1
 90
        0
176
     1
290
     0
176
     1
 90
        1
176
     1
 40
0.0
176
     1
 90
        0
176
     1
290
     0
176
     1
290
     1
176
     1
290
     1
176
     1
290
     0
176
     1
290
     0
176
     1
290
     0
176
     1
290
     0
176
     1
290
     0
176
     1
290
     0
176
     1
 90
       50
176
     1
 40
0.0
176
     1
 40
1.0
176
     1
 90
        0
176
     1
 62
    18
420
        0
176
     1
 90
       50
176
     1
 90
        3
176
     1
 62
     5
420
      255
176
     1
290
     0
176
     1
 90
       50
176
     1
 90
       50
176
     1
 90
       50
176
     1
290
     0
176
     1
 90
       50
176
     1
 62
   256
176
     0
 40
1.0
176
     0
 90
        2
176
     1
  1
strokes_ogs.tif
176
     1
290
     0
176
     1
 40
1.0
176
     1
 40
1.0
176
     1
  0
VISUALSTYLE
  5
36
102
{ACAD_REACTORS
330
29
102
}
330
29
100
AcDbVisualStyle
  2
Thicken
 70
    13
177
     3
291
     1
 70
    58
 90
        2
176
     1
 90
        2
176
     1
 90
        0
176
     1
 90
        0
176
     1
 40
0.6
176
     1
 40
30.0
176
     1
 62
     7
420
 16777215
176
     1
 90
        1
176
     1
 90
        4
176
     1
 62
     7
176
     1
 62
   257
176
     1
 90
        1
176
     1
 90
        1
176
     1
 40
1.0
176
     1
 90
       12
176
     1
 62
     7
176
     1
 40
1.0
176
     1
 90
        1
176
     1
 90
        6
176
     1
 90
        2
176
     1
 62
     7
176
     1
 90
        5
176
     1
 90
        0
176
     1
 90
        0
176
     1
290
     0
176
     1
 90
        1
176
     1
 40
0.0
176
     1
 90
        0
176
     1
290
     0
176
     1
290
     1
176
     1
290
     1
176
     1
290
     0
176
     1
290
     0
176
     1
290
     0
176
     1
290
     0
176
     1
290
     0
176
     1
290
     0
176
     1
 90
       50
176
     1
 40
0.0
176
     1
 40
1.0
176
     1
 90
        0
176
     1
 62
    18
420
        0
176
     1
 90
       50
176
     1
 90
        3
176
     1
 62
     5
420
      255
176
     1
290
     0
176
     1
 90
       50
176
     1
 90
       50
176
     1
 90
       50
176
     1
290
     0
176
     1
 90
       50
176
     1
 62
   256
176
     0
 40
1.0
176
     0
 90
        2
176
     1
  1
strokes_ogs.tif
176
     1
290
     0
176
     1
 40
1.0
176
     1
 40
1.0
176
     1
  0
VISUALSTYLE
  5
30
102
{ACAD_REACTORS
330
29
102
}
330
29
100
AcDbVisualStyle
  2
Wireframe
 70
     5
177
     3
291
     0
 70
    58
 90
        0
176
     1
 90
        2
176
     1
 90
        0
176
     1
 90
        0
176
     1
 40
0.6
176
     1
 40
30.0
176
     1
 62
     7
420
 16777215
176
     1
 90
        1
176
     1
 90
        4
176
     1
 62
     7
176
     1
 62
   257
176
     1
 90
        1
176
     1
 90
        1
176
     1
 40
1.0
176
     1
 90
        0
176
     1
 62
   257
176
     1
 40
1.0
176
     1
 90
        1
176
     1
 90
        6
176
     1
 90
        2
176
     1
 62
     7
176
     1
 90
        3
176
     1
 90
        0
176
     1
 90
        0
176
     1
290
     0
176
     1
 90
        1
176
     1
 40
0.0
176
     1
 90
        0
176
     1
290
     0
176
     1
290
     1
176
     1
290
     1
176
     1
290
     0
176
     1
290
     0
176
     1
290
     0
176
     1
290
     0
176
     1
290
     0
176
     1
290
     0
176
     1
 90
       50
176
     1
 40
0.0
176
     1
 40
1.0
176
     1
 90
        0
176
     1
 62
    18
420
        0
176
     1
 90
       50
176
     1
 90
        3
176
     1
 62
     5
420
      255
176
     1
290
     0
176
     1
 90
       50
176
     1
 90
       50
176
     1
 90
       50
176
     1
290
     0
176
     1
 90
       50
176
     1
 62
   256
176
     0
 40
1.0
176
     0
 90
        2
176
     1
  1
strokes_ogs.tif
176
     1
290
     0
176
     1
 40
1.0
176
     1
 40
1.0
176
     1
  0
VISUALSTYLE
  5
3C
102
{ACAD_REACTORS
330
29
102
}
330
29
100
AcDbVisualStyle
  2
X-Ray
 70
    25
177
     3
291
     0
 70
    58
 90
        2
176
     1
 90
        2
176
     1
 90
        1
176
     1
 90
        1
176
     1
 40
0.5
176
     1
 40
30.0
176
     1
 62
     7
420
 16777215
176
     1
 90
        1
176
     1
 90
        0
176
     1
 62
     7
176
     1
 62
   257
176
     1
 90
        1
176
     1
 90
        1
176
     1
 40
1.0
176
     1
 90
        8
176
     1
 62
     7
176
     1
 40
1.0
176
     1
 90
        1
176
     1
 90
        6
176
     1
 90
        2
176
     1
 62
     7
176
     1
 90
        3
176
     1
 90
        0
176
     1
 90
        0
176
     1
290
     0
176
     1
 90
       13
176
     1
 40
0.0
176
     1
 90
        0
176
     1
290
     0
176
     1
290
     1
176
     1
290
     1
176
     1
290
     0
176
     1
290
     0
176
     1
290
     0
176
     1
290
     0
176
     1
290
     0
176
     1
290
     0
176
     1
 90
       50
176
     1
 40
0.0
176
     1
 40
1.0
176
     1
 90
        0
176
     1
 62
    18
420
        0
176
     1
 90
       50
176
     1
 90
        3
176
     1
 62
     5
420
      255
176
     1
290
     0
176
     1
 90
       50
176
     1
 90
       50
176
     1
 90
       50
176
     1
290
     0
176
     1
 90
       50
176
     1
 62
   256
176
     0
 40
1.0
176
     0
 90
        2
176
     1
  1
strokes_ogs.tif
176
     1
290
     0
176
     1
 40
1.0
176
     1
 40
1.0
176
     1
  0
DICTIONARYVAR
  5
2C4
102
{ACAD_REACTORS
330
2BF
102
}
330
2BF
100
DictionaryVariables
280
     0
  1
1:1
  0
DICTIONARYVAR
  5
2C1
102
{ACAD_REACTORS
330
2BF
102
}
330
2BF
100
DictionaryVariables
280
     0
  1
STANDARD
  0
DICTIONARYVAR
  5
2C0
102
{ACAD_REACTORS
330
2BF
102
}
330
2BF
100
DictionaryVariables
280
     0
  1
STANDARD
  0
DICTIONARYVAR
  5
2C2
102
{ACAD_REACTORS
330
2BF
102
}
330
2BF
100
DictionaryVariables
280
     0
  1
Imperial24
  0
DICTIONARYVAR
  5
2C3
102
{ACAD_REACTORS
330
2BF
102
}
330
2BF
100
DictionaryVariables
280
     0
  1
Imperial24
  0
DICTIONARY
  5
1A
330
19
100
AcDbDictionary
280
     1
281
     1
  3
BUMPTILE
360
1C
  3
DIFFUSETILE
360
1B
  3
OPACITYTILE
360
1F
  3
REFLECTIONTILE
360
1E
  3
REFRACTIONTILE
360
20
  3
SPECULARTILE
360
1D
  0
DICTIONARY
  5
12
330
11
100
AcDbDictionary
280
     1
281
     1
  3
BUMPTILE
360
14
  3
DIFFUSETILE
360
13
  3
OPACITYTILE
360
17
  3
REFLECTIONTILE
360
16
  3
REFRACTIONTILE
360
18
  3
SPECULARTILE
360
15
  0
DICTIONARY
  5
22
330
21
100
AcDbDictionary
280
     1
281
     1
  3
BUMPTILE
360
24
  3
DIFFUSETILE
360
23
  3
OPACITYTILE
360
27
  3
REFLECTIONTILE
360
26
  3
REFRACTIONTILE
360
28
  3
SPECULARTILE
360
25
  0
DICTIONARY
  5
2C5
330
65
100
AcDbDictionary
280
     1
281
     1
  3
ACAD_ROUNDTRIP_2008_TABLESTYLE_CELLSTYLEMAP
360
2C6
  0
XRECORD
  5
1C
102
{ACAD_REACTORS
330
1A
102
}
330
1A
100
AcDbXrecord
280
     1
270
     1
271
     1
  0
XRECORD
  5
1B
102
{ACAD_REACTORS
330
1A
102
}
330
1A
100
AcDbXrecord
280
     1
270
     1
271
     1
  0
XRECORD
  5
1F
102
{ACAD_REACTORS
330
1A
102
}
330
1A
100
AcDbXrecord
280
     1
270
     1
271
     1
  0
XRECORD
  5
1E
102
{ACAD_REACTORS
330
1A
102
}
330
1A
100
AcDbXrecord
280
     1
270
     1
271
     1
  0
XRECORD
  5
20
102
{ACAD_REACTORS
330
1A
102
}
330
1A
100
AcDbXrecord
280
     1
270
     1
271
     1
  0
XRECORD
  5
1D
102
{ACAD_REACTORS
330
1A
102
}
330
1A
100
AcDbXrecord
280
     1
270
     1
271
     1
  0
XRECORD
  5
14
102
{ACAD_REACTORS
330
12
102
}
330
12
100
AcDbXrecord
280
     1
270
     1
271
     1
  0
XRECORD
  5
13
102
{ACAD_REACTORS
330
12
102
}
330
12
100
AcDbXrecord
280
     1
270
     1
271
     1
  0
XRECORD
  5
17
102
{ACAD_REACTORS
330
12
102
}
330
12
100
AcDbXrecord
280
     1
270
     1
271
     1
  0
XRECORD
  5
16
102
{ACAD_REACTORS
330
12
102
}
330
12
100
AcDbXrecord
280
     1
270
     1
271
     1
  0
XRECORD
  5
18
102
{ACAD_REACTORS
330
12
102
}
330
12
100
AcDbXrecord
280
     1
270
     1
271
     1
  0
XRECORD
  5
15
102
{ACAD_REACTORS
330
12
102
}
330
12
100
AcDbXrecord
280
     1
270
     1
271
     1
  0
XRECORD
  5
24
102
{ACAD_REACTORS
330
22
102
}
330
22
100
AcDbXrecord
280
     1
270
     1
271
     1
  0
XRECORD
  5
23
102
{ACAD_REACTORS
330
22
102
}
330
22
100
AcDbXrecord
280
     1
270
     1
271
     1
  0
XRECORD
  5
27
102
{ACAD_REACTORS
330
22
102
}
330
22
100
AcDbXrecord
280
     1
270
     1
271
     1
  0
XRECORD
  5
26
102
{ACAD_REACTORS
330
22
102
}
330
22
100
AcDbXrecord
280
     1
270
     1
271
     1
  0
XRECORD
  5
28
102
{ACAD_REACTORS
330
22
102
}
330
22
100
AcDbXrecord
280
     1
270
     1
271
     1
  0
XRECORD
  5
25
102
{ACAD_REACTORS
330
22
102
}
330
22
100
AcDbXrecord
280
     1
270
     1
271
     1
  0
CELLSTYLEMAP
  5
2C6
102
{ACAD_REACTORS
330
2C5
102
}
330
2C5
100
AcDbCellStyleMap
 90
        3
300
CELLSTYLE
  1
TABLEFORMAT_BEGIN
 90
        5
170
     1
 91
        0
 92
    32768
 62
   257
 93
        1
300
CONTENTFORMAT
  1
CONTENTFORMAT_BEGIN
 90
        0
 91
        0
 92
      512
 93
        0
300

 40
0.0
140
1.0
 94
        5
 62
     0
340
55
144
0.25
309
CONTENTFORMAT_END
171
     0
 94
        0
309
TABLEFORMAT_END
  1
CELLSTYLE_BEGIN
 90
        1
 91
        1
300
_TITLE
309
CELLSTYLE_END
300
CELLSTYLE
  1
TABLEFORMAT_BEGIN
 90
        5
170
     1
 91
        0
 92
        0
 62
   257
 93
        1
300
CONTENTFORMAT
  1
CONTENTFORMAT_BEGIN
 90
        0
 91
        0
 92
      512
 93
        0
300

 40
0.0
140
1.0
 94
        5
 62
     0
340
55
144
0.18
309
CONTENTFORMAT_END
171
     0
 94
        0
309
TABLEFORMAT_END
  1
CELLSTYLE_BEGIN
 90
        2
 91
        1
300
_HEADER
309
CELLSTYLE_END
300
CELLSTYLE
  1
TABLEFORMAT_BEGIN
 90
        5
170
     1
 91
        0
 92
        0
 62
   257
 93
        1
300
CONTENTFORMAT
  1
CONTENTFORMAT_BEGIN
 90
        0
 91
        0
 92
      512
 93
        0
300

 40
0.0
140
1.0
 94
        2
 62
     0
340
55
144
0.18
309
CONTENTFORMAT_END
171
     0
 94
        0
309
TABLEFORMAT_END
  1
CELLSTYLE_BEGIN
 90
        3
 91
        2
300
_DATA
309
CELLSTYLE_END
  0
ENDSEC
  0
EOF
