  0
SECTION
  2
HEADER
  9
$ACADVER
  1
AC1032
  9
$ACADMAINTVER
 90
      251
  9
$DWGCODEPAGE
  3
ANSI_1252
  9
$REQUIREDVERSIONS
160
                 0
  9
$INSBASE
 10
0.0
 20
0.0
 30
0.0
  9
$EXTMIN
 10
1.000000000000000E+20
 20
1.000000000000000E+20
 30
1.000000000000000E+20
  9
$EXTMAX
 10
-1.000000000000000E+20
 20
-1.000000000000000E+20
 30
-1.000000000000000E+20
  9
$LIMMIN
 10
0.0
 20
0.0
  9
$LIMMAX
 10
12.0
 20
9.0
  9
$ORTHOMODE
 70
     0
  9
$REGENMODE
 70
     1
  9
$FILLMODE
 70
     1
  9
$QTEXTMODE
 70
     0
  9
$MIRRTEXT
 70
     0
  9
$LTSCALE
 40
1.0
  9
$ATTMODE
 70
     1
  9
$TEXTSIZE
 40
0.2
  9
$TRACEWID
 40
0.05
  9
$TEXTSTYLE
  7
Standard
  9
$CLAYER
  8
0
  9
$CELTYPE
  6
ByLayer
  9
$CECOLOR
 62
   256
  9
$CELTSCALE
 40
1.0
  9
$DISPSILH
 70
     0
  9
$DIMSCALE
 40
1.0
  9
$DIMASZ
 40
0.18
  9
$DIMEXO
 40
0.0625
  9
$DIMDLI
 40
0.38
  9
$DIMRND
 40
0.0
  9
$DIMDLE
 40
0.0
  9
$DIMEXE
 40
0.18
  9
$DIMTP
 40
0.0
  9
$DIMTM
 40
0.0
  9
$DIMTXT
 40
0.18
  9
$DIMCEN
 40
0.09
  9
$DIMTSZ
 40
0.0
  9
$DIMTOL
 70
     0
  9
$DIMLIM
 70
     0
  9
$DIMTIH
 70
     1
  9
$DIMTOH
 70
     1
  9
$DIMSE1
 70
     0
  9
$DIMSE2
 70
     0
  9
$DIMTAD
 70
     0
  9
$DIMZIN
 70
     0
  9
$DIMBLK
  1

  9
$DIMASO
 70
     1
  9
$DIMSHO
 70
     1
  9
$DIMPOST
  1

  9
$DIMAPOST
  1

  9
$DIMALT
 70
     0
  9
$DIMALTD
 70
     2
  9
$DIMALTF
 40
25.4
  9
$DIMLFAC
 40
1.0
  9
$DIMTOFL
 70
     0
  9
$DIMTVP
 40
0.0
  9
$DIMTIX
 70
     0
  9
$DIMSOXD
 70
     0
  9
$DIMSAH
 70
     0
  9
$DIMBLK1
  1

  9
$DIMBLK2
  1

  9
$DIMSTYLE
  2
Standard
  9
$DIMCLRD
 70
     0
  9
$DIMCLRE
 70
     0
  9
$DIMCLRT
 70
     0
  9
$DIMTFAC
 40
1.0
  9
$DIMGAP
 40
0.09
  9
$DIMJUST
 70
     0
  9
$DIMSD1
 70
     0
  9
$DIMSD2
 70
     0
  9
$DIMTOLJ
 70
     1
  9
$DIMTZIN
 70
     0
  9
$DIMALTZ
 70
     0
  9
$DIMALTTZ
 70
     0
  9
$DIMUPT
 70
     0
  9
$DIMDEC
 70
     4
  9
$DIMTDEC
 70
     4
  9
$DIMALTU
 70
     2
  9
$DIMALTTD
 70
     2
  9
$DIMTXSTY
  7
Standard
  9
$DIMAUNIT
 70
     0
  9
$DIMADEC
 70
     0
  9
$DIMALTRND
 40
0.0
  9
$DIMAZIN
 70
     0
  9
$DIMDSEP
 70
    46
  9
$DIMATFIT
 70
     3
  9
$DIMFRAC
 70
     0
  9
$DIMLDRBLK
  1

  9
$DIMLUNIT
 70
     2
  9
$DIMLWD
 70
    -2
  9
$DIMLWE
 70
    -2
  9
$DIMTMOVE
 70
     0
  9
$DIMFXL
 40
1.0
  9
$DIMFXLON
 70
     0
  9
$DIMJOGANG
 40
0.7853981633974483
  9
$DIMTFILL
 70
     0
  9
$DIMTFILLCLR
 70
     0
  9
$DIMARCSYM
 70
     0
  9
$DIMLTYPE
  6

  9
$DIMLTEX1
  6

  9
$DIMLTEX2
  6

  9
$DIMTXTDIRECTION
 70
     0
  9
$LUNITS
 70
     2
  9
$LUPREC
 70
     4
  9
$SKETCHINC
 40
0.1
  9
$FILLETRAD
 40
0.0
  9
$AUNITS
 70
     0
  9
$AUPREC
 70
     0
  9
$MENU
  1
.
  9
$ELEVATION
 40
0.0
  9
$PELEVATION
 40
0.0
  9
$THICKNESS
 40
0.0
  9
$LIMCHECK
 70
     0
  9
$CHAMFERA
 40
0.0
  9
$CHAMFERB
 40
0.0
  9
$CHAMFERC
 40
0.0
  9
$CHAMFERD
 40
0.0
  9
$SKPOLY
 70
     0
  9
$TDCREATE
 40
2459963.397210648
  9
$TDUCREATE
 40
2459963.355543981
  9
$TDUPDATE
 40
2459963.397210648
  9
$TDUUPDATE
 40
2459963.355543981
  9
$TDINDWG
 40
0.0000115741
  9
$TDUSRTIMER
 40
0.0000115741
  9
$USRTIMER
 70
     1
  9
$ANGBASE
 50
0.0
  9
$ANGDIR
 70
     0
  9
$PDMODE
 70
     0
  9
$PDSIZE
 40
0.0
  9
$PLINEWID
 40
0.0
  9
$SPLFRAME
 70
     0
  9
$SPLINETYPE
 70
     6
  9
$SPLINESEGS
 70
     8
  9
$HANDSEED
  5
325
  9
$SURFTAB1
 70
     6
  9
$SURFTAB2
 70
     6
  9
$SURFTYPE
 70
     6
  9
$SURFU
 70
     6
  9
$SURFV
 70
     6
  9
$UCSBASE
  2

  9
$UCSNAME
  2

  9
$UCSORG
 10
0.0
 20
0.0
 30
0.0
  9
$UCSXDIR
 10
1.0
 20
0.0
 30
0.0
  9
$UCSYDIR
 10
0.0
 20
1.0
 30
0.0
  9
$UCSORTHOREF
  2

  9
$UCSORTHOVIEW
 70
     0
  9
$UCSORGTOP
 10
0.0
 20
0.0
 30
0.0
  9
$UCSORGBOTTOM
 10
0.0
 20
0.0
 30
0.0
  9
$UCSORGLEFT
 10
0.0
 20
0.0
 30
0.0
  9
$UCSORGRIGHT
 10
0.0
 20
0.0
 30
0.0
  9
$UCSORGFRONT
 10
0.0
 20
0.0
 30
0.0
  9
$UCSORGBACK
 10
0.0
 20
0.0
 30
0.0
  9
$PUCSBASE
  2

  9
$PUCSNAME
  2

  9
$PUCSORG
 10
0.0
 20
0.0
 30
0.0
  9
$PUCSXDIR
 10
1.0
 20
0.0
 30
0.0
  9
$PUCSYDIR
 10
0.0
 20
1.0
 30
0.0
  9
$PUCSORTHOREF
  2

  9
$PUCSORTHOVIEW
 70
     0
  9
$PUCSORGTOP
 10
0.0
 20
0.0
 30
0.0
  9
$PUCSORGBOTTOM
 10
0.0
 20
0.0
 30
0.0
  9
$PUCSORGLEFT
 10
0.0
 20
0.0
 30
0.0
  9
$PUCSORGRIGHT
 10
0.0
 20
0.0
 30
0.0
  9
$PUCSORGFRONT
 10
0.0
 20
0.0
 30
0.0
  9
$PUCSORGBACK
 10
0.0
 20
0.0
 30
0.0
  9
$USERI1
 70
     0
  9
$USERI2
 70
     0
  9
$USERI3
 70
     0
  9
$USERI4
 70
     0
  9
$USERI5
 70
     0
  9
$USERR1
 40
0.0
  9
$USERR2
 40
0.0
  9
$USERR3
 40
0.0
  9
$USERR4
 40
0.0
  9
$USERR5
 40
0.0
  9
$WORLDVIEW
 70
     1
  9
$SHADEDGE
 70
     3
  9
$SHADEDIF
 70
    70
  9
$TILEMODE
 70
     1
  9
$MAXACTVP
 70
    64
  9
$PINSBASE
 10
0.0
 20
0.0
 30
0.0
  9
$PLIMCHECK
 70
     0
  9
$PEXTMIN
 10
1.000000000000000E+20
 20
1.000000000000000E+20
 30
1.000000000000000E+20
  9
$PEXTMAX
 10
-1.000000000000000E+20
 20
-1.000000000000000E+20
 30
-1.000000000000000E+20
  9
$PLIMMIN
 10
0.0
 20
0.0
  9
$PLIMMAX
 10
12.0
 20
9.0
  9
$UNITMODE
 70
     0
  9
$VISRETAIN
 70
     1
  9
$PLINEGEN
 70
     0
  9
$PSLTSCALE
 70
     1
  9
$TREEDEPTH
 70
  3020
  9
$CMLSTYLE
  2
Standard
  9
$CMLJUST
 70
     0
  9
$CMLSCALE
 40
1.0
  9
$PROXYGRAPHICS
 70
     1
  9
$MEASUREMENT
 70
     0
  9
$CELWEIGHT
370
    -1
  9
$ENDCAPS
280
     0
  9
$JOINSTYLE
280
     0
  9
$LWDISPLAY
290
     1
  9
$INSUNITS
 70
     4
  9
$HYPERLINKBASE
  1

  9
$STYLESHEET
  1

  9
$XEDIT
290
     1
  9
$CEPSNTYPE
380
     0
  9
$PSTYLEMODE
290
     1
  9
$FINGERPRINTGUID
  2
{B69C3839-702E-4A44-9559-D82AFFB56717}
  9
$VERSIONGUID
  2
{9E85E24E-A162-114F-85D7-BDDB071EA034}
  9
$EXTNAMES
290
     1
  9
$PSVPSCALE
 40
0.0
  9
$OLESTARTUP
290
     0
  9
$SORTENTS
280
   127
  9
$INDEXCTL
280
     0
  9
$HIDETEXT
280
     1
  9
$XCLIPFRAME
280
     2
  9
$HALOGAP
280
     0
  9
$OBSCOLOR
 70
   257
  9
$OBSLTYPE
280
     0
  9
$INTERSECTIONDISPLAY
280
     0
  9
$INTERSECTIONCOLOR
 70
   257
  9
$DIMASSOC
280
     2
  9
$PROJECTNAME
  1

  9
$CAMERADISPLAY
290
     0
  9
$LENSLENGTH
 40
50.0
  9
$CAMERAHEIGHT
 40
0.0
  9
$STEPSPERSEC
 40
2.0
  9
$STEPSIZE
 40
6.0
  9
$3DDWFPREC
 40
2.0
  9
$PSOLWIDTH
 40
0.25
  9
$PSOLHEIGHT
 40
4.0
  9
$LOFTANG1
 40
1.570796326794896
  9
$LOFTANG2
 40
1.570796326794896
  9
$LOFTMAG1
 40
0.0
  9
$LOFTMAG2
 40
0.0
  9
$LOFTPARAM
 70
     7
  9
$LOFTNORMALS
280
     1
  9
$LATITUDE
 40
37.795
  9
$LONGITUDE
 40
-122.394
  9
$NORTHDIRECTION
 40
0.0
  9
$TIMEZONE
 70
 -8000
  9
$LIGHTGLYPHDISPLAY
280
     1
  9
$TILEMODELIGHTSYNCH
280
     1
  9
$CMATERIAL
347
11
  9
$SOLIDHIST
280
     0
  9
$SHOWHIST
280
     1
  9
$DWFFRAME
280
     2
  9
$DGNFRAME
280
     0
  9
$REALWORLDSCALE
290
     1
  9
$INTERFERECOLOR
 62
     1
  9
$INTERFEREOBJVS
345
33
  9
$INTERFEREVPVS
346
30
  9
$CSHADOW
280
     0
  9
$SHADOWPLANELOCATION
 40
0.0
  0
ENDSEC
  0
SECTION
  2
CLASSES
  0
CLASS
  1
ACDBDICTIONARYWDFLT
  2
AcDbDictionaryWithDefault
  3
ObjectDBX Classes
 90
        0
 91
        1
280
     0
281
     0
  0
CLASS
  1
MATERIAL
  2
AcDbMaterial
  3
ObjectDBX Classes
 90
     1153
 91
        3
280
     0
281
     0
  0
CLASS
  1
VISUALSTYLE
  2
AcDbVisualStyle
  3
ObjectDBX Classes
 90
     4095
 91
       24
280
     0
281
     0
  0
CLASS
  1
SCALE
  2
AcDbScale
  3
ObjectDBX Classes
 90
     1153
 91
       17
280
     0
281
     0
  0
CLASS
  1
TABLESTYLE
  2
AcDbTableStyle
  3
ObjectDBX Classes
 90
     4095
 91
        1
280
     0
281
     0
  0
CLASS
  1
MLEADERSTYLE
  2
AcDbMLeaderStyle
  3
ACDB_MLEADERSTYLE_CLASS
 90
     4095
 91
        1
280
     0
281
     0
  0
CLASS
  1
ACDBSECTIONVIEWSTYLE
  2
AcDbSectionViewStyle
  3
ObjectDBX Classes
 90
     1025
 91
        1
280
     0
281
     0
  0
CLASS
  1
ACDBDETAILVIEWSTYLE
  2
AcDbDetailViewStyle
  3
ObjectDBX Classes
 90
     1025
 91
        1
280
     0
281
     0
  0
CLASS
  1
DICTIONARYVAR
  2
AcDbDictionaryVar
  3
ObjectDBX Classes
 90
        0
 91
        5
280
     0
281
     0
  0
CLASS
  1
CELLSTYLEMAP
  2
AcDbCellStyleMap
  3
ObjectDBX Classes
 90
     1152
 91
        1
280
     0
281
     0
  0
ENDSEC
  0
SECTION
  2
TABLES
  0
TABLE
  2
VPORT
  5
8
330
0
100
AcDbSymbolTable
 70
     1
  0
VPORT
  5
57
330
8
100
AcDbSymbolTableRecord
100
AcDbViewportTableRecord
  2
*Active
 70
     0
 10
0.0
 20
0.0
 11
1.0
 21
1.0
 12
0.0
 22
0.0
 13
0.0
 23
0.0
 14
1.0
 24
1.0
 15
0.0
 25
0.0
 16
0.0
 26
0.0
 36
1.0
 17
105.0000721959721
 27
148.5000416295418
 37
0.0
 40
89.75999997755987
 41
1.0
 42
50.0
 43
0.0
 44
0.0
 50
0.0
 51
0.0
 71
     0
 72
   100
 73
     1
 74
     1
 75
     0
 76
     0
 77
     0
 78
     0
281
     0
 65
     1
110
0.0
120
0.0
130
0.0
111
1.0
121
0.0
131
0.0
112
0.0
122
1.0
132
0.0
 79
     0
146
0.0
 60
     3
 61
     5
292
     1
282
     1
141
0.0
142
0.0
 63
   250
421
  3355443
  0
ENDTAB
  0
TABLE
  2
LTYPE
  5
5
330
0
100
AcDbSymbolTable
 70
     2
  0
LTYPE
  5
5B
330
5
100
AcDbSymbolTableRecord
100
AcDbLinetypeTableRecord
  2
ByBlock
 70
     0
  3

 72
    65
 73
     0
 40
0.0
  0
LTYPE
  5
5C
330
5
100
AcDbSymbolTableRecord
100
AcDbLinetypeTableRecord
  2
ByLayer
 70
     0
  3

 72
    65
 73
     0
 40
0.0
  0
LTYPE
  5
5D
330
5
100
AcDbSymbolTableRecord
100
AcDbLinetypeTableRecord
  2
Continuous
 70
     0
  3
Solid line
 72
    65
 73
     0
 40
0.0
  0
LTYPE
  5
2B9
330
5
100
AcDbSymbolTableRecord
100
AcDbLinetypeTableRecord
  2
AI-Linetype-0
 70
     0
  3
Adobe Illustrator Linetype No. 0
 72
    65
 73
     2
 40
1.348914352715546
 49
0.6744571763577733
 74
     0
 49
-0.6744571763577733
 74
     0
  0
ENDTAB
  0
TABLE
  2
LAYER
  5
2
330
0
100
AcDbSymbolTable
 70
     5
  0
LAYER
  5
54
330
2
100
AcDbSymbolTableRecord
100
AcDbLayerTableRecord
  2
0
 70
     0
 62
     7
  6
Continuous
370
     0
390
F
347
21
348
0
  0
LAYER
  5
8C
330
2
100
AcDbSymbolTableRecord
100
AcDbLayerTableRecord
  2
Titel (ISO)
 70
     0
 62
     7
  6
Continuous
370
     0
390
F
347
21
348
0
  0
LAYER
  5
B1
330
2
100
AcDbSymbolTableRecord
100
AcDbLayerTableRecord
  2
Sichtbar schmal (ISO)
 70
     0
 62
     7
  6
Continuous
370
     0
390
F
347
21
348
0
  0
LAYER
  5
B2
330
2
100
AcDbSymbolTableRecord
100
AcDbLayerTableRecord
  2
Sichtbar (ISO)
 70
     0
 62
     7
  6
Continuous
370
     0
390
F
347
21
348
0
  0
LAYER
  5
27D
330
2
100
AcDbSymbolTableRecord
100
AcDbLayerTableRecord
  2
Rahmen (ISO)
 70
     0
 62
     7
  6
Continuous
370
     0
390
F
347
21
348
0
  0
ENDTAB
  0
TABLE
  2
STYLE
  5
3
330
0
100
AcDbSymbolTable
 70
     2
  0
STYLE
  5
55
330
3
100
AcDbSymbolTableRecord
100
AcDbTextStyleTableRecord
  2
Standard
 70
     0
 40
0.0
 41
1.0
 50
0.0
 71
     0
 42
0.2
  3
txt
  4

  0
STYLE
  5
5A
330
3
100
AcDbSymbolTableRecord
100
AcDbTextStyleTableRecord
  2
Annotative
 70
     0
 40
0.0
 41
1.0
 50
0.0
 71
     0
 42
0.2
  3
txt
  4

1001
AcadAnnotative
1000
AnnotativeData
1002
{
1070
     1
1070
     1
1002
}
  0
ENDTAB
  0
TABLE
  2
VIEW
  5
6
330
0
100
AcDbSymbolTable
 70
     0
  0
ENDTAB
  0
TABLE
  2
UCS
  5
7
330
0
100
AcDbSymbolTable
 70
     0
  0
ENDTAB
  0
TABLE
  2
APPID
  5
9
330
0
100
AcDbSymbolTable
 70
     2
  0
APPID
  5
56
330
9
100
AcDbSymbolTableRecord
100
AcDbRegAppTableRecord
  2
ACAD
 70
     0
  0
APPID
  5
5E
330
9
100
AcDbSymbolTableRecord
100
AcDbRegAppTableRecord
  2
AcadAnnotative
 70
     0
  0
ENDTAB
  0
TABLE
  2
DIMSTYLE
  5
A
330
0
100
AcDbSymbolTable
 70
     2
100
AcDbDimStyleTable
 71
     0
  0
DIMSTYLE
105
58
330
A
100
AcDbSymbolTableRecord
100
AcDbDimStyleTableRecord
  2
Standard
 70
     0
340
55
  0
DIMSTYLE
105
59
330
A
100
AcDbSymbolTableRecord
100
AcDbDimStyleTableRecord
  2
Annotative
 70
     0
340
55
1001
AcadAnnotative
1000
AnnotativeData
1002
{
1070
     1
1070
     1
1002
}
  0
ENDTAB
  0
TABLE
  2
BLOCK_RECORD
  5
1
330
0
100
AcDbSymbolTable
 70
    42
  0
BLOCK_RECORD
  5
70
330
1
100
AcDbSymbolTableRecord
100
AcDbBlockTableRecord
  2
*Model_Space
340
73
 70
     0
280
     1
281
     0
  0
BLOCK_RECORD
  5
6C
330
1
100
AcDbSymbolTableRecord
100
AcDbBlockTableRecord
  2
*Paper_Space
340
6F
 70
     0
280
     1
281
     0
  0
BLOCK_RECORD
  5
74
330
1
100
AcDbSymbolTableRecord
100
AcDbBlockTableRecord
  2
*Paper_Space0
340
77
 70
     0
280
     1
281
     0
  0
BLOCK_RECORD
  5
78
330
1
100
AcDbSymbolTableRecord
100
AcDbBlockTableRecord
  2
Block_0
340
0
102
{BLKREFS
331
79
102
}
 70
     0
280
     1
281
     0
  0
BLOCK_RECORD
  5
7C
330
1
100
AcDbSymbolTableRecord
100
AcDbBlockTableRecord
  2
Block_1
340
0
102
{BLKREFS
331
7D
102
}
 70
     0
280
     1
281
     0
  0
BLOCK_RECORD
  5
80
330
1
100
AcDbSymbolTableRecord
100
AcDbBlockTableRecord
  2
Block_2
340
0
102
{BLKREFS
331
81
102
}
 70
     0
280
     1
281
     0
  0
BLOCK_RECORD
  5
84
330
1
100
AcDbSymbolTableRecord
100
AcDbBlockTableRecord
  2
Block_3
340
0
102
{BLKREFS
331
85
102
}
 70
     0
280
     1
281
     0
  0
BLOCK_RECORD
  5
88
330
1
100
AcDbSymbolTableRecord
100
AcDbBlockTableRecord
  2
Block_4
340
0
102
{BLKREFS
331
89
102
}
 70
     0
280
     1
281
     0
  0
BLOCK_RECORD
  5
8D
330
1
100
AcDbSymbolTableRecord
100
AcDbBlockTableRecord
  2
Block_5
340
0
102
{BLKREFS
331
8E
102
}
 70
     0
280
     1
281
     0
  0
BLOCK_RECORD
  5
91
330
1
100
AcDbSymbolTableRecord
100
AcDbBlockTableRecord
  2
Block_6
340
0
102
{BLKREFS
331
92
102
}
 70
     0
280
     1
281
     0
  0
BLOCK_RECORD
  5
95
330
1
100
AcDbSymbolTableRecord
100
AcDbBlockTableRecord
  2
Block_7
340
0
102
{BLKREFS
331
96
102
}
 70
     0
280
     1
281
     0
  0
BLOCK_RECORD
  5
99
330
1
100
AcDbSymbolTableRecord
100
AcDbBlockTableRecord
  2
Block_8
340
0
102
{BLKREFS
331
9A
102
}
 70
     0
280
     1
281
     0
  0
BLOCK_RECORD
  5
9D
330
1
100
AcDbSymbolTableRecord
100
AcDbBlockTableRecord
  2
Block_9
340
0
102
{BLKREFS
331
9E
102
}
 70
     0
280
     1
281
     0
  0
BLOCK_RECORD
  5
A1
330
1
100
AcDbSymbolTableRecord
100
AcDbBlockTableRecord
  2
Block_10
340
0
102
{BLKREFS
331
A2
102
}
 70
     0
280
     1
281
     0
  0
BLOCK_RECORD
  5
A5
330
1
100
AcDbSymbolTableRecord
100
AcDbBlockTableRecord
  2
Block_11
340
0
102
{BLKREFS
331
A6
102
}
 70
     0
280
     1
281
     0
  0
BLOCK_RECORD
  5
A9
330
1
100
AcDbSymbolTableRecord
100
AcDbBlockTableRecord
  2
Block_12
340
0
102
{BLKREFS
331
AA
102
}
 70
     0
280
     1
281
     0
  0
BLOCK_RECORD
  5
AD
330
1
100
AcDbSymbolTableRecord
100
AcDbBlockTableRecord
  2
Block_13
340
0
102
{BLKREFS
331
AE
102
}
 70
     0
280
     1
281
     0
  0
BLOCK_RECORD
  5
B3
330
1
100
AcDbSymbolTableRecord
100
AcDbBlockTableRecord
  2
Block_14
340
0
102
{BLKREFS
331
B4
102
}
 70
     0
280
     1
281
     0
  0
BLOCK_RECORD
  5
B9
330
1
100
AcDbSymbolTableRecord
100
AcDbBlockTableRecord
  2
Block_15
340
0
102
{BLKREFS
331
BA
102
}
 70
     0
280
     1
281
     0
  0
BLOCK_RECORD
  5
255
330
1
100
AcDbSymbolTableRecord
100
AcDbBlockTableRecord
  2
Block_16
340
0
102
{BLKREFS
331
256
102
}
 70
     0
280
     1
281
     0
  0
BLOCK_RECORD
  5
27E
330
1
100
AcDbSymbolTableRecord
100
AcDbBlockTableRecord
  2
Block_17
340
0
102
{BLKREFS
331
27F
102
}
 70
     0
280
     1
281
     0
  0
BLOCK_RECORD
  5
282
330
1
100
AcDbSymbolTableRecord
100
AcDbBlockTableRecord
  2
Block_18
340
0
102
{BLKREFS
331
283
102
}
 70
     0
280
     1
281
     0
  0
BLOCK_RECORD
  5
287
330
1
100
AcDbSymbolTableRecord
100
AcDbBlockTableRecord
  2
Block_19
340
0
102
{BLKREFS
331
288
102
}
 70
     0
280
     1
281
     0
  0
BLOCK_RECORD
  5
28D
330
1
100
AcDbSymbolTableRecord
100
AcDbBlockTableRecord
  2
Block_20
340
0
102
{BLKREFS
331
28E
102
}
 70
     0
280
     1
281
     0
  0
BLOCK_RECORD
  5
296
330
1
100
AcDbSymbolTableRecord
100
AcDbBlockTableRecord
  2
Block_21
340
0
102
{BLKREFS
331
297
102
}
 70
     0
280
     1
281
     0
  0
BLOCK_RECORD
  5
29A
330
1
100
AcDbSymbolTableRecord
100
AcDbBlockTableRecord
  2
Block_22
340
0
102
{BLKREFS
331
29B
102
}
 70
     0
280
     1
281
     0
  0
BLOCK_RECORD
  5
29F
330
1
100
AcDbSymbolTableRecord
100
AcDbBlockTableRecord
  2
Block_23
340
0
102
{BLKREFS
331
2A0
102
}
 70
     0
280
     1
281
     0
  0
BLOCK_RECORD
  5
2A5
330
1
100
AcDbSymbolTableRecord
100
AcDbBlockTableRecord
  2
Block_24
340
0
102
{BLKREFS
331
2A6
102
}
 70
     0
280
     1
281
     0
  0
BLOCK_RECORD
  5
2AF
330
1
100
AcDbSymbolTableRecord
100
AcDbBlockTableRecord
  2
Block_25
340
0
102
{BLKREFS
331
2B0
102
}
 70
     0
280
     1
281
     0
  0
BLOCK_RECORD
  5
2B3
330
1
100
AcDbSymbolTableRecord
100
AcDbBlockTableRecord
  2
Block_26
340
0
102
{BLKREFS
331
2B4
102
}
 70
     0
280
     1
281
     0
  0
BLOCK_RECORD
  5
2BC
330
1
100
AcDbSymbolTableRecord
100
AcDbBlockTableRecord
  2
Block_27
340
0
102
{BLKREFS
331
2BD
102
}
 70
     0
280
     1
281
     0
  0
BLOCK_RECORD
  5
2C0
330
1
100
AcDbSymbolTableRecord
100
AcDbBlockTableRecord
  2
Block_28
340
0
102
{BLKREFS
331
2C1
102
}
 70
     0
280
     1
281
     0
  0
BLOCK_RECORD
  5
2C5
330
1
100
AcDbSymbolTableRecord
100
AcDbBlockTableRecord
  2
Block_29
340
0
102
{BLKREFS
331
2C6
102
}
 70
     0
280
     1
281
     0
  0
BLOCK_RECORD
  5
2CB
330
1
100
AcDbSymbolTableRecord
100
AcDbBlockTableRecord
  2
Block_30
340
0
102
{BLKREFS
331
2CC
102
}
 70
     0
280
     1
281
     0
  0
BLOCK_RECORD
  5
2D1
330
1
100
AcDbSymbolTableRecord
100
AcDbBlockTableRecord
  2
Block_31
340
0
102
{BLKREFS
331
2D2
102
}
 70
     0
280
     1
281
     0
  0
BLOCK_RECORD
  5
2D5
330
1
100
AcDbSymbolTableRecord
100
AcDbBlockTableRecord
  2
Block_32
340
0
102
{BLKREFS
331
2D6
102
}
 70
     0
280
     1
281
     0
  0
BLOCK_RECORD
  5
2DE
330
1
100
AcDbSymbolTableRecord
100
AcDbBlockTableRecord
  2
Block_33
340
0
102
{BLKREFS
331
2DF
102
}
 70
     0
280
     1
281
     0
  0
BLOCK_RECORD
  5
2E2
330
1
100
AcDbSymbolTableRecord
100
AcDbBlockTableRecord
  2
Block_34
340
0
102
{BLKREFS
331
2E3
102
}
 70
     0
280
     1
281
     0
  0
BLOCK_RECORD
  5
2E7
330
1
100
AcDbSymbolTableRecord
100
AcDbBlockTableRecord
  2
Block_35
340
0
102
{BLKREFS
331
2E8
102
}
 70
     0
280
     1
281
     0
  0
BLOCK_RECORD
  5
2ED
330
1
100
AcDbSymbolTableRecord
100
AcDbBlockTableRecord
  2
Block_36
340
0
102
{BLKREFS
331
2EE
102
}
 70
     0
280
     1
281
     0
  0
BLOCK_RECORD
  5
2F4
330
1
100
AcDbSymbolTableRecord
100
AcDbBlockTableRecord
  2
Block_37
340
0
102
{BLKREFS
331
2F5
102
}
 70
     0
280
     1
281
     0
  0
BLOCK_RECORD
  5
2F8
330
1
100
AcDbSymbolTableRecord
100
AcDbBlockTableRecord
  2
Block_38
340
0
102
{BLKREFS
331
2F9
102
}
 70
     0
280
     1
281
     0
  0
BLOCK_RECORD
  5
301
330
1
100
AcDbSymbolTableRecord
100
AcDbBlockTableRecord
  2
Block_39
340
0
102
{BLKREFS
331
302
102
}
 70
     0
280
     1
281
     0
  0
BLOCK_RECORD
  5
30E
330
1
100
AcDbSymbolTableRecord
100
AcDbBlockTableRecord
  2
Block_40
340
0
102
{BLKREFS
331
30F
102
}
 70
     0
280
     1
281
     0
  0
ENDTAB
  0
ENDSEC
  0
SECTION
  2
BLOCKS
  0
BLOCK
  5
71
330
70
100
AcDbEntity
  8
0
100
AcDbBlockBegin
  2
*Model_Space
 70
     0
 10
0.0
 20
0.0
 30
0.0
  3
*Model_Space
  1

  0
ENDBLK
  5
72
330
70
100
AcDbEntity
  8
0
100
AcDbBlockEnd
  0
BLOCK
  5
6D
330
6C
100
AcDbEntity
 67
     1
  8
0
100
AcDbBlockBegin
  2
*Paper_Space
 70
     0
 10
0.0
 20
0.0
 30
0.0
  3
*Paper_Space
  1

  0
ENDBLK
  5
6E
330
6C
100
AcDbEntity
 67
     1
  8
0
100
AcDbBlockEnd
  0
BLOCK
  5
75
330
74
100
AcDbEntity
 67
     1
  8
0
100
AcDbBlockBegin
  2
*Paper_Space0
 70
     0
 10
0.0
 20
0.0
 30
0.0
  3
*Paper_Space0
  1

  0
ENDBLK
  5
76
330
74
100
AcDbEntity
 67
     1
  8
0
100
AcDbBlockEnd
  0
BLOCK
  5
7A
330
78
100
AcDbEntity
  8
0
100
AcDbBlockBegin
  2
Block_0
 70
     0
 10
0.0
 20
0.0
 30
0.0
  3
Block_0
  1

  0
ENDBLK
  5
7B
330
78
100
AcDbEntity
  8
0
100
AcDbBlockEnd
  0
BLOCK
  5
7E
330
7C
100
AcDbEntity
  8
0
100
AcDbBlockBegin
  2
Block_1
 70
     0
 10
0.0
 20
0.0
 30
0.0
  3
Block_1
  1

  0
ENDBLK
  5
7F
330
7C
100
AcDbEntity
  8
0
100
AcDbBlockEnd
  0
BLOCK
  5
82
330
80
100
AcDbEntity
  8
0
100
AcDbBlockBegin
  2
Block_2
 70
     0
 10
0.0
 20
0.0
 30
0.0
  3
Block_2
  1

  0
ENDBLK
  5
83
330
80
100
AcDbEntity
  8
0
100
AcDbBlockEnd
  0
BLOCK
  5
86
330
84
100
AcDbEntity
  8
0
100
AcDbBlockBegin
  2
Block_3
 70
     0
 10
0.0
 20
0.0
 30
0.0
  3
Block_3
  1

  0
ENDBLK
  5
87
330
84
100
AcDbEntity
  8
0
100
AcDbBlockEnd
  0
BLOCK
  5
8A
330
88
100
AcDbEntity
  8
0
100
AcDbBlockBegin
  2
Block_4
 70
     0
 10
0.0
 20
0.0
 30
0.0
  3
Block_4
  1

  0
ENDBLK
  5
8B
330
88
100
AcDbEntity
  8
0
100
AcDbBlockEnd
  0
BLOCK
  5
8F
330
8D
100
AcDbEntity
  8
0
100
AcDbBlockBegin
  2
Block_5
 70
     0
 10
0.0
 20
0.0
 30
0.0
  3
Block_5
  1

  0
ENDBLK
  5
90
330
8D
100
AcDbEntity
  8
0
100
AcDbBlockEnd
  0
BLOCK
  5
93
330
91
100
AcDbEntity
  8
0
100
AcDbBlockBegin
  2
Block_6
 70
     0
 10
0.0
 20
0.0
 30
0.0
  3
Block_6
  1

  0
ENDBLK
  5
94
330
91
100
AcDbEntity
  8
0
100
AcDbBlockEnd
  0
BLOCK
  5
97
330
95
100
AcDbEntity
  8
0
100
AcDbBlockBegin
  2
Block_7
 70
     0
 10
0.0
 20
0.0
 30
0.0
  3
Block_7
  1

  0
ENDBLK
  5
98
330
95
100
AcDbEntity
  8
0
100
AcDbBlockEnd
  0
BLOCK
  5
9B
330
99
100
AcDbEntity
  8
0
100
AcDbBlockBegin
  2
Block_8
 70
     0
 10
0.0
 20
0.0
 30
0.0
  3
Block_8
  1

  0
ENDBLK
  5
9C
330
99
100
AcDbEntity
  8
0
100
AcDbBlockEnd
  0
BLOCK
  5
9F
330
9D
100
AcDbEntity
  8
0
100
AcDbBlockBegin
  2
Block_9
 70
     0
 10
0.0
 20
0.0
 30
0.0
  3
Block_9
  1

  0
ENDBLK
  5
A0
330
9D
100
AcDbEntity
  8
0
100
AcDbBlockEnd
  0
BLOCK
  5
A3
330
A1
100
AcDbEntity
  8
0
100
AcDbBlockBegin
  2
Block_10
 70
     0
 10
0.0
 20
0.0
 30
0.0
  3
Block_10
  1

  0
ENDBLK
  5
A4
330
A1
100
AcDbEntity
  8
0
100
AcDbBlockEnd
  0
BLOCK
  5
A7
330
A5
100
AcDbEntity
  8
0
100
AcDbBlockBegin
  2
Block_11
 70
     0
 10
0.0
 20
0.0
 30
0.0
  3
Block_11
  1

  0
ENDBLK
  5
A8
330
A5
100
AcDbEntity
  8
0
100
AcDbBlockEnd
  0
BLOCK
  5
AB
330
A9
100
AcDbEntity
  8
0
100
AcDbBlockBegin
  2
Block_12
 70
     0
 10
0.0
 20
0.0
 30
0.0
  3
Block_12
  1

  0
ENDBLK
  5
AC
330
A9
100
AcDbEntity
  8
0
100
AcDbBlockEnd
  0
BLOCK
  5
AF
330
AD
100
AcDbEntity
  8
0
100
AcDbBlockBegin
  2
Block_13
 70
     0
 10
0.0
 20
0.0
 30
0.0
  3
Block_13
  1

  0
ENDBLK
  5
B0
330
AD
100
AcDbEntity
  8
0
100
AcDbBlockEnd
  0
BLOCK
  5
B5
330
B3
100
AcDbEntity
  8
0
100
AcDbBlockBegin
  2
Block_14
 70
     0
 10
0.0
 20
0.0
 30
0.0
  3
Block_14
  1

  0
SPLINE
  5
B7
330
B3
100
AcDbEntity
  8
Sichtbar (ISO)
100
AcDbSpline
210
0.0
220
0.0
230
1.0
 70
     8
 71
     3
 72
    38
 73
    34
 74
     0
 42
0.0000000001
 43
0.0000000001
 40
0.0
 40
0.0
 40
0.0
 40
0.0
 40
1.0
 40
1.0
 40
1.0
 40
2.0
 40
2.0
 40
2.0
 40
3.0
 40
3.0
 40
3.0
 40
4.0
 40
4.0
 40
4.0
 40
5.0
 40
5.0
 40
5.0
 40
6.0
 40
6.0
 40
6.0
 40
7.0
 40
7.0
 40
7.0
 40
8.0
 40
8.0
 40
8.0
 40
9.0
 40
9.0
 40
9.0
 40
10.0
 40
10.0
 40
10.0
 40
11.0
 40
11.0
 40
11.0
 40
11.0
 10
108.9841804584391
 20
184.9303151893741
 30
0.0
 10
108.9841804584391
 20
184.9303151893741
 30
0.0
 10
109.4170556951716
 20
184.9303151893741
 30
0.0
 10
109.4170556951716
 20
184.9303151893741
 30
0.0
 10
109.4170556951716
 20
184.9303151893741
 30
0.0
 10
109.4170556951716
 20
181.0057812829843
 30
0.0
 10
109.4170556951716
 20
181.0057812829843
 30
0.0
 10
109.4170556951716
 20
181.0057812829843
 30
0.0
 10
109.4170556951716
 20
180.6121333722727
 30
0.0
 10
109.4170556951716
 20
180.6121333722727
 30
0.0
 10
109.4170556951716
 20
180.2355755883906
 30
0.0
 10
109.1263484278143
 20
179.9303151906239
 30
0.0
 10
108.7677428400741
 20
179.9303151906239
 30
0.0
 10
108.7677428400741
 20
179.9303151906239
 30
0.0
 10
66.99528249549678
 20
179.9303151906239
 30
0.0
 10
66.99528249549678
 20
179.9303151906239
 30
0.0
 10
66.63667690775854
 20
179.9303151906239
 30
0.0
 10
66.34596964039994
 20
180.2355755883906
 30
0.0
 10
66.34596964039994
 20
180.6121333722727
 30
0.0
 10
66.34596964039994
 20
180.6121333722727
 30
0.0
 10
66.34596964039994
 20
181.0057812829843
 30
0.0
 10
66.34596964039994
 20
181.0057812829843
 30
0.0
 10
66.34596964039994
 20
181.0057812829843
 30
0.0
 10
66.34596964039994
 20
184.9303151893741
 30
0.0
 10
66.34596964039994
 20
184.9303151893741
 30
0.0
 10
66.34596964039994
 20
184.9303151893741
 30
0.0
 10
66.7788448771318
 20
184.9303151893741
 30
0.0
 10
66.7788448771318
 20
184.9303151893741
 30
0.0
 10
66.7788448771318
 20
184.9303151893741
 30
0.0
 10
66.80048863896843
 20
184.9303151893741
 30
0.0
 10
66.80048863896843
 20
184.9303151893741
 30
0.0
 10
66.80048863896843
 20
184.9303151893741
 30
0.0
 10
108.9625366966025
 20
184.9303151893741
 30
0.0
 10
108.9625366966025
 20
184.9303151893741
 30
0.0
  0
HATCH
  5
B8
330
B3
100
AcDbEntity
  8
Sichtbar (ISO)
 62
   254
420
 14606046
440
 33554687
100
AcDbHatch
 10
0.0
 20
0.0
 30
0.0
210
0.0
220
0.0
230
1.0
  2
SOLID
 70
     1
 71
     1
 91
        1
 92
        1
 93
        2
 72
     4
 94
        3
 73
     0
 74
     0
 95
       38
 96
       34
 40
0.0
 40
0.0
 40
0.0
 40
0.0
 40
1.0
 40
1.0
 40
1.0
 40
2.0
 40
2.0
 40
2.0
 40
3.0
 40
3.0
 40
3.0
 40
4.0
 40
4.0
 40
4.0
 40
5.0
 40
5.0
 40
5.0
 40
6.0
 40
6.0
 40
6.0
 40
7.0
 40
7.0
 40
7.0
 40
8.0
 40
8.0
 40
8.0
 40
9.0
 40
9.0
 40
9.0
 40
10.0
 40
10.0
 40
10.0
 40
11.0
 40
11.0
 40
11.0
 40
11.0
 10
108.9841804584391
 20
184.9303151893741
 10
108.9841804584391
 20
184.9303151893741
 10
109.4170556951716
 20
184.9303151893741
 10
109.4170556951716
 20
184.9303151893741
 10
109.4170556951716
 20
184.9303151893741
 10
109.4170556951716
 20
181.0057812829843
 10
109.4170556951716
 20
181.0057812829843
 10
109.4170556951716
 20
181.0057812829843
 10
109.4170556951716
 20
180.6121333722727
 10
109.4170556951716
 20
180.6121333722727
 10
109.4170556951716
 20
180.2355755883906
 10
109.1263484278143
 20
179.9303151906239
 10
108.7677428400741
 20
179.9303151906239
 10
108.7677428400741
 20
179.9303151906239
 10
66.99528249549678
 20
179.9303151906239
 10
66.99528249549678
 20
179.9303151906239
 10
66.63667690775854
 20
179.9303151906239
 10
66.34596964039994
 20
180.2355755883906
 10
66.34596964039994
 20
180.6121333722727
 10
66.34596964039994
 20
180.6121333722727
 10
66.34596964039994
 20
181.0057812829843
 10
66.34596964039994
 20
181.0057812829843
 10
66.34596964039994
 20
181.0057812829843
 10
66.34596964039994
 20
184.9303151893741
 10
66.34596964039994
 20
184.9303151893741
 10
66.34596964039994
 20
184.9303151893741
 10
66.7788448771318
 20
184.9303151893741
 10
66.7788448771318
 20
184.9303151893741
 10
66.7788448771318
 20
184.9303151893741
 10
66.80048863896843
 20
184.9303151893741
 10
66.80048863896843
 20
184.9303151893741
 10
66.80048863896843
 20
184.9303151893741
 10
108.9625366966025
 20
184.9303151893741
 10
108.9625366966025
 20
184.9303151893741
 97
        0
 72
     1
 10
108.9625366966025
 20
184.9303151893741
 11
108.9841804584391
 21
184.9303151893741
 97
        0
 75
     2
 76
     1
 98
        1
 10
0.0
 20
0.0
450
        0
451
        0
460
0.0
461
0.0
452
        0
462
0.0
453
        0
470

  0
ENDBLK
  5
B6
330
B3
100
AcDbEntity
  8
0
100
AcDbBlockEnd
  0
BLOCK
  5
BB
330
B9
100
AcDbEntity
  8
0
100
AcDbBlockBegin
  2
Block_15
 70
     0
 10
0.0
 20
0.0
 30
0.0
  3
Block_15
  1

  0
LINE
  5
BD
330
B9
100
AcDbEntity
  8
Sichtbar (ISO)
 62
    18
420
        0
370
     5
100
AcDbLine
 10
110.2015133497342
 20
184.9306817608208
 30
0.0
 11
65.56986039859244
 21
184.9306817608208
 31
0.0
  0
SPLINE
  5
BE
330
B9
100
AcDbEntity
  8
Sichtbar (ISO)
 62
    18
420
        0
370
     5
100
AcDbSpline
210
0.0
220
0.0
230
1.0
 70
     8
 71
     3
 72
     8
 73
     4
 74
     0
 42
0.0000000001
 43
0.0000000001
 40
0.0
 40
0.0
 40
0.0
 40
0.0
 40
1.0
 40
1.0
 40
1.0
 40
1.0
 10
109.9764204491295
 20
177.2771559895384
 30
0.0
 10
110.2853490723332
 20
177.2771559895384
 30
0.0
 10
110.5357852030874
 20
177.5219131470647
 30
0.0
 10
110.5357852030874
 20
177.8238364017729
 30
0.0
  0
LINE
  5
BF
330
B9
100
AcDbEntity
  8
Sichtbar (ISO)
 62
    18
420
        0
370
     5
100
AcDbLine
 10
110.5357852030874
 20
184.9306817608208
 30
0.0
 11
110.5357852030874
 21
178.139462484937
 31
0.0
  0
LINE
  5
C0
330
B9
100
AcDbEntity
  8
Sichtbar (ISO)
 62
    18
420
        0
370
     5
100
AcDbLine
 10
110.5357852030874
 20
178.139462484937
 30
0.0
 11
110.5357852030874
 21
177.8238364017729
 31
0.0
  0
LINE
  5
C1
330
B9
100
AcDbEntity
  8
Sichtbar (ISO)
 62
    18
420
        0
370
     5
100
AcDbLine
 10
110.5357852030874
 20
184.9306817608208
 30
0.0
 11
110.1628753671159
 21
184.9306817608208
 31
0.0
  0
SPLINE
  5
C2
330
B9
100
AcDbEntity
  8
Sichtbar (ISO)
 62
    18
420
        0
370
     5
100
AcDbSpline
210
0.0
220
0.0
230
1.0
 70
     8
 71
     3
 72
     8
 73
     4
 74
     0
 42
0.0000000001
 43
0.0000000001
 40
0.0
 40
0.0
 40
0.0
 40
0.0
 40
1.0
 40
1.0
 40
1.0
 40
1.0
 10
65.22724013248387
 20
177.8238364017729
 30
0.0
 10
65.22724013248387
 20
177.5219131470647
 30
0.0
 10
65.4776762632381
 20
177.2771559895384
 30
0.0
 10
65.78660488644207
 20
177.2771559895384
 30
0.0
  0
LINE
  5
C3
330
B9
100
AcDbEntity
  8
Sichtbar (ISO)
 62
    18
420
        0
370
     5
100
AcDbLine
 10
65.22724013248387
 20
178.139462484937
 30
0.0
 11
65.22724013248387
 21
177.8238364017729
 31
0.0
  0
LINE
  5
C4
330
B9
100
AcDbEntity
  8
Sichtbar (ISO)
 62
    18
420
        0
370
     5
100
AcDbLine
 10
65.22724013248387
 20
184.9306817608208
 30
0.0
 11
65.22724013248387
 21
178.139462484937
 31
0.0
  0
LINE
  5
C5
330
B9
100
AcDbEntity
  8
Sichtbar (ISO)
 62
    18
420
        0
370
     5
100
AcDbLine
 10
65.22724013248387
 20
184.9306817608208
 30
0.0
 11
65.60014996845599
 21
184.9306817608208
 31
0.0
  0
LINE
  5
C6
330
B9
100
AcDbEntity
  8
Sichtbar (ISO)
 62
    18
420
        0
370
     5
100
AcDbLine
 10
109.6035106131574
 20
176.9127023813819
 30
0.0
 11
110.5357852030874
 21
176.9127023813819
 31
0.0
  0
LINE
  5
C7
330
B9
100
AcDbEntity
  8
Sichtbar (ISO)
 62
    18
420
        0
370
     5
100
AcDbLine
 10
109.6035106131574
 20
176.9127023813819
 30
0.0
 11
66.15951472241388
 21
176.9127023813819
 31
0.0
  0
LINE
  5
C8
330
B9
100
AcDbEntity
  8
Sichtbar (ISO)
 62
    18
420
        0
370
     5
100
AcDbLine
 10
66.15951472241388
 20
176.9127023813819
 30
0.0
 11
65.22724013248387
 21
176.9127023813819
 31
0.0
  0
LINE
  5
C9
330
B9
100
AcDbEntity
  8
Sichtbar (ISO)
 62
    18
420
        0
370
     5
100
AcDbLine
 10
65.22724013248387
 20
177.2771559895384
 30
0.0
 11
66.15951472241388
 21
177.2771559895384
 31
0.0
  0
LINE
  5
CA
330
B9
100
AcDbEntity
  8
Sichtbar (ISO)
 62
    18
420
        0
370
     5
100
AcDbLine
 10
66.15951472241388
 20
177.2771559895384
 30
0.0
 11
109.6035106131574
 21
177.2771559895384
 31
0.0
  0
LINE
  5
CB
330
B9
100
AcDbEntity
  8
Sichtbar (ISO)
 62
    18
420
        0
370
     5
100
AcDbLine
 10
110.5357852030874
 20
177.2771559895384
 30
0.0
 11
109.6035106131574
 21
177.2771559895384
 31
0.0
  0
SPLINE
  5
CC
330
B9
100
AcDbEntity
  8
Sichtbar (ISO)
 62
    18
420
        0
370
     5
100
AcDbSpline
210
0.0
220
0.0
230
1.0
 70
     8
 71
     3
 72
     8
 73
     4
 74
     0
 42
0.0000000001
 43
0.0000000001
 40
0.0
 40
0.0
 40
0.0
 40
0.0
 40
1.0
 40
1.0
 40
1.0
 40
1.0
 10
110.1628753671159
 20
176.7304755773039
 30
0.0
 10
110.1628753671159
 20
176.8311166622063
 30
0.0
 10
110.0793966568641
 20
176.9127023813819
 30
0.0
 10
109.9764204491295
 20
176.9127023813819
 30
0.0
  0
SPLINE
  5
CD
330
B9
100
AcDbEntity
  8
Sichtbar (ISO)
 62
    18
420
        0
370
     5
100
AcDbSpline
210
0.0
220
0.0
230
1.0
 70
     8
 71
     3
 72
     8
 73
     4
 74
     0
 42
0.0000000001
 43
0.0000000001
 40
0.0
 40
0.0
 40
0.0
 40
0.0
 40
1.0
 40
1.0
 40
1.0
 40
1.0
 10
110.5357852030874
 20
176.7304755773039
 30
0.0
 10
110.5357852030874
 20
176.7925524014366
 30
0.0
 10
110.5249669835196
 20
176.8541757903167
 30
0.0
 10
110.5037945967032
 20
176.9127023813819
 30
0.0
  0
LINE
  5
CE
330
B9
100
AcDbEntity
  8
Sichtbar (ISO)
 62
    18
420
        0
370
     5
100
AcDbLine
 10
110.5357852030874
 20
177.2771559895384
 30
0.0
 11
110.5357852030874
 21
176.9127023813819
 31
0.0
  0
LINE
  5
CF
330
B9
100
AcDbEntity
  8
Sichtbar (ISO)
 62
    18
420
        0
370
     5
100
AcDbLine
 10
65.22724013248387
 20
177.2771559895384
 30
0.0
 11
65.22724013248387
 21
176.9127023813819
 31
0.0
  0
LINE
  5
D0
330
B9
100
AcDbEntity
  8
Sichtbar (ISO)
 62
    18
420
        0
370
     5
100
AcDbLine
 10
110.1628753671159
 20
175.0904343406005
 30
0.0
 11
110.1628753671159
 21
174.9082075365219
 31
0.0
  0
LINE
  5
D1
330
B9
100
AcDbEntity
  8
Sichtbar (ISO)
 62
    18
420
        0
370
     5
100
AcDbLine
 10
110.1628753671159
 20
176.7304755773039
 30
0.0
 11
110.1628753671159
 21
175.0904343406005
 31
0.0
  0
LINE
  5
D2
330
B9
100
AcDbEntity
  8
Sichtbar (ISO)
 62
    18
420
        0
370
     5
100
AcDbLine
 10
110.5357852030874
 20
176.7304755773039
 30
0.0
 11
110.5357852030874
 21
175.0904343406005
 31
0.0
  0
LINE
  5
D3
330
B9
100
AcDbEntity
  8
Sichtbar (ISO)
 62
    18
420
        0
370
     5
100
AcDbLine
 10
110.5357852030874
 20
174.9082075365219
 30
0.0
 11
110.5357852030874
 21
175.0904343406005
 31
0.0
  0
LINE
  5
D4
330
B9
100
AcDbEntity
  8
Sichtbar (ISO)
 62
    18
420
        0
370
     5
100
AcDbLine
 10
110.1628753671159
 20
174.9082075365219
 30
0.0
 11
110.5357852030874
 21
174.9082075365219
 31
0.0
  0
LINE
  5
D5
330
B9
100
AcDbEntity
  8
Sichtbar (ISO)
 62
    18
420
        0
370
     5
100
AcDbLine
 10
107.5525065153116
 20
167.2546817652399
 30
0.0
 11
109.7899655311431
 21
167.2546817652399
 31
0.0
  0
LINE
  5
D6
330
B9
100
AcDbEntity
  8
Sichtbar (ISO)
 62
    18
420
        0
370
     5
100
AcDbLine
 10
109.7899655311431
 20
176.9127023813819
 30
0.0
 11
109.7899655311431
 21
167.2546817652399
 31
0.0
  0
LINE
  5
D7
330
B9
100
AcDbEntity
  8
Sichtbar (ISO)
 62
    18
420
        0
370
     5
100
AcDbLine
 10
107.5525065153116
 20
176.9127023813819
 30
0.0
 11
107.5525065153116
 21
167.2546817652399
 31
0.0
  0
LINE
  5
D8
330
B9
100
AcDbEntity
  8
Sichtbar (ISO)
 62
    18
420
        0
370
     5
100
AcDbLine
 10
65.9730598044278
 20
167.2546817652399
 30
0.0
 11
68.21051882026029
 21
167.2546817652399
 31
0.0
  0
LINE
  5
D9
330
B9
100
AcDbEntity
  8
Sichtbar (ISO)
 62
    18
420
        0
370
     5
100
AcDbLine
 10
68.21051882026029
 20
176.9127023813819
 30
0.0
 11
68.21051882026029
 21
167.2546817652399
 31
0.0
  0
LINE
  5
DA
330
B9
100
AcDbEntity
  8
Sichtbar (ISO)
 62
    18
420
        0
370
     5
100
AcDbLine
 10
65.9730598044278
 20
176.9127023813819
 30
0.0
 11
65.9730598044278
 21
167.2546817652399
 31
0.0
  0
LINE
  5
DB
330
B9
100
AcDbEntity
  8
Sichtbar (ISO)
 62
    18
420
        0
370
     5
100
AcDbLine
 10
109.7899655311431
 20
169.4414034141778
 30
0.0
 11
109.9764204491295
 21
169.4414034141778
 31
0.0
  0
LINE
  5
DC
330
B9
100
AcDbEntity
  8
Sichtbar (ISO)
 62
    18
420
        0
370
     5
100
AcDbLine
 10
109.9764204491295
 20
175.0904343406005
 30
0.0
 11
109.9764204491295
 21
169.4414034141778
 31
0.0
  0
LINE
  5
DD
330
B9
100
AcDbEntity
  8
Sichtbar (ISO)
 62
    18
420
        0
370
     5
100
AcDbLine
 10
109.9764204491295
 20
176.9127023813819
 30
0.0
 11
109.9764204491295
 21
175.0904343406005
 31
0.0
  0
LINE
  5
DE
330
B9
100
AcDbEntity
  8
Sichtbar (ISO)
 62
    18
420
        0
370
     5
100
AcDbLine
 10
93.75484258434561
 20
169.4414034141778
 30
0.0
 11
82.00818275122598
 21
169.4414034141778
 31
0.0
  0
LINE
  5
DF
330
B9
100
AcDbEntity
  8
Sichtbar (ISO)
 62
    18
420
        0
370
     5
100
AcDbLine
 10
82.0081827512276
 20
169.4414034141778
 30
0.0
 11
81.44881799726652
 21
169.4414034141778
 31
0.0
  0
LINE
  5
E0
330
B9
100
AcDbEntity
  8
Sichtbar (ISO)
 62
    18
420
        0
370
     5
100
AcDbLine
 10
81.4488179972678
 20
169.4414034141778
 30
0.0
 11
81.26236307928206
 21
169.4414034141778
 31
0.0
  0
LINE
  5
E1
330
B9
100
AcDbEntity
  8
Sichtbar (ISO)
 62
    18
420
        0
370
     5
100
AcDbLine
 10
80.51654340733778
 20
169.4414034141778
 30
0.0
 11
81.26236307928206
 21
169.4414034141778
 31
0.0
  0
LINE
  5
E2
330
B9
100
AcDbEntity
  8
Sichtbar (ISO)
 62
    18
420
        0
370
     5
100
AcDbLine
 10
80.51654340733778
 20
169.4414034141778
 30
0.0
 11
79.58426881740777
 21
169.4414034141778
 31
0.0
  0
LINE
  5
E3
330
B9
100
AcDbEntity
  8
Sichtbar (ISO)
 62
    18
420
        0
370
     5
100
AcDbLine
 10
78.8384491454635
 20
169.4414034141778
 30
0.0
 11
79.58426881740777
 21
169.4414034141778
 31
0.0
  0
LINE
  5
E4
330
B9
100
AcDbEntity
  8
Sichtbar (ISO)
 62
    18
420
        0
370
     5
100
AcDbLine
 10
78.8384491454635
 20
169.4414034141778
 30
0.0
 11
70.82088767206457
 21
169.4414034141778
 31
0.0
  0
LINE
  5
E5
330
B9
100
AcDbEntity
  8
Sichtbar (ISO)
 62
    18
420
        0
370
     5
100
AcDbLine
 10
70.82088767206617
 20
169.4414034141778
 30
0.0
 11
70.26152291810508
 21
169.4414034141778
 31
0.0
  0
LINE
  5
E6
330
B9
100
AcDbEntity
  8
Sichtbar (ISO)
 62
    18
420
        0
370
     5
100
AcDbLine
 10
70.26152291810638
 20
169.4414034141778
 30
0.0
 11
69.31449708232574
 21
169.4414034141778
 31
0.0
  0
LINE
  5
E7
330
B9
100
AcDbEntity
  8
Sichtbar (ISO)
 62
    18
420
        0
370
     5
100
AcDbLine
 10
68.27019000996975
 20
169.4414034141778
 30
0.0
 11
69.31449708232607
 21
169.4414034141778
 31
0.0
  0
LINE
  5
E8
330
B9
100
AcDbEntity
  8
Sichtbar (ISO)
 62
    18
420
        0
370
     5
100
AcDbLine
 10
68.21051882026029
 20
169.4414034141778
 30
0.0
 11
68.27019000996687
 21
169.4414034141778
 31
0.0
  0
LINE
  5
E9
330
B9
100
AcDbEntity
  8
Sichtbar (ISO)
 62
    18
420
        0
370
     5
100
AcDbLine
 10
65.78660488644207
 20
169.4414034141778
 30
0.0
 11
65.9730598044278
 21
169.4414034141778
 31
0.0
  0
LINE
  5
EA
330
B9
100
AcDbEntity
  8
Sichtbar (ISO)
 62
    18
420
        0
370
     5
100
AcDbLine
 10
107.5525065153116
 20
169.4414034141778
 30
0.0
 11
107.4928353256044
 21
169.4414034141778
 31
0.0
  0
LINE
  5
EB
330
B9
100
AcDbEntity
  8
Sichtbar (ISO)
 62
    18
420
        0
370
     5
100
AcDbLine
 10
107.4928353256018
 20
169.4414034141778
 30
0.0
 11
106.4485282532452
 21
169.4414034141778
 31
0.0
  0
LINE
  5
EC
330
B9
100
AcDbEntity
  8
Sichtbar (ISO)
 62
    18
420
        0
370
     5
100
AcDbLine
 10
105.5015024174652
 20
169.4414034141778
 30
0.0
 11
106.4485282532458
 21
169.4414034141778
 31
0.0
  0
LINE
  5
ED
330
B9
100
AcDbEntity
  8
Sichtbar (ISO)
 62
    18
420
        0
370
     5
100
AcDbLine
 10
104.9421376635054
 20
169.4414034141778
 30
0.0
 11
105.5015024174665
 21
169.4414034141778
 31
0.0
  0
LINE
  5
EE
330
B9
100
AcDbEntity
  8
Sichtbar (ISO)
 62
    18
420
        0
370
     5
100
AcDbLine
 10
96.92457619010809
 20
169.4414034141778
 30
0.0
 11
104.942137663507
 21
169.4414034141778
 31
0.0
  0
LINE
  5
EF
330
B9
100
AcDbEntity
  8
Sichtbar (ISO)
 62
    18
420
        0
370
     5
100
AcDbLine
 10
96.92457619010809
 20
169.4414034141778
 30
0.0
 11
96.17875651816383
 21
169.4414034141778
 31
0.0
  0
LINE
  5
F0
330
B9
100
AcDbEntity
  8
Sichtbar (ISO)
 62
    18
420
        0
370
     5
100
AcDbLine
 10
95.24648192823383
 20
169.4414034141778
 30
0.0
 11
96.17875651816383
 21
169.4414034141778
 31
0.0
  0
LINE
  5
F1
330
B9
100
AcDbEntity
  8
Sichtbar (ISO)
 62
    18
420
        0
370
     5
100
AcDbLine
 10
95.24648192823383
 20
169.4414034141778
 30
0.0
 11
94.50066225628956
 21
169.4414034141778
 31
0.0
  0
LINE
  5
F2
330
B9
100
AcDbEntity
  8
Sichtbar (ISO)
 62
    18
420
        0
370
     5
100
AcDbLine
 10
94.31420733830348
 20
169.4414034141778
 30
0.0
 11
94.50066225628956
 21
169.4414034141778
 31
0.0
  0
LINE
  5
F3
330
B9
100
AcDbEntity
  8
Sichtbar (ISO)
 62
    18
420
        0
370
     5
100
AcDbLine
 10
93.75484258434401
 20
169.4414034141778
 30
0.0
 11
94.3142073383051
 21
169.4414034141778
 31
0.0
  0
LINE
  5
F4
330
B9
100
AcDbEntity
  8
Sichtbar (ISO)
 62
    18
420
        0
370
     5
100
AcDbLine
 10
82.00818275122598
 20
172.9583807328857
 30
0.0
 11
82.00818275122598
 21
169.4414034141778
 31
0.0
  0
LINE
  5
F5
330
B9
100
AcDbEntity
  8
Sichtbar (ISO)
 62
    18
420
        0
370
     5
100
AcDbLine
 10
93.75484258434561
 20
172.9583807328857
 30
0.0
 11
93.75484258434561
 21
169.4414034141778
 31
0.0
  0
LINE
  5
F6
330
B9
100
AcDbEntity
  8
Sichtbar (ISO)
 62
    18
420
        0
370
     5
100
AcDbLine
 10
88.45020016764332
 20
170.288758053141
 30
0.0
 11
87.31282516792829
 21
170.288758053141
 31
0.0
  0
LINE
  5
F7
330
B9
100
AcDbEntity
  8
Sichtbar (ISO)
 62
    18
420
        0
370
     5
100
AcDbLine
 10
87.31282516792829
 20
170.1065312490631
 30
0.0
 11
87.31282516792829
 21
170.288758053141
 31
0.0
  0
LINE
  5
F8
330
B9
100
AcDbEntity
  8
Sichtbar (ISO)
 62
    18
420
        0
370
     5
100
AcDbLine
 10
85.27114381598135
 20
170.1065312490631
 30
0.0
 11
87.31282516792829
 21
170.1065312490631
 31
0.0
  0
SPLINE
  5
F9
330
B9
100
AcDbEntity
  8
Sichtbar (ISO)
 62
    18
420
        0
370
     5
100
AcDbSpline
210
0.0
220
0.0
230
1.0
 70
     8
 71
     3
 72
     8
 73
     4
 74
     0
 42
0.0000000001
 43
0.0000000001
 40
0.0
 40
0.0
 40
0.0
 40
0.0
 40
1.0
 40
1.0
 40
1.0
 40
1.0
 10
85.0846888979956
 20
170.288758053141
 30
0.0
 10
85.0846888979956
 20
170.1881169682381
 30
0.0
 10
85.1681676082468
 20
170.1065312490631
 30
0.0
 10
85.27114381598135
 20
170.1065312490631
 30
0.0
  0
LINE
  5
FA
330
B9
100
AcDbEntity
  8
Sichtbar (ISO)
 62
    18
420
        0
370
     5
100
AcDbLine
 10
85.0846888979956
 20
170.4436508366075
 30
0.0
 11
85.0846888979956
 21
170.288758053141
 31
0.0
  0
SPLINE
  5
FB
330
B9
100
AcDbEntity
  8
Sichtbar (ISO)
 62
    18
420
        0
370
     5
100
AcDbSpline
210
0.0
220
0.0
230
1.0
 70
     8
 71
     3
 72
     8
 73
     4
 74
     0
 42
0.0000000001
 43
0.0000000001
 40
0.0
 40
0.0
 40
0.0
 40
0.0
 40
1.0
 40
1.0
 40
1.0
 40
1.0
 10
85.27114381598135
 20
170.6258776406854
 30
0.0
 10
85.1681676082468
 20
170.6258776406854
 30
0.0
 10
85.0846888979956
 20
170.5442919215104
 30
0.0
 10
85.0846888979956
 20
170.4436508366075
 30
0.0
  0
LINE
  5
FC
330
B9
100
AcDbEntity
  8
Sichtbar (ISO)
 62
    18
420
        0
370
     5
100
AcDbLine
 10
87.32214791382777
 20
170.6258776406854
 30
0.0
 11
85.27114381598135
 21
170.6258776406854
 31
0.0
  0
LINE
  5
FD
330
B9
100
AcDbEntity
  8
Sichtbar (ISO)
 62
    18
420
        0
370
     5
100
AcDbLine
 10
87.32214791382777
 20
170.808104444764
 30
0.0
 11
87.32214791382777
 21
170.6258776406854
 31
0.0
  0
LINE
  5
FE
330
B9
100
AcDbEntity
  8
Sichtbar (ISO)
 62
    18
420
        0
370
     5
100
AcDbLine
 10
87.32214791382777
 20
170.808104444764
 30
0.0
 11
88.44087742174384
 21
170.808104444764
 31
0.0
  0
LINE
  5
FF
330
B9
100
AcDbEntity
  8
Sichtbar (ISO)
 62
    18
420
        0
370
     5
100
AcDbLine
 10
88.44087742174384
 20
170.808104444764
 30
0.0
 11
88.44087742174384
 21
170.6258776406854
 31
0.0
  0
LINE
  5
100
330
B9
100
AcDbEntity
  8
Sichtbar (ISO)
 62
    18
420
        0
370
     5
100
AcDbLine
 10
88.44087742174384
 20
170.6258776406854
 30
0.0
 11
90.49188151958992
 21
170.6258776406854
 31
0.0
  0
SPLINE
  5
101
330
B9
100
AcDbEntity
  8
Sichtbar (ISO)
 62
    18
420
        0
370
     5
100
AcDbSpline
210
0.0
220
0.0
230
1.0
 70
     8
 71
     3
 72
     8
 73
     4
 74
     0
 42
0.0000000001
 43
0.0000000001
 40
0.0
 40
0.0
 40
0.0
 40
0.0
 40
1.0
 40
1.0
 40
1.0
 40
1.0
 10
90.678336437576
 20
170.4436508366075
 30
0.0
 10
90.678336437576
 20
170.5442919215104
 30
0.0
 10
90.59485772732479
 20
170.6258776406854
 30
0.0
 10
90.49188151958992
 20
170.6258776406854
 30
0.0
  0
LINE
  5
102
330
B9
100
AcDbEntity
  8
Sichtbar (ISO)
 62
    18
420
        0
370
     5
100
AcDbLine
 10
90.678336437576
 20
170.4436508366075
 30
0.0
 11
90.678336437576
 21
170.288758053141
 31
0.0
  0
SPLINE
  5
103
330
B9
100
AcDbEntity
  8
Sichtbar (ISO)
 62
    18
420
        0
370
     5
100
AcDbSpline
210
0.0
220
0.0
230
1.0
 70
     8
 71
     3
 72
     8
 73
     4
 74
     0
 42
0.0000000001
 43
0.0000000001
 40
0.0
 40
0.0
 40
0.0
 40
0.0
 40
1.0
 40
1.0
 40
1.0
 40
1.0
 10
90.49188151958992
 20
170.1065312490631
 30
0.0
 10
90.59485772732479
 20
170.1065312490631
 30
0.0
 10
90.678336437576
 20
170.1881169682381
 30
0.0
 10
90.678336437576
 20
170.288758053141
 30
0.0
  0
LINE
  5
104
330
B9
100
AcDbEntity
  8
Sichtbar (ISO)
 62
    18
420
        0
370
     5
100
AcDbLine
 10
90.49188151958992
 20
170.1065312490631
 30
0.0
 11
88.45020016764332
 21
170.1065312490631
 31
0.0
  0
LINE
  5
105
330
B9
100
AcDbEntity
  8
Sichtbar (ISO)
 62
    18
420
        0
370
     5
100
AcDbLine
 10
88.45020016764332
 20
170.1065312490631
 30
0.0
 11
88.45020016764332
 21
170.288758053141
 31
0.0
  0
LINE
  5
106
330
B9
100
AcDbEntity
  8
Sichtbar (ISO)
 62
    18
420
        0
370
     5
100
AcDbLine
 10
88.45020016764332
 20
174.6622013510169
 30
0.0
 11
87.31282516792829
 21
174.6622013510169
 31
0.0
  0
LINE
  5
107
330
B9
100
AcDbEntity
  8
Sichtbar (ISO)
 62
    18
420
        0
370
     5
100
AcDbLine
 10
87.31282516792829
 20
174.4799745469383
 30
0.0
 11
87.31282516792829
 21
174.6622013510169
 31
0.0
  0
LINE
  5
108
330
B9
100
AcDbEntity
  8
Sichtbar (ISO)
 62
    18
420
        0
370
     5
100
AcDbLine
 10
85.27114381598135
 20
174.4799745469383
 30
0.0
 11
87.31282516792829
 21
174.4799745469383
 31
0.0
  0
SPLINE
  5
109
330
B9
100
AcDbEntity
  8
Sichtbar (ISO)
 62
    18
420
        0
370
     5
100
AcDbSpline
210
0.0
220
0.0
230
1.0
 70
     8
 71
     3
 72
     8
 73
     4
 74
     0
 42
0.0000000001
 43
0.0000000001
 40
0.0
 40
0.0
 40
0.0
 40
0.0
 40
1.0
 40
1.0
 40
1.0
 40
1.0
 10
85.0846888979956
 20
174.6622013510169
 30
0.0
 10
85.0846888979956
 20
174.5615602661139
 30
0.0
 10
85.1681676082468
 20
174.4799745469383
 30
0.0
 10
85.27114381598135
 20
174.4799745469383
 30
0.0
  0
LINE
  5
10A
330
B9
100
AcDbEntity
  8
Sichtbar (ISO)
 62
    18
420
        0
370
     5
100
AcDbLine
 10
85.0846888979956
 20
174.8170941344833
 30
0.0
 11
85.0846888979956
 21
174.6622013510169
 31
0.0
  0
SPLINE
  5
10B
330
B9
100
AcDbEntity
  8
Sichtbar (ISO)
 62
    18
420
        0
370
     5
100
AcDbSpline
210
0.0
220
0.0
230
1.0
 70
     8
 71
     3
 72
     8
 73
     4
 74
     0
 42
0.0000000001
 43
0.0000000001
 40
0.0
 40
0.0
 40
0.0
 40
0.0
 40
1.0
 40
1.0
 40
1.0
 40
1.0
 10
85.27114381598135
 20
174.9993209385612
 30
0.0
 10
85.1681676082468
 20
174.9993209385612
 30
0.0
 10
85.0846888979956
 20
174.9177352193856
 30
0.0
 10
85.0846888979956
 20
174.8170941344833
 30
0.0
  0
LINE
  5
10C
330
B9
100
AcDbEntity
  8
Sichtbar (ISO)
 62
    18
420
        0
370
     5
100
AcDbLine
 10
87.32214791382777
 20
174.9993209385612
 30
0.0
 11
85.27114381598135
 21
174.9993209385612
 31
0.0
  0
LINE
  5
10D
330
B9
100
AcDbEntity
  8
Sichtbar (ISO)
 62
    18
420
        0
370
     5
100
AcDbLine
 10
87.32214791382777
 20
175.1815477426392
 30
0.0
 11
87.32214791382777
 21
174.9993209385612
 31
0.0
  0
LINE
  5
10E
330
B9
100
AcDbEntity
  8
Sichtbar (ISO)
 62
    18
420
        0
370
     5
100
AcDbLine
 10
87.32214791382777
 20
175.1815477426392
 30
0.0
 11
88.44087742174384
 21
175.1815477426392
 31
0.0
  0
LINE
  5
10F
330
B9
100
AcDbEntity
  8
Sichtbar (ISO)
 62
    18
420
        0
370
     5
100
AcDbLine
 10
88.44087742174384
 20
175.1815477426392
 30
0.0
 11
88.44087742174384
 21
174.9993209385612
 31
0.0
  0
LINE
  5
110
330
B9
100
AcDbEntity
  8
Sichtbar (ISO)
 62
    18
420
        0
370
     5
100
AcDbLine
 10
88.44087742174384
 20
174.9993209385612
 30
0.0
 11
90.49188151958992
 21
174.9993209385612
 31
0.0
  0
SPLINE
  5
111
330
B9
100
AcDbEntity
  8
Sichtbar (ISO)
 62
    18
420
        0
370
     5
100
AcDbSpline
210
0.0
220
0.0
230
1.0
 70
     8
 71
     3
 72
     8
 73
     4
 74
     0
 42
0.0000000001
 43
0.0000000001
 40
0.0
 40
0.0
 40
0.0
 40
0.0
 40
1.0
 40
1.0
 40
1.0
 40
1.0
 10
90.678336437576
 20
174.8170941344833
 30
0.0
 10
90.678336437576
 20
174.9177352193856
 30
0.0
 10
90.59485772732479
 20
174.9993209385612
 30
0.0
 10
90.49188151958992
 20
174.9993209385612
 30
0.0
  0
LINE
  5
112
330
B9
100
AcDbEntity
  8
Sichtbar (ISO)
 62
    18
420
        0
370
     5
100
AcDbLine
 10
90.678336437576
 20
174.8170941344833
 30
0.0
 11
90.678336437576
 21
174.6622013510169
 31
0.0
  0
SPLINE
  5
113
330
B9
100
AcDbEntity
  8
Sichtbar (ISO)
 62
    18
420
        0
370
     5
100
AcDbSpline
210
0.0
220
0.0
230
1.0
 70
     8
 71
     3
 72
     8
 73
     4
 74
     0
 42
0.0000000001
 43
0.0000000001
 40
0.0
 40
0.0
 40
0.0
 40
0.0
 40
1.0
 40
1.0
 40
1.0
 40
1.0
 10
90.49188151958992
 20
174.4799745469383
 30
0.0
 10
90.59485772732479
 20
174.4799745469383
 30
0.0
 10
90.678336437576
 20
174.5615602661139
 30
0.0
 10
90.678336437576
 20
174.6622013510169
 30
0.0
  0
LINE
  5
114
330
B9
100
AcDbEntity
  8
Sichtbar (ISO)
 62
    18
420
        0
370
     5
100
AcDbLine
 10
90.49188151958992
 20
174.4799745469383
 30
0.0
 11
88.45020016764332
 21
174.4799745469383
 31
0.0
  0
LINE
  5
115
330
B9
100
AcDbEntity
  8
Sichtbar (ISO)
 62
    18
420
        0
370
     5
100
AcDbLine
 10
88.45020016764332
 20
174.4799745469383
 30
0.0
 11
88.45020016764332
 21
174.6622013510169
 31
0.0
  0
LINE
  5
116
330
B9
100
AcDbEntity
  8
Sichtbar (ISO)
 62
    18
420
        0
370
     5
100
AcDbLine
 10
88.45020016764332
 20
173.5688405265479
 30
0.0
 11
87.31282516792829
 21
173.5688405265479
 31
0.0
  0
LINE
  5
117
330
B9
100
AcDbEntity
  8
Sichtbar (ISO)
 62
    18
420
        0
370
     5
100
AcDbLine
 10
87.31282516792829
 20
173.3866137224693
 30
0.0
 11
87.31282516792829
 21
173.5688405265479
 31
0.0
  0
LINE
  5
118
330
B9
100
AcDbEntity
  8
Sichtbar (ISO)
 62
    18
420
        0
370
     5
100
AcDbLine
 10
85.27114381598135
 20
173.3866137224693
 30
0.0
 11
87.31282516792829
 21
173.3866137224693
 31
0.0
  0
SPLINE
  5
119
330
B9
100
AcDbEntity
  8
Sichtbar (ISO)
 62
    18
420
        0
370
     5
100
AcDbSpline
210
0.0
220
0.0
230
1.0
 70
     8
 71
     3
 72
     8
 73
     4
 74
     0
 42
0.0000000001
 43
0.0000000001
 40
0.0
 40
0.0
 40
0.0
 40
0.0
 40
1.0
 40
1.0
 40
1.0
 40
1.0
 10
85.0846888979956
 20
173.5688405265479
 30
0.0
 10
85.0846888979956
 20
173.4681994416449
 30
0.0
 10
85.1681676082468
 20
173.3866137224693
 30
0.0
 10
85.27114381598135
 20
173.3866137224693
 30
0.0
  0
LINE
  5
11A
330
B9
100
AcDbEntity
  8
Sichtbar (ISO)
 62
    18
420
        0
370
     5
100
AcDbLine
 10
85.0846888979956
 20
173.7237333100143
 30
0.0
 11
85.0846888979956
 21
173.5688405265479
 31
0.0
  0
SPLINE
  5
11B
330
B9
100
AcDbEntity
  8
Sichtbar (ISO)
 62
    18
420
        0
370
     5
100
AcDbSpline
210
0.0
220
0.0
230
1.0
 70
     8
 71
     3
 72
     8
 73
     4
 74
     0
 42
0.0000000001
 43
0.0000000001
 40
0.0
 40
0.0
 40
0.0
 40
0.0
 40
1.0
 40
1.0
 40
1.0
 40
1.0
 10
85.27114381598135
 20
173.9059601140923
 30
0.0
 10
85.1681676082468
 20
173.9059601140923
 30
0.0
 10
85.0846888979956
 20
173.8243743949166
 30
0.0
 10
85.0846888979956
 20
173.7237333100143
 30
0.0
  0
LINE
  5
11C
330
B9
100
AcDbEntity
  8
Sichtbar (ISO)
 62
    18
420
        0
370
     5
100
AcDbLine
 10
87.32214791382777
 20
173.9059601140923
 30
0.0
 11
85.27114381598135
 21
173.9059601140923
 31
0.0
  0
LINE
  5
11D
330
B9
100
AcDbEntity
  8
Sichtbar (ISO)
 62
    18
420
        0
370
     5
100
AcDbLine
 10
87.32214791382777
 20
174.0881869181702
 30
0.0
 11
87.32214791382777
 21
173.9059601140923
 31
0.0
  0
LINE
  5
11E
330
B9
100
AcDbEntity
  8
Sichtbar (ISO)
 62
    18
420
        0
370
     5
100
AcDbLine
 10
87.32214791382777
 20
174.0881869181702
 30
0.0
 11
88.44087742174384
 21
174.0881869181702
 31
0.0
  0
LINE
  5
11F
330
B9
100
AcDbEntity
  8
Sichtbar (ISO)
 62
    18
420
        0
370
     5
100
AcDbLine
 10
88.44087742174384
 20
174.0881869181702
 30
0.0
 11
88.44087742174384
 21
173.9059601140923
 31
0.0
  0
LINE
  5
120
330
B9
100
AcDbEntity
  8
Sichtbar (ISO)
 62
    18
420
        0
370
     5
100
AcDbLine
 10
88.44087742174384
 20
173.9059601140923
 30
0.0
 11
90.49188151958992
 21
173.9059601140923
 31
0.0
  0
SPLINE
  5
121
330
B9
100
AcDbEntity
  8
Sichtbar (ISO)
 62
    18
420
        0
370
     5
100
AcDbSpline
210
0.0
220
0.0
230
1.0
 70
     8
 71
     3
 72
     8
 73
     4
 74
     0
 42
0.0000000001
 43
0.0000000001
 40
0.0
 40
0.0
 40
0.0
 40
0.0
 40
1.0
 40
1.0
 40
1.0
 40
1.0
 10
90.678336437576
 20
173.7237333100143
 30
0.0
 10
90.678336437576
 20
173.8243743949166
 30
0.0
 10
90.59485772732479
 20
173.9059601140923
 30
0.0
 10
90.49188151958992
 20
173.9059601140923
 30
0.0
  0
LINE
  5
122
330
B9
100
AcDbEntity
  8
Sichtbar (ISO)
 62
    18
420
        0
370
     5
100
AcDbLine
 10
90.678336437576
 20
173.7237333100143
 30
0.0
 11
90.678336437576
 21
173.5688405265479
 31
0.0
  0
SPLINE
  5
123
330
B9
100
AcDbEntity
  8
Sichtbar (ISO)
 62
    18
420
        0
370
     5
100
AcDbSpline
210
0.0
220
0.0
230
1.0
 70
     8
 71
     3
 72
     8
 73
     4
 74
     0
 42
0.0000000001
 43
0.0000000001
 40
0.0
 40
0.0
 40
0.0
 40
0.0
 40
1.0
 40
1.0
 40
1.0
 40
1.0
 10
90.49188151958992
 20
173.3866137224693
 30
0.0
 10
90.59485772732479
 20
173.3866137224693
 30
0.0
 10
90.678336437576
 20
173.4681994416449
 30
0.0
 10
90.678336437576
 20
173.5688405265479
 30
0.0
  0
LINE
  5
124
330
B9
100
AcDbEntity
  8
Sichtbar (ISO)
 62
    18
420
        0
370
     5
100
AcDbLine
 10
90.49188151958992
 20
173.3866137224693
 30
0.0
 11
88.45020016764332
 21
173.3866137224693
 31
0.0
  0
LINE
  5
125
330
B9
100
AcDbEntity
  8
Sichtbar (ISO)
 62
    18
420
        0
370
     5
100
AcDbLine
 10
88.45020016764332
 20
173.3866137224693
 30
0.0
 11
88.45020016764332
 21
173.5688405265479
 31
0.0
  0
LINE
  5
126
330
B9
100
AcDbEntity
  8
Sichtbar (ISO)
 62
    18
420
        0
370
     5
100
AcDbLine
 10
88.45020016764332
 20
172.475479702079
 30
0.0
 11
87.31282516792829
 21
172.475479702079
 31
0.0
  0
LINE
  5
127
330
B9
100
AcDbEntity
  8
Sichtbar (ISO)
 62
    18
420
        0
370
     5
100
AcDbLine
 10
87.31282516792829
 20
172.2932528980004
 30
0.0
 11
87.31282516792829
 21
172.475479702079
 31
0.0
  0
LINE
  5
128
330
B9
100
AcDbEntity
  8
Sichtbar (ISO)
 62
    18
420
        0
370
     5
100
AcDbLine
 10
85.27114381598135
 20
172.2932528980004
 30
0.0
 11
87.31282516792829
 21
172.2932528980004
 31
0.0
  0
SPLINE
  5
129
330
B9
100
AcDbEntity
  8
Sichtbar (ISO)
 62
    18
420
        0
370
     5
100
AcDbSpline
210
0.0
220
0.0
230
1.0
 70
     8
 71
     3
 72
     8
 73
     4
 74
     0
 42
0.0000000001
 43
0.0000000001
 40
0.0
 40
0.0
 40
0.0
 40
0.0
 40
1.0
 40
1.0
 40
1.0
 40
1.0
 10
85.0846888979956
 20
172.475479702079
 30
0.0
 10
85.0846888979956
 20
172.374838617176
 30
0.0
 10
85.1681676082468
 20
172.2932528980004
 30
0.0
 10
85.27114381598135
 20
172.2932528980004
 30
0.0
  0
LINE
  5
12A
330
B9
100
AcDbEntity
  8
Sichtbar (ISO)
 62
    18
420
        0
370
     5
100
AcDbLine
 10
85.0846888979956
 20
172.6303724855454
 30
0.0
 11
85.0846888979956
 21
172.475479702079
 31
0.0
  0
SPLINE
  5
12B
330
B9
100
AcDbEntity
  8
Sichtbar (ISO)
 62
    18
420
        0
370
     5
100
AcDbSpline
210
0.0
220
0.0
230
1.0
 70
     8
 71
     3
 72
     8
 73
     4
 74
     0
 42
0.0000000001
 43
0.0000000001
 40
0.0
 40
0.0
 40
0.0
 40
0.0
 40
1.0
 40
1.0
 40
1.0
 40
1.0
 10
85.27114381598135
 20
172.8125992896233
 30
0.0
 10
85.1681676082468
 20
172.8125992896233
 30
0.0
 10
85.0846888979956
 20
172.7310135704483
 30
0.0
 10
85.0846888979956
 20
172.6303724855454
 30
0.0
  0
LINE
  5
12C
330
B9
100
AcDbEntity
  8
Sichtbar (ISO)
 62
    18
420
        0
370
     5
100
AcDbLine
 10
87.32214791382777
 20
172.8125992896233
 30
0.0
 11
85.27114381598135
 21
172.8125992896233
 31
0.0
  0
LINE
  5
12D
330
B9
100
AcDbEntity
  8
Sichtbar (ISO)
 62
    18
420
        0
370
     5
100
AcDbLine
 10
87.32214791382777
 20
172.9948260937012
 30
0.0
 11
87.32214791382777
 21
172.8125992896233
 31
0.0
  0
LINE
  5
12E
330
B9
100
AcDbEntity
  8
Sichtbar (ISO)
 62
    18
420
        0
370
     5
100
AcDbLine
 10
87.32214791382777
 20
172.9948260937012
 30
0.0
 11
88.44087742174384
 21
172.9948260937012
 31
0.0
  0
LINE
  5
12F
330
B9
100
AcDbEntity
  8
Sichtbar (ISO)
 62
    18
420
        0
370
     5
100
AcDbLine
 10
88.44087742174384
 20
172.9948260937012
 30
0.0
 11
88.44087742174384
 21
172.8125992896233
 31
0.0
  0
LINE
  5
130
330
B9
100
AcDbEntity
  8
Sichtbar (ISO)
 62
    18
420
        0
370
     5
100
AcDbLine
 10
88.44087742174384
 20
172.8125992896233
 30
0.0
 11
90.49188151958992
 21
172.8125992896233
 31
0.0
  0
SPLINE
  5
131
330
B9
100
AcDbEntity
  8
Sichtbar (ISO)
 62
    18
420
        0
370
     5
100
AcDbSpline
210
0.0
220
0.0
230
1.0
 70
     8
 71
     3
 72
     8
 73
     4
 74
     0
 42
0.0000000001
 43
0.0000000001
 40
0.0
 40
0.0
 40
0.0
 40
0.0
 40
1.0
 40
1.0
 40
1.0
 40
1.0
 10
90.678336437576
 20
172.6303724855454
 30
0.0
 10
90.678336437576
 20
172.7310135704483
 30
0.0
 10
90.59485772732479
 20
172.8125992896233
 30
0.0
 10
90.49188151958992
 20
172.8125992896233
 30
0.0
  0
LINE
  5
132
330
B9
100
AcDbEntity
  8
Sichtbar (ISO)
 62
    18
420
        0
370
     5
100
AcDbLine
 10
90.678336437576
 20
172.6303724855454
 30
0.0
 11
90.678336437576
 21
172.475479702079
 31
0.0
  0
SPLINE
  5
133
330
B9
100
AcDbEntity
  8
Sichtbar (ISO)
 62
    18
420
        0
370
     5
100
AcDbSpline
210
0.0
220
0.0
230
1.0
 70
     8
 71
     3
 72
     8
 73
     4
 74
     0
 42
0.0000000001
 43
0.0000000001
 40
0.0
 40
0.0
 40
0.0
 40
0.0
 40
1.0
 40
1.0
 40
1.0
 40
1.0
 10
90.49188151958992
 20
172.2932528980004
 30
0.0
 10
90.59485772732479
 20
172.2932528980004
 30
0.0
 10
90.678336437576
 20
172.374838617176
 30
0.0
 10
90.678336437576
 20
172.475479702079
 30
0.0
  0
LINE
  5
134
330
B9
100
AcDbEntity
  8
Sichtbar (ISO)
 62
    18
420
        0
370
     5
100
AcDbLine
 10
90.49188151958992
 20
172.2932528980004
 30
0.0
 11
88.45020016764332
 21
172.2932528980004
 31
0.0
  0
LINE
  5
135
330
B9
100
AcDbEntity
  8
Sichtbar (ISO)
 62
    18
420
        0
370
     5
100
AcDbLine
 10
88.45020016764332
 20
172.2932528980004
 30
0.0
 11
88.45020016764332
 21
172.475479702079
 31
0.0
  0
LINE
  5
136
330
B9
100
AcDbEntity
  8
Sichtbar (ISO)
 62
    18
420
        0
370
     5
100
AcDbLine
 10
88.45020016764332
 20
171.3821188776103
 30
0.0
 11
87.31282516792829
 21
171.3821188776103
 31
0.0
  0
LINE
  5
137
330
B9
100
AcDbEntity
  8
Sichtbar (ISO)
 62
    18
420
        0
370
     5
100
AcDbLine
 10
87.31282516792829
 20
171.1998920735321
 30
0.0
 11
87.31282516792829
 21
171.3821188776103
 31
0.0
  0
LINE
  5
138
330
B9
100
AcDbEntity
  8
Sichtbar (ISO)
 62
    18
420
        0
370
     5
100
AcDbLine
 10
85.27114381598135
 20
171.1998920735321
 30
0.0
 11
87.31282516792829
 21
171.1998920735321
 31
0.0
  0
SPLINE
  5
139
330
B9
100
AcDbEntity
  8
Sichtbar (ISO)
 62
    18
420
        0
370
     5
100
AcDbSpline
210
0.0
220
0.0
230
1.0
 70
     8
 71
     3
 72
     8
 73
     4
 74
     0
 42
0.0000000001
 43
0.0000000001
 40
0.0
 40
0.0
 40
0.0
 40
0.0
 40
1.0
 40
1.0
 40
1.0
 40
1.0
 10
85.0846888979956
 20
171.3821188776103
 30
0.0
 10
85.0846888979956
 20
171.281477792707
 30
0.0
 10
85.1681676082468
 20
171.1998920735321
 30
0.0
 10
85.27114381598135
 20
171.1998920735321
 30
0.0
  0
LINE
  5
13A
330
B9
100
AcDbEntity
  8
Sichtbar (ISO)
 62
    18
420
        0
370
     5
100
AcDbLine
 10
85.0846888979956
 20
171.5370116610764
 30
0.0
 11
85.0846888979956
 21
171.3821188776103
 31
0.0
  0
SPLINE
  5
13B
330
B9
100
AcDbEntity
  8
Sichtbar (ISO)
 62
    18
420
        0
370
     5
100
AcDbSpline
210
0.0
220
0.0
230
1.0
 70
     8
 71
     3
 72
     8
 73
     4
 74
     0
 42
0.0000000001
 43
0.0000000001
 40
0.0
 40
0.0
 40
0.0
 40
0.0
 40
1.0
 40
1.0
 40
1.0
 40
1.0
 10
85.27114381598135
 20
171.7192384651544
 30
0.0
 10
85.1681676082468
 20
171.7192384651544
 30
0.0
 10
85.0846888979956
 20
171.6376527459794
 30
0.0
 10
85.0846888979956
 20
171.5370116610764
 30
0.0
  0
LINE
  5
13C
330
B9
100
AcDbEntity
  8
Sichtbar (ISO)
 62
    18
420
        0
370
     5
100
AcDbLine
 10
87.32214791382777
 20
171.7192384651544
 30
0.0
 11
85.27114381598135
 21
171.7192384651544
 31
0.0
  0
LINE
  5
13D
330
B9
100
AcDbEntity
  8
Sichtbar (ISO)
 62
    18
420
        0
370
     5
100
AcDbLine
 10
87.32214791382777
 20
171.9014652692323
 30
0.0
 11
87.32214791382777
 21
171.7192384651544
 31
0.0
  0
LINE
  5
13E
330
B9
100
AcDbEntity
  8
Sichtbar (ISO)
 62
    18
420
        0
370
     5
100
AcDbLine
 10
87.32214791382777
 20
171.9014652692323
 30
0.0
 11
88.44087742174384
 21
171.9014652692323
 31
0.0
  0
LINE
  5
13F
330
B9
100
AcDbEntity
  8
Sichtbar (ISO)
 62
    18
420
        0
370
     5
100
AcDbLine
 10
88.44087742174384
 20
171.9014652692323
 30
0.0
 11
88.44087742174384
 21
171.7192384651544
 31
0.0
  0
LINE
  5
140
330
B9
100
AcDbEntity
  8
Sichtbar (ISO)
 62
    18
420
        0
370
     5
100
AcDbLine
 10
88.44087742174384
 20
171.7192384651544
 30
0.0
 11
90.49188151958992
 21
171.7192384651544
 31
0.0
  0
SPLINE
  5
141
330
B9
100
AcDbEntity
  8
Sichtbar (ISO)
 62
    18
420
        0
370
     5
100
AcDbSpline
210
0.0
220
0.0
230
1.0
 70
     8
 71
     3
 72
     8
 73
     4
 74
     0
 42
0.0000000001
 43
0.0000000001
 40
0.0
 40
0.0
 40
0.0
 40
0.0
 40
1.0
 40
1.0
 40
1.0
 40
1.0
 10
90.678336437576
 20
171.5370116610764
 30
0.0
 10
90.678336437576
 20
171.6376527459794
 30
0.0
 10
90.59485772732479
 20
171.7192384651544
 30
0.0
 10
90.49188151958992
 20
171.7192384651544
 30
0.0
  0
LINE
  5
142
330
B9
100
AcDbEntity
  8
Sichtbar (ISO)
 62
    18
420
        0
370
     5
100
AcDbLine
 10
90.678336437576
 20
171.5370116610764
 30
0.0
 11
90.678336437576
 21
171.3821188776103
 31
0.0
  0
SPLINE
  5
143
330
B9
100
AcDbEntity
  8
Sichtbar (ISO)
 62
    18
420
        0
370
     5
100
AcDbSpline
210
0.0
220
0.0
230
1.0
 70
     8
 71
     3
 72
     8
 73
     4
 74
     0
 42
0.0000000001
 43
0.0000000001
 40
0.0
 40
0.0
 40
0.0
 40
0.0
 40
1.0
 40
1.0
 40
1.0
 40
1.0
 10
90.49188151958992
 20
171.1998920735321
 30
0.0
 10
90.59485772732479
 20
171.1998920735321
 30
0.0
 10
90.678336437576
 20
171.281477792707
 30
0.0
 10
90.678336437576
 20
171.3821188776103
 30
0.0
  0
LINE
  5
144
330
B9
100
AcDbEntity
  8
Sichtbar (ISO)
 62
    18
420
        0
370
     5
100
AcDbLine
 10
90.49188151958992
 20
171.1998920735321
 30
0.0
 11
88.45020016764332
 21
171.1998920735321
 31
0.0
  0
LINE
  5
145
330
B9
100
AcDbEntity
  8
Sichtbar (ISO)
 62
    18
420
        0
370
     5
100
AcDbLine
 10
88.45020016764332
 20
171.1998920735321
 30
0.0
 11
88.45020016764332
 21
171.3821188776103
 31
0.0
  0
LINE
  5
146
330
B9
100
AcDbEntity
  8
Sichtbar (ISO)
 62
    18
420
        0
370
     5
100
AcDbLine
 10
105.6267770060269
 20
175.637114752835
 30
0.0
 11
105.6267770060269
 21
176.0015683609909
 31
0.0
  0
LINE
  5
147
330
B9
100
AcDbEntity
  8
Sichtbar (ISO)
 62
    18
420
        0
370
     5
100
AcDbLine
 10
105.5015024174652
 20
175.637114752835
 30
0.0
 11
105.5015024174652
 21
169.4414034141778
 31
0.0
  0
LINE
  5
148
330
B9
100
AcDbEntity
  8
Sichtbar (ISO)
 62
    18
420
        0
370
     5
100
AcDbLine
 10
106.4485282532458
 20
175.637114752835
 30
0.0
 11
106.4485282532458
 21
169.4414034141778
 31
0.0
  0
LINE
  5
149
330
B9
100
AcDbEntity
  8
Sichtbar (ISO)
 62
    18
420
        0
370
     5
100
AcDbLine
 10
106.4485282532458
 20
175.637114752835
 30
0.0
 11
106.5055871411938
 21
175.637114752835
 31
0.0
  0
LINE
  5
14A
330
B9
100
AcDbEntity
  8
Sichtbar (ISO)
 62
    18
420
        0
370
     5
100
AcDbLine
 10
106.5055871411938
 20
176.7304755773039
 30
0.0
 11
106.5055871411938
 21
175.637114752835
 31
0.0
  0
LINE
  5
14B
330
B9
100
AcDbEntity
  8
Sichtbar (ISO)
 62
    18
420
        0
370
     5
100
AcDbLine
 10
105.6972386143526
 20
176.7304755773039
 30
0.0
 11
106.5055871411938
 21
176.7304755773039
 31
0.0
  0
LINE
  5
14C
330
B9
100
AcDbEntity
  8
Sichtbar (ISO)
 62
    18
420
        0
370
     5
100
AcDbLine
 10
105.6972386143526
 20
176.7304755773039
 30
0.0
 11
105.6972386143526
 21
176.9127023813819
 31
0.0
  0
LINE
  5
14D
330
B9
100
AcDbEntity
  8
Sichtbar (ISO)
 62
    18
420
        0
370
     5
100
AcDbLine
 10
104.942137663507
 20
175.637114752835
 30
0.0
 11
104.942137663507
 21
169.4414034141778
 31
0.0
  0
LINE
  5
14E
330
B9
100
AcDbEntity
  8
Sichtbar (ISO)
 62
    18
420
        0
370
     5
100
AcDbLine
 10
101.2969440168804
 20
170.288758053141
 30
0.0
 11
101.2969440168804
 21
170.1065312490631
 31
0.0
  0
LINE
  5
14F
330
B9
100
AcDbEntity
  8
Sichtbar (ISO)
 62
    18
420
        0
370
     5
100
AcDbLine
 10
101.2969440168804
 20
170.1065312490631
 30
0.0
 11
99.25526266493314
 21
170.1065312490631
 31
0.0
  0
SPLINE
  5
150
330
B9
100
AcDbEntity
  8
Sichtbar (ISO)
 62
    18
420
        0
370
     5
100
AcDbSpline
210
0.0
220
0.0
230
1.0
 70
     8
 71
     3
 72
     8
 73
     4
 74
     0
 42
0.0000000001
 43
0.0000000001
 40
0.0
 40
0.0
 40
0.0
 40
0.0
 40
1.0
 40
1.0
 40
1.0
 40
1.0
 10
99.06880774694705
 20
170.288758053141
 30
0.0
 10
99.06880774694705
 20
170.1881169682381
 30
0.0
 10
99.15228645719858
 20
170.1065312490631
 30
0.0
 10
99.25526266493314
 20
170.1065312490631
 30
0.0
  0
LINE
  5
151
330
B9
100
AcDbEntity
  8
Sichtbar (ISO)
 62
    18
420
        0
370
     5
100
AcDbLine
 10
99.06880774694705
 20
170.288758053141
 30
0.0
 11
99.06880774694705
 21
170.4436508366075
 31
0.0
  0
SPLINE
  5
152
330
B9
100
AcDbEntity
  8
Sichtbar (ISO)
 62
    18
420
        0
370
     5
100
AcDbSpline
210
0.0
220
0.0
230
1.0
 70
     8
 71
     3
 72
     8
 73
     4
 74
     0
 42
0.0000000001
 43
0.0000000001
 40
0.0
 40
0.0
 40
0.0
 40
0.0
 40
1.0
 40
1.0
 40
1.0
 40
1.0
 10
99.25526266493314
 20
170.6258776406854
 30
0.0
 10
99.15228645719858
 20
170.6258776406854
 30
0.0
 10
99.06880774694705
 20
170.5442919215104
 30
0.0
 10
99.06880774694705
 20
170.4436508366075
 30
0.0
  0
LINE
  5
153
330
B9
100
AcDbEntity
  8
Sichtbar (ISO)
 62
    18
420
        0
370
     5
100
AcDbLine
 10
99.25526266493314
 20
170.6258776406854
 30
0.0
 11
101.3062667627795
 21
170.6258776406854
 31
0.0
  0
LINE
  5
154
330
B9
100
AcDbEntity
  8
Sichtbar (ISO)
 62
    18
420
        0
370
     5
100
AcDbLine
 10
101.3062667627795
 20
170.6258776406854
 30
0.0
 11
101.3062667627795
 21
170.808104444764
 31
0.0
  0
LINE
  5
155
330
B9
100
AcDbEntity
  8
Sichtbar (ISO)
 62
    18
420
        0
370
     5
100
AcDbLine
 10
101.3062667627795
 20
170.808104444764
 30
0.0
 11
102.4249962706953
 21
170.808104444764
 31
0.0
  0
LINE
  5
156
330
B9
100
AcDbEntity
  8
Sichtbar (ISO)
 62
    18
420
        0
370
     5
100
AcDbLine
 10
102.4249962706953
 20
170.808104444764
 30
0.0
 11
102.4249962706953
 21
170.6258776406854
 31
0.0
  0
LINE
  5
157
330
B9
100
AcDbEntity
  8
Sichtbar (ISO)
 62
    18
420
        0
370
     5
100
AcDbLine
 10
102.4249962706953
 20
170.6258776406854
 30
0.0
 11
104.476000368542
 21
170.6258776406854
 31
0.0
  0
SPLINE
  5
158
330
B9
100
AcDbEntity
  8
Sichtbar (ISO)
 62
    18
420
        0
370
     5
100
AcDbSpline
210
0.0
220
0.0
230
1.0
 70
     8
 71
     3
 72
     8
 73
     4
 74
     0
 42
0.0000000001
 43
0.0000000001
 40
0.0
 40
0.0
 40
0.0
 40
0.0
 40
1.0
 40
1.0
 40
1.0
 40
1.0
 10
104.6624552865281
 20
170.4436508366075
 30
0.0
 10
104.6624552865281
 20
170.5442919215104
 30
0.0
 10
104.5789765762765
 20
170.6258776406854
 30
0.0
 10
104.476000368542
 20
170.6258776406854
 30
0.0
  0
LINE
  5
159
330
B9
100
AcDbEntity
  8
Sichtbar (ISO)
 62
    18
420
        0
370
     5
100
AcDbLine
 10
104.6624552865281
 20
170.4436508366075
 30
0.0
 11
104.6624552865281
 21
170.288758053141
 31
0.0
  0
SPLINE
  5
15A
330
B9
100
AcDbEntity
  8
Sichtbar (ISO)
 62
    18
420
        0
370
     5
100
AcDbSpline
210
0.0
220
0.0
230
1.0
 70
     8
 71
     3
 72
     8
 73
     4
 74
     0
 42
0.0000000001
 43
0.0000000001
 40
0.0
 40
0.0
 40
0.0
 40
0.0
 40
1.0
 40
1.0
 40
1.0
 40
1.0
 10
104.476000368542
 20
170.1065312490631
 30
0.0
 10
104.5789765762765
 20
170.1065312490631
 30
0.0
 10
104.6624552865281
 20
170.1881169682381
 30
0.0
 10
104.6624552865281
 20
170.288758053141
 30
0.0
  0
LINE
  5
15B
330
B9
100
AcDbEntity
  8
Sichtbar (ISO)
 62
    18
420
        0
370
     5
100
AcDbLine
 10
104.476000368542
 20
170.1065312490631
 30
0.0
 11
102.4343190165951
 21
170.1065312490631
 31
0.0
  0
LINE
  5
15C
330
B9
100
AcDbEntity
  8
Sichtbar (ISO)
 62
    18
420
        0
370
     5
100
AcDbLine
 10
102.4343190165951
 20
170.1065312490631
 30
0.0
 11
102.4343190165951
 21
170.288758053141
 31
0.0
  0
LINE
  5
15D
330
B9
100
AcDbEntity
  8
Sichtbar (ISO)
 62
    18
420
        0
370
     5
100
AcDbLine
 10
102.4343190165951
 20
170.288758053141
 30
0.0
 11
101.2969440168804
 21
170.288758053141
 31
0.0
  0
LINE
  5
15E
330
B9
100
AcDbEntity
  8
Sichtbar (ISO)
 62
    18
420
        0
370
     5
100
AcDbLine
 10
101.2969440168804
 20
171.3821188776103
 30
0.0
 11
101.2969440168804
 21
171.1998920735321
 31
0.0
  0
LINE
  5
15F
330
B9
100
AcDbEntity
  8
Sichtbar (ISO)
 62
    18
420
        0
370
     5
100
AcDbLine
 10
101.2969440168804
 20
171.1998920735321
 30
0.0
 11
99.25526266493314
 21
171.1998920735321
 31
0.0
  0
SPLINE
  5
160
330
B9
100
AcDbEntity
  8
Sichtbar (ISO)
 62
    18
420
        0
370
     5
100
AcDbSpline
210
0.0
220
0.0
230
1.0
 70
     8
 71
     3
 72
     8
 73
     4
 74
     0
 42
0.0000000001
 43
0.0000000001
 40
0.0
 40
0.0
 40
0.0
 40
0.0
 40
1.0
 40
1.0
 40
1.0
 40
1.0
 10
99.06880774694705
 20
171.3821188776103
 30
0.0
 10
99.06880774694705
 20
171.281477792707
 30
0.0
 10
99.15228645719858
 20
171.1998920735321
 30
0.0
 10
99.25526266493314
 20
171.1998920735321
 30
0.0
  0
LINE
  5
161
330
B9
100
AcDbEntity
  8
Sichtbar (ISO)
 62
    18
420
        0
370
     5
100
AcDbLine
 10
99.06880774694705
 20
171.3821188776103
 30
0.0
 11
99.06880774694705
 21
171.5370116610764
 31
0.0
  0
SPLINE
  5
162
330
B9
100
AcDbEntity
  8
Sichtbar (ISO)
 62
    18
420
        0
370
     5
100
AcDbSpline
210
0.0
220
0.0
230
1.0
 70
     8
 71
     3
 72
     8
 73
     4
 74
     0
 42
0.0000000001
 43
0.0000000001
 40
0.0
 40
0.0
 40
0.0
 40
0.0
 40
1.0
 40
1.0
 40
1.0
 40
1.0
 10
99.25526266493314
 20
171.7192384651544
 30
0.0
 10
99.15228645719858
 20
171.7192384651544
 30
0.0
 10
99.06880774694705
 20
171.6376527459794
 30
0.0
 10
99.06880774694705
 20
171.5370116610764
 30
0.0
  0
LINE
  5
163
330
B9
100
AcDbEntity
  8
Sichtbar (ISO)
 62
    18
420
        0
370
     5
100
AcDbLine
 10
99.25526266493314
 20
171.7192384651544
 30
0.0
 11
101.3062667627795
 21
171.7192384651544
 31
0.0
  0
LINE
  5
164
330
B9
100
AcDbEntity
  8
Sichtbar (ISO)
 62
    18
420
        0
370
     5
100
AcDbLine
 10
101.3062667627795
 20
171.7192384651544
 30
0.0
 11
101.3062667627795
 21
171.9014652692323
 31
0.0
  0
LINE
  5
165
330
B9
100
AcDbEntity
  8
Sichtbar (ISO)
 62
    18
420
        0
370
     5
100
AcDbLine
 10
101.3062667627795
 20
171.9014652692323
 30
0.0
 11
102.4249962706953
 21
171.9014652692323
 31
0.0
  0
LINE
  5
166
330
B9
100
AcDbEntity
  8
Sichtbar (ISO)
 62
    18
420
        0
370
     5
100
AcDbLine
 10
102.4249962706953
 20
171.9014652692323
 30
0.0
 11
102.4249962706953
 21
171.7192384651544
 31
0.0
  0
LINE
  5
167
330
B9
100
AcDbEntity
  8
Sichtbar (ISO)
 62
    18
420
        0
370
     5
100
AcDbLine
 10
102.4249962706953
 20
171.7192384651544
 30
0.0
 11
104.476000368542
 21
171.7192384651544
 31
0.0
  0
SPLINE
  5
168
330
B9
100
AcDbEntity
  8
Sichtbar (ISO)
 62
    18
420
        0
370
     5
100
AcDbSpline
210
0.0
220
0.0
230
1.0
 70
     8
 71
     3
 72
     8
 73
     4
 74
     0
 42
0.0000000001
 43
0.0000000001
 40
0.0
 40
0.0
 40
0.0
 40
0.0
 40
1.0
 40
1.0
 40
1.0
 40
1.0
 10
104.6624552865281
 20
171.5370116610764
 30
0.0
 10
104.6624552865281
 20
171.6376527459794
 30
0.0
 10
104.5789765762765
 20
171.7192384651544
 30
0.0
 10
104.476000368542
 20
171.7192384651544
 30
0.0
  0
LINE
  5
169
330
B9
100
AcDbEntity
  8
Sichtbar (ISO)
 62
    18
420
        0
370
     5
100
AcDbLine
 10
104.6624552865281
 20
171.5370116610764
 30
0.0
 11
104.6624552865281
 21
171.3821188776103
 31
0.0
  0
SPLINE
  5
16A
330
B9
100
AcDbEntity
  8
Sichtbar (ISO)
 62
    18
420
        0
370
     5
100
AcDbSpline
210
0.0
220
0.0
230
1.0
 70
     8
 71
     3
 72
     8
 73
     4
 74
     0
 42
0.0000000001
 43
0.0000000001
 40
0.0
 40
0.0
 40
0.0
 40
0.0
 40
1.0
 40
1.0
 40
1.0
 40
1.0
 10
104.476000368542
 20
171.1998920735321
 30
0.0
 10
104.5789765762765
 20
171.1998920735321
 30
0.0
 10
104.6624552865281
 20
171.281477792707
 30
0.0
 10
104.6624552865281
 20
171.3821188776103
 30
0.0
  0
LINE
  5
16B
330
B9
100
AcDbEntity
  8
Sichtbar (ISO)
 62
    18
420
        0
370
     5
100
AcDbLine
 10
104.476000368542
 20
171.1998920735321
 30
0.0
 11
102.4343190165951
 21
171.1998920735321
 31
0.0
  0
LINE
  5
16C
330
B9
100
AcDbEntity
  8
Sichtbar (ISO)
 62
    18
420
        0
370
     5
100
AcDbLine
 10
102.4343190165951
 20
171.1998920735321
 30
0.0
 11
102.4343190165951
 21
171.3821188776103
 31
0.0
  0
LINE
  5
16D
330
B9
100
AcDbEntity
  8
Sichtbar (ISO)
 62
    18
420
        0
370
     5
100
AcDbLine
 10
102.4343190165951
 20
171.3821188776103
 30
0.0
 11
101.2969440168804
 21
171.3821188776103
 31
0.0
  0
LINE
  5
16E
330
B9
100
AcDbEntity
  8
Sichtbar (ISO)
 62
    18
420
        0
370
     5
100
AcDbLine
 10
101.2969440168804
 20
172.475479702079
 30
0.0
 11
101.2969440168804
 21
172.2932528980004
 31
0.0
  0
LINE
  5
16F
330
B9
100
AcDbEntity
  8
Sichtbar (ISO)
 62
    18
420
        0
370
     5
100
AcDbLine
 10
101.2969440168804
 20
172.2932528980004
 30
0.0
 11
99.25526266493314
 21
172.2932528980004
 31
0.0
  0
SPLINE
  5
170
330
B9
100
AcDbEntity
  8
Sichtbar (ISO)
 62
    18
420
        0
370
     5
100
AcDbSpline
210
0.0
220
0.0
230
1.0
 70
     8
 71
     3
 72
     8
 73
     4
 74
     0
 42
0.0000000001
 43
0.0000000001
 40
0.0
 40
0.0
 40
0.0
 40
0.0
 40
1.0
 40
1.0
 40
1.0
 40
1.0
 10
99.06880774694705
 20
172.475479702079
 30
0.0
 10
99.06880774694705
 20
172.374838617176
 30
0.0
 10
99.15228645719858
 20
172.2932528980004
 30
0.0
 10
99.25526266493314
 20
172.2932528980004
 30
0.0
  0
LINE
  5
171
330
B9
100
AcDbEntity
  8
Sichtbar (ISO)
 62
    18
420
        0
370
     5
100
AcDbLine
 10
99.06880774694705
 20
172.475479702079
 30
0.0
 11
99.06880774694705
 21
172.6303724855454
 31
0.0
  0
SPLINE
  5
172
330
B9
100
AcDbEntity
  8
Sichtbar (ISO)
 62
    18
420
        0
370
     5
100
AcDbSpline
210
0.0
220
0.0
230
1.0
 70
     8
 71
     3
 72
     8
 73
     4
 74
     0
 42
0.0000000001
 43
0.0000000001
 40
0.0
 40
0.0
 40
0.0
 40
0.0
 40
1.0
 40
1.0
 40
1.0
 40
1.0
 10
99.25526266493314
 20
172.8125992896233
 30
0.0
 10
99.15228645719858
 20
172.8125992896233
 30
0.0
 10
99.06880774694705
 20
172.7310135704483
 30
0.0
 10
99.06880774694705
 20
172.6303724855454
 30
0.0
  0
LINE
  5
173
330
B9
100
AcDbEntity
  8
Sichtbar (ISO)
 62
    18
420
        0
370
     5
100
AcDbLine
 10
99.25526266493314
 20
172.8125992896233
 30
0.0
 11
101.3062667627795
 21
172.8125992896233
 31
0.0
  0
LINE
  5
174
330
B9
100
AcDbEntity
  8
Sichtbar (ISO)
 62
    18
420
        0
370
     5
100
AcDbLine
 10
101.3062667627795
 20
172.8125992896233
 30
0.0
 11
101.3062667627795
 21
172.9948260937012
 31
0.0
  0
LINE
  5
175
330
B9
100
AcDbEntity
  8
Sichtbar (ISO)
 62
    18
420
        0
370
     5
100
AcDbLine
 10
101.3062667627795
 20
172.9948260937012
 30
0.0
 11
102.4249962706953
 21
172.9948260937012
 31
0.0
  0
LINE
  5
176
330
B9
100
AcDbEntity
  8
Sichtbar (ISO)
 62
    18
420
        0
370
     5
100
AcDbLine
 10
102.4249962706953
 20
172.9948260937012
 30
0.0
 11
102.4249962706953
 21
172.8125992896233
 31
0.0
  0
LINE
  5
177
330
B9
100
AcDbEntity
  8
Sichtbar (ISO)
 62
    18
420
        0
370
     5
100
AcDbLine
 10
102.4249962706953
 20
172.8125992896233
 30
0.0
 11
104.476000368542
 21
172.8125992896233
 31
0.0
  0
SPLINE
  5
178
330
B9
100
AcDbEntity
  8
Sichtbar (ISO)
 62
    18
420
        0
370
     5
100
AcDbSpline
210
0.0
220
0.0
230
1.0
 70
     8
 71
     3
 72
     8
 73
     4
 74
     0
 42
0.0000000001
 43
0.0000000001
 40
0.0
 40
0.0
 40
0.0
 40
0.0
 40
1.0
 40
1.0
 40
1.0
 40
1.0
 10
104.6624552865281
 20
172.6303724855454
 30
0.0
 10
104.6624552865281
 20
172.7310135704483
 30
0.0
 10
104.5789765762765
 20
172.8125992896233
 30
0.0
 10
104.476000368542
 20
172.8125992896233
 30
0.0
  0
LINE
  5
179
330
B9
100
AcDbEntity
  8
Sichtbar (ISO)
 62
    18
420
        0
370
     5
100
AcDbLine
 10
104.6624552865281
 20
172.6303724855454
 30
0.0
 11
104.6624552865281
 21
172.475479702079
 31
0.0
  0
SPLINE
  5
17A
330
B9
100
AcDbEntity
  8
Sichtbar (ISO)
 62
    18
420
        0
370
     5
100
AcDbSpline
210
0.0
220
0.0
230
1.0
 70
     8
 71
     3
 72
     8
 73
     4
 74
     0
 42
0.0000000001
 43
0.0000000001
 40
0.0
 40
0.0
 40
0.0
 40
0.0
 40
1.0
 40
1.0
 40
1.0
 40
1.0
 10
104.476000368542
 20
172.2932528980004
 30
0.0
 10
104.5789765762765
 20
172.2932528980004
 30
0.0
 10
104.6624552865281
 20
172.374838617176
 30
0.0
 10
104.6624552865281
 20
172.475479702079
 30
0.0
  0
LINE
  5
17B
330
B9
100
AcDbEntity
  8
Sichtbar (ISO)
 62
    18
420
        0
370
     5
100
AcDbLine
 10
104.476000368542
 20
172.2932528980004
 30
0.0
 11
102.4343190165951
 21
172.2932528980004
 31
0.0
  0
LINE
  5
17C
330
B9
100
AcDbEntity
  8
Sichtbar (ISO)
 62
    18
420
        0
370
     5
100
AcDbLine
 10
102.4343190165951
 20
172.2932528980004
 30
0.0
 11
102.4343190165951
 21
172.475479702079
 31
0.0
  0
LINE
  5
17D
330
B9
100
AcDbEntity
  8
Sichtbar (ISO)
 62
    18
420
        0
370
     5
100
AcDbLine
 10
102.4343190165951
 20
172.475479702079
 30
0.0
 11
101.2969440168804
 21
172.475479702079
 31
0.0
  0
LINE
  5
17E
330
B9
100
AcDbEntity
  8
Sichtbar (ISO)
 62
    18
420
        0
370
     5
100
AcDbLine
 10
101.2969440168804
 20
173.5688405265479
 30
0.0
 11
101.2969440168804
 21
173.3866137224693
 31
0.0
  0
LINE
  5
17F
330
B9
100
AcDbEntity
  8
Sichtbar (ISO)
 62
    18
420
        0
370
     5
100
AcDbLine
 10
101.2969440168804
 20
173.3866137224693
 30
0.0
 11
99.25526266493314
 21
173.3866137224693
 31
0.0
  0
SPLINE
  5
180
330
B9
100
AcDbEntity
  8
Sichtbar (ISO)
 62
    18
420
        0
370
     5
100
AcDbSpline
210
0.0
220
0.0
230
1.0
 70
     8
 71
     3
 72
     8
 73
     4
 74
     0
 42
0.0000000001
 43
0.0000000001
 40
0.0
 40
0.0
 40
0.0
 40
0.0
 40
1.0
 40
1.0
 40
1.0
 40
1.0
 10
99.06880774694705
 20
173.5688405265479
 30
0.0
 10
99.06880774694705
 20
173.4681994416449
 30
0.0
 10
99.15228645719858
 20
173.3866137224693
 30
0.0
 10
99.25526266493314
 20
173.3866137224693
 30
0.0
  0
LINE
  5
181
330
B9
100
AcDbEntity
  8
Sichtbar (ISO)
 62
    18
420
        0
370
     5
100
AcDbLine
 10
99.06880774694705
 20
173.5688405265479
 30
0.0
 11
99.06880774694705
 21
173.7237333100143
 31
0.0
  0
SPLINE
  5
182
330
B9
100
AcDbEntity
  8
Sichtbar (ISO)
 62
    18
420
        0
370
     5
100
AcDbSpline
210
0.0
220
0.0
230
1.0
 70
     8
 71
     3
 72
     8
 73
     4
 74
     0
 42
0.0000000001
 43
0.0000000001
 40
0.0
 40
0.0
 40
0.0
 40
0.0
 40
1.0
 40
1.0
 40
1.0
 40
1.0
 10
99.25526266493314
 20
173.9059601140923
 30
0.0
 10
99.15228645719858
 20
173.9059601140923
 30
0.0
 10
99.06880774694705
 20
173.8243743949166
 30
0.0
 10
99.06880774694705
 20
173.7237333100143
 30
0.0
  0
LINE
  5
183
330
B9
100
AcDbEntity
  8
Sichtbar (ISO)
 62
    18
420
        0
370
     5
100
AcDbLine
 10
99.25526266493314
 20
173.9059601140923
 30
0.0
 11
101.3062667627795
 21
173.9059601140923
 31
0.0
  0
LINE
  5
184
330
B9
100
AcDbEntity
  8
Sichtbar (ISO)
 62
    18
420
        0
370
     5
100
AcDbLine
 10
101.3062667627795
 20
173.9059601140923
 30
0.0
 11
101.3062667627795
 21
174.0881869181702
 31
0.0
  0
LINE
  5
185
330
B9
100
AcDbEntity
  8
Sichtbar (ISO)
 62
    18
420
        0
370
     5
100
AcDbLine
 10
101.3062667627795
 20
174.0881869181702
 30
0.0
 11
102.4249962706953
 21
174.0881869181702
 31
0.0
  0
LINE
  5
186
330
B9
100
AcDbEntity
  8
Sichtbar (ISO)
 62
    18
420
        0
370
     5
100
AcDbLine
 10
102.4249962706953
 20
174.0881869181702
 30
0.0
 11
102.4249962706953
 21
173.9059601140923
 31
0.0
  0
LINE
  5
187
330
B9
100
AcDbEntity
  8
Sichtbar (ISO)
 62
    18
420
        0
370
     5
100
AcDbLine
 10
102.4249962706953
 20
173.9059601140923
 30
0.0
 11
104.476000368542
 21
173.9059601140923
 31
0.0
  0
SPLINE
  5
188
330
B9
100
AcDbEntity
  8
Sichtbar (ISO)
 62
    18
420
        0
370
     5
100
AcDbSpline
210
0.0
220
0.0
230
1.0
 70
     8
 71
     3
 72
     8
 73
     4
 74
     0
 42
0.0000000001
 43
0.0000000001
 40
0.0
 40
0.0
 40
0.0
 40
0.0
 40
1.0
 40
1.0
 40
1.0
 40
1.0
 10
104.6624552865281
 20
173.7237333100143
 30
0.0
 10
104.6624552865281
 20
173.8243743949166
 30
0.0
 10
104.5789765762765
 20
173.9059601140923
 30
0.0
 10
104.476000368542
 20
173.9059601140923
 30
0.0
  0
LINE
  5
189
330
B9
100
AcDbEntity
  8
Sichtbar (ISO)
 62
    18
420
        0
370
     5
100
AcDbLine
 10
104.6624552865281
 20
173.7237333100143
 30
0.0
 11
104.6624552865281
 21
173.5688405265479
 31
0.0
  0
SPLINE
  5
18A
330
B9
100
AcDbEntity
  8
Sichtbar (ISO)
 62
    18
420
        0
370
     5
100
AcDbSpline
210
0.0
220
0.0
230
1.0
 70
     8
 71
     3
 72
     8
 73
     4
 74
     0
 42
0.0000000001
 43
0.0000000001
 40
0.0
 40
0.0
 40
0.0
 40
0.0
 40
1.0
 40
1.0
 40
1.0
 40
1.0
 10
104.476000368542
 20
173.3866137224693
 30
0.0
 10
104.5789765762765
 20
173.3866137224693
 30
0.0
 10
104.6624552865281
 20
173.4681994416449
 30
0.0
 10
104.6624552865281
 20
173.5688405265479
 30
0.0
  0
LINE
  5
18B
330
B9
100
AcDbEntity
  8
Sichtbar (ISO)
 62
    18
420
        0
370
     5
100
AcDbLine
 10
104.476000368542
 20
173.3866137224693
 30
0.0
 11
102.4343190165951
 21
173.3866137224693
 31
0.0
  0
LINE
  5
18C
330
B9
100
AcDbEntity
  8
Sichtbar (ISO)
 62
    18
420
        0
370
     5
100
AcDbLine
 10
102.4343190165951
 20
173.3866137224693
 30
0.0
 11
102.4343190165951
 21
173.5688405265479
 31
0.0
  0
LINE
  5
18D
330
B9
100
AcDbEntity
  8
Sichtbar (ISO)
 62
    18
420
        0
370
     5
100
AcDbLine
 10
102.4343190165951
 20
173.5688405265479
 30
0.0
 11
101.2969440168804
 21
173.5688405265479
 31
0.0
  0
LINE
  5
18E
330
B9
100
AcDbEntity
  8
Sichtbar (ISO)
 62
    18
420
        0
370
     5
100
AcDbLine
 10
101.2969440168804
 20
174.4799745469383
 30
0.0
 11
99.25526266493314
 21
174.4799745469383
 31
0.0
  0
SPLINE
  5
18F
330
B9
100
AcDbEntity
  8
Sichtbar (ISO)
 62
    18
420
        0
370
     5
100
AcDbSpline
210
0.0
220
0.0
230
1.0
 70
     8
 71
     3
 72
     8
 73
     4
 74
     0
 42
0.0000000001
 43
0.0000000001
 40
0.0
 40
0.0
 40
0.0
 40
0.0
 40
1.0
 40
1.0
 40
1.0
 40
1.0
 10
99.06880774694705
 20
174.6622013510169
 30
0.0
 10
99.06880774694705
 20
174.5615602661139
 30
0.0
 10
99.15228645719858
 20
174.4799745469383
 30
0.0
 10
99.25526266493314
 20
174.4799745469383
 30
0.0
  0
LINE
  5
190
330
B9
100
AcDbEntity
  8
Sichtbar (ISO)
 62
    18
420
        0
370
     5
100
AcDbLine
 10
99.06880774694705
 20
174.6622013510169
 30
0.0
 11
99.06880774694705
 21
174.8170941344833
 31
0.0
  0
SPLINE
  5
191
330
B9
100
AcDbEntity
  8
Sichtbar (ISO)
 62
    18
420
        0
370
     5
100
AcDbSpline
210
0.0
220
0.0
230
1.0
 70
     8
 71
     3
 72
     8
 73
     4
 74
     0
 42
0.0000000001
 43
0.0000000001
 40
0.0
 40
0.0
 40
0.0
 40
0.0
 40
1.0
 40
1.0
 40
1.0
 40
1.0
 10
99.25526266493314
 20
174.9993209385612
 30
0.0
 10
99.15228645719858
 20
174.9993209385612
 30
0.0
 10
99.06880774694705
 20
174.9177352193856
 30
0.0
 10
99.06880774694705
 20
174.8170941344833
 30
0.0
  0
LINE
  5
192
330
B9
100
AcDbEntity
  8
Sichtbar (ISO)
 62
    18
420
        0
370
     5
100
AcDbLine
 10
99.25526266493314
 20
174.9993209385612
 30
0.0
 11
101.3062667627795
 21
174.9993209385612
 31
0.0
  0
LINE
  5
193
330
B9
100
AcDbEntity
  8
Sichtbar (ISO)
 62
    18
420
        0
370
     5
100
AcDbLine
 10
101.3062667627795
 20
174.9993209385612
 30
0.0
 11
101.3062667627795
 21
175.1815477426392
 31
0.0
  0
LINE
  5
194
330
B9
100
AcDbEntity
  8
Sichtbar (ISO)
 62
    18
420
        0
370
     5
100
AcDbLine
 10
101.3062667627795
 20
175.1815477426392
 30
0.0
 11
102.4249962706953
 21
175.1815477426392
 31
0.0
  0
LINE
  5
195
330
B9
100
AcDbEntity
  8
Sichtbar (ISO)
 62
    18
420
        0
370
     5
100
AcDbLine
 10
102.4249962706953
 20
175.1815477426392
 30
0.0
 11
102.4249962706953
 21
174.9993209385612
 31
0.0
  0
LINE
  5
196
330
B9
100
AcDbEntity
  8
Sichtbar (ISO)
 62
    18
420
        0
370
     5
100
AcDbLine
 10
102.4249962706953
 20
174.9993209385612
 30
0.0
 11
104.476000368542
 21
174.9993209385612
 31
0.0
  0
SPLINE
  5
197
330
B9
100
AcDbEntity
  8
Sichtbar (ISO)
 62
    18
420
        0
370
     5
100
AcDbSpline
210
0.0
220
0.0
230
1.0
 70
     8
 71
     3
 72
     8
 73
     4
 74
     0
 42
0.0000000001
 43
0.0000000001
 40
0.0
 40
0.0
 40
0.0
 40
0.0
 40
1.0
 40
1.0
 40
1.0
 40
1.0
 10
104.6624552865281
 20
174.8170941344833
 30
0.0
 10
104.6624552865281
 20
174.9177352193856
 30
0.0
 10
104.5789765762765
 20
174.9993209385612
 30
0.0
 10
104.476000368542
 20
174.9993209385612
 30
0.0
  0
LINE
  5
198
330
B9
100
AcDbEntity
  8
Sichtbar (ISO)
 62
    18
420
        0
370
     5
100
AcDbLine
 10
104.6624552865281
 20
174.8170941344833
 30
0.0
 11
104.6624552865281
 21
174.6622013510169
 31
0.0
  0
SPLINE
  5
199
330
B9
100
AcDbEntity
  8
Sichtbar (ISO)
 62
    18
420
        0
370
     5
100
AcDbSpline
210
0.0
220
0.0
230
1.0
 70
     8
 71
     3
 72
     8
 73
     4
 74
     0
 42
0.0000000001
 43
0.0000000001
 40
0.0
 40
0.0
 40
0.0
 40
0.0
 40
1.0
 40
1.0
 40
1.0
 40
1.0
 10
104.476000368542
 20
174.4799745469383
 30
0.0
 10
104.5789765762765
 20
174.4799745469383
 30
0.0
 10
104.6624552865281
 20
174.5615602661139
 30
0.0
 10
104.6624552865281
 20
174.6622013510169
 30
0.0
  0
LINE
  5
19A
330
B9
100
AcDbEntity
  8
Sichtbar (ISO)
 62
    18
420
        0
370
     5
100
AcDbLine
 10
104.476000368542
 20
174.4799745469383
 30
0.0
 11
102.4343190165951
 21
174.4799745469383
 31
0.0
  0
LINE
  5
19B
330
B9
100
AcDbEntity
  8
Sichtbar (ISO)
 62
    18
420
        0
370
     5
100
AcDbLine
 10
102.4343190165951
 20
174.4799745469383
 30
0.0
 11
102.4343190165951
 21
174.6622013510169
 31
0.0
  0
LINE
  5
19C
330
B9
100
AcDbEntity
  8
Sichtbar (ISO)
 62
    18
420
        0
370
     5
100
AcDbLine
 10
102.4343190165951
 20
174.6622013510169
 30
0.0
 11
101.2969440168804
 21
174.6622013510169
 31
0.0
  0
LINE
  5
19D
330
B9
100
AcDbEntity
  8
Sichtbar (ISO)
 62
    18
420
        0
370
     5
100
AcDbLine
 10
101.2969440168804
 20
174.6622013510169
 30
0.0
 11
101.2969440168804
 21
174.4799745469383
 31
0.0
  0
LINE
  5
19E
330
B9
100
AcDbEntity
  8
Sichtbar (ISO)
 62
    18
420
        0
370
     5
100
AcDbLine
 10
95.24648192823383
 20
171.773906506378
 30
0.0
 11
96.17875651816383
 21
171.773906506378
 31
0.0
  0
LINE
  5
19F
330
B9
100
AcDbEntity
  8
Sichtbar (ISO)
 62
    18
420
        0
370
     5
100
AcDbLine
 10
96.17875651816383
 20
170.3160920737526
 30
0.0
 11
95.24648192823383
 21
170.3160920737526
 31
0.0
  0
LINE
  5
1A0
330
B9
100
AcDbEntity
  8
Sichtbar (ISO)
 62
    18
420
        0
370
     5
100
AcDbLine
 10
79.58426881740777
 20
170.3160920737526
 30
0.0
 11
80.51654340733778
 21
170.3160920737526
 31
0.0
  0
LINE
  5
1A1
330
B9
100
AcDbEntity
  8
Sichtbar (ISO)
 62
    18
420
        0
370
     5
100
AcDbLine
 10
80.51654340733778
 20
171.773906506378
 30
0.0
 11
79.58426881740777
 21
171.773906506378
 31
0.0
  0
LINE
  5
1A2
330
B9
100
AcDbEntity
  8
Sichtbar (ISO)
 62
    18
420
        0
370
     5
100
AcDbLine
 10
70.82088767206457
 20
175.637114752835
 30
0.0
 11
70.82088767206457
 21
169.4414034141778
 31
0.0
  0
LINE
  5
1A3
330
B9
100
AcDbEntity
  8
Sichtbar (ISO)
 62
    18
420
        0
370
     5
100
AcDbLine
 10
74.46608131869123
 20
174.4799745469383
 30
0.0
 11
76.50776267063848
 21
174.4799745469383
 31
0.0
  0
LINE
  5
1A4
330
B9
100
AcDbEntity
  8
Sichtbar (ISO)
 62
    18
420
        0
370
     5
100
AcDbLine
 10
74.46608131869123
 20
174.6622013510169
 30
0.0
 11
74.46608131869123
 21
174.4799745469383
 31
0.0
  0
LINE
  5
1A5
330
B9
100
AcDbEntity
  8
Sichtbar (ISO)
 62
    18
420
        0
370
     5
100
AcDbLine
 10
73.32870631897652
 20
174.6622013510169
 30
0.0
 11
74.46608131869123
 21
174.6622013510169
 31
0.0
  0
LINE
  5
1A6
330
B9
100
AcDbEntity
  8
Sichtbar (ISO)
 62
    18
420
        0
370
     5
100
AcDbLine
 10
73.32870631897652
 20
174.4799745469383
 30
0.0
 11
73.32870631897652
 21
174.6622013510169
 31
0.0
  0
LINE
  5
1A7
330
B9
100
AcDbEntity
  8
Sichtbar (ISO)
 62
    18
420
        0
370
     5
100
AcDbLine
 10
71.28702496702958
 20
174.4799745469383
 30
0.0
 11
73.32870631897652
 21
174.4799745469383
 31
0.0
  0
SPLINE
  5
1A8
330
B9
100
AcDbEntity
  8
Sichtbar (ISO)
 62
    18
420
        0
370
     5
100
AcDbSpline
210
0.0
220
0.0
230
1.0
 70
     8
 71
     3
 72
     8
 73
     4
 74
     0
 42
0.0000000001
 43
0.0000000001
 40
0.0
 40
0.0
 40
0.0
 40
0.0
 40
1.0
 40
1.0
 40
1.0
 40
1.0
 10
71.10057004904351
 20
174.6622013510169
 30
0.0
 10
71.10057004904351
 20
174.5615602661139
 30
0.0
 10
71.18404875929503
 20
174.4799745469383
 30
0.0
 10
71.28702496702958
 20
174.4799745469383
 30
0.0
  0
LINE
  5
1A9
330
B9
100
AcDbEntity
  8
Sichtbar (ISO)
 62
    18
420
        0
370
     5
100
AcDbLine
 10
71.10057004904351
 20
174.8170941344833
 30
0.0
 11
71.10057004904351
 21
174.6622013510169
 31
0.0
  0
SPLINE
  5
1AA
330
B9
100
AcDbEntity
  8
Sichtbar (ISO)
 62
    18
420
        0
370
     5
100
AcDbSpline
210
0.0
220
0.0
230
1.0
 70
     8
 71
     3
 72
     8
 73
     4
 74
     0
 42
0.0000000001
 43
0.0000000001
 40
0.0
 40
0.0
 40
0.0
 40
0.0
 40
1.0
 40
1.0
 40
1.0
 40
1.0
 10
71.28702496702958
 20
174.9993209385612
 30
0.0
 10
71.18404875929503
 20
174.9993209385612
 30
0.0
 10
71.10057004904351
 20
174.9177352193856
 30
0.0
 10
71.10057004904351
 20
174.8170941344833
 30
0.0
  0
LINE
  5
1AB
330
B9
100
AcDbEntity
  8
Sichtbar (ISO)
 62
    18
420
        0
370
     5
100
AcDbLine
 10
73.338029064876
 20
174.9993209385612
 30
0.0
 11
71.28702496702958
 21
174.9993209385612
 31
0.0
  0
LINE
  5
1AC
330
B9
100
AcDbEntity
  8
Sichtbar (ISO)
 62
    18
420
        0
370
     5
100
AcDbLine
 10
73.338029064876
 20
175.1815477426392
 30
0.0
 11
73.338029064876
 21
174.9993209385612
 31
0.0
  0
LINE
  5
1AD
330
B9
100
AcDbEntity
  8
Sichtbar (ISO)
 62
    18
420
        0
370
     5
100
AcDbLine
 10
74.45675857279207
 20
175.1815477426392
 30
0.0
 11
73.338029064876
 21
175.1815477426392
 31
0.0
  0
LINE
  5
1AE
330
B9
100
AcDbEntity
  8
Sichtbar (ISO)
 62
    18
420
        0
370
     5
100
AcDbLine
 10
74.45675857279207
 20
174.9993209385612
 30
0.0
 11
74.45675857279207
 21
175.1815477426392
 31
0.0
  0
LINE
  5
1AF
330
B9
100
AcDbEntity
  8
Sichtbar (ISO)
 62
    18
420
        0
370
     5
100
AcDbLine
 10
76.50776267063848
 20
174.9993209385612
 30
0.0
 11
74.45675857279207
 21
174.9993209385612
 31
0.0
  0
SPLINE
  5
1B0
330
B9
100
AcDbEntity
  8
Sichtbar (ISO)
 62
    18
420
        0
370
     5
100
AcDbSpline
210
0.0
220
0.0
230
1.0
 70
     8
 71
     3
 72
     8
 73
     4
 74
     0
 42
0.0000000001
 43
0.0000000001
 40
0.0
 40
0.0
 40
0.0
 40
0.0
 40
1.0
 40
1.0
 40
1.0
 40
1.0
 10
76.69421758862454
 20
174.8170941344833
 30
0.0
 10
76.69421758862454
 20
174.9177352193856
 30
0.0
 10
76.61073887837303
 20
174.9993209385612
 30
0.0
 10
76.50776267063848
 20
174.9993209385612
 30
0.0
  0
LINE
  5
1B1
330
B9
100
AcDbEntity
  8
Sichtbar (ISO)
 62
    18
420
        0
370
     5
100
AcDbLine
 10
76.69421758862454
 20
174.6622013510169
 30
0.0
 11
76.69421758862454
 21
174.8170941344833
 31
0.0
  0
SPLINE
  5
1B2
330
B9
100
AcDbEntity
  8
Sichtbar (ISO)
 62
    18
420
        0
370
     5
100
AcDbSpline
210
0.0
220
0.0
230
1.0
 70
     8
 71
     3
 72
     8
 73
     4
 74
     0
 42
0.0000000001
 43
0.0000000001
 40
0.0
 40
0.0
 40
0.0
 40
0.0
 40
1.0
 40
1.0
 40
1.0
 40
1.0
 10
76.50776267063848
 20
174.4799745469383
 30
0.0
 10
76.61073887837303
 20
174.4799745469383
 30
0.0
 10
76.69421758862454
 20
174.5615602661139
 30
0.0
 10
76.69421758862454
 20
174.6622013510169
 30
0.0
  0
LINE
  5
1B3
330
B9
100
AcDbEntity
  8
Sichtbar (ISO)
 62
    18
420
        0
370
     5
100
AcDbLine
 10
74.46608131869123
 20
173.5688405265479
 30
0.0
 11
74.46608131869123
 21
173.3866137224693
 31
0.0
  0
LINE
  5
1B4
330
B9
100
AcDbEntity
  8
Sichtbar (ISO)
 62
    18
420
        0
370
     5
100
AcDbLine
 10
73.32870631897652
 20
173.5688405265479
 30
0.0
 11
74.46608131869123
 21
173.5688405265479
 31
0.0
  0
LINE
  5
1B5
330
B9
100
AcDbEntity
  8
Sichtbar (ISO)
 62
    18
420
        0
370
     5
100
AcDbLine
 10
73.32870631897652
 20
173.3866137224693
 30
0.0
 11
73.32870631897652
 21
173.5688405265479
 31
0.0
  0
LINE
  5
1B6
330
B9
100
AcDbEntity
  8
Sichtbar (ISO)
 62
    18
420
        0
370
     5
100
AcDbLine
 10
71.28702496702958
 20
173.3866137224693
 30
0.0
 11
73.32870631897652
 21
173.3866137224693
 31
0.0
  0
SPLINE
  5
1B7
330
B9
100
AcDbEntity
  8
Sichtbar (ISO)
 62
    18
420
        0
370
     5
100
AcDbSpline
210
0.0
220
0.0
230
1.0
 70
     8
 71
     3
 72
     8
 73
     4
 74
     0
 42
0.0000000001
 43
0.0000000001
 40
0.0
 40
0.0
 40
0.0
 40
0.0
 40
1.0
 40
1.0
 40
1.0
 40
1.0
 10
71.10057004904351
 20
173.5688405265479
 30
0.0
 10
71.10057004904351
 20
173.4681994416449
 30
0.0
 10
71.18404875929503
 20
173.3866137224693
 30
0.0
 10
71.28702496702958
 20
173.3866137224693
 30
0.0
  0
LINE
  5
1B8
330
B9
100
AcDbEntity
  8
Sichtbar (ISO)
 62
    18
420
        0
370
     5
100
AcDbLine
 10
71.10057004904351
 20
173.7237333100143
 30
0.0
 11
71.10057004904351
 21
173.5688405265479
 31
0.0
  0
SPLINE
  5
1B9
330
B9
100
AcDbEntity
  8
Sichtbar (ISO)
 62
    18
420
        0
370
     5
100
AcDbSpline
210
0.0
220
0.0
230
1.0
 70
     8
 71
     3
 72
     8
 73
     4
 74
     0
 42
0.0000000001
 43
0.0000000001
 40
0.0
 40
0.0
 40
0.0
 40
0.0
 40
1.0
 40
1.0
 40
1.0
 40
1.0
 10
71.28702496702958
 20
173.9059601140923
 30
0.0
 10
71.18404875929503
 20
173.9059601140923
 30
0.0
 10
71.10057004904351
 20
173.8243743949166
 30
0.0
 10
71.10057004904351
 20
173.7237333100143
 30
0.0
  0
LINE
  5
1BA
330
B9
100
AcDbEntity
  8
Sichtbar (ISO)
 62
    18
420
        0
370
     5
100
AcDbLine
 10
73.338029064876
 20
173.9059601140923
 30
0.0
 11
71.28702496702958
 21
173.9059601140923
 31
0.0
  0
LINE
  5
1BB
330
B9
100
AcDbEntity
  8
Sichtbar (ISO)
 62
    18
420
        0
370
     5
100
AcDbLine
 10
73.338029064876
 20
174.0881869181702
 30
0.0
 11
73.338029064876
 21
173.9059601140923
 31
0.0
  0
LINE
  5
1BC
330
B9
100
AcDbEntity
  8
Sichtbar (ISO)
 62
    18
420
        0
370
     5
100
AcDbLine
 10
74.45675857279207
 20
174.0881869181702
 30
0.0
 11
73.338029064876
 21
174.0881869181702
 31
0.0
  0
LINE
  5
1BD
330
B9
100
AcDbEntity
  8
Sichtbar (ISO)
 62
    18
420
        0
370
     5
100
AcDbLine
 10
74.45675857279207
 20
173.9059601140923
 30
0.0
 11
74.45675857279207
 21
174.0881869181702
 31
0.0
  0
LINE
  5
1BE
330
B9
100
AcDbEntity
  8
Sichtbar (ISO)
 62
    18
420
        0
370
     5
100
AcDbLine
 10
76.50776267063848
 20
173.9059601140923
 30
0.0
 11
74.45675857279207
 21
173.9059601140923
 31
0.0
  0
SPLINE
  5
1BF
330
B9
100
AcDbEntity
  8
Sichtbar (ISO)
 62
    18
420
        0
370
     5
100
AcDbSpline
210
0.0
220
0.0
230
1.0
 70
     8
 71
     3
 72
     8
 73
     4
 74
     0
 42
0.0000000001
 43
0.0000000001
 40
0.0
 40
0.0
 40
0.0
 40
0.0
 40
1.0
 40
1.0
 40
1.0
 40
1.0
 10
76.69421758862454
 20
173.7237333100143
 30
0.0
 10
76.69421758862454
 20
173.8243743949166
 30
0.0
 10
76.61073887837303
 20
173.9059601140923
 30
0.0
 10
76.50776267063848
 20
173.9059601140923
 30
0.0
  0
LINE
  5
1C0
330
B9
100
AcDbEntity
  8
Sichtbar (ISO)
 62
    18
420
        0
370
     5
100
AcDbLine
 10
76.69421758862454
 20
173.5688405265479
 30
0.0
 11
76.69421758862454
 21
173.7237333100143
 31
0.0
  0
SPLINE
  5
1C1
330
B9
100
AcDbEntity
  8
Sichtbar (ISO)
 62
    18
420
        0
370
     5
100
AcDbSpline
210
0.0
220
0.0
230
1.0
 70
     8
 71
     3
 72
     8
 73
     4
 74
     0
 42
0.0000000001
 43
0.0000000001
 40
0.0
 40
0.0
 40
0.0
 40
0.0
 40
1.0
 40
1.0
 40
1.0
 40
1.0
 10
76.50776267063848
 20
173.3866137224693
 30
0.0
 10
76.61073887837303
 20
173.3866137224693
 30
0.0
 10
76.69421758862454
 20
173.4681994416449
 30
0.0
 10
76.69421758862454
 20
173.5688405265479
 30
0.0
  0
LINE
  5
1C2
330
B9
100
AcDbEntity
  8
Sichtbar (ISO)
 62
    18
420
        0
370
     5
100
AcDbLine
 10
74.46608131869123
 20
173.3866137224693
 30
0.0
 11
76.50776267063848
 21
173.3866137224693
 31
0.0
  0
LINE
  5
1C3
330
B9
100
AcDbEntity
  8
Sichtbar (ISO)
 62
    18
420
        0
370
     5
100
AcDbLine
 10
74.46608131869123
 20
172.475479702079
 30
0.0
 11
74.46608131869123
 21
172.2932528980004
 31
0.0
  0
LINE
  5
1C4
330
B9
100
AcDbEntity
  8
Sichtbar (ISO)
 62
    18
420
        0
370
     5
100
AcDbLine
 10
73.32870631897652
 20
172.475479702079
 30
0.0
 11
74.46608131869123
 21
172.475479702079
 31
0.0
  0
LINE
  5
1C5
330
B9
100
AcDbEntity
  8
Sichtbar (ISO)
 62
    18
420
        0
370
     5
100
AcDbLine
 10
73.32870631897652
 20
172.2932528980004
 30
0.0
 11
73.32870631897652
 21
172.475479702079
 31
0.0
  0
LINE
  5
1C6
330
B9
100
AcDbEntity
  8
Sichtbar (ISO)
 62
    18
420
        0
370
     5
100
AcDbLine
 10
71.28702496702958
 20
172.2932528980004
 30
0.0
 11
73.32870631897652
 21
172.2932528980004
 31
0.0
  0
SPLINE
  5
1C7
330
B9
100
AcDbEntity
  8
Sichtbar (ISO)
 62
    18
420
        0
370
     5
100
AcDbSpline
210
0.0
220
0.0
230
1.0
 70
     8
 71
     3
 72
     8
 73
     4
 74
     0
 42
0.0000000001
 43
0.0000000001
 40
0.0
 40
0.0
 40
0.0
 40
0.0
 40
1.0
 40
1.0
 40
1.0
 40
1.0
 10
71.10057004904351
 20
172.475479702079
 30
0.0
 10
71.10057004904351
 20
172.374838617176
 30
0.0
 10
71.18404875929503
 20
172.2932528980004
 30
0.0
 10
71.28702496702958
 20
172.2932528980004
 30
0.0
  0
LINE
  5
1C8
330
B9
100
AcDbEntity
  8
Sichtbar (ISO)
 62
    18
420
        0
370
     5
100
AcDbLine
 10
71.10057004904351
 20
172.6303724855454
 30
0.0
 11
71.10057004904351
 21
172.475479702079
 31
0.0
  0
SPLINE
  5
1C9
330
B9
100
AcDbEntity
  8
Sichtbar (ISO)
 62
    18
420
        0
370
     5
100
AcDbSpline
210
0.0
220
0.0
230
1.0
 70
     8
 71
     3
 72
     8
 73
     4
 74
     0
 42
0.0000000001
 43
0.0000000001
 40
0.0
 40
0.0
 40
0.0
 40
0.0
 40
1.0
 40
1.0
 40
1.0
 40
1.0
 10
71.28702496702958
 20
172.8125992896233
 30
0.0
 10
71.18404875929503
 20
172.8125992896233
 30
0.0
 10
71.10057004904351
 20
172.7310135704483
 30
0.0
 10
71.10057004904351
 20
172.6303724855454
 30
0.0
  0
LINE
  5
1CA
330
B9
100
AcDbEntity
  8
Sichtbar (ISO)
 62
    18
420
        0
370
     5
100
AcDbLine
 10
73.338029064876
 20
172.8125992896233
 30
0.0
 11
71.28702496702958
 21
172.8125992896233
 31
0.0
  0
LINE
  5
1CB
330
B9
100
AcDbEntity
  8
Sichtbar (ISO)
 62
    18
420
        0
370
     5
100
AcDbLine
 10
73.338029064876
 20
172.9948260937012
 30
0.0
 11
73.338029064876
 21
172.8125992896233
 31
0.0
  0
LINE
  5
1CC
330
B9
100
AcDbEntity
  8
Sichtbar (ISO)
 62
    18
420
        0
370
     5
100
AcDbLine
 10
74.45675857279207
 20
172.9948260937012
 30
0.0
 11
73.338029064876
 21
172.9948260937012
 31
0.0
  0
LINE
  5
1CD
330
B9
100
AcDbEntity
  8
Sichtbar (ISO)
 62
    18
420
        0
370
     5
100
AcDbLine
 10
74.45675857279207
 20
172.8125992896233
 30
0.0
 11
74.45675857279207
 21
172.9948260937012
 31
0.0
  0
LINE
  5
1CE
330
B9
100
AcDbEntity
  8
Sichtbar (ISO)
 62
    18
420
        0
370
     5
100
AcDbLine
 10
76.50776267063848
 20
172.8125992896233
 30
0.0
 11
74.45675857279207
 21
172.8125992896233
 31
0.0
  0
SPLINE
  5
1CF
330
B9
100
AcDbEntity
  8
Sichtbar (ISO)
 62
    18
420
        0
370
     5
100
AcDbSpline
210
0.0
220
0.0
230
1.0
 70
     8
 71
     3
 72
     8
 73
     4
 74
     0
 42
0.0000000001
 43
0.0000000001
 40
0.0
 40
0.0
 40
0.0
 40
0.0
 40
1.0
 40
1.0
 40
1.0
 40
1.0
 10
76.69421758862454
 20
172.6303724855454
 30
0.0
 10
76.69421758862454
 20
172.7310135704483
 30
0.0
 10
76.61073887837303
 20
172.8125992896233
 30
0.0
 10
76.50776267063848
 20
172.8125992896233
 30
0.0
  0
LINE
  5
1D0
330
B9
100
AcDbEntity
  8
Sichtbar (ISO)
 62
    18
420
        0
370
     5
100
AcDbLine
 10
76.69421758862454
 20
172.475479702079
 30
0.0
 11
76.69421758862454
 21
172.6303724855454
 31
0.0
  0
SPLINE
  5
1D1
330
B9
100
AcDbEntity
  8
Sichtbar (ISO)
 62
    18
420
        0
370
     5
100
AcDbSpline
210
0.0
220
0.0
230
1.0
 70
     8
 71
     3
 72
     8
 73
     4
 74
     0
 42
0.0000000001
 43
0.0000000001
 40
0.0
 40
0.0
 40
0.0
 40
0.0
 40
1.0
 40
1.0
 40
1.0
 40
1.0
 10
76.50776267063848
 20
172.2932528980004
 30
0.0
 10
76.61073887837303
 20
172.2932528980004
 30
0.0
 10
76.69421758862454
 20
172.374838617176
 30
0.0
 10
76.69421758862454
 20
172.475479702079
 30
0.0
  0
LINE
  5
1D2
330
B9
100
AcDbEntity
  8
Sichtbar (ISO)
 62
    18
420
        0
370
     5
100
AcDbLine
 10
74.46608131869123
 20
172.2932528980004
 30
0.0
 11
76.50776267063848
 21
172.2932528980004
 31
0.0
  0
LINE
  5
1D3
330
B9
100
AcDbEntity
  8
Sichtbar (ISO)
 62
    18
420
        0
370
     5
100
AcDbLine
 10
74.46608131869123
 20
171.3821188776103
 30
0.0
 11
74.46608131869123
 21
171.1998920735321
 31
0.0
  0
LINE
  5
1D4
330
B9
100
AcDbEntity
  8
Sichtbar (ISO)
 62
    18
420
        0
370
     5
100
AcDbLine
 10
73.32870631897652
 20
171.3821188776103
 30
0.0
 11
74.46608131869123
 21
171.3821188776103
 31
0.0
  0
LINE
  5
1D5
330
B9
100
AcDbEntity
  8
Sichtbar (ISO)
 62
    18
420
        0
370
     5
100
AcDbLine
 10
73.32870631897652
 20
171.1998920735321
 30
0.0
 11
73.32870631897652
 21
171.3821188776103
 31
0.0
  0
LINE
  5
1D6
330
B9
100
AcDbEntity
  8
Sichtbar (ISO)
 62
    18
420
        0
370
     5
100
AcDbLine
 10
71.28702496702958
 20
171.1998920735321
 30
0.0
 11
73.32870631897652
 21
171.1998920735321
 31
0.0
  0
SPLINE
  5
1D7
330
B9
100
AcDbEntity
  8
Sichtbar (ISO)
 62
    18
420
        0
370
     5
100
AcDbSpline
210
0.0
220
0.0
230
1.0
 70
     8
 71
     3
 72
     8
 73
     4
 74
     0
 42
0.0000000001
 43
0.0000000001
 40
0.0
 40
0.0
 40
0.0
 40
0.0
 40
1.0
 40
1.0
 40
1.0
 40
1.0
 10
71.10057004904351
 20
171.3821188776103
 30
0.0
 10
71.10057004904351
 20
171.281477792707
 30
0.0
 10
71.18404875929503
 20
171.1998920735321
 30
0.0
 10
71.28702496702958
 20
171.1998920735321
 30
0.0
  0
LINE
  5
1D8
330
B9
100
AcDbEntity
  8
Sichtbar (ISO)
 62
    18
420
        0
370
     5
100
AcDbLine
 10
71.10057004904351
 20
171.5370116610764
 30
0.0
 11
71.10057004904351
 21
171.3821188776103
 31
0.0
  0
SPLINE
  5
1D9
330
B9
100
AcDbEntity
  8
Sichtbar (ISO)
 62
    18
420
        0
370
     5
100
AcDbSpline
210
0.0
220
0.0
230
1.0
 70
     8
 71
     3
 72
     8
 73
     4
 74
     0
 42
0.0000000001
 43
0.0000000001
 40
0.0
 40
0.0
 40
0.0
 40
0.0
 40
1.0
 40
1.0
 40
1.0
 40
1.0
 10
71.28702496702958
 20
171.7192384651544
 30
0.0
 10
71.18404875929503
 20
171.7192384651544
 30
0.0
 10
71.10057004904351
 20
171.6376527459794
 30
0.0
 10
71.10057004904351
 20
171.5370116610764
 30
0.0
  0
LINE
  5
1DA
330
B9
100
AcDbEntity
  8
Sichtbar (ISO)
 62
    18
420
        0
370
     5
100
AcDbLine
 10
73.338029064876
 20
171.7192384651544
 30
0.0
 11
71.28702496702958
 21
171.7192384651544
 31
0.0
  0
LINE
  5
1DB
330
B9
100
AcDbEntity
  8
Sichtbar (ISO)
 62
    18
420
        0
370
     5
100
AcDbLine
 10
73.338029064876
 20
171.9014652692323
 30
0.0
 11
73.338029064876
 21
171.7192384651544
 31
0.0
  0
LINE
  5
1DC
330
B9
100
AcDbEntity
  8
Sichtbar (ISO)
 62
    18
420
        0
370
     5
100
AcDbLine
 10
74.45675857279207
 20
171.9014652692323
 30
0.0
 11
73.338029064876
 21
171.9014652692323
 31
0.0
  0
LINE
  5
1DD
330
B9
100
AcDbEntity
  8
Sichtbar (ISO)
 62
    18
420
        0
370
     5
100
AcDbLine
 10
74.45675857279207
 20
171.7192384651544
 30
0.0
 11
74.45675857279207
 21
171.9014652692323
 31
0.0
  0
LINE
  5
1DE
330
B9
100
AcDbEntity
  8
Sichtbar (ISO)
 62
    18
420
        0
370
     5
100
AcDbLine
 10
76.50776267063848
 20
171.7192384651544
 30
0.0
 11
74.45675857279207
 21
171.7192384651544
 31
0.0
  0
SPLINE
  5
1DF
330
B9
100
AcDbEntity
  8
Sichtbar (ISO)
 62
    18
420
        0
370
     5
100
AcDbSpline
210
0.0
220
0.0
230
1.0
 70
     8
 71
     3
 72
     8
 73
     4
 74
     0
 42
0.0000000001
 43
0.0000000001
 40
0.0
 40
0.0
 40
0.0
 40
0.0
 40
1.0
 40
1.0
 40
1.0
 40
1.0
 10
76.69421758862454
 20
171.5370116610764
 30
0.0
 10
76.69421758862454
 20
171.6376527459794
 30
0.0
 10
76.61073887837303
 20
171.7192384651544
 30
0.0
 10
76.50776267063848
 20
171.7192384651544
 30
0.0
  0
LINE
  5
1E0
330
B9
100
AcDbEntity
  8
Sichtbar (ISO)
 62
    18
420
        0
370
     5
100
AcDbLine
 10
76.69421758862454
 20
171.3821188776103
 30
0.0
 11
76.69421758862454
 21
171.5370116610764
 31
0.0
  0
SPLINE
  5
1E1
330
B9
100
AcDbEntity
  8
Sichtbar (ISO)
 62
    18
420
        0
370
     5
100
AcDbSpline
210
0.0
220
0.0
230
1.0
 70
     8
 71
     3
 72
     8
 73
     4
 74
     0
 42
0.0000000001
 43
0.0000000001
 40
0.0
 40
0.0
 40
0.0
 40
0.0
 40
1.0
 40
1.0
 40
1.0
 40
1.0
 10
76.50776267063848
 20
171.1998920735321
 30
0.0
 10
76.61073887837303
 20
171.1998920735321
 30
0.0
 10
76.69421758862454
 20
171.281477792707
 30
0.0
 10
76.69421758862454
 20
171.3821188776103
 30
0.0
  0
LINE
  5
1E2
330
B9
100
AcDbEntity
  8
Sichtbar (ISO)
 62
    18
420
        0
370
     5
100
AcDbLine
 10
74.46608131869123
 20
171.1998920735321
 30
0.0
 11
76.50776267063848
 21
171.1998920735321
 31
0.0
  0
LINE
  5
1E3
330
B9
100
AcDbEntity
  8
Sichtbar (ISO)
 62
    18
420
        0
370
     5
100
AcDbLine
 10
74.46608131869123
 20
170.288758053141
 30
0.0
 11
74.46608131869123
 21
170.1065312490631
 31
0.0
  0
LINE
  5
1E4
330
B9
100
AcDbEntity
  8
Sichtbar (ISO)
 62
    18
420
        0
370
     5
100
AcDbLine
 10
73.32870631897652
 20
170.288758053141
 30
0.0
 11
74.46608131869123
 21
170.288758053141
 31
0.0
  0
LINE
  5
1E5
330
B9
100
AcDbEntity
  8
Sichtbar (ISO)
 62
    18
420
        0
370
     5
100
AcDbLine
 10
73.32870631897652
 20
170.1065312490631
 30
0.0
 11
73.32870631897652
 21
170.288758053141
 31
0.0
  0
LINE
  5
1E6
330
B9
100
AcDbEntity
  8
Sichtbar (ISO)
 62
    18
420
        0
370
     5
100
AcDbLine
 10
71.28702496702958
 20
170.1065312490631
 30
0.0
 11
73.32870631897652
 21
170.1065312490631
 31
0.0
  0
SPLINE
  5
1E7
330
B9
100
AcDbEntity
  8
Sichtbar (ISO)
 62
    18
420
        0
370
     5
100
AcDbSpline
210
0.0
220
0.0
230
1.0
 70
     8
 71
     3
 72
     8
 73
     4
 74
     0
 42
0.0000000001
 43
0.0000000001
 40
0.0
 40
0.0
 40
0.0
 40
0.0
 40
1.0
 40
1.0
 40
1.0
 40
1.0
 10
71.10057004904351
 20
170.288758053141
 30
0.0
 10
71.10057004904351
 20
170.1881169682381
 30
0.0
 10
71.18404875929503
 20
170.1065312490631
 30
0.0
 10
71.28702496702958
 20
170.1065312490631
 30
0.0
  0
LINE
  5
1E8
330
B9
100
AcDbEntity
  8
Sichtbar (ISO)
 62
    18
420
        0
370
     5
100
AcDbLine
 10
71.10057004904351
 20
170.4436508366075
 30
0.0
 11
71.10057004904351
 21
170.288758053141
 31
0.0
  0
SPLINE
  5
1E9
330
B9
100
AcDbEntity
  8
Sichtbar (ISO)
 62
    18
420
        0
370
     5
100
AcDbSpline
210
0.0
220
0.0
230
1.0
 70
     8
 71
     3
 72
     8
 73
     4
 74
     0
 42
0.0000000001
 43
0.0000000001
 40
0.0
 40
0.0
 40
0.0
 40
0.0
 40
1.0
 40
1.0
 40
1.0
 40
1.0
 10
71.28702496702958
 20
170.6258776406854
 30
0.0
 10
71.18404875929503
 20
170.6258776406854
 30
0.0
 10
71.10057004904351
 20
170.5442919215104
 30
0.0
 10
71.10057004904351
 20
170.4436508366075
 30
0.0
  0
LINE
  5
1EA
330
B9
100
AcDbEntity
  8
Sichtbar (ISO)
 62
    18
420
        0
370
     5
100
AcDbLine
 10
73.338029064876
 20
170.6258776406854
 30
0.0
 11
71.28702496702958
 21
170.6258776406854
 31
0.0
  0
LINE
  5
1EB
330
B9
100
AcDbEntity
  8
Sichtbar (ISO)
 62
    18
420
        0
370
     5
100
AcDbLine
 10
73.338029064876
 20
170.808104444764
 30
0.0
 11
73.338029064876
 21
170.6258776406854
 31
0.0
  0
LINE
  5
1EC
330
B9
100
AcDbEntity
  8
Sichtbar (ISO)
 62
    18
420
        0
370
     5
100
AcDbLine
 10
74.45675857279207
 20
170.808104444764
 30
0.0
 11
73.338029064876
 21
170.808104444764
 31
0.0
  0
LINE
  5
1ED
330
B9
100
AcDbEntity
  8
Sichtbar (ISO)
 62
    18
420
        0
370
     5
100
AcDbLine
 10
74.45675857279207
 20
170.6258776406854
 30
0.0
 11
74.45675857279207
 21
170.808104444764
 31
0.0
  0
LINE
  5
1EE
330
B9
100
AcDbEntity
  8
Sichtbar (ISO)
 62
    18
420
        0
370
     5
100
AcDbLine
 10
76.50776267063848
 20
170.6258776406854
 30
0.0
 11
74.45675857279207
 21
170.6258776406854
 31
0.0
  0
SPLINE
  5
1EF
330
B9
100
AcDbEntity
  8
Sichtbar (ISO)
 62
    18
420
        0
370
     5
100
AcDbSpline
210
0.0
220
0.0
230
1.0
 70
     8
 71
     3
 72
     8
 73
     4
 74
     0
 42
0.0000000001
 43
0.0000000001
 40
0.0
 40
0.0
 40
0.0
 40
0.0
 40
1.0
 40
1.0
 40
1.0
 40
1.0
 10
76.69421758862454
 20
170.4436508366075
 30
0.0
 10
76.69421758862454
 20
170.5442919215104
 30
0.0
 10
76.61073887837303
 20
170.6258776406854
 30
0.0
 10
76.50776267063848
 20
170.6258776406854
 30
0.0
  0
LINE
  5
1F0
330
B9
100
AcDbEntity
  8
Sichtbar (ISO)
 62
    18
420
        0
370
     5
100
AcDbLine
 10
76.69421758862454
 20
170.288758053141
 30
0.0
 11
76.69421758862454
 21
170.4436508366075
 31
0.0
  0
SPLINE
  5
1F1
330
B9
100
AcDbEntity
  8
Sichtbar (ISO)
 62
    18
420
        0
370
     5
100
AcDbSpline
210
0.0
220
0.0
230
1.0
 70
     8
 71
     3
 72
     8
 73
     4
 74
     0
 42
0.0000000001
 43
0.0000000001
 40
0.0
 40
0.0
 40
0.0
 40
0.0
 40
1.0
 40
1.0
 40
1.0
 40
1.0
 10
76.50776267063848
 20
170.1065312490631
 30
0.0
 10
76.61073887837303
 20
170.1065312490631
 30
0.0
 10
76.69421758862454
 20
170.1881169682381
 30
0.0
 10
76.69421758862454
 20
170.288758053141
 30
0.0
  0
LINE
  5
1F2
330
B9
100
AcDbEntity
  8
Sichtbar (ISO)
 62
    18
420
        0
370
     5
100
AcDbLine
 10
74.46608131869123
 20
170.1065312490631
 30
0.0
 11
76.50776267063848
 21
170.1065312490631
 31
0.0
  0
LINE
  5
1F3
330
B9
100
AcDbEntity
  8
Sichtbar (ISO)
 62
    18
420
        0
370
     5
100
AcDbLine
 10
70.06578672121896
 20
176.7304755773039
 30
0.0
 11
70.06578672121896
 21
176.9127023813819
 31
0.0
  0
LINE
  5
1F4
330
B9
100
AcDbEntity
  8
Sichtbar (ISO)
 62
    18
420
        0
370
     5
100
AcDbLine
 10
70.06578672121896
 20
176.7304755773039
 30
0.0
 11
69.25743819437816
 21
176.7304755773039
 31
0.0
  0
LINE
  5
1F5
330
B9
100
AcDbEntity
  8
Sichtbar (ISO)
 62
    18
420
        0
370
     5
100
AcDbLine
 10
69.25743819437816
 20
176.7304755773039
 30
0.0
 11
69.25743819437816
 21
175.637114752835
 31
0.0
  0
LINE
  5
1F6
330
B9
100
AcDbEntity
  8
Sichtbar (ISO)
 62
    18
420
        0
370
     5
100
AcDbLine
 10
69.31449708232574
 20
175.637114752835
 30
0.0
 11
69.25743819437816
 21
175.637114752835
 31
0.0
  0
LINE
  5
1F7
330
B9
100
AcDbEntity
  8
Sichtbar (ISO)
 62
    18
420
        0
370
     5
100
AcDbLine
 10
69.31449708232574
 20
175.637114752835
 30
0.0
 11
69.31449708232574
 21
169.4414034141778
 31
0.0
  0
LINE
  5
1F8
330
B9
100
AcDbEntity
  8
Sichtbar (ISO)
 62
    18
420
        0
370
     5
100
AcDbLine
 10
70.26152291810638
 20
175.637114752835
 30
0.0
 11
70.26152291810638
 21
169.4414034141778
 31
0.0
  0
LINE
  5
1F9
330
B9
100
AcDbEntity
  8
Sichtbar (ISO)
 62
    18
420
        0
370
     5
100
AcDbLine
 10
70.13624832954433
 20
175.637114752835
 30
0.0
 11
70.13624832954433
 21
176.0015683609909
 31
0.0
  0
SPLINE
  5
1FA
330
B9
100
AcDbEntity
  8
Sichtbar (ISO)
 62
    18
420
        0
370
     5
100
AcDbSpline
210
0.0
220
0.0
230
1.0
 70
     8
 71
     3
 72
     8
 73
     4
 74
     0
 42
0.0000000001
 43
0.0000000001
 40
0.0
 40
0.0
 40
0.0
 40
0.0
 40
1.0
 40
1.0
 40
1.0
 40
1.0
 10
93.44482435089922
 20
174.7054663237091
 30
0.0
 10
93.4448243508989
 20
174.725589451228
 30
0.0
 10
93.42814611795949
 20
174.741889482995
 30
0.0
 10
93.40755608396227
 20
174.7418894829956
 30
0.0
  0
LINE
  5
1FB
330
B9
100
AcDbEntity
  8
Sichtbar (ISO)
 62
    18
420
        0
370
     5
100
AcDbLine
 10
92.96934159337443
 20
174.741889482995
 30
0.0
 11
93.40755608396227
 21
174.741889482995
 31
0.0
  0
SPLINE
  5
1FC
330
B9
100
AcDbEntity
  8
Sichtbar (ISO)
 62
    18
420
        0
370
     5
100
AcDbSpline
210
0.0
220
0.0
230
1.0
 70
     8
 71
     3
 72
     8
 73
     4
 74
     0
 42
0.0000000001
 43
0.0000000001
 40
0.0
 40
0.0
 40
0.0
 40
0.0
 40
1.0
 40
1.0
 40
1.0
 40
1.0
 10
92.93207332643682
 20
174.7783126422809
 30
0.0
 10
92.93207332643714
 20
174.7581895147623
 30
0.0
 10
92.94875155937686
 20
174.741889482995
 30
0.0
 10
92.96934159337443
 20
174.741889482995
 30
0.0
  0
LINE
  5
1FD
330
B9
100
AcDbEntity
  8
Sichtbar (ISO)
 62
    18
420
        0
370
     5
100
AcDbLine
 10
92.93207332643714
 20
175.4936694409581
 30
0.0
 11
92.93207332643714
 21
174.7783126422809
 31
0.0
  0
SPLINE
  5
1FE
330
B9
100
AcDbEntity
  8
Sichtbar (ISO)
 62
    18
420
        0
370
     5
100
AcDbSpline
210
0.0
220
0.0
230
1.0
 70
     8
 71
     3
 72
     8
 73
     4
 74
     0
 42
0.0000000001
 43
0.0000000001
 40
0.0
 40
0.0
 40
0.0
 40
0.0
 40
1.0
 40
1.0
 40
1.0
 40
1.0
 10
92.96934159337443
 20
175.5300926002453
 30
0.0
 10
92.94875155937655
 20
175.5300926002453
 30
0.0
 10
92.93207332643618
 20
175.513792568478
 30
0.0
 10
92.93207332643682
 20
175.4936694409581
 30
0.0
  0
LINE
  5
1FF
330
B9
100
AcDbEntity
  8
Sichtbar (ISO)
 62
    18
420
        0
370
     5
100
AcDbLine
 10
95.09970832927468
 20
175.5300926002447
 30
0.0
 11
92.96934159337443
 21
175.5300926002447
 31
0.0
  0
SPLINE
  5
200
330
B9
100
AcDbEntity
  8
Sichtbar (ISO)
 62
    18
420
        0
370
     5
100
AcDbSpline
210
0.0
220
0.0
230
1.0
 70
     8
 71
     3
 72
     8
 73
     4
 74
     0
 42
0.0000000001
 43
0.0000000001
 40
0.0
 40
0.0
 40
0.0
 40
0.0
 40
1.0
 40
1.0
 40
1.0
 40
1.0
 10
95.13697659621195
 20
175.4936694409581
 30
0.0
 10
95.13697659621291
 20
175.513792568478
 30
0.0
 10
95.1202983632732
 20
175.5300926002453
 30
0.0
 10
95.09970832927468
 20
175.5300926002453
 30
0.0
  0
LINE
  5
201
330
B9
100
AcDbEntity
  8
Sichtbar (ISO)
 62
    18
420
        0
370
     5
100
AcDbLine
 10
95.13697659621163
 20
174.7783126422809
 30
0.0
 11
95.13697659621163
 21
175.4936694409581
 31
0.0
  0
SPLINE
  5
202
330
B9
100
AcDbEntity
  8
Sichtbar (ISO)
 62
    18
420
        0
370
     5
100
AcDbSpline
210
0.0
220
0.0
230
1.0
 70
     8
 71
     3
 72
     8
 73
     4
 74
     0
 42
0.0000000001
 43
0.0000000001
 40
0.0
 40
0.0
 40
0.0
 40
0.0
 40
1.0
 40
1.0
 40
1.0
 40
1.0
 10
95.09970832927468
 20
174.741889482995
 30
0.0
 10
95.12029836327224
 20
174.741889482995
 30
0.0
 10
95.13697659621195
 20
174.7581895147623
 30
0.0
 10
95.13697659621195
 20
174.7783126422809
 30
0.0
  0
LINE
  5
203
330
B9
100
AcDbEntity
  8
Sichtbar (ISO)
 62
    18
420
        0
370
     5
100
AcDbLine
 10
94.66149383868684
 20
174.741889482995
 30
0.0
 11
95.09970832927468
 21
174.741889482995
 31
0.0
  0
SPLINE
  5
204
330
B9
100
AcDbEntity
  8
Sichtbar (ISO)
 62
    18
420
        0
370
     5
100
AcDbSpline
210
0.0
220
0.0
230
1.0
 70
     8
 71
     3
 72
     8
 73
     4
 74
     0
 42
0.0000000001
 43
0.0000000001
 40
0.0
 40
0.0
 40
0.0
 40
0.0
 40
1.0
 40
1.0
 40
1.0
 40
1.0
 10
94.66149383868684
 20
174.7418894829956
 30
0.0
 10
94.6409038046896
 20
174.7418894829956
 30
0.0
 10
94.62422557174987
 20
174.7255894512287
 30
0.0
 10
94.62422557174955
 20
174.7054663237091
 30
0.0
  0
LINE
  5
205
330
B9
100
AcDbEntity
  8
Sichtbar (ISO)
 62
    18
420
        0
370
     5
100
AcDbLine
 10
94.62422557175019
 20
173.9582920239292
 30
0.0
 11
94.62422557175019
 21
174.7054663237091
 31
0.0
  0
SPLINE
  5
206
330
B9
100
AcDbEntity
  8
Sichtbar (ISO)
 62
    18
420
        0
370
     5
100
AcDbSpline
210
0.0
220
0.0
230
1.0
 70
     8
 71
     3
 72
     8
 73
     4
 74
     0
 42
0.0000000001
 43
0.0000000001
 40
0.0
 40
0.0
 40
0.0
 40
0.0
 40
1.0
 40
1.0
 40
1.0
 40
1.0
 10
94.58695730481323
 20
173.9218688646426
 30
0.0
 10
94.6075473388108
 20
173.9218688646426
 30
0.0
 10
94.62422557175084
 20
173.9381688964096
 30
0.0
 10
94.62422557175084
 20
173.9582920239292
 30
0.0
  0
LINE
  5
207
330
B9
100
AcDbEntity
  8
Sichtbar (ISO)
 62
    18
420
        0
370
     5
100
AcDbLine
 10
93.48209261783585
 20
173.9218688646433
 30
0.0
 11
94.58695730481323
 21
173.9218688646433
 31
0.0
  0
SPLINE
  5
208
330
B9
100
AcDbEntity
  8
Sichtbar (ISO)
 62
    18
420
        0
370
     5
100
AcDbSpline
210
0.0
220
0.0
230
1.0
 70
     8
 71
     3
 72
     8
 73
     4
 74
     0
 42
0.0000000001
 43
0.0000000001
 40
0.0
 40
0.0
 40
0.0
 40
0.0
 40
1.0
 40
1.0
 40
1.0
 40
1.0
 10
93.44482435089826
 20
173.9582920239292
 30
0.0
 10
93.44482435089826
 20
173.9381688964096
 30
0.0
 10
93.46150258383831
 20
173.9218688646426
 30
0.0
 10
93.48209261783585
 20
173.9218688646426
 30
0.0
  0
LINE
  5
209
330
B9
100
AcDbEntity
  8
Sichtbar (ISO)
 62
    18
420
        0
370
     5
100
AcDbLine
 10
93.4448243508989
 20
174.7054663237091
 30
0.0
 11
93.4448243508989
 21
173.9582920239292
 31
0.0
  0
SPLINE
  5
20A
330
B9
100
AcDbEntity
  8
Sichtbar (ISO)
 62
    18
420
        0
370
     5
100
AcDbSpline
210
0.0
220
0.0
230
1.0
 70
     8
 71
     3
 72
     8
 73
     4
 74
     0
 42
0.0000000001
 43
0.0000000001
 40
0.0
 40
0.0
 40
0.0
 40
0.0
 40
1.0
 40
1.0
 40
1.0
 40
1.0
 10
82.35546925160933
 20
174.7418894829956
 30
0.0
 10
82.33487921761209
 20
174.741889482995
 30
0.0
 10
82.3182009846727
 20
174.725589451228
 30
0.0
 10
82.31820098467236
 20
174.7054663237091
 30
0.0
  0
LINE
  5
20B
330
B9
100
AcDbEntity
  8
Sichtbar (ISO)
 62
    18
420
        0
370
     5
100
AcDbLine
 10
82.31820098467236
 20
174.7054663237091
 30
0.0
 11
82.31820098467236
 21
173.9582920239292
 31
0.0
  0
SPLINE
  5
20C
330
B9
100
AcDbEntity
  8
Sichtbar (ISO)
 62
    18
420
        0
370
     5
100
AcDbSpline
210
0.0
220
0.0
230
1.0
 70
     8
 71
     3
 72
     8
 73
     4
 74
     0
 42
0.0000000001
 43
0.0000000001
 40
0.0
 40
0.0
 40
0.0
 40
0.0
 40
1.0
 40
1.0
 40
1.0
 40
1.0
 10
82.28093271773573
 20
173.9218688646426
 30
0.0
 10
82.30152275173329
 20
173.9218688646426
 30
0.0
 10
82.31820098467334
 20
173.9381688964096
 30
0.0
 10
82.31820098467334
 20
173.9582920239292
 30
0.0
  0
LINE
  5
20D
330
B9
100
AcDbEntity
  8
Sichtbar (ISO)
 62
    18
420
        0
370
     5
100
AcDbLine
 10
82.28093271773573
 20
173.9218688646433
 30
0.0
 11
81.17606803075837
 21
173.9218688646433
 31
0.0
  0
SPLINE
  5
20E
330
B9
100
AcDbEntity
  8
Sichtbar (ISO)
 62
    18
420
        0
370
     5
100
AcDbSpline
210
0.0
220
0.0
230
1.0
 70
     8
 71
     3
 72
     8
 73
     4
 74
     0
 42
0.0000000001
 43
0.0000000001
 40
0.0
 40
0.0
 40
0.0
 40
0.0
 40
1.0
 40
1.0
 40
1.0
 40
1.0
 10
81.13879976382078
 20
173.9582920239292
 30
0.0
 10
81.13879976382078
 20
173.9381688964096
 30
0.0
 10
81.15547799676049
 20
173.9218688646426
 30
0.0
 10
81.17606803075837
 20
173.9218688646426
 30
0.0
  0
LINE
  5
20F
330
B9
100
AcDbEntity
  8
Sichtbar (ISO)
 62
    18
420
        0
370
     5
100
AcDbLine
 10
81.13879976382142
 20
173.9582920239292
 30
0.0
 11
81.13879976382142
 21
174.7054663237091
 31
0.0
  0
SPLINE
  5
210
330
B9
100
AcDbEntity
  8
Sichtbar (ISO)
 62
    18
420
        0
370
     5
100
AcDbSpline
210
0.0
220
0.0
230
1.0
 70
     8
 71
     3
 72
     8
 73
     4
 74
     0
 42
0.0000000001
 43
0.0000000001
 40
0.0
 40
0.0
 40
0.0
 40
0.0
 40
1.0
 40
1.0
 40
1.0
 40
1.0
 10
81.13879976382206
 20
174.7054663237091
 30
0.0
 10
81.13879976382172
 20
174.7255894512287
 30
0.0
 10
81.12212153088201
 20
174.7418894829956
 30
0.0
 10
81.10153149688477
 20
174.7418894829956
 30
0.0
  0
LINE
  5
211
330
B9
100
AcDbEntity
  8
Sichtbar (ISO)
 62
    18
420
        0
370
     5
100
AcDbLine
 10
81.10153149688477
 20
174.741889482995
 30
0.0
 11
80.66331700629692
 21
174.741889482995
 31
0.0
  0
SPLINE
  5
212
330
B9
100
AcDbEntity
  8
Sichtbar (ISO)
 62
    18
420
        0
370
     5
100
AcDbSpline
210
0.0
220
0.0
230
1.0
 70
     8
 71
     3
 72
     8
 73
     4
 74
     0
 42
0.0000000001
 43
0.0000000001
 40
0.0
 40
0.0
 40
0.0
 40
0.0
 40
1.0
 40
1.0
 40
1.0
 40
1.0
 10
80.62604873935901
 20
174.7783126422809
 30
0.0
 10
80.62604873935931
 20
174.7581895147623
 30
0.0
 10
80.64272697229936
 20
174.741889482995
 30
0.0
 10
80.66331700629692
 20
174.741889482995
 30
0.0
  0
LINE
  5
213
330
B9
100
AcDbEntity
  8
Sichtbar (ISO)
 62
    18
420
        0
370
     5
100
AcDbLine
 10
80.62604873935997
 20
174.7783126422809
 30
0.0
 11
80.62604873935997
 21
175.4936694409581
 31
0.0
  0
SPLINE
  5
214
330
B9
100
AcDbEntity
  8
Sichtbar (ISO)
 62
    18
420
        0
370
     5
100
AcDbSpline
210
0.0
220
0.0
230
1.0
 70
     8
 71
     3
 72
     8
 73
     4
 74
     0
 42
0.0000000001
 43
0.0000000001
 40
0.0
 40
0.0
 40
0.0
 40
0.0
 40
1.0
 40
1.0
 40
1.0
 40
1.0
 10
80.66331700629692
 20
175.5300926002453
 30
0.0
 10
80.64272697229872
 20
175.5300926002453
 30
0.0
 10
80.62604873935867
 20
175.513792568478
 30
0.0
 10
80.62604873935901
 20
175.4936694409581
 30
0.0
  0
LINE
  5
215
330
B9
100
AcDbEntity
  8
Sichtbar (ISO)
 62
    18
420
        0
370
     5
100
AcDbLine
 10
80.66331700629692
 20
175.5300926002447
 30
0.0
 11
82.79368374219718
 21
175.5300926002447
 31
0.0
  0
SPLINE
  5
216
330
B9
100
AcDbEntity
  8
Sichtbar (ISO)
 62
    18
420
        0
370
     5
100
AcDbSpline
210
0.0
220
0.0
230
1.0
 70
     8
 71
     3
 72
     8
 73
     4
 74
     0
 42
0.0000000001
 43
0.0000000001
 40
0.0
 40
0.0
 40
0.0
 40
0.0
 40
1.0
 40
1.0
 40
1.0
 40
1.0
 10
82.83095200913477
 20
175.4936694409581
 30
0.0
 10
82.83095200913511
 20
175.513792568478
 30
0.0
 10
82.81427377619506
 20
175.5300926002453
 30
0.0
 10
82.79368374219718
 20
175.5300926002453
 30
0.0
  0
LINE
  5
217
330
B9
100
AcDbEntity
  8
Sichtbar (ISO)
 62
    18
420
        0
370
     5
100
AcDbLine
 10
82.83095200913413
 20
175.4936694409581
 30
0.0
 11
82.83095200913413
 21
174.7783126422809
 31
0.0
  0
SPLINE
  5
218
330
B9
100
AcDbEntity
  8
Sichtbar (ISO)
 62
    18
420
        0
370
     5
100
AcDbSpline
210
0.0
220
0.0
230
1.0
 70
     8
 71
     3
 72
     8
 73
     4
 74
     0
 42
0.0000000001
 43
0.0000000001
 40
0.0
 40
0.0
 40
0.0
 40
0.0
 40
1.0
 40
1.0
 40
1.0
 40
1.0
 10
82.79368374219718
 20
174.741889482995
 30
0.0
 10
82.81427377619474
 20
174.741889482995
 30
0.0
 10
82.83095200913447
 20
174.7581895147623
 30
0.0
 10
82.83095200913477
 20
174.7783126422809
 30
0.0
  0
LINE
  5
219
330
B9
100
AcDbEntity
  8
Sichtbar (ISO)
 62
    18
420
        0
370
     5
100
AcDbLine
 10
82.79368374219718
 20
174.741889482995
 30
0.0
 11
82.35546925160933
 21
174.741889482995
 31
0.0
  0
LINE
  5
21A
330
B9
100
AcDbEntity
  8
Sichtbar (ISO)
 62
    18
420
        0
370
     5
100
AcDbLine
 10
107.5525065153116
 20
176.7304755773039
 30
0.0
 11
107.4797380950413
 21
176.7304755773039
 31
0.0
  0
LINE
  5
21B
330
B9
100
AcDbEntity
  8
Sichtbar (ISO)
 62
    18
420
        0
370
     5
100
AcDbLine
 10
107.4797380950362
 20
176.7304755773039
 30
0.0
 11
106.5055871411938
 21
176.7304755773039
 31
0.0
  0
LINE
  5
21C
330
B9
100
AcDbEntity
  8
Sichtbar (ISO)
 62
    18
420
        0
370
     5
100
AcDbLine
 10
107.4928353256044
 20
175.637114752835
 30
0.0
 11
107.4797380950413
 21
175.637114752835
 31
0.0
  0
LINE
  5
21D
330
B9
100
AcDbEntity
  8
Sichtbar (ISO)
 62
    18
420
        0
370
     5
100
AcDbLine
 10
107.5525065153116
 20
175.637114752835
 30
0.0
 11
106.5055871411938
 21
175.637114752835
 31
0.0
  0
LINE
  5
21E
330
B9
100
AcDbEntity
  8
Sichtbar (ISO)
 62
    18
420
        0
370
     5
100
AcDbLine
 10
65.78660488644207
 20
176.9127023813819
 30
0.0
 11
65.78660488644207
 21
169.4414034141778
 31
0.0
  0
LINE
  5
21F
330
B9
100
AcDbEntity
  8
Sichtbar (ISO)
 62
    18
420
        0
370
     5
100
AcDbLine
 10
68.21051882026029
 20
176.7304755773039
 30
0.0
 11
68.28328724053026
 21
176.7304755773039
 31
0.0
  0
LINE
  5
220
330
B9
100
AcDbEntity
  8
Sichtbar (ISO)
 62
    18
420
        0
370
     5
100
AcDbLine
 10
68.28328724053571
 20
176.7304755773039
 30
0.0
 11
69.25743819437784
 21
176.7304755773039
 31
0.0
  0
LINE
  5
221
330
B9
100
AcDbEntity
  8
Sichtbar (ISO)
 62
    18
420
        0
370
     5
100
AcDbLine
 10
68.27019000996687
 20
175.637114752835
 30
0.0
 11
68.28328724053026
 21
175.637114752835
 31
0.0
  0
LINE
  5
222
330
B9
100
AcDbEntity
  8
Sichtbar (ISO)
 62
    18
420
        0
370
     5
100
AcDbLine
 10
68.21051882026029
 20
175.637114752835
 30
0.0
 11
69.25743819437784
 21
175.637114752835
 31
0.0
  0
LINE
  5
223
330
B9
100
AcDbEntity
  8
Sichtbar (ISO)
 62
    18
420
        0
370
     5
100
AcDbLine
 10
95.24648192823383
 20
169.4414034141778
 30
0.0
 11
95.24648192823383
 21
172.9037126916629
 31
0.0
  0
LINE
  5
224
330
B9
100
AcDbEntity
  8
Sichtbar (ISO)
 62
    18
420
        0
370
     5
100
AcDbLine
 10
92.72934053542241
 20
176.0015683609909
 30
0.0
 11
83.03368480014921
 21
176.0015683609909
 31
0.0
  0
LINE
  5
225
330
B9
100
AcDbEntity
  8
Sichtbar (ISO)
 62
    18
420
        0
370
     5
100
AcDbLine
 10
83.03368480014921
 20
176.0015683609909
 30
0.0
 11
83.01933341668528
 21
173.3228343410422
 31
0.0
  0
LINE
  5
226
330
B9
100
AcDbEntity
  8
Sichtbar (ISO)
 62
    18
420
        0
370
     5
100
AcDbLine
 10
83.01933341668528
 20
173.3228343410422
 30
0.0
 11
79.22571036489955
 21
173.3228343410422
 31
0.0
  0
LINE
  5
227
330
B9
100
AcDbEntity
  8
Sichtbar (ISO)
 62
    18
420
        0
370
     5
100
AcDbLine
 10
79.21135898143564
 20
176.0015683609909
 30
0.0
 11
79.22571036489955
 21
173.3228343410422
 31
0.0
  0
LINE
  5
228
330
B9
100
AcDbEntity
  8
Sichtbar (ISO)
 62
    18
420
        0
370
     5
100
AcDbLine
 10
79.21135898143564
 20
176.0015683609909
 30
0.0
 11
71.28702496702958
 21
176.0015683609909
 31
0.0
  0
LINE
  5
229
330
B9
100
AcDbEntity
  8
Sichtbar (ISO)
 62
    18
420
        0
370
     5
100
AcDbLine
 10
78.8384491454635
 20
175.637114752835
 30
0.0
 11
71.28702496702958
 21
175.637114752835
 31
0.0
  0
LINE
  5
22A
330
B9
100
AcDbEntity
  8
Sichtbar (ISO)
 62
    18
420
        0
370
     5
100
AcDbLine
 10
78.8384491454635
 20
175.637114752835
 30
0.0
 11
78.8384491454635
 21
169.4414034141778
 31
0.0
  0
LINE
  5
22B
330
B9
100
AcDbEntity
  8
Sichtbar (ISO)
 62
    18
420
        0
370
     5
100
AcDbLine
 10
79.58426881740777
 20
169.4414034141778
 30
0.0
 11
79.58426881740777
 21
172.9037126916629
 31
0.0
  0
LINE
  5
22C
330
B9
100
AcDbEntity
  8
Sichtbar (ISO)
 62
    18
420
        0
370
     5
100
AcDbLine
 10
80.51654340733778
 20
172.9037126916629
 30
0.0
 11
79.58426881740777
 21
172.9037126916629
 31
0.0
  0
LINE
  5
22D
330
B9
100
AcDbEntity
  8
Sichtbar (ISO)
 62
    18
420
        0
370
     5
100
AcDbLine
 10
80.51654340733778
 20
169.4414034141778
 30
0.0
 11
80.51654340733778
 21
172.9037126916629
 31
0.0
  0
LINE
  5
22E
330
B9
100
AcDbEntity
  8
Sichtbar (ISO)
 62
    18
420
        0
370
     5
100
AcDbLine
 10
81.26236307928206
 20
172.9583807328857
 30
0.0
 11
81.26236307928206
 21
169.4414034141778
 31
0.0
  0
LINE
  5
22F
330
B9
100
AcDbEntity
  8
Sichtbar (ISO)
 62
    18
420
        0
370
     5
100
AcDbLine
 10
83.40659463612166
 20
172.9583807328857
 30
0.0
 11
81.26236307928206
 21
172.9583807328857
 31
0.0
  0
LINE
  5
230
330
B9
100
AcDbEntity
  8
Sichtbar (ISO)
 62
    18
420
        0
370
     5
100
AcDbLine
 10
83.40659463612166
 20
175.637114752835
 30
0.0
 11
83.40659463612166
 21
172.9583807328857
 31
0.0
  0
LINE
  5
231
330
B9
100
AcDbEntity
  8
Sichtbar (ISO)
 62
    18
420
        0
370
     5
100
AcDbLine
 10
83.40659463612166
 20
175.637114752835
 30
0.0
 11
92.35643069945027
 21
175.637114752835
 31
0.0
  0
LINE
  5
232
330
B9
100
AcDbEntity
  8
Sichtbar (ISO)
 62
    18
420
        0
370
     5
100
AcDbLine
 10
92.35643069945027
 20
175.637114752835
 30
0.0
 11
92.35643069945027
 21
172.9583807328857
 31
0.0
  0
LINE
  5
233
330
B9
100
AcDbEntity
  8
Sichtbar (ISO)
 62
    18
420
        0
370
     5
100
AcDbLine
 10
92.35643069945027
 20
172.9583807328857
 30
0.0
 11
94.50066225628956
 21
172.9583807328857
 31
0.0
  0
LINE
  5
234
330
B9
100
AcDbEntity
  8
Sichtbar (ISO)
 62
    18
420
        0
370
     5
100
AcDbLine
 10
94.50066225628956
 20
172.9583807328857
 30
0.0
 11
94.50066225628956
 21
169.4414034141778
 31
0.0
  0
LINE
  5
235
330
B9
100
AcDbEntity
  8
Sichtbar (ISO)
 62
    18
420
        0
370
     5
100
AcDbLine
 10
95.24648192823383
 20
172.9037126916629
 30
0.0
 11
96.17875651816383
 21
172.9037126916629
 31
0.0
  0
LINE
  5
236
330
B9
100
AcDbEntity
  8
Sichtbar (ISO)
 62
    18
420
        0
370
     5
100
AcDbLine
 10
96.17875651816383
 20
169.4414034141778
 30
0.0
 11
96.17875651816383
 21
172.9037126916629
 31
0.0
  0
LINE
  5
237
330
B9
100
AcDbEntity
  8
Sichtbar (ISO)
 62
    18
420
        0
370
     5
100
AcDbLine
 10
96.92457619010809
 20
175.637114752835
 30
0.0
 11
96.92457619010809
 21
169.4414034141778
 31
0.0
  0
LINE
  5
238
330
B9
100
AcDbEntity
  8
Sichtbar (ISO)
 62
    18
420
        0
370
     5
100
AcDbLine
 10
96.92457619010809
 20
175.637114752835
 30
0.0
 11
104.476000368542
 21
175.637114752835
 31
0.0
  0
LINE
  5
239
330
B9
100
AcDbEntity
  8
Sichtbar (ISO)
 62
    18
420
        0
370
     5
100
AcDbLine
 10
96.55166635413596
 20
176.0015683609909
 30
0.0
 11
104.476000368542
 21
176.0015683609909
 31
0.0
  0
LINE
  5
23A
330
B9
100
AcDbEntity
  8
Sichtbar (ISO)
 62
    18
420
        0
370
     5
100
AcDbLine
 10
96.55166635413596
 20
176.0015683609909
 30
0.0
 11
96.53731497067205
 21
173.3228343410422
 31
0.0
  0
LINE
  5
23B
330
B9
100
AcDbEntity
  8
Sichtbar (ISO)
 62
    18
420
        0
370
     5
100
AcDbLine
 10
92.74369191888631
 20
173.3228343410422
 30
0.0
 11
96.53731497067205
 21
173.3228343410422
 31
0.0
  0
LINE
  5
23C
330
B9
100
AcDbEntity
  8
Sichtbar (ISO)
 62
    18
420
        0
370
     5
100
AcDbLine
 10
92.72934053542241
 20
176.0015683609909
 30
0.0
 11
92.74369191888631
 21
173.3228343410422
 31
0.0
  0
LINE
  5
23D
330
B9
100
AcDbEntity
  8
Sichtbar (ISO)
 62
    18
420
        0
370
     5
100
AcDbLine
 10
105.1496953644398
 20
176.0015683609909
 30
0.0
 11
104.476000368542
 21
176.0015683609909
 31
0.0
  0
LINE
  5
23E
330
B9
100
AcDbEntity
  8
Sichtbar (ISO)
 62
    18
420
        0
370
     5
100
AcDbLine
 10
105.6267770060276
 20
176.0015683609909
 30
0.0
 11
105.1496953644398
 21
176.0015683609909
 31
0.0
  0
LINE
  5
23F
330
B9
100
AcDbEntity
  8
Sichtbar (ISO)
 62
    18
420
        0
370
     5
100
AcDbLine
 10
70.13624832954369
 20
176.0015683609909
 30
0.0
 11
70.61332997113215
 21
176.0015683609909
 31
0.0
  0
LINE
  5
240
330
B9
100
AcDbEntity
  8
Sichtbar (ISO)
 62
    18
420
        0
370
     5
100
AcDbLine
 10
70.61332997113118
 20
176.0015683609909
 30
0.0
 11
71.28702496702958
 21
176.0015683609909
 31
0.0
  0
LINE
  5
241
330
B9
100
AcDbEntity
  8
Sichtbar (ISO)
 62
    18
420
        0
370
     5
100
AcDbLine
 10
105.6267770060276
 20
175.637114752835
 30
0.0
 11
105.1496953644398
 21
175.637114752835
 31
0.0
  0
LINE
  5
242
330
B9
100
AcDbEntity
  8
Sichtbar (ISO)
 62
    18
420
        0
370
     5
100
AcDbLine
 10
105.1496953644398
 20
175.637114752835
 30
0.0
 11
104.476000368542
 21
175.637114752835
 31
0.0
  0
LINE
  5
243
330
B9
100
AcDbEntity
  8
Sichtbar (ISO)
 62
    18
420
        0
370
     5
100
AcDbLine
 10
70.61332997113118
 20
175.637114752835
 30
0.0
 11
71.28702496702958
 21
175.637114752835
 31
0.0
  0
LINE
  5
244
330
B9
100
AcDbEntity
  8
Sichtbar (ISO)
 62
    18
420
        0
370
     5
100
AcDbLine
 10
70.13624832954369
 20
175.637114752835
 30
0.0
 11
70.61332997113215
 21
175.637114752835
 31
0.0
  0
LINE
  5
245
330
B9
100
AcDbEntity
  8
Sichtbar (ISO)
 62
    18
420
        0
370
     5
100
AcDbLine
 10
98.50944299298918
 20
176.9127023813819
 30
0.0
 11
98.50944299298918
 21
176.0015683609909
 31
0.0
  0
LINE
  5
246
330
B9
100
AcDbEntity
  8
Sichtbar (ISO)
 62
    18
420
        0
370
     5
100
AcDbLine
 10
98.50944299298918
 20
175.637114752835
 30
0.0
 11
98.50944299298918
 21
173.2681662998185
 31
0.0
  0
LINE
  5
247
330
B9
100
AcDbEntity
  8
Sichtbar (ISO)
 62
    18
420
        0
370
     5
100
AcDbLine
 10
97.39071348507311
 20
176.9127023813819
 30
0.0
 11
97.39071348507311
 21
176.0015683609909
 31
0.0
  0
LINE
  5
248
330
B9
100
AcDbEntity
  8
Sichtbar (ISO)
 62
    18
420
        0
370
     5
100
AcDbLine
 10
97.39071348507311
 20
175.637114752835
 30
0.0
 11
97.39071348507311
 21
173.2681662998185
 31
0.0
  0
LINE
  5
249
330
B9
100
AcDbEntity
  8
Sichtbar (ISO)
 62
    18
420
        0
370
     5
100
AcDbLine
 10
97.39071348507311
 20
173.2681662998185
 30
0.0
 11
98.50944299298918
 21
173.2681662998185
 31
0.0
  0
LINE
  5
24A
330
B9
100
AcDbEntity
  8
Sichtbar (ISO)
 62
    18
420
        0
370
     5
100
AcDbLine
 10
78.37231185049851
 20
176.9127023813819
 30
0.0
 11
78.37231185049851
 21
176.0015683609909
 31
0.0
  0
LINE
  5
24B
330
B9
100
AcDbEntity
  8
Sichtbar (ISO)
 62
    18
420
        0
370
     5
100
AcDbLine
 10
78.37231185049851
 20
175.637114752835
 30
0.0
 11
78.37231185049851
 21
173.2681662998185
 31
0.0
  0
LINE
  5
24C
330
B9
100
AcDbEntity
  8
Sichtbar (ISO)
 62
    18
420
        0
370
     5
100
AcDbLine
 10
77.25358234258242
 20
176.9127023813819
 30
0.0
 11
77.25358234258242
 21
176.0015683609909
 31
0.0
  0
LINE
  5
24D
330
B9
100
AcDbEntity
  8
Sichtbar (ISO)
 62
    18
420
        0
370
     5
100
AcDbLine
 10
77.25358234258242
 20
175.637114752835
 30
0.0
 11
77.25358234258242
 21
173.2681662998185
 31
0.0
  0
LINE
  5
24E
330
B9
100
AcDbEntity
  8
Sichtbar (ISO)
 62
    18
420
        0
370
     5
100
AcDbLine
 10
78.37231185049851
 20
173.2681662998185
 30
0.0
 11
77.25358234258242
 21
173.2681662998185
 31
0.0
  0
LINE
  5
24F
330
B9
100
AcDbEntity
  8
Sichtbar (ISO)
 62
    18
420
        0
370
     5
100
AcDbLine
 10
110.7222401211104
 20
175.2544384641965
 30
0.0
 11
110.7222401211104
 21
176.3842446496297
 31
0.0
  0
LINE
  5
250
330
B9
100
AcDbEntity
  8
Sichtbar (ISO)
 62
    18
420
        0
370
     5
100
AcDbLine
 10
110.5544306948863
 20
175.0904343406005
 30
0.0
 11
110.5357852030874
 21
175.0904343406005
 31
0.0
  0
LINE
  5
251
330
B9
100
AcDbEntity
  8
Sichtbar (ISO)
 62
    18
420
        0
370
     5
100
AcDbLine
 10
110.5544306948863
 20
176.5482487732254
 30
0.0
 11
110.5357852030874
 21
176.5482487732254
 31
0.0
  0
SPLINE
  5
252
330
B9
100
AcDbEntity
  8
Sichtbar (ISO)
 62
    18
420
        0
370
     5
100
AcDbSpline
210
0.0
220
0.0
230
1.0
 70
     8
 71
     3
 72
     8
 73
     4
 74
     0
 42
0.0000000001
 43
0.0000000001
 40
0.0
 40
0.0
 40
0.0
 40
0.0
 40
1.0
 40
1.0
 40
1.0
 40
1.0
 10
110.7222401211104
 20
176.3842446494586
 30
0.0
 10
110.7222401211104
 20
176.4748216259067
 30
0.0
 10
110.6471092818838
 20
176.548248773208
 30
0.0
 10
110.5544306948863
 20
176.5482487732613
 30
0.0
  0
SPLINE
  5
253
330
B9
100
AcDbEntity
  8
Sichtbar (ISO)
 62
    18
420
        0
370
     5
100
AcDbSpline
210
0.0
220
0.0
230
1.0
 70
     8
 71
     3
 72
     8
 73
     4
 74
     0
 42
0.0000000001
 43
0.0000000001
 40
0.0
 40
0.0
 40
0.0
 40
0.0
 40
1.0
 40
1.0
 40
1.0
 40
1.0
 10
110.5544306948863
 20
175.0904343405646
 30
0.0
 10
110.6471092818838
 20
175.0904343406178
 30
0.0
 10
110.7222401211104
 20
175.1638614879191
 30
0.0
 10
110.7222401211104
 20
175.2544384643672
 30
0.0
  0
LINE
  5
254
330
B9
100
AcDbEntity
  8
Sichtbar (ISO)
 62
    18
420
        0
370
     5
100
AcDbLine
 10
109.9764204491295
 20
175.0986811992774
 30
0.0
 11
110.1628753671159
 21
175.0986811992774
 31
0.0
  0
ENDBLK
  5
BC
330
B9
100
AcDbEntity
  8
0
100
AcDbBlockEnd
  0
BLOCK
  5
257
330
255
100
AcDbEntity
  8
0
100
AcDbBlockBegin
  2
Block_16
 70
     0
 10
0.0
 20
0.0
 30
0.0
  3
Block_16
  1

  0
LINE
  5
259
330
255
100
AcDbEntity
  8
Sichtbar (ISO)
 62
    18
420
        0
370
     5
100
AcDbLine
 10
65.78660488644207
 20
160.7818601136844
 30
0.0
 11
65.78660488644207
 21
160.7724990025755
 31
0.0
  0
LINE
  5
25A
330
255
100
AcDbEntity
  8
Sichtbar (ISO)
 62
    18
420
        0
370
     5
100
AcDbLine
 10
65.78660488644207
 20
117.1684434579214
 30
0.0
 11
65.78660488644207
 21
117.1590823468118
 31
0.0
  0
LINE
  5
25B
330
255
100
AcDbEntity
  8
Sichtbar (ISO)
 62
    18
420
        0
370
     5
100
AcDbLine
 10
109.9764204491289
 20
160.7818601136844
 30
0.0
 11
109.9764204491289
 21
160.7724990025755
 31
0.0
  0
LINE
  5
25C
330
255
100
AcDbEntity
  8
Sichtbar (ISO)
 62
    18
420
        0
370
     5
100
AcDbLine
 10
109.9764204491289
 20
117.1684434579214
 30
0.0
 11
109.9764204491289
 21
117.1590823468118
 31
0.0
  0
LINE
  5
25D
330
255
100
AcDbEntity
  8
Sichtbar (ISO)
 62
    18
420
        0
370
     5
100
AcDbLine
 10
66.34596964039994
 20
117.346304568988
 30
0.0
 11
109.4170556951716
 21
117.346304568988
 31
0.0
  0
LINE
  5
25E
330
255
100
AcDbEntity
  8
Sichtbar (ISO)
 62
    18
420
        0
370
     5
100
AcDbLine
 10
109.4170556951716
 20
160.594637891509
 30
0.0
 11
66.34596964039994
 21
160.594637891509
 31
0.0
  0
LINE
  5
25F
330
255
100
AcDbEntity
  8
Sichtbar (ISO)
 62
    18
420
        0
370
     5
100
AcDbLine
 10
66.34596964039994
 20
160.594637891509
 30
0.0
 11
66.34596964039994
 21
117.346304568988
 31
0.0
  0
LINE
  5
260
330
255
100
AcDbEntity
  8
Sichtbar (ISO)
 62
    18
420
        0
370
     5
100
AcDbLine
 10
109.4170556951716
 20
160.594637891509
 30
0.0
 11
109.4170556951716
 21
117.346304568988
 31
0.0
  0
LINE
  5
261
330
255
100
AcDbEntity
  8
Sichtbar (ISO)
 62
    18
420
        0
370
     5
100
AcDbLine
 10
110.1628753671159
 20
116.2229712359351
 30
0.0
 11
65.56791065703892
 21
116.2229712359351
 31
0.0
  0
LINE
  5
262
330
255
100
AcDbEntity
  8
Sichtbar (ISO)
 62
    18
420
        0
370
     5
100
AcDbLine
 10
65.56897442252655
 20
161.7179712245612
 30
0.0
 11
110.1442298753163
 21
161.7179712245612
 31
0.0
  0
LINE
  5
263
330
255
100
AcDbEntity
  8
Sichtbar (ISO)
 62
    18
420
        0
370
     5
100
AcDbLine
 10
110.5357852030874
 20
116.2229712359351
 30
0.0
 11
110.5357852030874
 21
161.7179712245612
 31
0.0
  0
LINE
  5
264
330
255
100
AcDbEntity
  8
Sichtbar (ISO)
 62
    18
420
        0
370
     5
100
AcDbLine
 10
110.5357852030874
 20
116.2229712359351
 30
0.0
 11
110.1628753671159
 21
116.2229712359351
 31
0.0
  0
LINE
  5
265
330
255
100
AcDbEntity
  8
Sichtbar (ISO)
 62
    18
420
        0
370
     5
100
AcDbLine
 10
110.5357852030874
 20
161.7179712245612
 30
0.0
 11
110.1136729577643
 21
161.7179712245612
 31
0.0
  0
LINE
  5
266
330
255
100
AcDbEntity
  8
Sichtbar (ISO)
 62
    18
420
        0
370
     5
100
AcDbLine
 10
65.22724013248387
 20
116.2229712359351
 30
0.0
 11
65.22724013248387
 21
161.7179712245612
 31
0.0
  0
LINE
  5
267
330
255
100
AcDbEntity
  8
Sichtbar (ISO)
 62
    18
420
        0
370
     5
100
AcDbLine
 10
65.22724013248387
 20
161.7179712245612
 30
0.0
 11
65.60014996845599
 21
161.7179712245612
 31
0.0
  0
LINE
  5
268
330
255
100
AcDbEntity
  8
Sichtbar (ISO)
 62
    18
420
        0
370
     5
100
AcDbLine
 10
65.22724013248387
 20
116.2229712359351
 30
0.0
 11
65.60014996845599
 21
116.2229712359351
 31
0.0
  0
SPLINE
  5
269
330
255
100
AcDbEntity
  8
Sichtbar (ISO)
 62
    18
420
        0
370
     5
100
AcDbSpline
210
0.0
220
0.0
230
1.0
 70
     8
 71
     3
 72
     8
 73
     4
 74
     0
 42
0.0000000001
 43
0.0000000001
 40
0.0
 40
0.0
 40
0.0
 40
0.0
 40
1.0
 40
1.0
 40
1.0
 40
1.0
 10
67.81392610452255
 20
161.1563045580351
 30
0.0
 10
67.36459654494478
 20
161.4059341876028
 30
0.0
 10
66.81898207974332
 20
161.4059341876028
 30
0.0
 10
66.36965252016587
 20
161.1563045580351
 30
0.0
  0
SPLINE
  5
26A
330
255
100
AcDbEntity
  8
Sichtbar (ISO)
 62
    18
420
        0
370
     5
100
AcDbSpline
210
0.0
220
0.0
230
1.0
 70
     8
 71
     3
 72
     8
 73
     4
 74
     0
 42
0.0000000001
 43
0.0000000001
 40
0.0
 40
0.0
 40
0.0
 40
0.0
 40
1.0
 40
1.0
 40
1.0
 40
1.0
 10
65.78660488644207
 20
160.5708575513329
 30
0.0
 10
65.53799832912709
 20
160.1196788989168
 30
0.0
 10
65.53799832912709
 20
159.5718191066978
 30
0.0
 10
65.78660488644207
 20
159.1206404542818
 30
0.0
  0
SPLINE
  5
26B
330
255
100
AcDbEntity
  8
Sichtbar (ISO)
 62
    18
420
        0
370
     5
100
AcDbSpline
210
0.0
220
0.0
230
1.0
 70
     8
 71
     3
 72
     8
 73
     4
 74
     0
 42
0.0000000001
 43
0.0000000001
 40
0.0
 40
0.0
 40
0.0
 40
0.0
 40
1.0
 40
1.0
 40
1.0
 40
1.0
 10
66.36965252016587
 20
116.7846379024609
 30
0.0
 10
66.81898207974332
 20
116.5350082728944
 30
0.0
 10
67.36459654494478
 20
116.5350082728944
 30
0.0
 10
67.81392610452255
 20
116.7846379024609
 30
0.0
  0
SPLINE
  5
26C
330
255
100
AcDbEntity
  8
Sichtbar (ISO)
 62
    18
420
        0
370
     5
100
AcDbSpline
210
0.0
220
0.0
230
1.0
 70
     8
 71
     3
 72
     8
 73
     4
 74
     0
 42
0.0000000001
 43
0.0000000001
 40
0.0
 40
0.0
 40
0.0
 40
0.0
 40
1.0
 40
1.0
 40
1.0
 40
1.0
 10
65.78660488644207
 20
118.8203020062152
 30
0.0
 10
65.53799832912709
 20
118.3691233537984
 30
0.0
 10
65.53799832912709
 20
117.8212635615801
 30
0.0
 10
65.78660488644207
 20
117.3700849091647
 30
0.0
  0
SPLINE
  5
26D
330
255
100
AcDbEntity
  8
Sichtbar (ISO)
 62
    18
420
        0
370
     5
100
AcDbSpline
210
0.0
220
0.0
230
1.0
 70
     8
 71
     3
 72
     8
 73
     4
 74
     0
 42
0.0000000001
 43
0.0000000001
 40
0.0
 40
0.0
 40
0.0
 40
0.0
 40
1.0
 40
1.0
 40
1.0
 40
1.0
 10
107.949099231049
 20
116.7846379024609
 30
0.0
 10
108.3984287906268
 20
116.5350082728944
 30
0.0
 10
108.9440432558279
 20
116.5350082728944
 30
0.0
 10
109.3933728154057
 20
116.7846379024609
 30
0.0
  0
SPLINE
  5
26E
330
255
100
AcDbEntity
  8
Sichtbar (ISO)
 62
    18
420
        0
370
     5
100
AcDbSpline
210
0.0
220
0.0
230
1.0
 70
     8
 71
     3
 72
     8
 73
     4
 74
     0
 42
0.0000000001
 43
0.0000000001
 40
0.0
 40
0.0
 40
0.0
 40
0.0
 40
1.0
 40
1.0
 40
1.0
 40
1.0
 10
109.9764204491289
 20
117.3700849091647
 30
0.0
 10
110.2250270064445
 20
117.8212635615801
 30
0.0
 10
110.2250270064445
 20
118.3691233537984
 30
0.0
 10
109.9764204491289
 20
118.8203020062152
 30
0.0
  0
SPLINE
  5
26F
330
255
100
AcDbEntity
  8
Sichtbar (ISO)
 62
    18
420
        0
370
     5
100
AcDbSpline
210
0.0
220
0.0
230
1.0
 70
     8
 71
     3
 72
     8
 73
     4
 74
     0
 42
0.0000000001
 43
0.0000000001
 40
0.0
 40
0.0
 40
0.0
 40
0.0
 40
1.0
 40
1.0
 40
1.0
 40
1.0
 10
109.3933728154057
 20
161.1563045580351
 30
0.0
 10
108.9440432558279
 20
161.4059341876028
 30
0.0
 10
108.3984287906268
 20
161.4059341876028
 30
0.0
 10
107.949099231049
 20
161.1563045580351
 30
0.0
  0
SPLINE
  5
270
330
255
100
AcDbEntity
  8
Sichtbar (ISO)
 62
    18
420
        0
370
     5
100
AcDbSpline
210
0.0
220
0.0
230
1.0
 70
     8
 71
     3
 72
     8
 73
     4
 74
     0
 42
0.0000000001
 43
0.0000000001
 40
0.0
 40
0.0
 40
0.0
 40
0.0
 40
1.0
 40
1.0
 40
1.0
 40
1.0
 10
109.9764204491289
 20
159.1206404542818
 30
0.0
 10
110.2250270064445
 20
159.5718191066978
 30
0.0
 10
110.2250270064445
 20
160.1196788989168
 30
0.0
 10
109.9764204491289
 20
160.5708575513329
 30
0.0
  0
LINE
  5
271
330
255
100
AcDbEntity
  8
Sichtbar (ISO)
 62
    18
420
        0
370
     5
100
AcDbLine
 10
65.78660488644207
 20
161.1563045580351
 30
0.0
 11
109.9764204491289
 21
161.1563045580351
 31
0.0
  0
LINE
  5
272
330
255
100
AcDbEntity
  8
Sichtbar (ISO)
 62
    18
420
        0
370
     5
100
AcDbLine
 10
109.9764204491289
 20
116.7846379024609
 30
0.0
 11
65.78660488644207
 21
116.7846379024609
 31
0.0
  0
LINE
  5
273
330
255
100
AcDbEntity
  8
Sichtbar (ISO)
 62
    18
420
        0
370
     5
100
AcDbLine
 10
65.78660488644207
 20
116.7846379024609
 30
0.0
 11
65.78660488644207
 21
117.1590823468118
 31
0.0
  0
LINE
  5
274
330
255
100
AcDbEntity
  8
Sichtbar (ISO)
 62
    18
420
        0
370
     5
100
AcDbLine
 10
109.9764204491289
 20
116.7846379024609
 30
0.0
 11
109.9764204491289
 21
117.1590823468118
 31
0.0
  0
LINE
  5
275
330
255
100
AcDbEntity
  8
Sichtbar (ISO)
 62
    18
420
        0
370
     5
100
AcDbLine
 10
65.78660488644207
 20
161.1563045580351
 30
0.0
 11
65.78660488644207
 21
160.7818601136844
 31
0.0
  0
LINE
  5
276
330
255
100
AcDbEntity
  8
Sichtbar (ISO)
 62
    18
420
        0
370
     5
100
AcDbLine
 10
109.9764204491289
 20
161.1563045580351
 30
0.0
 11
109.9764204491289
 21
160.7818601136844
 31
0.0
  0
LINE
  5
277
330
255
100
AcDbEntity
  8
Sichtbar (ISO)
 62
    18
420
        0
370
     5
100
AcDbLine
 10
109.9764204491289
 20
117.1684434579214
 30
0.0
 11
109.9764204491289
 21
160.7724990025755
 31
0.0
  0
LINE
  5
278
330
255
100
AcDbEntity
  8
Sichtbar (ISO)
 62
    18
420
        0
370
     5
100
AcDbLine
 10
65.78660488644207
 20
117.1684434579214
 30
0.0
 11
65.78660488644207
 21
160.7724990025755
 31
0.0
  0
ELLIPSE
  5
279
330
255
100
AcDbEntity
  8
Sichtbar (ISO)
 62
    18
420
        0
370
     5
100
AcDbEllipse
 10
96.2719839771571
 20
147.3954712281423
 30
0.0
 11
0.0
 21
0.3744444443509728
 31
0.0
210
0.0
220
0.0
230
1.0
 40
0.9959016393435353
 41
0.0
 42
6.283185307179586
  0
ELLIPSE
  5
27A
330
255
100
AcDbEntity
  8
Sichtbar (ISO)
 62
    18
420
        0
370
     5
100
AcDbEllipse
 10
79.49104135841466
 20
147.3954712281423
 30
0.0
 11
0.0
 21
0.3744444443509728
 31
0.0
210
0.0
220
0.0
230
1.0
 40
0.9959016393426784
 41
0.0
 42
6.283185307179586
  0
ELLIPSE
  5
27B
330
255
100
AcDbEntity
  8
Sichtbar (ISO)
 62
    18
420
        0
370
     5
100
AcDbEllipse
 10
79.49104135841466
 20
130.545471232355
 30
0.0
 11
0.0
 21
0.3744444443509728
 31
0.0
210
0.0
220
0.0
230
1.0
 40
0.9959016393426784
 41
0.0
 42
6.283185307179586
  0
ELLIPSE
  5
27C
330
255
100
AcDbEntity
  8
Sichtbar (ISO)
 62
    18
420
        0
370
     5
100
AcDbEllipse
 10
96.2719839771571
 20
130.545471232355
 30
0.0
 11
0.0
 21
0.3744444443509728
 31
0.0
210
0.0
220
0.0
230
1.0
 40
0.9959016393435353
 41
0.0
 42
6.283185307179586
  0
ENDBLK
  5
258
330
255
100
AcDbEntity
  8
0
100
AcDbBlockEnd
  0
BLOCK
  5
280
330
27E
100
AcDbEntity
  8
0
100
AcDbBlockBegin
  2
Block_17
 70
     0
 10
0.0
 20
0.0
 30
0.0
  3
Block_17
  1

  0
INSERT
  5
283
330
27E
100
AcDbEntity
  8
Rahmen (ISO)
100
AcDbBlockReference
  2
Block_18
 10
0.0
 20
0.0
 30
0.0
  0
ENDBLK
  5
281
330
27E
100
AcDbEntity
  8
0
100
AcDbBlockEnd
  0
BLOCK
  5
284
330
282
100
AcDbEntity
  8
0
100
AcDbBlockBegin
  2
Block_18
 70
     0
 10
0.0
 20
0.0
 30
0.0
  3
Block_18
  1

  0
LINE
  5
286
330
282
100
AcDbEntity
  8
Rahmen (ISO)
 62
    18
420
        0
370
     5
100
AcDbLine
 10
127.3027807977099
 20
159.5221319859441
 30
0.0
 11
127.2784928745389
 21
118.4621920819296
 31
0.0
  0
INSERT
  5
288
330
282
100
AcDbEntity
  8
Rahmen (ISO)
100
AcDbBlockReference
  2
Block_19
 10
0.0
 20
0.0
 30
0.0
  0
INSERT
  5
28E
330
282
100
AcDbEntity
  8
Rahmen (ISO)
100
AcDbBlockReference
  2
Block_20
 10
0.0
 20
0.0
 30
0.0
  0
ENDBLK
  5
285
330
282
100
AcDbEntity
  8
0
100
AcDbBlockEnd
  0
BLOCK
  5
289
330
287
100
AcDbEntity
  8
0
100
AcDbBlockBegin
  2
Block_19
 70
     0
 10
0.0
 20
0.0
 30
0.0
  3
Block_19
  1

  0
LWPOLYLINE
  5
28B
330
287
100
AcDbEntity
  8
Rahmen (ISO)
100
AcDbPolyline
 90
        3
 70
     1
 43
0.0
 10
127.0810889032341
 20
158.8898062414733
 10
127.3027054362461
 20
160.570862115348
 10
127.5237190775483
 20
158.8895478593119
  0
HATCH
  5
28C
330
287
100
AcDbEntity
  8
Rahmen (ISO)
 62
    18
420
        0
440
 33554687
100
AcDbHatch
 10
0.0
 20
0.0
 30
0.0
210
0.0
220
0.0
230
1.0
  2
SOLID
 70
     1
 71
     1
 91
        1
 92
        1
 93
        3
 72
     1
 10
127.0810889032341
 20
158.8898062414733
 11
127.3027054362461
 21
160.570862115348
 72
     1
 10
127.3027054362461
 20
160.570862115348
 11
127.5237190775483
 21
158.8895478593119
 72
     1
 10
127.5237190775483
 20
158.8895478593119
 11
127.0810889032341
 21
158.8898062414733
 97
        1
330
28B
 75
     2
 76
     1
 98
        1
 10
0.0
 20
0.0
450
        0
451
        0
460
0.0
461
0.0
452
        0
462
0.0
453
        0
470

  0
ENDBLK
  5
28A
330
287
100
AcDbEntity
  8
0
100
AcDbBlockEnd
  0
BLOCK
  5
28F
330
28D
100
AcDbEntity
  8
0
100
AcDbBlockBegin
  2
Block_20
 70
     0
 10
0.0
 20
0.0
 30
0.0
  3
Block_20
  1

  0
LWPOLYLINE
  5
291
330
28D
100
AcDbEntity
  8
Rahmen (ISO)
100
AcDbPolyline
 90
        3
 70
     1
 43
0.0
 10
127.0575545947004
 20
119.0947762085618
 10
127.2771794318851
 20
117.4134727184493
 10
127.5001740030913
 20
119.0945178264004
  0
HATCH
  5
292
330
28D
100
AcDbEntity
  8
Rahmen (ISO)
 62
    18
420
        0
440
 33554687
100
AcDbHatch
 10
0.0
 20
0.0
 30
0.0
210
0.0
220
0.0
230
1.0
  2
SOLID
 70
     1
 71
     1
 91
        1
 92
        1
 93
        3
 72
     1
 10
127.0575545947004
 20
119.0947762085618
 11
127.2771794318851
 21
117.4134727184493
 72
     1
 10
127.2771794318851
 20
117.4134727184493
 11
127.5001740030913
 21
119.0945178264004
 72
     1
 10
127.5001740030913
 20
119.0945178264004
 11
127.0575545947004
 21
119.0947762085618
 97
        1
330
291
 75
     2
 76
     1
 98
        1
 10
0.0
 20
0.0
450
        0
451
        0
460
0.0
461
0.0
452
        0
462
0.0
453
        0
470

  0
ENDBLK
  5
290
330
28D
100
AcDbEntity
  8
0
100
AcDbBlockEnd
  0
BLOCK
  5
298
330
296
100
AcDbEntity
  8
0
100
AcDbBlockBegin
  2
Block_21
 70
     0
 10
0.0
 20
0.0
 30
0.0
  3
Block_21
  1

  0
INSERT
  5
29B
330
296
100
AcDbEntity
  8
Rahmen (ISO)
100
AcDbBlockReference
  2
Block_22
 10
0.0
 20
0.0
 30
0.0
  0
ENDBLK
  5
299
330
296
100
AcDbEntity
  8
0
100
AcDbBlockEnd
  0
BLOCK
  5
29C
330
29A
100
AcDbEntity
  8
0
100
AcDbBlockBegin
  2
Block_22
 70
     0
 10
0.0
 20
0.0
 30
0.0
  3
Block_22
  1

  0
LINE
  5
29E
330
29A
100
AcDbEntity
  8
Rahmen (ISO)
 62
    18
420
        0
370
     5
100
AcDbLine
 10
134.3529318579591
 20
160.7231353357961
 30
0.0
 11
134.3239176944192
 21
117.2725898449494
 31
0.0
  0
INSERT
  5
2A0
330
29A
100
AcDbEntity
  8
Rahmen (ISO)
100
AcDbBlockReference
  2
Block_23
 10
0.0
 20
0.0
 30
0.0
  0
INSERT
  5
2A6
330
29A
100
AcDbEntity
  8
Rahmen (ISO)
100
AcDbBlockReference
  2
Block_24
 10
0.0
 20
0.0
 30
0.0
  0
ENDBLK
  5
29D
330
29A
100
AcDbEntity
  8
0
100
AcDbBlockEnd
  0
BLOCK
  5
2A1
330
29F
100
AcDbEntity
  8
0
100
AcDbBlockBegin
  2
Block_23
 70
     0
 10
0.0
 20
0.0
 30
0.0
  3
Block_23
  1

  0
LWPOLYLINE
  5
2A3
330
29F
100
AcDbEntity
  8
Rahmen (ISO)
100
AcDbPolyline
 90
        3
 70
     1
 43
0.0
 10
134.1311968997897
 20
160.0908311231717
 10
134.3529426238825
 20
161.771854699276
 10
134.5738163081805
 20
160.0905296773171
  0
HATCH
  5
2A4
330
29F
100
AcDbEntity
  8
Rahmen (ISO)
 62
    18
420
        0
440
 33554687
100
AcDbHatch
 10
0.0
 20
0.0
 30
0.0
210
0.0
220
0.0
230
1.0
  2
SOLID
 70
     1
 71
     1
 91
        1
 92
        1
 93
        3
 72
     1
 10
134.1311968997897
 20
160.0908311231717
 11
134.3529426238825
 21
161.771854699276
 72
     1
 10
134.3529426238825
 20
161.771854699276
 11
134.5738163081805
 21
160.0905296773171
 72
     1
 10
134.5738163081805
 20
160.0905296773171
 11
134.1311968997897
 21
160.0908311231717
 97
        1
330
2A3
 75
     2
 76
     1
 98
        1
 10
0.0
 20
0.0
450
        0
451
        0
460
0.0
461
0.0
452
        0
462
0.0
453
        0
470

  0
ENDBLK
  5
2A2
330
29F
100
AcDbEntity
  8
0
100
AcDbBlockEnd
  0
BLOCK
  5
2A7
330
2A5
100
AcDbEntity
  8
0
100
AcDbBlockBegin
  2
Block_24
 70
     0
 10
0.0
 20
0.0
 30
0.0
  3
Block_24
  1

  0
LWPOLYLINE
  5
2A9
330
2A5
100
AcDbEntity
  8
Rahmen (ISO)
100
AcDbPolyline
 90
        3
 70
     1
 43
0.0
 10
134.1030332441977
 20
117.905184737505
 10
134.3225288903017
 20
116.2238597155458
 10
134.5456526525886
 20
117.9048940575734
  0
HATCH
  5
2AA
330
2A5
100
AcDbEntity
  8
Rahmen (ISO)
 62
    18
420
        0
440
 33554687
100
AcDbHatch
 10
0.0
 20
0.0
 30
0.0
210
0.0
220
0.0
230
1.0
  2
SOLID
 70
     1
 71
     1
 91
        1
 92
        1
 93
        3
 72
     1
 10
134.1030332441977
 20
117.905184737505
 11
134.3225288903017
 21
116.2238597155458
 72
     1
 10
134.3225288903017
 20
116.2238597155458
 11
134.5456526525886
 21
117.9048940575734
 72
     1
 10
134.5456526525886
 20
117.9048940575734
 11
134.1030332441977
 21
117.905184737505
 97
        1
330
2A9
 75
     2
 76
     1
 98
        1
 10
0.0
 20
0.0
450
        0
451
        0
460
0.0
461
0.0
452
        0
462
0.0
453
        0
470

  0
ENDBLK
  5
2A8
330
2A5
100
AcDbEntity
  8
0
100
AcDbBlockEnd
  0
BLOCK
  5
2B1
330
2AF
100
AcDbEntity
  8
0
100
AcDbBlockBegin
  2
Block_25
 70
     0
 10
0.0
 20
0.0
 30
0.0
  3
Block_25
  1

  0
INSERT
  5
2B4
330
2AF
100
AcDbEntity
  8
Rahmen (ISO)
100
AcDbBlockReference
  2
Block_26
 10
0.0
 20
0.0
 30
0.0
  0
ENDBLK
  5
2B2
330
2AF
100
AcDbEntity
  8
0
100
AcDbBlockEnd
  0
BLOCK
  5
2B5
330
2B3
100
AcDbEntity
  8
0
100
AcDbBlockBegin
  2
Block_26
 70
     0
 10
0.0
 20
0.0
 30
0.0
  3
Block_26
  1

  0
LINE
  5
2B7
330
2B3
100
AcDbEntity
  8
Rahmen (ISO)
 62
    18
420
        0
370
     5
100
AcDbLine
 10
122.2879706182995
 20
179.9470695893448
 30
0.0
 11
121.9351928406099
 21
179.9466389524092
 31
0.0
  0
LINE
  5
2B8
330
2B3
100
AcDbEntity
  8
Rahmen (ISO)
  6
AI-Linetype-0
 62
    18
420
        0
370
     5
100
AcDbLine
 10
121.2607400379085
 20
179.9457992103846
 30
0.0
 11
109.4577460121321
 21
179.9311683204957
 31
0.0
  0
LINE
  5
2BA
330
2B3
100
AcDbEntity
  8
Rahmen (ISO)
 62
    18
420
        0
370
     5
100
AcDbLine
 10
109.1205249937431
 20
179.9307484494837
 30
0.0
 11
108.7677472160535
 21
179.9303178125481
 31
0.0
  0
ENDBLK
  5
2B6
330
2B3
100
AcDbEntity
  8
0
100
AcDbBlockEnd
  0
BLOCK
  5
2BE
330
2BC
100
AcDbEntity
  8
0
100
AcDbBlockBegin
  2
Block_27
 70
     0
 10
0.0
 20
0.0
 30
0.0
  3
Block_27
  1

  0
INSERT
  5
2C1
330
2BC
100
AcDbEntity
  8
Rahmen (ISO)
100
AcDbBlockReference
  2
Block_28
 10
0.0
 20
0.0
 30
0.0
  0
ENDBLK
  5
2BF
330
2BC
100
AcDbEntity
  8
0
100
AcDbBlockEnd
  0
BLOCK
  5
2C2
330
2C0
100
AcDbEntity
  8
0
100
AcDbBlockBegin
  2
Block_28
 70
     0
 10
0.0
 20
0.0
 30
0.0
  3
Block_28
  1

  0
LINE
  5
2C4
330
2C0
100
AcDbEntity
  8
Rahmen (ISO)
 62
    18
420
        0
370
     5
100
AcDbLine
 10
134.3321213280435
 20
168.3380129075411
 30
0.0
 11
134.3143144907541
 21
183.9158626520462
 31
0.0
  0
INSERT
  5
2C6
330
2C0
100
AcDbEntity
  8
Rahmen (ISO)
100
AcDbBlockReference
  2
Block_29
 10
0.0
 20
0.0
 30
0.0
  0
INSERT
  5
2CC
330
2C0
100
AcDbEntity
  8
Rahmen (ISO)
100
AcDbBlockReference
  2
Block_30
 10
0.0
 20
0.0
 30
0.0
  0
ENDBLK
  5
2C3
330
2C0
100
AcDbEntity
  8
0
100
AcDbBlockEnd
  0
BLOCK
  5
2C7
330
2C5
100
AcDbEntity
  8
0
100
AcDbBlockBegin
  2
Block_29
 70
     0
 10
0.0
 20
0.0
 30
0.0
  3
Block_29
  1

  0
LWPOLYLINE
  5
2C9
330
2C5
100
AcDbEntity
  8
Rahmen (ISO)
100
AcDbPolyline
 90
        3
 70
     1
 43
0.0
 10
134.55270433241
 20
168.9707154593307
 10
134.334005364637
 20
167.2892935440609
 10
134.1100849240191
 20
168.9702094609313
  0
HATCH
  5
2CA
330
2C5
100
AcDbEntity
  8
Rahmen (ISO)
 62
    18
420
        0
440
 33554687
100
AcDbHatch
 10
0.0
 20
0.0
 30
0.0
210
0.0
220
0.0
230
1.0
  2
SOLID
 70
     1
 71
     1
 91
        1
 92
        1
 93
        3
 72
     1
 10
134.55270433241
 20
168.9707154593307
 11
134.334005364637
 21
167.2892935440609
 72
     1
 10
134.334005364637
 20
167.2892935440609
 11
134.1100849240191
 21
168.9702094609313
 72
     1
 10
134.1100849240191
 20
168.9702094609313
 11
134.55270433241
 21
168.9707154593307
 97
        1
330
2C9
 75
     2
 76
     1
 98
        1
 10
0.0
 20
0.0
450
        0
451
        0
460
0.0
461
0.0
452
        0
462
0.0
453
        0
470

  0
ENDBLK
  5
2C8
330
2C5
100
AcDbEntity
  8
0
100
AcDbBlockEnd
  0
BLOCK
  5
2CD
330
2CB
100
AcDbEntity
  8
0
100
AcDbBlockBegin
  2
Block_30
 70
     0
 10
0.0
 20
0.0
 30
0.0
  3
Block_30
  1

  0
LWPOLYLINE
  5
2CF
330
2CB
100
AcDbEntity
  8
Rahmen (ISO)
100
AcDbPolyline
 90
        3
 70
     1
 43
0.0
 10
134.5363508947784
 20
183.2836660986561
 10
134.3138084923547
 20
184.9645927814498
 10
134.0937314863876
 20
183.2831708661801
  0
HATCH
  5
2D0
330
2CB
100
AcDbEntity
  8
Rahmen (ISO)
 62
    18
420
        0
440
 33554687
100
AcDbHatch
 10
0.0
 20
0.0
 30
0.0
210
0.0
220
0.0
230
1.0
  2
SOLID
 70
     1
 71
     1
 91
        1
 92
        1
 93
        3
 72
     1
 10
134.5363508947784
 20
183.2836660986561
 11
134.3138084923547
 21
184.9645927814498
 72
     1
 10
134.3138084923547
 20
184.9645927814498
 11
134.0937314863876
 21
183.2831708661801
 72
     1
 10
134.0937314863876
 20
183.2831708661801
 11
134.5363508947784
 21
183.2836660986561
 97
        1
330
2CF
 75
     2
 76
     1
 98
        1
 10
0.0
 20
0.0
450
        0
451
        0
460
0.0
461
0.0
452
        0
462
0.0
453
        0
470

  0
ENDBLK
  5
2CE
330
2CB
100
AcDbEntity
  8
0
100
AcDbBlockEnd
  0
BLOCK
  5
2D3
330
2D1
100
AcDbEntity
  8
0
100
AcDbBlockBegin
  2
Block_31
 70
     0
 10
0.0
 20
0.0
 30
0.0
  3
Block_31
  1

  0
INSERT
  5
2D6
330
2D1
100
AcDbEntity
  8
Rahmen (ISO)
100
AcDbBlockReference
  2
Block_32
 10
0.0
 20
0.0
 30
0.0
  0
ENDBLK
  5
2D4
330
2D1
100
AcDbEntity
  8
0
100
AcDbBlockEnd
  0
BLOCK
  5
2D7
330
2D5
100
AcDbEntity
  8
0
100
AcDbBlockBegin
  2
Block_32
 70
     0
 10
0.0
 20
0.0
 30
0.0
  3
Block_32
  1

  0
SPLINE
  5
2D9
330
2D5
100
AcDbEntity
  8
Rahmen (ISO)
100
AcDbSpline
210
0.0
220
0.0
230
1.0
 70
     9
 71
     3
 72
    41
 73
    37
 74
     0
 42
0.0000000001
 43
0.0000000001
 40
0.0
 40
0.0
 40
0.0
 40
0.0
 40
1.0
 40
1.0
 40
1.0
 40
2.0
 40
2.0
 40
2.0
 40
3.0
 40
3.0
 40
3.0
 40
4.0
 40
4.0
 40
4.0
 40
5.0
 40
5.0
 40
5.0
 40
6.0
 40
6.0
 40
6.0
 40
7.0
 40
7.0
 40
7.0
 40
8.0
 40
8.0
 40
8.0
 40
9.0
 40
9.0
 40
9.0
 40
10.0
 40
10.0
 40
10.0
 40
11.0
 40
11.0
 40
11.0
 40
12.0
 40
12.0
 40
12.0
 40
12.0
 10
122.3005452168207
 20
181.4912475132209
 30
0.0
 10
122.0890163540263
 20
181.8297281446467
 30
0.0
 10
121.9705050693338
 20
182.0016384093607
 30
0.0
 10
121.69110782548
 20
182.0016384093607
 30
0.0
 10
121.4740668099092
 20
182.0016384093607
 30
0.0
 10
121.3300618186258
 20
181.8267998134843
 30
0.0
 10
121.3300618186258
 20
181.6152709506899
 30
0.0
 10
121.3300618186258
 20
181.3360459616104
 30
0.0
 10
121.5867214322769
 20
181.2175346769178
 30
0.0
 10
121.8265000780503
 20
181.2259751608567
 30
0.0
 10
121.8265000780503
 20
181.2259751608567
 30
0.0
 10
121.8265000780503
 20
180.9863687698576
 30
0.0
 10
121.8265000780503
 20
180.9863687698576
 30
0.0
 10
121.4203233203393
 20
180.9636311396549
 30
0.0
 10
121.1185329558315
 20
181.2063381165908
 30
0.0
 10
121.1185329558315
 20
181.6293958421795
 30
0.0
 10
121.1185329558315
 20
181.9763169575441
 30
0.0
 10
121.3217935894612
 20
182.2555419466236
 30
0.0
 10
121.6942084114167
 20
182.2555419466236
 30
0.0
 10
122.0466416795578
 20
182.2555419466236
 30
0.0
 10
122.2216525302085
 20
182.0186916320127
 30
0.0
 10
122.3794379034329
 20
181.7704725023004
 30
0.0
 10
122.5289550474927
 20
181.5222533725881
 30
0.0
 10
122.6615912236749
 20
181.2542249438357
 30
0.0
 10
122.9068820222247
 20
181.209094192979
 30
0.0
 10
122.9068820222247
 20
181.209094192979
 30
0.0
 10
122.9068820222247
 20
182.2359049023577
 30
0.0
 10
122.9068820222247
 20
182.2359049023577
 30
0.0
 10
122.9068820222247
 20
182.2359049023577
 30
0.0
 10
123.118410885019
 20
182.2359049023577
 30
0.0
 10
123.118410885019
 20
182.2359049023577
 30
0.0
 10
123.118410885019
 20
182.2359049023577
 30
0.0
 10
123.118410885019
 20
180.9298692038995
 30
0.0
 10
123.118410885019
 20
180.9298692038995
 30
0.0
 10
122.6474663321853
 20
180.9665594708174
 30
0.0
 10
122.4696994051464
 20
181.209094192979
 30
0.0
 10
122.3005452168207
 20
181.4912475132209
 30
0.0
  0
HATCH
  5
2DA
330
2D5
100
AcDbEntity
  8
Rahmen (ISO)
 62
    18
420
        0
440
 33554687
100
AcDbHatch
 10
0.0
 20
0.0
 30
0.0
210
0.0
220
0.0
230
1.0
  2
SOLID
 70
     1
 71
     1
 91
        1
 92
        1
 93
        1
 72
     4
 94
        3
 73
     0
 74
     0
 95
       41
 96
       37
 40
0.0
 40
0.0
 40
0.0
 40
0.0
 40
1.0
 40
1.0
 40
1.0
 40
2.0
 40
2.0
 40
2.0
 40
3.0
 40
3.0
 40
3.0
 40
4.0
 40
4.0
 40
4.0
 40
5.0
 40
5.0
 40
5.0
 40
6.0
 40
6.0
 40
6.0
 40
7.0
 40
7.0
 40
7.0
 40
8.0
 40
8.0
 40
8.0
 40
9.0
 40
9.0
 40
9.0
 40
10.0
 40
10.0
 40
10.0
 40
11.0
 40
11.0
 40
11.0
 40
12.0
 40
12.0
 40
12.0
 40
12.0
 10
122.3005452168207
 20
181.4912475132209
 10
122.0890163540263
 20
181.8297281446467
 10
121.9705050693338
 20
182.0016384093607
 10
121.69110782548
 20
182.0016384093607
 10
121.4740668099092
 20
182.0016384093607
 10
121.3300618186258
 20
181.8267998134843
 10
121.3300618186258
 20
181.6152709506899
 10
121.3300618186258
 20
181.3360459616104
 10
121.5867214322769
 20
181.2175346769178
 10
121.8265000780503
 20
181.2259751608567
 10
121.8265000780503
 20
181.2259751608567
 10
121.8265000780503
 20
180.9863687698576
 10
121.8265000780503
 20
180.9863687698576
 10
121.4203233203393
 20
180.9636311396549
 10
121.1185329558315
 20
181.2063381165908
 10
121.1185329558315
 20
181.6293958421795
 10
121.1185329558315
 20
181.9763169575441
 10
121.3217935894612
 20
182.2555419466236
 10
121.6942084114167
 20
182.2555419466236
 10
122.0466416795578
 20
182.2555419466236
 10
122.2216525302085
 20
182.0186916320127
 10
122.3794379034329
 20
181.7704725023004
 10
122.5289550474927
 20
181.5222533725881
 10
122.6615912236749
 20
181.2542249438357
 10
122.9068820222247
 20
181.209094192979
 10
122.9068820222247
 20
181.209094192979
 10
122.9068820222247
 20
182.2359049023577
 10
122.9068820222247
 20
182.2359049023577
 10
122.9068820222247
 20
182.2359049023577
 10
123.118410885019
 20
182.2359049023577
 10
123.118410885019
 20
182.2359049023577
 10
123.118410885019
 20
182.2359049023577
 10
123.118410885019
 20
180.9298692038995
 10
123.118410885019
 20
180.9298692038995
 10
122.6474663321853
 20
180.9665594708174
 10
122.4696994051464
 20
181.209094192979
 10
122.3005452168207
 20
181.4912475132209
 97
        0
 97
        1
330
2D9
 75
     2
 76
     1
 98
        1
 10
0.0
 20
0.0
450
        0
451
        0
460
0.0
461
0.0
452
        0
462
0.0
453
        0
470

  0
SPLINE
  5
2DB
330
2D5
100
AcDbEntity
  8
Rahmen (ISO)
100
AcDbSpline
210
0.0
220
0.0
230
1.0
 70
     9
 71
     3
 72
    53
 73
    49
 74
     0
 42
0.0000000001
 43
0.0000000001
 40
0.0
 40
0.0
 40
0.0
 40
0.0
 40
1.0
 40
1.0
 40
1.0
 40
2.0
 40
2.0
 40
2.0
 40
3.0
 40
3.0
 40
3.0
 40
4.0
 40
4.0
 40
4.0
 40
5.0
 40
5.0
 40
5.0
 40
6.0
 40
6.0
 40
6.0
 40
7.0
 40
7.0
 40
7.0
 40
8.0
 40
8.0
 40
8.0
 40
9.0
 40
9.0
 40
9.0
 40
10.0
 40
10.0
 40
10.0
 40
11.0
 40
11.0
 40
11.0
 40
12.0
 40
12.0
 40
12.0
 40
13.0
 40
13.0
 40
13.0
 40
14.0
 40
14.0
 40
14.0
 40
15.0
 40
15.0
 40
15.0
 40
16.0
 40
16.0
 40
16.0
 40
16.0
 10
122.5795979511259
 20
182.7697224477971
 30
0.0
 10
122.7856146611439
 20
182.7838473392867
 30
0.0
 10
122.9406439579801
 20
182.9502454512242
 30
0.0
 10
122.9406439579801
 20
183.1900240969976
 30
0.0
 10
122.9406439579801
 20
183.4184339276697
 30
0.0
 10
122.7828585847557
 20
183.6130818225863
 30
0.0
 10
122.4669433287582
 20
183.6130818225863
 30
0.0
 10
122.2044270527822
 20
183.6130818225863
 30
0.0
 10
122.0128797438023
 20
183.4325588191592
 30
0.0
 10
122.0128797438023
 20
183.1617743140186
 30
0.0
 10
122.0128797438023
 20
183.0065727624081
 30
0.0
 10
122.0890163540263
 20
182.8825493249391
 30
0.0
 10
122.201670976394
 20
182.7895317468373
 30
0.0
 10
122.201670976394
 20
182.7895317468373
 30
0.0
 10
122.1906466708412
 20
182.5835150368194
 30
0.0
 10
122.1906466708412
 20
182.5835150368194
 30
0.0
 10
122.1906466708412
 20
182.5835150368194
 30
0.0
 10
121.1526394011354
 20
182.7697224477971
 30
0.0
 10
121.1526394011354
 20
182.7697224477971
 30
0.0
 10
121.1526394011354
 20
182.7697224477971
 30
0.0
 10
121.1526394011354
 20
183.7569145590954
 30
0.0
 10
121.1526394011354
 20
183.7569145590954
 30
0.0
 10
121.1526394011354
 20
183.7569145590954
 30
0.0
 10
121.3641682639298
 20
183.7569145590954
 30
0.0
 10
121.3641682639298
 20
183.7569145590954
 30
0.0
 10
121.3641682639298
 20
183.7569145590954
 30
0.0
 10
121.3641682639298
 20
182.9502454512242
 30
0.0
 10
121.3641682639298
 20
182.9502454512242
 30
0.0
 10
121.3641682639298
 20
182.9502454512242
 30
0.0
 10
121.9394992099665
 20
182.843102981633
 30
0.0
 10
121.9394992099665
 20
182.843102981633
 30
0.0
 10
121.9394992099665
 20
182.843102981633
 30
0.0
 10
121.9450113627429
 20
182.8487873891836
 30
0.0
 10
121.9450113627429
 20
182.8487873891836
 30
0.0
 10
121.8464816318648
 20
182.9361205597347
 30
0.0
 10
121.801350881008
 20
183.0856377037945
 30
0.0
 10
121.801350881008
 20
183.2210299563649
 30
0.0
 10
121.801350881008
 20
183.5763915556684
 30
0.0
 10
122.0270046352918
 20
183.8669853598492
 30
0.0
 10
122.4865803730242
 20
183.8669853598492
 30
0.0
 10
122.8252332592242
 20
183.8669853598492
 30
0.0
 10
123.1521728207744
 20
183.6328911216265
 30
0.0
 10
123.1521728207744
 20
183.1674587215692
 30
0.0
 10
123.1521728207744
 20
182.8205376062046
 30
0.0
 10
122.9406439579801
 20
182.5383842859626
 30
0.0
 10
122.5795979511259
 20
182.5299438020238
 30
0.0
 10
122.5795979511259
 20
182.5299438020238
 30
0.0
 10
122.5795979511259
 20
182.7697224477971
 30
0.0
 10
122.5795979511259
 20
182.7697224477971
 30
0.0
  0
HATCH
  5
2DC
330
2D5
100
AcDbEntity
  8
Rahmen (ISO)
 62
    18
420
        0
440
 33554687
100
AcDbHatch
 10
0.0
 20
0.0
 30
0.0
210
0.0
220
0.0
230
1.0
  2
SOLID
 70
     1
 71
     1
 91
        1
 92
        1
 93
        1
 72
     4
 94
        3
 73
     0
 74
     0
 95
       53
 96
       49
 40
0.0
 40
0.0
 40
0.0
 40
0.0
 40
1.0
 40
1.0
 40
1.0
 40
2.0
 40
2.0
 40
2.0
 40
3.0
 40
3.0
 40
3.0
 40
4.0
 40
4.0
 40
4.0
 40
5.0
 40
5.0
 40
5.0
 40
6.0
 40
6.0
 40
6.0
 40
7.0
 40
7.0
 40
7.0
 40
8.0
 40
8.0
 40
8.0
 40
9.0
 40
9.0
 40
9.0
 40
10.0
 40
10.0
 40
10.0
 40
11.0
 40
11.0
 40
11.0
 40
12.0
 40
12.0
 40
12.0
 40
13.0
 40
13.0
 40
13.0
 40
14.0
 40
14.0
 40
14.0
 40
15.0
 40
15.0
 40
15.0
 40
16.0
 40
16.0
 40
16.0
 40
16.0
 10
122.5795979511259
 20
182.7697224477971
 10
122.7856146611439
 20
182.7838473392867
 10
122.9406439579801
 20
182.9502454512242
 10
122.9406439579801
 20
183.1900240969976
 10
122.9406439579801
 20
183.4184339276697
 10
122.7828585847557
 20
183.6130818225863
 10
122.4669433287582
 20
183.6130818225863
 10
122.2044270527822
 20
183.6130818225863
 10
122.0128797438023
 20
183.4325588191592
 10
122.0128797438023
 20
183.1617743140186
 10
122.0128797438023
 20
183.0065727624081
 10
122.0890163540263
 20
182.8825493249391
 10
122.201670976394
 20
182.7895317468373
 10
122.201670976394
 20
182.7895317468373
 10
122.1906466708412
 20
182.5835150368194
 10
122.1906466708412
 20
182.5835150368194
 10
122.1906466708412
 20
182.5835150368194
 10
121.1526394011354
 20
182.7697224477971
 10
121.1526394011354
 20
182.7697224477971
 10
121.1526394011354
 20
182.7697224477971
 10
121.1526394011354
 20
183.7569145590954
 10
121.1526394011354
 20
183.7569145590954
 10
121.1526394011354
 20
183.7569145590954
 10
121.3641682639298
 20
183.7569145590954
 10
121.3641682639298
 20
183.7569145590954
 10
121.3641682639298
 20
183.7569145590954
 10
121.3641682639298
 20
182.9502454512242
 10
121.3641682639298
 20
182.9502454512242
 10
121.3641682639298
 20
182.9502454512242
 10
121.9394992099665
 20
182.843102981633
 10
121.9394992099665
 20
182.843102981633
 10
121.9394992099665
 20
182.843102981633
 10
121.9450113627429
 20
182.8487873891836
 10
121.9450113627429
 20
182.8487873891836
 10
121.8464816318648
 20
182.9361205597347
 10
121.801350881008
 20
183.0856377037945
 10
121.801350881008
 20
183.2210299563649
 10
121.801350881008
 20
183.5763915556684
 10
122.0270046352918
 20
183.8669853598492
 10
122.4865803730242
 20
183.8669853598492
 10
122.8252332592242
 20
183.8669853598492
 10
123.1521728207744
 20
183.6328911216265
 10
123.1521728207744
 20
183.1674587215692
 10
123.1521728207744
 20
182.8205376062046
 10
122.9406439579801
 20
182.5383842859626
 10
122.5795979511259
 20
182.5299438020238
 10
122.5795979511259
 20
182.5299438020238
 10
122.5795979511259
 20
182.7697224477971
 10
122.5795979511259
 20
182.7697224477971
 97
        0
 97
        1
330
2DB
 75
     2
 76
     1
 98
        1
 10
0.0
 20
0.0
450
        0
451
        0
460
0.0
461
0.0
452
        0
462
0.0
453
        0
470

  0
ENDBLK
  5
2D8
330
2D5
100
AcDbEntity
  8
0
100
AcDbBlockEnd
  0
BLOCK
  5
2E0
330
2DE
100
AcDbEntity
  8
0
100
AcDbBlockBegin
  2
Block_33
 70
     0
 10
0.0
 20
0.0
 30
0.0
  3
Block_33
  1

  0
INSERT
  5
2E3
330
2DE
100
AcDbEntity
  8
Rahmen (ISO)
100
AcDbBlockReference
  2
Block_34
 10
0.0
 20
0.0
 30
0.0
  0
ENDBLK
  5
2E1
330
2DE
100
AcDbEntity
  8
0
100
AcDbBlockEnd
  0
BLOCK
  5
2E4
330
2E2
100
AcDbEntity
  8
0
100
AcDbBlockBegin
  2
Block_34
 70
     0
 10
0.0
 20
0.0
 30
0.0
  3
Block_34
  1

  0
LINE
  5
2E6
330
2E2
100
AcDbEntity
  8
Rahmen (ISO)
 62
    18
420
        0
370
     5
100
AcDbLine
 10
120.289029324447
 20
183.8815839519679
 30
0.0
 11
120.2869192034623
 21
180.9913426264644
 31
0.0
  0
INSERT
  5
2E8
330
2E2
100
AcDbEntity
  8
Rahmen (ISO)
100
AcDbBlockReference
  2
Block_35
 10
0.0
 20
0.0
 30
0.0
  0
INSERT
  5
2EE
330
2E2
100
AcDbEntity
  8
Rahmen (ISO)
100
AcDbBlockReference
  2
Block_36
 10
0.0
 20
0.0
 30
0.0
  0
ENDBLK
  5
2E5
330
2E2
100
AcDbEntity
  8
0
100
AcDbBlockEnd
  0
BLOCK
  5
2E9
330
2E7
100
AcDbEntity
  8
0
100
AcDbBlockBegin
  2
Block_35
 70
     0
 10
0.0
 20
0.0
 30
0.0
  3
Block_35
  1

  0
LWPOLYLINE
  5
2EB
330
2E7
100
AcDbEntity
  8
Rahmen (ISO)
100
AcDbPolyline
 90
        3
 70
     1
 43
0.0
 10
120.0672513025841
 20
183.2493012711907
 10
120.2891046859108
 20
184.9303140813716
 10
120.5098814768983
 20
183.248978293489
  0
HATCH
  5
2EC
330
2E7
100
AcDbEntity
  8
Rahmen (ISO)
 62
    18
420
        0
440
 33554687
100
AcDbHatch
 10
0.0
 20
0.0
 30
0.0
210
0.0
220
0.0
230
1.0
  2
SOLID
 70
     1
 71
     1
 91
        1
 92
        1
 93
        3
 72
     1
 10
120.0672513025841
 20
183.2493012711907
 11
120.2891046859108
 21
184.9303140813716
 72
     1
 10
120.2891046859108
 20
184.9303140813716
 11
120.5098814768983
 21
183.248978293489
 72
     1
 10
120.5098814768983
 20
183.248978293489
 11
120.0672513025841
 21
183.2493012711907
 97
        1
330
2EB
 75
     2
 76
     1
 98
        1
 10
0.0
 20
0.0
450
        0
451
        0
460
0.0
461
0.0
452
        0
462
0.0
453
        0
470

  0
ENDBLK
  5
2EA
330
2E7
100
AcDbEntity
  8
0
100
AcDbBlockEnd
  0
BLOCK
  5
2EF
330
2ED
100
AcDbEntity
  8
0
100
AcDbBlockBegin
  2
Block_36
 70
     0
 10
0.0
 20
0.0
 30
0.0
  3
Block_36
  1

  0
LWPOLYLINE
  5
2F1
330
2ED
100
AcDbEntity
  8
Rahmen (ISO)
100
AcDbPolyline
 90
        3
 70
     1
 43
0.0
 10
120.066067051011
 20
181.6239482849434
 10
120.2854658038045
 20
179.9426124970608
 10
120.5086864594019
 20
181.6236253072417
  0
HATCH
  5
2F2
330
2ED
100
AcDbEntity
  8
Rahmen (ISO)
 62
    18
420
        0
440
 33554687
100
AcDbHatch
 10
0.0
 20
0.0
 30
0.0
210
0.0
220
0.0
230
1.0
  2
SOLID
 70
     1
 71
     1
 91
        1
 92
        1
 93
        3
 72
     1
 10
120.066067051011
 20
181.6239482849434
 11
120.2854658038045
 21
179.9426124970608
 72
     1
 10
120.2854658038045
 20
179.9426124970608
 11
120.5086864594019
 21
181.6236253072417
 72
     1
 10
120.5086864594019
 20
181.6236253072417
 11
120.066067051011
 21
181.6239482849434
 97
        1
330
2F1
 75
     2
 76
     1
 98
        1
 10
0.0
 20
0.0
450
        0
451
        0
460
0.0
461
0.0
452
        0
462
0.0
453
        0
470

  0
ENDBLK
  5
2F0
330
2ED
100
AcDbEntity
  8
0
100
AcDbBlockEnd
  0
BLOCK
  5
2F6
330
2F4
100
AcDbEntity
  8
0
100
AcDbBlockBegin
  2
Block_37
 70
     0
 10
0.0
 20
0.0
 30
0.0
  3
Block_37
  1

  0
INSERT
  5
2F9
330
2F4
100
AcDbEntity
  8
Rahmen (ISO)
100
AcDbBlockReference
  2
Block_38
 10
0.0
 20
0.0
 30
0.0
  0
ENDBLK
  5
2F7
330
2F4
100
AcDbEntity
  8
0
100
AcDbBlockEnd
  0
BLOCK
  5
2FA
330
2F8
100
AcDbEntity
  8
0
100
AcDbBlockBegin
  2
Block_38
 70
     0
 10
0.0
 20
0.0
 30
0.0
  3
Block_38
  1

  0
SPLINE
  5
2FC
330
2F8
100
AcDbEntity
  8
Rahmen (ISO)
100
AcDbSpline
210
0.0
220
0.0
230
1.0
 70
     9
 71
     3
 72
    17
 73
    13
 74
     0
 42
0.0000000001
 43
0.0000000001
 40
0.0
 40
0.0
 40
0.0
 40
0.0
 40
1.0
 40
1.0
 40
1.0
 40
2.0
 40
2.0
 40
2.0
 40
3.0
 40
3.0
 40
3.0
 40
4.0
 40
4.0
 40
4.0
 40
4.0
 10
135.9899766370094
 20
175.6151203988045
 30
0.0
 10
135.7443413289111
 20
175.6151203988045
 30
0.0
 10
135.5328124661168
 20
175.4712876622953
 30
0.0
 10
135.5328124661168
 20
175.2034314883172
 30
0.0
 10
135.5328124661168
 20
174.918522091687
 30
0.0
 10
135.7615668063374
 20
174.8113796220958
 30
0.0
 10
136.0068576048872
 20
174.8113796220958
 30
0.0
 10
136.2238986204579
 20
174.8113796220958
 30
0.0
 10
136.4299153304758
 20
174.9748494028709
 30
0.0
 10
136.4299153304758
 20
175.2061875647054
 30
0.0
 10
136.4299153304758
 20
175.4571627708059
 30
0.0
 10
136.2269992063946
 20
175.6151203988045
 30
0.0
 10
135.9899766370094
 20
175.6151203988045
 30
0.0
  0
SPLINE
  5
2FD
330
2F8
100
AcDbEntity
  8
Rahmen (ISO)
100
AcDbSpline
210
0.0
220
0.0
230
1.0
 70
     9
 71
     3
 72
    35
 73
    31
 74
     0
 42
0.0000000001
 43
0.0000000001
 40
0.0
 40
0.0
 40
0.0
 40
0.0
 40
1.0
 40
1.0
 40
1.0
 40
2.0
 40
2.0
 40
2.0
 40
3.0
 40
3.0
 40
3.0
 40
4.0
 40
4.0
 40
4.0
 40
5.0
 40
5.0
 40
5.0
 40
6.0
 40
6.0
 40
6.0
 40
7.0
 40
7.0
 40
7.0
 40
8.0
 40
8.0
 40
8.0
 40
9.0
 40
9.0
 40
9.0
 40
10.0
 40
10.0
 40
10.0
 40
10.0
 10
136.838848164575
 20
174.8394571503005
 30
0.0
 10
137.0334960594916
 20
174.8592664493407
 30
0.0
 10
137.1433946054711
 20
175.014295746177
 30
0.0
 10
137.1433946054711
 20
175.2061875647054
 30
0.0
 10
137.1433946054711
 20
175.4995374452744
 30
0.0
 10
136.8898355777567
 20
175.6433701817836
 30
0.0
 10
136.3706596881295
 20
175.6574950732731
 30
0.0
 10
136.3706596881295
 20
175.6574950732731
 30
0.0
 10
136.3651475353532
 20
175.6518106657225
 30
0.0
 10
136.3651475353532
 20
175.6518106657225
 30
0.0
 10
136.5343017236789
 20
175.5615491640089
 30
0.0
 10
136.6414441932702
 20
175.3839544917443
 30
0.0
 10
136.6414441932702
 20
175.1893065968277
 30
0.0
 10
136.6414441932702
 20
174.7802015079543
 30
0.0
 10
136.3679036117413
 20
174.5574760848328
 30
0.0
 10
135.9730956691317
 20
174.5574760848328
 30
0.0
 10
135.5893120320749
 20
174.5574760848328
 30
0.0
 10
135.3212836033224
 20
174.8282605899735
 30
0.0
 10
135.3212836033224
 20
175.2146280486442
 30
0.0
 10
135.3212836033224
 20
175.5870428705998
 30
0.0
 10
135.521788160564
 20
175.9000297954347
 30
0.0
 10
136.2776421100278
 20
175.9000297954347
 30
0.0
 10
136.9687282643689
 20
175.9000297954347
 30
0.0
 10
137.355267977814
 20
175.6912570090286
 30
0.0
 10
137.355267977814
 20
175.2061875647054
 30
0.0
 10
137.355267977814
 20
174.8704630096678
 30
0.0
 10
137.1830132035514
 20
174.6308566186687
 30
0.0
 10
136.838848164575
 20
174.5996785045271
 30
0.0
 10
136.838848164575
 20
174.5996785045271
 30
0.0
 10
136.838848164575
 20
174.8394571503005
 30
0.0
 10
136.838848164575
 20
174.8394571503005
 30
0.0
  0
HATCH
  5
2FE
330
2F8
100
AcDbEntity
  8
Rahmen (ISO)
 62
    18
420
        0
440
 33554687
100
AcDbHatch
 10
0.0
 20
0.0
 30
0.0
210
0.0
220
0.0
230
1.0
  2
SOLID
 70
     1
 71
     1
 91
        2
 92
        1
 93
        1
 72
     4
 94
        3
 73
     0
 74
     0
 95
       17
 96
       13
 40
0.0
 40
0.0
 40
0.0
 40
0.0
 40
1.0
 40
1.0
 40
1.0
 40
2.0
 40
2.0
 40
2.0
 40
3.0
 40
3.0
 40
3.0
 40
4.0
 40
4.0
 40
4.0
 40
4.0
 10
135.9899766370094
 20
175.6151203988045
 10
135.7443413289111
 20
175.6151203988045
 10
135.5328124661168
 20
175.4712876622953
 10
135.5328124661168
 20
175.2034314883172
 10
135.5328124661168
 20
174.918522091687
 10
135.7615668063374
 20
174.8113796220958
 10
136.0068576048872
 20
174.8113796220958
 10
136.2238986204579
 20
174.8113796220958
 10
136.4299153304758
 20
174.9748494028709
 10
136.4299153304758
 20
175.2061875647054
 10
136.4299153304758
 20
175.4571627708059
 10
136.2269992063946
 20
175.6151203988045
 10
135.9899766370094
 20
175.6151203988045
 97
        0
 97
        1
330
2FC
 92
        1
 93
        1
 72
     4
 94
        3
 73
     0
 74
     0
 95
       35
 96
       31
 40
0.0
 40
0.0
 40
0.0
 40
0.0
 40
1.0
 40
1.0
 40
1.0
 40
2.0
 40
2.0
 40
2.0
 40
3.0
 40
3.0
 40
3.0
 40
4.0
 40
4.0
 40
4.0
 40
5.0
 40
5.0
 40
5.0
 40
6.0
 40
6.0
 40
6.0
 40
7.0
 40
7.0
 40
7.0
 40
8.0
 40
8.0
 40
8.0
 40
9.0
 40
9.0
 40
9.0
 40
10.0
 40
10.0
 40
10.0
 40
10.0
 10
136.838848164575
 20
174.8394571503005
 10
137.0334960594916
 20
174.8592664493407
 10
137.1433946054711
 20
175.014295746177
 10
137.1433946054711
 20
175.2061875647054
 10
137.1433946054711
 20
175.4995374452744
 10
136.8898355777567
 20
175.6433701817836
 10
136.3706596881295
 20
175.6574950732731
 10
136.3706596881295
 20
175.6574950732731
 10
136.3651475353532
 20
175.6518106657225
 10
136.3651475353532
 20
175.6518106657225
 10
136.5343017236789
 20
175.5615491640089
 10
136.6414441932702
 20
175.3839544917443
 10
136.6414441932702
 20
175.1893065968277
 10
136.6414441932702
 20
174.7802015079543
 10
136.3679036117413
 20
174.5574760848328
 10
135.9730956691317
 20
174.5574760848328
 10
135.5893120320749
 20
174.5574760848328
 10
135.3212836033224
 20
174.8282605899735
 10
135.3212836033224
 20
175.2146280486442
 10
135.3212836033224
 20
175.5870428705998
 10
135.521788160564
 20
175.9000297954347
 10
136.2776421100278
 20
175.9000297954347
 10
136.9687282643689
 20
175.9000297954347
 10
137.355267977814
 20
175.6912570090286
 10
137.355267977814
 20
175.2061875647054
 10
137.355267977814
 20
174.8704630096678
 10
137.1830132035514
 20
174.6308566186687
 10
136.838848164575
 20
174.5996785045271
 10
136.838848164575
 20
174.5996785045271
 10
136.838848164575
 20
174.8394571503005
 10
136.838848164575
 20
174.8394571503005
 97
        0
 97
        1
330
2FD
 75
     2
 76
     1
 98
        1
 10
0.0
 20
0.0
450
        0
451
        0
460
0.0
461
0.0
452
        0
462
0.0
453
        0
470

  0
SPLINE
  5
2FF
330
2F8
100
AcDbEntity
  8
Rahmen (ISO)
100
AcDbSpline
210
0.0
220
0.0
230
1.0
 70
     9
 71
     3
 72
    26
 73
    22
 74
     0
 42
0.0000000001
 43
0.0000000001
 40
0.0
 40
0.0
 40
0.0
 40
0.0
 40
1.0
 40
1.0
 40
1.0
 40
2.0
 40
2.0
 40
2.0
 40
3.0
 40
3.0
 40
3.0
 40
4.0
 40
4.0
 40
4.0
 40
5.0
 40
5.0
 40
5.0
 40
6.0
 40
6.0
 40
6.0
 40
7.0
 40
7.0
 40
7.0
 40
7.0
 10
135.5810438029103
 20
177.2208794044795
 30
0.0
 10
135.5810438029103
 20
177.2208794044795
 30
0.0
 10
135.5810438029103
 20
176.1716755744467
 30
0.0
 10
135.5810438029103
 20
176.1716755744467
 30
0.0
 10
135.5810438029103
 20
176.1716755744467
 30
0.0
 10
135.3553900486264
 20
176.1716755744467
 30
0.0
 10
135.3553900486264
 20
176.1716755744467
 30
0.0
 10
135.3553900486264
 20
176.1716755744467
 30
0.0
 10
135.3553900486264
 20
177.4663424578035
 30
0.0
 10
135.3553900486264
 20
177.4663424578035
 30
0.0
 10
135.3553900486264
 20
177.4663424578035
 30
0.0
 10
135.5610622490958
 20
177.4663424578035
 30
0.0
 10
135.5610622490958
 20
177.4663424578035
 30
0.0
 10
135.9589707776422
 20
177.0629217764808
 30
0.0
 10
136.6979437592283
 20
176.7358099601563
 30
0.0
 10
137.32116153251
 20
176.6991196932384
 30
0.0
 10
137.32116153251
 20
176.6991196932384
 30
0.0
 10
137.32116153251
 20
176.431091264486
 30
0.0
 10
137.32116153251
 20
176.431091264486
 30
0.0
 10
136.6442002696584
 20
176.4762220153427
 30
0.0
 10
136.0237385727649
 20
176.800577755279
 30
0.0
 10
135.5810438029103
 20
177.2208794044795
 30
0.0
  0
HATCH
  5
300
330
2F8
100
AcDbEntity
  8
Rahmen (ISO)
 62
    18
420
        0
440
 33554687
100
AcDbHatch
 10
0.0
 20
0.0
 30
0.0
210
0.0
220
0.0
230
1.0
  2
SOLID
 70
     1
 71
     1
 91
        1
 92
        1
 93
        1
 72
     4
 94
        3
 73
     0
 74
     0
 95
       26
 96
       22
 40
0.0
 40
0.0
 40
0.0
 40
0.0
 40
1.0
 40
1.0
 40
1.0
 40
2.0
 40
2.0
 40
2.0
 40
3.0
 40
3.0
 40
3.0
 40
4.0
 40
4.0
 40
4.0
 40
5.0
 40
5.0
 40
5.0
 40
6.0
 40
6.0
 40
6.0
 40
7.0
 40
7.0
 40
7.0
 40
7.0
 10
135.5810438029103
 20
177.2208794044795
 10
135.5810438029103
 20
177.2208794044795
 10
135.5810438029103
 20
176.1716755744467
 10
135.5810438029103
 20
176.1716755744467
 10
135.5810438029103
 20
176.1716755744467
 10
135.3553900486264
 20
176.1716755744467
 10
135.3553900486264
 20
176.1716755744467
 10
135.3553900486264
 20
176.1716755744467
 10
135.3553900486264
 20
177.4663424578035
 10
135.3553900486264
 20
177.4663424578035
 10
135.3553900486264
 20
177.4663424578035
 10
135.5610622490958
 20
177.4663424578035
 10
135.5610622490958
 20
177.4663424578035
 10
135.9589707776422
 20
177.0629217764808
 10
136.6979437592283
 20
176.7358099601563
 10
137.32116153251
 20
176.6991196932384
 10
137.32116153251
 20
176.6991196932384
 10
137.32116153251
 20
176.431091264486
 10
137.32116153251
 20
176.431091264486
 10
136.6442002696584
 20
176.4762220153427
 10
136.0237385727649
 20
176.800577755279
 10
135.5810438029103
 20
177.2208794044795
 97
        0
 97
        1
330
2FF
 75
     2
 76
     1
 98
        1
 10
0.0
 20
0.0
450
        0
451
        0
460
0.0
461
0.0
452
        0
462
0.0
453
        0
470

  0
ENDBLK
  5
2FB
330
2F8
100
AcDbEntity
  8
0
100
AcDbBlockEnd
  0
BLOCK
  5
303
330
301
100
AcDbEntity
  8
0
100
AcDbBlockBegin
  2
Block_39
 70
     0
 10
0.0
 20
0.0
 30
0.0
  3
Block_39
  1

  0
SPLINE
  5
305
330
301
100
AcDbEntity
  8
Rahmen (ISO)
100
AcDbSpline
210
0.0
220
0.0
230
1.0
 70
    11
 71
     3
 72
    17
 73
    13
 74
     0
 42
0.0000000001
 43
0.0000000001
 40
0.0
 40
0.0
 40
0.0
 40
0.0
 40
1.0
 40
1.0
 40
1.0
 40
2.0
 40
2.0
 40
2.0
 40
3.0
 40
3.0
 40
3.0
 40
4.0
 40
4.0
 40
4.0
 40
4.0
 10
130.0799153320634
 20
136.8216226871487
 30
0.0
 10
130.0799153320634
 20
136.8216226871487
 30
0.0
 10
128.4186902890759
 20
136.8216226871487
 30
0.0
 10
128.4186902890759
 20
136.8216226871487
 30
0.0
 10
128.4186902890759
 20
136.8216226871487
 30
0.0
 10
128.4186902890759
 20
135.1628092110009
 30
0.0
 10
128.4186902890759
 20
135.1628092110009
 30
0.0
 10
128.4186902890759
 20
135.1628092110009
 30
0.0
 10
130.0799153320634
 20
135.1628092110009
 30
0.0
 10
130.0799153320634
 20
135.1628092110009
 30
0.0
 10
130.0799153320634
 20
135.1628092110009
 30
0.0
 10
130.0799153320634
 20
136.8216226871487
 30
0.0
 10
130.0799153320634
 20
136.8216226871487
 30
0.0
  0
SPLINE
  5
306
330
301
100
AcDbEntity
  8
Rahmen (ISO)
100
AcDbSpline
210
0.0
220
0.0
230
1.0
 70
    11
 71
     3
 72
    17
 73
    13
 74
     0
 42
0.0000000001
 43
0.0000000001
 40
0.0
 40
0.0
 40
0.0
 40
0.0
 40
1.0
 40
1.0
 40
1.0
 40
2.0
 40
2.0
 40
2.0
 40
3.0
 40
3.0
 40
3.0
 40
4.0
 40
4.0
 40
4.0
 40
4.0
 10
128.193036534792
 20
134.9347438898774
 30
0.0
 10
128.193036534792
 20
134.9347438898774
 30
0.0
 10
128.193036534792
 20
137.0472764414326
 30
0.0
 10
128.193036534792
 20
137.0472764414326
 30
0.0
 10
128.193036534792
 20
137.0472764414326
 30
0.0
 10
130.3083251627354
 20
137.0472764414326
 30
0.0
 10
130.3083251627354
 20
137.0472764414326
 30
0.0
 10
130.3083251627354
 20
137.0472764414326
 30
0.0
 10
130.3083251627354
 20
134.9347438898774
 30
0.0
 10
130.3083251627354
 20
134.9347438898774
 30
0.0
 10
130.3083251627354
 20
134.9347438898774
 30
0.0
 10
128.193036534792
 20
134.9347438898774
 30
0.0
 10
128.193036534792
 20
134.9347438898774
 30
0.0
  0
HATCH
  5
307
330
301
100
AcDbEntity
  8
Rahmen (ISO)
 62
    18
420
        0
440
 33554687
100
AcDbHatch
 10
0.0
 20
0.0
 30
0.0
210
0.0
220
0.0
230
1.0
  2
SOLID
 70
     1
 71
     1
 91
        2
 92
        1
 93
        1
 72
     4
 94
        3
 73
     0
 74
     0
 95
       17
 96
       13
 40
0.0
 40
0.0
 40
0.0
 40
0.0
 40
1.0
 40
1.0
 40
1.0
 40
2.0
 40
2.0
 40
2.0
 40
3.0
 40
3.0
 40
3.0
 40
4.0
 40
4.0
 40
4.0
 40
4.0
 10
130.0799153320634
 20
136.8216226871487
 10
130.0799153320634
 20
136.8216226871487
 10
128.4186902890759
 20
136.8216226871487
 10
128.4186902890759
 20
136.8216226871487
 10
128.4186902890759
 20
136.8216226871487
 10
128.4186902890759
 20
135.1628092110009
 10
128.4186902890759
 20
135.1628092110009
 10
128.4186902890759
 20
135.1628092110009
 10
130.0799153320634
 20
135.1628092110009
 10
130.0799153320634
 20
135.1628092110009
 10
130.0799153320634
 20
135.1628092110009
 10
130.0799153320634
 20
136.8216226871487
 10
130.0799153320634
 20
136.8216226871487
 97
        0
 97
        1
330
305
 92
        1
 93
        1
 72
     4
 94
        3
 73
     0
 74
     0
 95
       17
 96
       13
 40
0.0
 40
0.0
 40
0.0
 40
0.0
 40
1.0
 40
1.0
 40
1.0
 40
2.0
 40
2.0
 40
2.0
 40
3.0
 40
3.0
 40
3.0
 40
4.0
 40
4.0
 40
4.0
 40
4.0
 10
128.193036534792
 20
134.9347438898774
 10
128.193036534792
 20
134.9347438898774
 10
128.193036534792
 20
137.0472764414326
 10
128.193036534792
 20
137.0472764414326
 10
128.193036534792
 20
137.0472764414326
 10
130.3083251627354
 20
137.0472764414326
 10
130.3083251627354
 20
137.0472764414326
 10
130.3083251627354
 20
137.0472764414326
 10
130.3083251627354
 20
134.9347438898774
 10
130.3083251627354
 20
134.9347438898774
 10
130.3083251627354
 20
134.9347438898774
 10
128.193036534792
 20
134.9347438898774
 10
128.193036534792
 20
134.9347438898774
 97
        0
 97
        1
330
306
 75
     2
 76
     1
 98
        1
 10
0.0
 20
0.0
450
        0
451
        0
460
0.0
461
0.0
452
        0
462
0.0
453
        0
470

  0
SPLINE
  5
308
330
301
100
AcDbEntity
  8
Rahmen (ISO)
100
AcDbSpline
210
0.0
220
0.0
230
1.0
 70
     9
 71
     3
 72
    41
 73
    37
 74
     0
 42
0.0000000001
 43
0.0000000001
 40
0.0
 40
0.0
 40
0.0
 40
0.0
 40
1.0
 40
1.0
 40
1.0
 40
2.0
 40
2.0
 40
2.0
 40
3.0
 40
3.0
 40
3.0
 40
4.0
 40
4.0
 40
4.0
 40
5.0
 40
5.0
 40
5.0
 40
6.0
 40
6.0
 40
6.0
 40
7.0
 40
7.0
 40
7.0
 40
8.0
 40
8.0
 40
8.0
 40
9.0
 40
9.0
 40
9.0
 40
10.0
 40
10.0
 40
10.0
 40
11.0
 40
11.0
 40
11.0
 40
12.0
 40
12.0
 40
12.0
 40
12.0
 10
129.4904594945371
 20
138.4649332336129
 30
0.0
 10
129.2789306317428
 20
138.803586119813
 30
0.0
 10
129.1604193470502
 20
138.9754963845269
 30
0.0
 10
128.8810221031964
 20
138.9754963845269
 30
0.0
 10
128.6639810876256
 20
138.9754963845269
 30
0.0
 10
128.5199760963422
 20
138.8004855338762
 30
0.0
 10
128.5199760963422
 20
138.5889566710819
 30
0.0
 10
128.5199760963422
 20
138.3095594272282
 30
0.0
 10
128.7766357099933
 20
138.1910481425355
 30
0.0
 10
129.0164143557667
 20
138.1996608812487
 30
0.0
 10
129.0164143557667
 20
138.1996608812487
 30
0.0
 10
129.0164143557667
 20
137.9598822354753
 30
0.0
 10
129.0164143557667
 20
137.9598822354753
 30
0.0
 10
128.6102375980558
 20
137.9374891148211
 30
0.0
 10
128.3084472335479
 20
138.1800238369828
 30
0.0
 10
128.3084472335479
 20
138.6030815625714
 30
0.0
 10
128.3084472335479
 20
138.9500026779361
 30
0.0
 10
128.5117078671776
 20
139.2293999217899
 30
0.0
 10
128.8841226891331
 20
139.2293999217899
 30
0.0
 10
129.2365559572742
 20
139.2293999217899
 30
0.0
 10
129.4115668079249
 20
138.9923773524047
 30
0.0
 10
129.5693521811493
 20
138.7443304774667
 30
0.0
 10
129.7188693252091
 20
138.4959390929802
 30
0.0
 10
129.8515055013913
 20
138.2279106642277
 30
0.0
 10
130.0967962999411
 20
138.182779913371
 30
0.0
 10
130.0967962999411
 20
138.182779913371
 30
0.0
 10
130.0967962999411
 20
139.2094183679754
 30
0.0
 10
130.0967962999411
 20
139.2094183679754
 30
0.0
 10
130.0967962999411
 20
139.2094183679754
 30
0.0
 10
130.3083251627354
 20
139.2094183679754
 30
0.0
 10
130.3083251627354
 20
139.2094183679754
 30
0.0
 10
130.3083251627354
 20
139.2094183679754
 30
0.0
 10
130.3083251627354
 20
137.9037271790657
 30
0.0
 10
130.3083251627354
 20
137.9037271790657
 30
0.0
 10
129.8373806099017
 20
137.9402451912094
 30
0.0
 10
129.6596136828628
 20
138.182779913371
 30
0.0
 10
129.4904594945371
 20
138.4649332336129
 30
0.0
  0
HATCH
  5
309
330
301
100
AcDbEntity
  8
Rahmen (ISO)
 62
    18
420
        0
440
 33554687
100
AcDbHatch
 10
0.0
 20
0.0
 30
0.0
210
0.0
220
0.0
230
1.0
  2
SOLID
 70
     1
 71
     1
 91
        1
 92
        1
 93
        1
 72
     4
 94
        3
 73
     0
 74
     0
 95
       41
 96
       37
 40
0.0
 40
0.0
 40
0.0
 40
0.0
 40
1.0
 40
1.0
 40
1.0
 40
2.0
 40
2.0
 40
2.0
 40
3.0
 40
3.0
 40
3.0
 40
4.0
 40
4.0
 40
4.0
 40
5.0
 40
5.0
 40
5.0
 40
6.0
 40
6.0
 40
6.0
 40
7.0
 40
7.0
 40
7.0
 40
8.0
 40
8.0
 40
8.0
 40
9.0
 40
9.0
 40
9.0
 40
10.0
 40
10.0
 40
10.0
 40
11.0
 40
11.0
 40
11.0
 40
12.0
 40
12.0
 40
12.0
 40
12.0
 10
129.4904594945371
 20
138.4649332336129
 10
129.2789306317428
 20
138.803586119813
 10
129.1604193470502
 20
138.9754963845269
 10
128.8810221031964
 20
138.9754963845269
 10
128.6639810876256
 20
138.9754963845269
 10
128.5199760963422
 20
138.8004855338762
 10
128.5199760963422
 20
138.5889566710819
 10
128.5199760963422
 20
138.3095594272282
 10
128.7766357099933
 20
138.1910481425355
 10
129.0164143557667
 20
138.1996608812487
 10
129.0164143557667
 20
138.1996608812487
 10
129.0164143557667
 20
137.9598822354753
 10
129.0164143557667
 20
137.9598822354753
 10
128.6102375980558
 20
137.9374891148211
 10
128.3084472335479
 20
138.1800238369828
 10
128.3084472335479
 20
138.6030815625714
 10
128.3084472335479
 20
138.9500026779361
 10
128.5117078671776
 20
139.2293999217899
 10
128.8841226891331
 20
139.2293999217899
 10
129.2365559572742
 20
139.2293999217899
 10
129.4115668079249
 20
138.9923773524047
 10
129.5693521811493
 20
138.7443304774667
 10
129.7188693252091
 20
138.4959390929802
 10
129.8515055013913
 20
138.2279106642277
 10
130.0967962999411
 20
138.182779913371
 10
130.0967962999411
 20
138.182779913371
 10
130.0967962999411
 20
139.2094183679754
 10
130.0967962999411
 20
139.2094183679754
 10
130.0967962999411
 20
139.2094183679754
 10
130.3083251627354
 20
139.2094183679754
 10
130.3083251627354
 20
139.2094183679754
 10
130.3083251627354
 20
139.2094183679754
 10
130.3083251627354
 20
137.9037271790657
 10
130.3083251627354
 20
137.9037271790657
 10
129.8373806099017
 20
137.9402451912094
 10
129.6596136828628
 20
138.182779913371
 10
129.4904594945371
 20
138.4649332336129
 97
        0
 97
        1
330
308
 75
     2
 76
     1
 98
        1
 10
0.0
 20
0.0
450
        0
451
        0
460
0.0
461
0.0
452
        0
462
0.0
453
        0
470

  0
SPLINE
  5
30A
330
301
100
AcDbEntity
  8
Rahmen (ISO)
100
AcDbSpline
210
0.0
220
0.0
230
1.0
 70
     9
 71
     3
 72
    62
 73
    58
 74
     0
 42
0.0000000001
 43
0.0000000001
 40
0.0
 40
0.0
 40
0.0
 40
0.0
 40
1.0
 40
1.0
 40
1.0
 40
2.0
 40
2.0
 40
2.0
 40
3.0
 40
3.0
 40
3.0
 40
4.0
 40
4.0
 40
4.0
 40
5.0
 40
5.0
 40
5.0
 40
6.0
 40
6.0
 40
6.0
 40
7.0
 40
7.0
 40
7.0
 40
8.0
 40
8.0
 40
8.0
 40
9.0
 40
9.0
 40
9.0
 40
10.0
 40
10.0
 40
10.0
 40
11.0
 40
11.0
 40
11.0
 40
12.0
 40
12.0
 40
12.0
 40
13.0
 40
13.0
 40
13.0
 40
14.0
 40
14.0
 40
14.0
 40
15.0
 40
15.0
 40
15.0
 40
16.0
 40
16.0
 40
16.0
 40
17.0
 40
17.0
 40
17.0
 40
18.0
 40
18.0
 40
18.0
 40
19.0
 40
19.0
 40
19.0
 40
19.0
 10
129.6906195422301
 20
139.7296277862481
 30
0.0
 10
129.9500352322694
 20
139.7378960154127
 30
0.0
 10
130.1305582356965
 20
139.8819010066962
 30
0.0
 10
130.1305582356965
 20
140.155441588225
 30
0.0
 10
130.1305582356965
 20
140.389708081222
 30
0.0
 10
129.9841416775734
 20
140.589868128915
 30
0.0
 10
129.7443630318
 20
140.589868128915
 30
0.0
 10
129.4932155709253
 20
140.589868128915
 30
0.0
 10
129.3605793947432
 20
140.4007323867748
 30
0.0
 10
129.3605793947432
 20
140.1637098173896
 30
0.0
 10
129.3605793947432
 20
140.1130669137564
 30
0.0
 10
129.3633354711314
 20
140.0651800865114
 30
0.0
 10
129.3691921334563
 20
140.0200493356547
 30
0.0
 10
129.3691921334563
 20
140.0200493356547
 30
0.0
 10
129.1659314998266
 20
140.0200493356547
 30
0.0
 10
129.1659314998266
 20
140.0200493356547
 30
0.0
 10
129.1686875762148
 20
140.0396863799206
 30
0.0
 10
129.1686875762148
 20
140.0569118573469
 30
0.0
 10
129.1686875762148
 20
140.073448315676
 30
0.0
 10
129.1686875762148
 20
140.073448315676
 30
0.0
 10
129.1686875762148
 20
140.1244357288577
 30
0.0
 10
129.1686875762148
 20
140.1244357288577
 30
0.0
 10
129.1686875762148
 20
140.3276963624875
 30
0.0
 10
129.0560329538471
 20
140.5051187799779
 30
0.0
 10
128.8417480146645
 20
140.5051187799779
 30
0.0
 10
128.6302191518702
 20
140.5051187799779
 30
0.0
 10
128.5199760963422
 20
140.3528455595298
 30
0.0
 10
128.5199760963422
 20
140.1499294354486
 30
0.0
 10
128.5199760963422
 20
139.8901692358608
 30
0.0
 10
128.7204806535837
 20
139.7716579511682
 30
0.0
 10
128.9544026370322
 20
139.7716579511682
 30
0.0
 10
128.9544026370322
 20
139.7716579511682
 30
0.0
 10
128.9544026370322
 20
139.5318793053948
 30
0.0
 10
128.9544026370322
 20
139.5318793053948
 30
0.0
 10
128.5737195859121
 20
139.5463487064328
 30
0.0
 10
128.3084472335479
 20
139.7492648305141
 30
0.0
 10
128.3084472335479
 20
140.1499294354486
 30
0.0
 10
128.3084472335479
 20
140.4965060412648
 30
0.0
 10
128.4748453454854
 20
140.7590223172408
 30
0.0
 10
128.8445040910527
 20
140.7590223172408
 30
0.0
 10
129.0222710180916
 20
140.7590223172408
 30
0.0
 10
129.1717881621515
 20
140.63775495616
 30
0.0
 10
129.2420681100506
 20
140.4827256593237
 30
0.0
 10
129.2420681100506
 20
140.4827256593237
 30
0.0
 10
129.2479247723755
 20
140.4827256593237
 30
0.0
 10
129.2479247723755
 20
140.4827256593237
 30
0.0
 10
129.3013237523969
 20
140.7280164578735
 30
0.0
 10
129.4932155709253
 20
140.8437716661779
 30
0.0
 10
129.7329942166987
 20
140.8437716661779
 30
0.0
 10
130.1305582356965
 20
140.8437716661779
 30
0.0
 10
130.3420870984909
 20
140.5306124865687
 30
0.0
 10
130.3420870984909
 20
140.155441588225
 30
0.0
 10
130.3420870984909
 20
139.7492648305141
 30
0.0
 10
130.1054090386542
 20
139.4812364017616
 30
0.0
 10
129.6906195422301
 20
139.4898491404747
 30
0.0
 10
129.6906195422301
 20
139.4898491404747
 30
0.0
 10
129.6906195422301
 20
139.7296277862481
 30
0.0
 10
129.6906195422301
 20
139.7296277862481
 30
0.0
  0
HATCH
  5
30B
330
301
100
AcDbEntity
  8
Rahmen (ISO)
 62
    18
420
        0
440
 33554687
100
AcDbHatch
 10
0.0
 20
0.0
 30
0.0
210
0.0
220
0.0
230
1.0
  2
SOLID
 70
     1
 71
     1
 91
        1
 92
        1
 93
        1
 72
     4
 94
        3
 73
     0
 74
     0
 95
       62
 96
       58
 40
0.0
 40
0.0
 40
0.0
 40
0.0
 40
1.0
 40
1.0
 40
1.0
 40
2.0
 40
2.0
 40
2.0
 40
3.0
 40
3.0
 40
3.0
 40
4.0
 40
4.0
 40
4.0
 40
5.0
 40
5.0
 40
5.0
 40
6.0
 40
6.0
 40
6.0
 40
7.0
 40
7.0
 40
7.0
 40
8.0
 40
8.0
 40
8.0
 40
9.0
 40
9.0
 40
9.0
 40
10.0
 40
10.0
 40
10.0
 40
11.0
 40
11.0
 40
11.0
 40
12.0
 40
12.0
 40
12.0
 40
13.0
 40
13.0
 40
13.0
 40
14.0
 40
14.0
 40
14.0
 40
15.0
 40
15.0
 40
15.0
 40
16.0
 40
16.0
 40
16.0
 40
17.0
 40
17.0
 40
17.0
 40
18.0
 40
18.0
 40
18.0
 40
19.0
 40
19.0
 40
19.0
 40
19.0
 10
129.6906195422301
 20
139.7296277862481
 10
129.9500352322694
 20
139.7378960154127
 10
130.1305582356965
 20
139.8819010066962
 10
130.1305582356965
 20
140.155441588225
 10
130.1305582356965
 20
140.389708081222
 10
129.9841416775734
 20
140.589868128915
 10
129.7443630318
 20
140.589868128915
 10
129.4932155709253
 20
140.589868128915
 10
129.3605793947432
 20
140.4007323867748
 10
129.3605793947432
 20
140.1637098173896
 10
129.3605793947432
 20
140.1130669137564
 10
129.3633354711314
 20
140.0651800865114
 10
129.3691921334563
 20
140.0200493356547
 10
129.3691921334563
 20
140.0200493356547
 10
129.1659314998266
 20
140.0200493356547
 10
129.1659314998266
 20
140.0200493356547
 10
129.1686875762148
 20
140.0396863799206
 10
129.1686875762148
 20
140.0569118573469
 10
129.1686875762148
 20
140.073448315676
 10
129.1686875762148
 20
140.073448315676
 10
129.1686875762148
 20
140.1244357288577
 10
129.1686875762148
 20
140.1244357288577
 10
129.1686875762148
 20
140.3276963624875
 10
129.0560329538471
 20
140.5051187799779
 10
128.8417480146645
 20
140.5051187799779
 10
128.6302191518702
 20
140.5051187799779
 10
128.5199760963422
 20
140.3528455595298
 10
128.5199760963422
 20
140.1499294354486
 10
128.5199760963422
 20
139.8901692358608
 10
128.7204806535837
 20
139.7716579511682
 10
128.9544026370322
 20
139.7716579511682
 10
128.9544026370322
 20
139.7716579511682
 10
128.9544026370322
 20
139.5318793053948
 10
128.9544026370322
 20
139.5318793053948
 10
128.5737195859121
 20
139.5463487064328
 10
128.3084472335479
 20
139.7492648305141
 10
128.3084472335479
 20
140.1499294354486
 10
128.3084472335479
 20
140.4965060412648
 10
128.4748453454854
 20
140.7590223172408
 10
128.8445040910527
 20
140.7590223172408
 10
129.0222710180916
 20
140.7590223172408
 10
129.1717881621515
 20
140.63775495616
 10
129.2420681100506
 20
140.4827256593237
 10
129.2420681100506
 20
140.4827256593237
 10
129.2479247723755
 20
140.4827256593237
 10
129.2479247723755
 20
140.4827256593237
 10
129.3013237523969
 20
140.7280164578735
 10
129.4932155709253
 20
140.8437716661779
 10
129.7329942166987
 20
140.8437716661779
 10
130.1305582356965
 20
140.8437716661779
 10
130.3420870984909
 20
140.5306124865687
 10
130.3420870984909
 20
140.155441588225
 10
130.3420870984909
 20
139.7492648305141
 10
130.1054090386542
 20
139.4812364017616
 10
129.6906195422301
 20
139.4898491404747
 10
129.6906195422301
 20
139.4898491404747
 10
129.6906195422301
 20
139.7296277862481
 10
129.6906195422301
 20
139.7296277862481
 97
        0
 97
        1
330
30A
 75
     2
 76
     1
 98
        1
 10
0.0
 20
0.0
450
        0
451
        0
460
0.0
461
0.0
452
        0
462
0.0
453
        0
470

  0
SPLINE
  5
30C
330
301
100
AcDbEntity
  8
Rahmen (ISO)
100
AcDbSpline
210
0.0
220
0.0
230
1.0
 70
     9
 71
     3
 72
    62
 73
    58
 74
     0
 42
0.0000000001
 43
0.0000000001
 40
0.0
 40
0.0
 40
0.0
 40
0.0
 40
1.0
 40
1.0
 40
1.0
 40
2.0
 40
2.0
 40
2.0
 40
3.0
 40
3.0
 40
3.0
 40
4.0
 40
4.0
 40
4.0
 40
5.0
 40
5.0
 40
5.0
 40
6.0
 40
6.0
 40
6.0
 40
7.0
 40
7.0
 40
7.0
 40
8.0
 40
8.0
 40
8.0
 40
9.0
 40
9.0
 40
9.0
 40
10.0
 40
10.0
 40
10.0
 40
11.0
 40
11.0
 40
11.0
 40
12.0
 40
12.0
 40
12.0
 40
13.0
 40
13.0
 40
13.0
 40
14.0
 40
14.0
 40
14.0
 40
15.0
 40
15.0
 40
15.0
 40
16.0
 40
16.0
 40
16.0
 40
17.0
 40
17.0
 40
17.0
 40
18.0
 40
18.0
 40
18.0
 40
19.0
 40
19.0
 40
19.0
 40
19.0
 10
129.6906195422301
 20
141.2985242702309
 30
0.0
 10
129.9500352322694
 20
141.307137008944
 30
0.0
 10
130.1305582356965
 20
141.450797490679
 30
0.0
 10
130.1305582356965
 20
141.7246825817563
 30
0.0
 10
130.1305582356965
 20
141.9586045652048
 30
0.0
 10
129.9841416775734
 20
142.1591091224463
 30
0.0
 10
129.7443630318
 20
142.1591091224463
 30
0.0
 10
129.4932155709253
 20
142.1591091224463
 30
0.0
 10
129.3605793947432
 20
141.9699733803061
 30
0.0
 10
129.3605793947432
 20
141.7332953204694
 30
0.0
 10
129.3605793947432
 20
141.6823079072877
 30
0.0
 10
129.3633354711314
 20
141.6344210800428
 30
0.0
 10
129.3691921334563
 20
141.589290329186
 30
0.0
 10
129.3691921334563
 20
141.589290329186
 30
0.0
 10
129.1659314998266
 20
141.589290329186
 30
0.0
 10
129.1659314998266
 20
141.589290329186
 30
0.0
 10
129.1686875762148
 20
141.6089273734519
 30
0.0
 10
129.1686875762148
 20
141.6258083413296
 30
0.0
 10
129.1686875762148
 20
141.6430338187559
 30
0.0
 10
129.1686875762148
 20
141.6430338187559
 30
0.0
 10
129.1686875762148
 20
141.6936767223891
 30
0.0
 10
129.1686875762148
 20
141.6936767223891
 30
0.0
 10
129.1686875762148
 20
141.8965928464703
 30
0.0
 10
129.0560329538471
 20
142.0743597735092
 30
0.0
 10
128.8417480146645
 20
142.0743597735092
 30
0.0
 10
128.6302191518702
 20
142.0743597735092
 30
0.0
 10
128.5199760963422
 20
141.9220865530611
 30
0.0
 10
128.5199760963422
 20
141.7188259194314
 30
0.0
 10
128.5199760963422
 20
141.4594102293921
 30
0.0
 10
128.7204806535837
 20
141.341243454248
 30
0.0
 10
128.9544026370322
 20
141.341243454248
 30
0.0
 10
128.9544026370322
 20
141.341243454248
 30
0.0
 10
128.9544026370322
 20
141.1014648084746
 30
0.0
 10
128.9544026370322
 20
141.1014648084746
 30
0.0
 10
128.5737195859121
 20
141.1152451904156
 30
0.0
 10
128.3084472335479
 20
141.3185058240454
 30
0.0
 10
128.3084472335479
 20
141.7188259194314
 30
0.0
 10
128.3084472335479
 20
142.0660915443446
 30
0.0
 10
128.4748453454854
 20
142.3282633107721
 30
0.0
 10
128.8445040910527
 20
142.3282633107721
 30
0.0
 10
129.0222710180916
 20
142.3282633107721
 30
0.0
 10
129.1717881621515
 20
142.2069959496913
 30
0.0
 10
129.2420681100506
 20
142.0516221433065
 30
0.0
 10
129.2420681100506
 20
142.0516221433065
 30
0.0
 10
129.2479247723755
 20
142.0516221433065
 30
0.0
 10
129.2479247723755
 20
142.0516221433065
 30
0.0
 10
129.3013237523969
 20
142.2972574514048
 30
0.0
 10
129.4932155709253
 20
142.4126681501607
 30
0.0
 10
129.7329942166987
 20
142.4126681501607
 30
0.0
 10
130.1305582356965
 20
142.4126681501607
 30
0.0
 10
130.3420870984909
 20
142.0998534801
 30
0.0
 10
130.3420870984909
 20
141.7246825817563
 30
0.0
 10
130.3420870984909
 20
141.3185058240454
 30
0.0
 10
130.1054090386542
 20
141.0504773952929
 30
0.0
 10
129.6906195422301
 20
141.0587456244575
 30
0.0
 10
129.6906195422301
 20
141.0587456244575
 30
0.0
 10
129.6906195422301
 20
141.2985242702309
 30
0.0
 10
129.6906195422301
 20
141.2985242702309
 30
0.0
  0
HATCH
  5
30D
330
301
100
AcDbEntity
  8
Rahmen (ISO)
 62
    18
420
        0
440
 33554687
100
AcDbHatch
 10
0.0
 20
0.0
 30
0.0
210
0.0
220
0.0
230
1.0
  2
SOLID
 70
     1
 71
     1
 91
        1
 92
        1
 93
        1
 72
     4
 94
        3
 73
     0
 74
     0
 95
       62
 96
       58
 40
0.0
 40
0.0
 40
0.0
 40
0.0
 40
1.0
 40
1.0
 40
1.0
 40
2.0
 40
2.0
 40
2.0
 40
3.0
 40
3.0
 40
3.0
 40
4.0
 40
4.0
 40
4.0
 40
5.0
 40
5.0
 40
5.0
 40
6.0
 40
6.0
 40
6.0
 40
7.0
 40
7.0
 40
7.0
 40
8.0
 40
8.0
 40
8.0
 40
9.0
 40
9.0
 40
9.0
 40
10.0
 40
10.0
 40
10.0
 40
11.0
 40
11.0
 40
11.0
 40
12.0
 40
12.0
 40
12.0
 40
13.0
 40
13.0
 40
13.0
 40
14.0
 40
14.0
 40
14.0
 40
15.0
 40
15.0
 40
15.0
 40
16.0
 40
16.0
 40
16.0
 40
17.0
 40
17.0
 40
17.0
 40
18.0
 40
18.0
 40
18.0
 40
19.0
 40
19.0
 40
19.0
 40
19.0
 10
129.6906195422301
 20
141.2985242702309
 10
129.9500352322694
 20
141.307137008944
 10
130.1305582356965
 20
141.450797490679
 10
130.1305582356965
 20
141.7246825817563
 10
130.1305582356965
 20
141.9586045652048
 10
129.9841416775734
 20
142.1591091224463
 10
129.7443630318
 20
142.1591091224463
 10
129.4932155709253
 20
142.1591091224463
 10
129.3605793947432
 20
141.9699733803061
 10
129.3605793947432
 20
141.7332953204694
 10
129.3605793947432
 20
141.6823079072877
 10
129.3633354711314
 20
141.6344210800428
 10
129.3691921334563
 20
141.589290329186
 10
129.3691921334563
 20
141.589290329186
 10
129.1659314998266
 20
141.589290329186
 10
129.1659314998266
 20
141.589290329186
 10
129.1686875762148
 20
141.6089273734519
 10
129.1686875762148
 20
141.6258083413296
 10
129.1686875762148
 20
141.6430338187559
 10
129.1686875762148
 20
141.6430338187559
 10
129.1686875762148
 20
141.6936767223891
 10
129.1686875762148
 20
141.6936767223891
 10
129.1686875762148
 20
141.8965928464703
 10
129.0560329538471
 20
142.0743597735092
 10
128.8417480146645
 20
142.0743597735092
 10
128.6302191518702
 20
142.0743597735092
 10
128.5199760963422
 20
141.9220865530611
 10
128.5199760963422
 20
141.7188259194314
 10
128.5199760963422
 20
141.4594102293921
 10
128.7204806535837
 20
141.341243454248
 10
128.9544026370322
 20
141.341243454248
 10
128.9544026370322
 20
141.341243454248
 10
128.9544026370322
 20
141.1014648084746
 10
128.9544026370322
 20
141.1014648084746
 10
128.5737195859121
 20
141.1152451904156
 10
128.3084472335479
 20
141.3185058240454
 10
128.3084472335479
 20
141.7188259194314
 10
128.3084472335479
 20
142.0660915443446
 10
128.4748453454854
 20
142.3282633107721
 10
128.8445040910527
 20
142.3282633107721
 10
129.0222710180916
 20
142.3282633107721
 10
129.1717881621515
 20
142.2069959496913
 10
129.2420681100506
 20
142.0516221433065
 10
129.2420681100506
 20
142.0516221433065
 10
129.2479247723755
 20
142.0516221433065
 10
129.2479247723755
 20
142.0516221433065
 10
129.3013237523969
 20
142.2972574514048
 10
129.4932155709253
 20
142.4126681501607
 10
129.7329942166987
 20
142.4126681501607
 10
130.1305582356965
 20
142.4126681501607
 10
130.3420870984909
 20
142.0998534801
 10
130.3420870984909
 20
141.7246825817563
 10
130.3420870984909
 20
141.3185058240454
 10
130.1054090386542
 20
141.0504773952929
 10
129.6906195422301
 20
141.0587456244575
 10
129.6906195422301
 20
141.0587456244575
 10
129.6906195422301
 20
141.2985242702309
 10
129.6906195422301
 20
141.2985242702309
 97
        0
 97
        1
330
30C
 75
     2
 76
     1
 98
        1
 10
0.0
 20
0.0
450
        0
451
        0
460
0.0
461
0.0
452
        0
462
0.0
453
        0
470

  0
ENDBLK
  5
304
330
301
100
AcDbEntity
  8
0
100
AcDbBlockEnd
  0
BLOCK
  5
310
330
30E
100
AcDbEntity
  8
0
100
AcDbBlockBegin
  2
Block_40
 70
     0
 10
0.0
 20
0.0
 30
0.0
  3
Block_40
  1

  0
SPLINE
  5
312
330
30E
100
AcDbEntity
  8
Rahmen (ISO)
100
AcDbSpline
210
0.0
220
0.0
230
1.0
 70
    11
 71
     3
 72
    17
 73
    13
 74
     0
 42
0.0000000001
 43
0.0000000001
 40
0.0
 40
0.0
 40
0.0
 40
0.0
 40
1.0
 40
1.0
 40
1.0
 40
2.0
 40
2.0
 40
2.0
 40
3.0
 40
3.0
 40
3.0
 40
4.0
 40
4.0
 40
4.0
 40
4.0
 10
137.1189344275258
 20
136.8763997053642
 30
0.0
 10
137.1189344275258
 20
136.8763997053642
 30
0.0
 10
135.4577093845383
 20
136.8763997053642
 30
0.0
 10
135.4577093845383
 20
136.8763997053642
 30
0.0
 10
135.4577093845383
 20
136.8763997053642
 30
0.0
 10
135.4577093845383
 20
135.217930738765
 30
0.0
 10
135.4577093845383
 20
135.217930738765
 30
0.0
 10
135.4577093845383
 20
135.217930738765
 30
0.0
 10
137.1189344275258
 20
135.217930738765
 30
0.0
 10
137.1189344275258
 20
135.217930738765
 30
0.0
 10
137.1189344275258
 20
135.217930738765
 30
0.0
 10
137.1189344275258
 20
136.8763997053642
 30
0.0
 10
137.1189344275258
 20
136.8763997053642
 30
0.0
  0
SPLINE
  5
313
330
30E
100
AcDbEntity
  8
Rahmen (ISO)
100
AcDbSpline
210
0.0
220
0.0
230
1.0
 70
    11
 71
     3
 72
    17
 73
    13
 74
     0
 42
0.0000000001
 43
0.0000000001
 40
0.0
 40
0.0
 40
0.0
 40
0.0
 40
1.0
 40
1.0
 40
1.0
 40
2.0
 40
2.0
 40
2.0
 40
3.0
 40
3.0
 40
3.0
 40
4.0
 40
4.0
 40
4.0
 40
4.0
 10
135.2320556302545
 20
134.9891763985443
 30
0.0
 10
135.2320556302545
 20
134.9891763985443
 30
0.0
 10
135.2320556302545
 20
137.1020534596481
 30
0.0
 10
135.2320556302545
 20
137.1020534596481
 30
0.0
 10
135.2320556302545
 20
137.1020534596481
 30
0.0
 10
137.3473442581979
 20
137.1020534596481
 30
0.0
 10
137.3473442581979
 20
137.1020534596481
 30
0.0
 10
137.3473442581979
 20
137.1020534596481
 30
0.0
 10
137.3473442581979
 20
134.9891763985443
 30
0.0
 10
137.3473442581979
 20
134.9891763985443
 30
0.0
 10
137.3473442581979
 20
134.9891763985443
 30
0.0
 10
135.2320556302545
 20
134.9891763985443
 30
0.0
 10
135.2320556302545
 20
134.9891763985443
 30
0.0
  0
HATCH
  5
314
330
30E
100
AcDbEntity
  8
Rahmen (ISO)
 62
    18
420
        0
440
 33554687
100
AcDbHatch
 10
0.0
 20
0.0
 30
0.0
210
0.0
220
0.0
230
1.0
  2
SOLID
 70
     1
 71
     1
 91
        2
 92
        1
 93
        1
 72
     4
 94
        3
 73
     0
 74
     0
 95
       17
 96
       13
 40
0.0
 40
0.0
 40
0.0
 40
0.0
 40
1.0
 40
1.0
 40
1.0
 40
2.0
 40
2.0
 40
2.0
 40
3.0
 40
3.0
 40
3.0
 40
4.0
 40
4.0
 40
4.0
 40
4.0
 10
137.1189344275258
 20
136.8763997053642
 10
137.1189344275258
 20
136.8763997053642
 10
135.4577093845383
 20
136.8763997053642
 10
135.4577093845383
 20
136.8763997053642
 10
135.4577093845383
 20
136.8763997053642
 10
135.4577093845383
 20
135.217930738765
 10
135.4577093845383
 20
135.217930738765
 10
135.4577093845383
 20
135.217930738765
 10
137.1189344275258
 20
135.217930738765
 10
137.1189344275258
 20
135.217930738765
 10
137.1189344275258
 20
135.217930738765
 10
137.1189344275258
 20
136.8763997053642
 10
137.1189344275258
 20
136.8763997053642
 97
        0
 97
        1
330
312
 92
        1
 93
        1
 72
     4
 94
        3
 73
     0
 74
     0
 95
       17
 96
       13
 40
0.0
 40
0.0
 40
0.0
 40
0.0
 40
1.0
 40
1.0
 40
1.0
 40
2.0
 40
2.0
 40
2.0
 40
3.0
 40
3.0
 40
3.0
 40
4.0
 40
4.0
 40
4.0
 40
4.0
 10
135.2320556302545
 20
134.9891763985443
 10
135.2320556302545
 20
134.9891763985443
 10
135.2320556302545
 20
137.1020534596481
 10
135.2320556302545
 20
137.1020534596481
 10
135.2320556302545
 20
137.1020534596481
 10
137.3473442581979
 20
137.1020534596481
 10
137.3473442581979
 20
137.1020534596481
 10
137.3473442581979
 20
137.1020534596481
 10
137.3473442581979
 20
134.9891763985443
 10
137.3473442581979
 20
134.9891763985443
 10
137.3473442581979
 20
134.9891763985443
 10
135.2320556302545
 20
134.9891763985443
 10
135.2320556302545
 20
134.9891763985443
 97
        0
 97
        1
330
313
 75
     2
 76
     1
 98
        1
 10
0.0
 20
0.0
450
        0
451
        0
460
0.0
461
0.0
452
        0
462
0.0
453
        0
470

  0
SPLINE
  5
315
330
30E
100
AcDbEntity
  8
Rahmen (ISO)
100
AcDbSpline
210
0.0
220
0.0
230
1.0
 70
     9
 71
     3
 72
    41
 73
    37
 74
     0
 42
0.0000000001
 43
0.0000000001
 40
0.0
 40
0.0
 40
0.0
 40
0.0
 40
1.0
 40
1.0
 40
1.0
 40
2.0
 40
2.0
 40
2.0
 40
3.0
 40
3.0
 40
3.0
 40
4.0
 40
4.0
 40
4.0
 40
5.0
 40
5.0
 40
5.0
 40
6.0
 40
6.0
 40
6.0
 40
7.0
 40
7.0
 40
7.0
 40
8.0
 40
8.0
 40
8.0
 40
9.0
 40
9.0
 40
9.0
 40
10.0
 40
10.0
 40
10.0
 40
11.0
 40
11.0
 40
11.0
 40
12.0
 40
12.0
 40
12.0
 40
12.0
 10
136.5294785899995
 20
138.5197102518284
 30
0.0
 10
136.3179497272052
 20
138.8580186284799
 30
0.0
 10
136.1994384425126
 20
139.0302734027424
 30
0.0
 10
135.9200411986589
 20
139.0302734027424
 30
0.0
 10
135.7030001830881
 20
139.0302734027424
 30
0.0
 10
135.5589951918047
 20
138.8552625520917
 30
0.0
 10
135.5589951918047
 20
138.6437336892974
 30
0.0
 10
135.5589951918047
 20
138.3646809549921
 30
0.0
 10
135.8156548054558
 20
138.2461696702995
 30
0.0
 10
136.0554334512292
 20
138.2544378994641
 30
0.0
 10
136.0554334512292
 20
138.2544378994641
 30
0.0
 10
136.0554334512292
 20
138.0146592536908
 30
0.0
 10
136.0554334512292
 20
138.0146592536908
 30
0.0
 10
135.6492566935182
 20
137.9922661330366
 30
0.0
 10
135.3474663290103
 20
138.2348008551982
 30
0.0
 10
135.3474663290103
 20
138.6578585807869
 30
0.0
 10
135.3474663290103
 20
139.0047796961516
 30
0.0
 10
135.5507269626401
 20
139.2838324304568
 30
0.0
 10
135.9231417845956
 20
139.2838324304568
 30
0.0
 10
136.2755750527366
 20
139.2838324304568
 30
0.0
 10
136.4505859033873
 20
139.0471543706201
 30
0.0
 10
136.6083712766118
 20
138.7987629861336
 30
0.0
 10
136.7578884206716
 20
138.5507161111956
 30
0.0
 10
136.8905245968537
 20
138.2826876824432
 30
0.0
 10
137.1358153954035
 20
138.2375569315864
 30
0.0
 10
137.1358153954035
 20
138.2375569315864
 30
0.0
 10
137.1358153954035
 20
139.2645398957394
 30
0.0
 10
137.1358153954035
 20
139.2645398957394
 30
0.0
 10
137.1358153954035
 20
139.2645398957394
 30
0.0
 10
137.3473442581979
 20
139.2645398957394
 30
0.0
 10
137.3473442581979
 20
139.2645398957394
 30
0.0
 10
137.3473442581979
 20
139.2645398957394
 30
0.0
 10
137.3473442581979
 20
137.9581562026164
 30
0.0
 10
137.3473442581979
 20
137.9581562026164
 30
0.0
 10
136.8763997053642
 20
137.9950222094248
 30
0.0
 10
136.6986327783253
 20
138.2375569315864
 30
0.0
 10
136.5294785899995
 20
138.5197102518284
 30
0.0
  0
HATCH
  5
316
330
30E
100
AcDbEntity
  8
Rahmen (ISO)
 62
    18
420
        0
440
 33554687
100
AcDbHatch
 10
0.0
 20
0.0
 30
0.0
210
0.0
220
0.0
230
1.0
  2
SOLID
 70
     1
 71
     1
 91
        1
 92
        1
 93
        1
 72
     4
 94
        3
 73
     0
 74
     0
 95
       41
 96
       37
 40
0.0
 40
0.0
 40
0.0
 40
0.0
 40
1.0
 40
1.0
 40
1.0
 40
2.0
 40
2.0
 40
2.0
 40
3.0
 40
3.0
 40
3.0
 40
4.0
 40
4.0
 40
4.0
 40
5.0
 40
5.0
 40
5.0
 40
6.0
 40
6.0
 40
6.0
 40
7.0
 40
7.0
 40
7.0
 40
8.0
 40
8.0
 40
8.0
 40
9.0
 40
9.0
 40
9.0
 40
10.0
 40
10.0
 40
10.0
 40
11.0
 40
11.0
 40
11.0
 40
12.0
 40
12.0
 40
12.0
 40
12.0
 10
136.5294785899995
 20
138.5197102518284
 10
136.3179497272052
 20
138.8580186284799
 10
136.1994384425126
 20
139.0302734027424
 10
135.9200411986589
 20
139.0302734027424
 10
135.7030001830881
 20
139.0302734027424
 10
135.5589951918047
 20
138.8552625520917
 10
135.5589951918047
 20
138.6437336892974
 10
135.5589951918047
 20
138.3646809549921
 10
135.8156548054558
 20
138.2461696702995
 10
136.0554334512292
 20
138.2544378994641
 10
136.0554334512292
 20
138.2544378994641
 10
136.0554334512292
 20
138.0146592536908
 10
136.0554334512292
 20
138.0146592536908
 10
135.6492566935182
 20
137.9922661330366
 10
135.3474663290103
 20
138.2348008551982
 10
135.3474663290103
 20
138.6578585807869
 10
135.3474663290103
 20
139.0047796961516
 10
135.5507269626401
 20
139.2838324304568
 10
135.9231417845956
 20
139.2838324304568
 10
136.2755750527366
 20
139.2838324304568
 10
136.4505859033873
 20
139.0471543706201
 10
136.6083712766118
 20
138.7987629861336
 10
136.7578884206716
 20
138.5507161111956
 10
136.8905245968537
 20
138.2826876824432
 10
137.1358153954035
 20
138.2375569315864
 10
137.1358153954035
 20
138.2375569315864
 10
137.1358153954035
 20
139.2645398957394
 10
137.1358153954035
 20
139.2645398957394
 10
137.1358153954035
 20
139.2645398957394
 10
137.3473442581979
 20
139.2645398957394
 10
137.3473442581979
 20
139.2645398957394
 10
137.3473442581979
 20
139.2645398957394
 10
137.3473442581979
 20
137.9581562026164
 10
137.3473442581979
 20
137.9581562026164
 10
136.8763997053642
 20
137.9950222094248
 10
136.6986327783253
 20
138.2375569315864
 10
136.5294785899995
 20
138.5197102518284
 97
        0
 97
        1
330
315
 75
     2
 76
     1
 98
        1
 10
0.0
 20
0.0
450
        0
451
        0
460
0.0
461
0.0
452
        0
462
0.0
453
        0
470

  0
SPLINE
  5
317
330
30E
100
AcDbEntity
  8
Rahmen (ISO)
100
AcDbSpline
210
0.0
220
0.0
230
1.0
 70
    11
 71
     3
 72
    17
 73
    13
 74
     0
 42
0.0000000001
 43
0.0000000001
 40
0.0
 40
0.0
 40
0.0
 40
0.0
 40
1.0
 40
1.0
 40
1.0
 40
2.0
 40
2.0
 40
2.0
 40
3.0
 40
3.0
 40
3.0
 40
4.0
 40
4.0
 40
4.0
 40
4.0
 10
136.6676269189581
 20
140.4158908069099
 30
0.0
 10
136.6676269189581
 20
140.4158908069099
 30
0.0
 10
135.6888752915986
 20
140.4158908069099
 30
0.0
 10
135.6888752915986
 20
140.4158908069099
 30
0.0
 10
135.6888752915986
 20
140.4158908069099
 30
0.0
 10
135.6888752915986
 20
140.4103786541335
 30
0.0
 10
135.6888752915986
 20
140.4103786541335
 30
0.0
 10
135.6888752915986
 20
140.4103786541335
 30
0.0
 10
136.6676269189581
 20
139.7447862063832
 30
0.0
 10
136.6676269189581
 20
139.7447862063832
 30
0.0
 10
136.6676269189581
 20
139.7447862063832
 30
0.0
 10
136.6676269189581
 20
140.4158908069099
 30
0.0
 10
136.6676269189581
 20
140.4158908069099
 30
0.0
  0
SPLINE
  5
318
330
30E
100
AcDbEntity
  8
Rahmen (ISO)
100
AcDbSpline
210
0.0
220
0.0
230
1.0
 70
    11
 71
     3
 72
    38
 73
    34
 74
     0
 42
0.0000000001
 43
0.0000000001
 40
0.0
 40
0.0
 40
0.0
 40
0.0
 40
1.0
 40
1.0
 40
1.0
 40
2.0
 40
2.0
 40
2.0
 40
3.0
 40
3.0
 40
3.0
 40
4.0
 40
4.0
 40
4.0
 40
5.0
 40
5.0
 40
5.0
 40
6.0
 40
6.0
 40
6.0
 40
7.0
 40
7.0
 40
7.0
 40
8.0
 40
8.0
 40
8.0
 40
9.0
 40
9.0
 40
9.0
 40
10.0
 40
10.0
 40
10.0
 40
11.0
 40
11.0
 40
11.0
 40
11.0
 10
136.6479898746921
 20
139.5387694963653
 30
0.0
 10
136.6479898746921
 20
139.5387694963653
 30
0.0
 10
135.3474663290103
 20
140.4499972522139
 30
0.0
 10
135.3474663290103
 20
140.4499972522139
 30
0.0
 10
135.3474663290103
 20
140.4499972522139
 30
0.0
 10
135.3474663290103
 20
140.6418890707423
 30
0.0
 10
135.3474663290103
 20
140.6418890707423
 30
0.0
 10
135.3474663290103
 20
140.6418890707423
 30
0.0
 10
136.6676269189581
 20
140.6418890707423
 30
0.0
 10
136.6676269189581
 20
140.6418890707423
 30
0.0
 10
136.6676269189581
 20
140.6418890707423
 30
0.0
 10
136.6676269189581
 20
140.9126700161294
 30
0.0
 10
136.6676269189581
 20
140.9126700161294
 30
0.0
 10
136.6676269189581
 20
140.9126700161294
 30
0.0
 10
136.8791557817524
 20
140.9126700161294
 30
0.0
 10
136.8791557817524
 20
140.9126700161294
 30
0.0
 10
136.8791557817524
 20
140.9126700161294
 30
0.0
 10
136.8791557817524
 20
140.6418890707423
 30
0.0
 10
136.8791557817524
 20
140.6418890707423
 30
0.0
 10
136.8791557817524
 20
140.6418890707423
 30
0.0
 10
137.3473442581979
 20
140.6418890707423
 30
0.0
 10
137.3473442581979
 20
140.6418890707423
 30
0.0
 10
137.3473442581979
 20
140.6418890707423
 30
0.0
 10
137.3473442581979
 20
140.4158908069099
 30
0.0
 10
137.3473442581979
 20
140.4158908069099
 30
0.0
 10
137.3473442581979
 20
140.4158908069099
 30
0.0
 10
136.8791557817524
 20
140.4158908069099
 30
0.0
 10
136.8791557817524
 20
140.4158908069099
 30
0.0
 10
136.8791557817524
 20
140.4158908069099
 30
0.0
 10
136.8791557817524
 20
139.5387694963653
 30
0.0
 10
136.8791557817524
 20
139.5387694963653
 30
0.0
 10
136.8791557817524
 20
139.5387694963653
 30
0.0
 10
136.6479898746921
 20
139.5387694963653
 30
0.0
 10
136.6479898746921
 20
139.5387694963653
 30
0.0
  0
HATCH
  5
319
330
30E
100
AcDbEntity
  8
Rahmen (ISO)
 62
    18
420
        0
440
 33554687
100
AcDbHatch
 10
0.0
 20
0.0
 30
0.0
210
0.0
220
0.0
230
1.0
  2
SOLID
 70
     1
 71
     1
 91
        2
 92
        1
 93
        1
 72
     4
 94
        3
 73
     0
 74
     0
 95
       17
 96
       13
 40
0.0
 40
0.0
 40
0.0
 40
0.0
 40
1.0
 40
1.0
 40
1.0
 40
2.0
 40
2.0
 40
2.0
 40
3.0
 40
3.0
 40
3.0
 40
4.0
 40
4.0
 40
4.0
 40
4.0
 10
136.6676269189581
 20
140.4158908069099
 10
136.6676269189581
 20
140.4158908069099
 10
135.6888752915986
 20
140.4158908069099
 10
135.6888752915986
 20
140.4158908069099
 10
135.6888752915986
 20
140.4158908069099
 10
135.6888752915986
 20
140.4103786541335
 10
135.6888752915986
 20
140.4103786541335
 10
135.6888752915986
 20
140.4103786541335
 10
136.6676269189581
 20
139.7447862063832
 10
136.6676269189581
 20
139.7447862063832
 10
136.6676269189581
 20
139.7447862063832
 10
136.6676269189581
 20
140.4158908069099
 10
136.6676269189581
 20
140.4158908069099
 97
        0
 97
        1
330
317
 92
        1
 93
        1
 72
     4
 94
        3
 73
     0
 74
     0
 95
       38
 96
       34
 40
0.0
 40
0.0
 40
0.0
 40
0.0
 40
1.0
 40
1.0
 40
1.0
 40
2.0
 40
2.0
 40
2.0
 40
3.0
 40
3.0
 40
3.0
 40
4.0
 40
4.0
 40
4.0
 40
5.0
 40
5.0
 40
5.0
 40
6.0
 40
6.0
 40
6.0
 40
7.0
 40
7.0
 40
7.0
 40
8.0
 40
8.0
 40
8.0
 40
9.0
 40
9.0
 40
9.0
 40
10.0
 40
10.0
 40
10.0
 40
11.0
 40
11.0
 40
11.0
 40
11.0
 10
136.6479898746921
 20
139.5387694963653
 10
136.6479898746921
 20
139.5387694963653
 10
135.3474663290103
 20
140.4499972522139
 10
135.3474663290103
 20
140.4499972522139
 10
135.3474663290103
 20
140.4499972522139
 10
135.3474663290103
 20
140.6418890707423
 10
135.3474663290103
 20
140.6418890707423
 10
135.3474663290103
 20
140.6418890707423
 10
136.6676269189581
 20
140.6418890707423
 10
136.6676269189581
 20
140.6418890707423
 10
136.6676269189581
 20
140.6418890707423
 10
136.6676269189581
 20
140.9126700161294
 10
136.6676269189581
 20
140.9126700161294
 10
136.6676269189581
 20
140.9126700161294
 10
136.8791557817524
 20
140.9126700161294
 10
136.8791557817524
 20
140.9126700161294
 10
136.8791557817524
 20
140.9126700161294
 10
136.8791557817524
 20
140.6418890707423
 10
136.8791557817524
 20
140.6418890707423
 10
136.8791557817524
 20
140.6418890707423
 10
137.3473442581979
 20
140.6418890707423
 10
137.3473442581979
 20
140.6418890707423
 10
137.3473442581979
 20
140.6418890707423
 10
137.3473442581979
 20
140.4158908069099
 10
137.3473442581979
 20
140.4158908069099
 10
137.3473442581979
 20
140.4158908069099
 10
136.8791557817524
 20
140.4158908069099
 10
136.8791557817524
 20
140.4158908069099
 10
136.8791557817524
 20
140.4158908069099
 10
136.8791557817524
 20
139.5387694963653
 10
136.8791557817524
 20
139.5387694963653
 10
136.8791557817524
 20
139.5387694963653
 10
136.6479898746921
 20
139.5387694963653
 10
136.6479898746921
 20
139.5387694963653
 97
        0
 97
        1
330
318
 75
     2
 76
     1
 98
        1
 10
0.0
 20
0.0
450
        0
451
        0
460
0.0
461
0.0
452
        0
462
0.0
453
        0
470

  0
SPLINE
  5
31A
330
30E
100
AcDbEntity
  8
Rahmen (ISO)
100
AcDbSpline
210
0.0
220
0.0
230
1.0
 70
     9
 71
     3
 72
    62
 73
    58
 74
     0
 42
0.0000000001
 43
0.0000000001
 40
0.0
 40
0.0
 40
0.0
 40
0.0
 40
1.0
 40
1.0
 40
1.0
 40
2.0
 40
2.0
 40
2.0
 40
3.0
 40
3.0
 40
3.0
 40
4.0
 40
4.0
 40
4.0
 40
5.0
 40
5.0
 40
5.0
 40
6.0
 40
6.0
 40
6.0
 40
7.0
 40
7.0
 40
7.0
 40
8.0
 40
8.0
 40
8.0
 40
9.0
 40
9.0
 40
9.0
 40
10.0
 40
10.0
 40
10.0
 40
11.0
 40
11.0
 40
11.0
 40
12.0
 40
12.0
 40
12.0
 40
13.0
 40
13.0
 40
13.0
 40
14.0
 40
14.0
 40
14.0
 40
15.0
 40
15.0
 40
15.0
 40
16.0
 40
16.0
 40
16.0
 40
17.0
 40
17.0
 40
17.0
 40
18.0
 40
18.0
 40
18.0
 40
19.0
 40
19.0
 40
19.0
 40
19.0
 10
136.7296386376926
 20
141.3536422271015
 30
0.0
 10
136.9890543277319
 20
141.3619140271595
 30
0.0
 10
137.169577331159
 20
141.5059190184429
 30
0.0
 10
137.169577331159
 20
141.7794595999718
 30
0.0
 10
137.169577331159
 20
142.0137260929688
 30
0.0
 10
137.0231607730358
 20
142.2138861406618
 30
0.0
 10
136.7833821272625
 20
142.2138861406618
 30
0.0
 10
136.5322346663877
 20
142.2138861406618
 30
0.0
 10
136.3995984902057
 20
142.0247503985216
 30
0.0
 10
136.3995984902057
 20
141.7877278291364
 30
0.0
 10
136.3995984902057
 20
141.7370849255032
 30
0.0
 10
136.4023545665938
 20
141.6891980982582
 30
0.0
 10
136.4082112289188
 20
141.6440673474015
 30
0.0
 10
136.4082112289188
 20
141.6440673474015
 30
0.0
 10
136.204950595289
 20
141.6440673474015
 30
0.0
 10
136.204950595289
 20
141.6440673474015
 30
0.0
 10
136.2080511812258
 20
141.6637043916674
 30
0.0
 10
136.2080511812258
 20
141.6809298690936
 30
0.0
 10
136.2080511812258
 20
141.6974663274228
 30
0.0
 10
136.2080511812258
 20
141.6974663274228
 30
0.0
 10
136.2080511812258
 20
141.7484537406045
 30
0.0
 10
136.2080511812258
 20
141.7484537406045
 30
0.0
 10
136.2080511812258
 20
141.9517143742343
 30
0.0
 10
136.0950520493096
 20
142.1291367917246
 30
0.0
 10
135.880767110127
 20
142.1291367917246
 30
0.0
 10
135.6692382473327
 20
142.1291367917246
 30
0.0
 10
135.5589951918047
 20
141.9768635712766
 30
0.0
 10
135.5589951918047
 20
141.7739474471954
 30
0.0
 10
135.5589951918047
 20
141.5141872476075
 30
0.0
 10
135.7594997490462
 20
141.3956759629149
 30
0.0
 10
135.9934217324947
 20
141.3956759629149
 30
0.0
 10
135.9934217324947
 20
141.3956759629149
 30
0.0
 10
135.9934217324947
 20
141.1558973171415
 30
0.0
 10
135.9934217324947
 20
141.1558973171415
 30
0.0
 10
135.6127386813746
 20
141.1703667181796
 30
0.0
 10
135.3474663290103
 20
141.3732828422608
 30
0.0
 10
135.3474663290103
 20
141.7739474471954
 30
0.0
 10
135.3474663290103
 20
142.1205240530115
 30
0.0
 10
135.5138644409479
 20
142.3830403289876
 30
0.0
 10
135.8835231865152
 20
142.3830403289876
 30
0.0
 10
136.0612901135541
 20
142.3830403289876
 30
0.0
 10
136.2108072576139
 20
142.2617729679068
 30
0.0
 10
136.2810872055131
 20
142.1067436710705
 30
0.0
 10
136.2810872055131
 20
142.1067436710705
 30
0.0
 10
136.286943867838
 20
142.1067436710705
 30
0.0
 10
136.286943867838
 20
142.1067436710705
 30
0.0
 10
136.3403428478594
 20
142.3520344696203
 30
0.0
 10
136.5322346663877
 20
142.4677896779247
 30
0.0
 10
136.7720133121611
 20
142.4677896779247
 30
0.0
 10
137.169577331159
 20
142.4677896779247
 30
0.0
 10
137.3814507035018
 20
142.1546304983155
 30
0.0
 10
137.3814507035018
 20
141.7794595999718
 30
0.0
 10
137.3814507035018
 20
141.3732828422608
 30
0.0
 10
137.1444281341167
 20
141.1052544135084
 30
0.0
 10
136.7296386376926
 20
141.1138671522215
 30
0.0
 10
136.7296386376926
 20
141.1138671522215
 30
0.0
 10
136.7296386376926
 20
141.3536422271015
 30
0.0
 10
136.7296386376926
 20
141.3536422271015
 30
0.0
  0
HATCH
  5
31B
330
30E
100
AcDbEntity
  8
Rahmen (ISO)
 62
    18
420
        0
440
 33554687
100
AcDbHatch
 10
0.0
 20
0.0
 30
0.0
210
0.0
220
0.0
230
1.0
  2
SOLID
 70
     1
 71
     1
 91
        1
 92
        1
 93
        1
 72
     4
 94
        3
 73
     0
 74
     0
 95
       62
 96
       58
 40
0.0
 40
0.0
 40
0.0
 40
0.0
 40
1.0
 40
1.0
 40
1.0
 40
2.0
 40
2.0
 40
2.0
 40
3.0
 40
3.0
 40
3.0
 40
4.0
 40
4.0
 40
4.0
 40
5.0
 40
5.0
 40
5.0
 40
6.0
 40
6.0
 40
6.0
 40
7.0
 40
7.0
 40
7.0
 40
8.0
 40
8.0
 40
8.0
 40
9.0
 40
9.0
 40
9.0
 40
10.0
 40
10.0
 40
10.0
 40
11.0
 40
11.0
 40
11.0
 40
12.0
 40
12.0
 40
12.0
 40
13.0
 40
13.0
 40
13.0
 40
14.0
 40
14.0
 40
14.0
 40
15.0
 40
15.0
 40
15.0
 40
16.0
 40
16.0
 40
16.0
 40
17.0
 40
17.0
 40
17.0
 40
18.0
 40
18.0
 40
18.0
 40
19.0
 40
19.0
 40
19.0
 40
19.0
 10
136.7296386376926
 20
141.3536422271015
 10
136.9890543277319
 20
141.3619140271595
 10
137.169577331159
 20
141.5059190184429
 10
137.169577331159
 20
141.7794595999718
 10
137.169577331159
 20
142.0137260929688
 10
137.0231607730358
 20
142.2138861406618
 10
136.7833821272625
 20
142.2138861406618
 10
136.5322346663877
 20
142.2138861406618
 10
136.3995984902057
 20
142.0247503985216
 10
136.3995984902057
 20
141.7877278291364
 10
136.3995984902057
 20
141.7370849255032
 10
136.4023545665938
 20
141.6891980982582
 10
136.4082112289188
 20
141.6440673474015
 10
136.4082112289188
 20
141.6440673474015
 10
136.204950595289
 20
141.6440673474015
 10
136.204950595289
 20
141.6440673474015
 10
136.2080511812258
 20
141.6637043916674
 10
136.2080511812258
 20
141.6809298690936
 10
136.2080511812258
 20
141.6974663274228
 10
136.2080511812258
 20
141.6974663274228
 10
136.2080511812258
 20
141.7484537406045
 10
136.2080511812258
 20
141.7484537406045
 10
136.2080511812258
 20
141.9517143742343
 10
136.0950520493096
 20
142.1291367917246
 10
135.880767110127
 20
142.1291367917246
 10
135.6692382473327
 20
142.1291367917246
 10
135.5589951918047
 20
141.9768635712766
 10
135.5589951918047
 20
141.7739474471954
 10
135.5589951918047
 20
141.5141872476075
 10
135.7594997490462
 20
141.3956759629149
 10
135.9934217324947
 20
141.3956759629149
 10
135.9934217324947
 20
141.3956759629149
 10
135.9934217324947
 20
141.1558973171415
 10
135.9934217324947
 20
141.1558973171415
 10
135.6127386813746
 20
141.1703667181796
 10
135.3474663290103
 20
141.3732828422608
 10
135.3474663290103
 20
141.7739474471954
 10
135.3474663290103
 20
142.1205240530115
 10
135.5138644409479
 20
142.3830403289876
 10
135.8835231865152
 20
142.3830403289876
 10
136.0612901135541
 20
142.3830403289876
 10
136.2108072576139
 20
142.2617729679068
 10
136.2810872055131
 20
142.1067436710705
 10
136.2810872055131
 20
142.1067436710705
 10
136.286943867838
 20
142.1067436710705
 10
136.286943867838
 20
142.1067436710705
 10
136.3403428478594
 20
142.3520344696203
 10
136.5322346663877
 20
142.4677896779247
 10
136.7720133121611
 20
142.4677896779247
 10
137.169577331159
 20
142.4677896779247
 10
137.3814507035018
 20
142.1546304983155
 10
137.3814507035018
 20
141.7794595999718
 10
137.3814507035018
 20
141.3732828422608
 10
137.1444281341167
 20
141.1052544135084
 10
136.7296386376926
 20
141.1138671522215
 10
136.7296386376926
 20
141.1138671522215
 10
136.7296386376926
 20
141.3536422271015
 10
136.7296386376926
 20
141.3536422271015
 97
        0
 97
        1
330
31A
 75
     2
 76
     1
 98
        1
 10
0.0
 20
0.0
450
        0
451
        0
460
0.0
461
0.0
452
        0
462
0.0
453
        0
470

  0
ENDBLK
  5
311
330
30E
100
AcDbEntity
  8
0
100
AcDbBlockEnd
  0
ENDSEC
  0
SECTION
  2
ENTITIES
  0
INSERT
  5
79
330
70
100
AcDbEntity
  8
0
100
AcDbBlockReference
  2
Block_0
 10
0.0
 20
0.0
 30
0.0
  0
INSERT
  5
7D
330
70
100
AcDbEntity
  8
0
100
AcDbBlockReference
  2
Block_1
 10
0.0
 20
0.0
 30
0.0
  0
INSERT
  5
81
330
70
100
AcDbEntity
  8
0
100
AcDbBlockReference
  2
Block_2
 10
0.0
 20
0.0
 30
0.0
  0
INSERT
  5
85
330
70
100
AcDbEntity
  8
0
100
AcDbBlockReference
  2
Block_3
 10
0.0
 20
0.0
 30
0.0
  0
INSERT
  5
89
330
70
100
AcDbEntity
  8
0
100
AcDbBlockReference
  2
Block_4
 10
0.0
 20
0.0
 30
0.0
  0
INSERT
  5
8E
330
70
100
AcDbEntity
  8
Titel (ISO)
100
AcDbBlockReference
  2
Block_5
 10
0.0
 20
0.0
 30
0.0
  0
INSERT
  5
92
330
70
100
AcDbEntity
  8
Titel (ISO)
100
AcDbBlockReference
  2
Block_6
 10
0.0
 20
0.0
 30
0.0
  0
INSERT
  5
96
330
70
100
AcDbEntity
  8
Titel (ISO)
100
AcDbBlockReference
  2
Block_7
 10
0.0
 20
0.0
 30
0.0
  0
INSERT
  5
9A
330
70
100
AcDbEntity
  8
Titel (ISO)
100
AcDbBlockReference
  2
Block_8
 10
0.0
 20
0.0
 30
0.0
  0
INSERT
  5
9E
330
70
100
AcDbEntity
  8
Titel (ISO)
100
AcDbBlockReference
  2
Block_9
 10
0.0
 20
0.0
 30
0.0
  0
INSERT
  5
A2
330
70
100
AcDbEntity
  8
Titel (ISO)
100
AcDbBlockReference
  2
Block_10
 10
0.0
 20
0.0
 30
0.0
  0
INSERT
  5
A6
330
70
100
AcDbEntity
  8
Titel (ISO)
100
AcDbBlockReference
  2
Block_11
 10
0.0
 20
0.0
 30
0.0
  0
INSERT
  5
AA
330
70
100
AcDbEntity
  8
Titel (ISO)
100
AcDbBlockReference
  2
Block_12
 10
0.0
 20
0.0
 30
0.0
  0
INSERT
  5
AE
330
70
100
AcDbEntity
  8
Titel (ISO)
100
AcDbBlockReference
  2
Block_13
 10
0.0
 20
0.0
 30
0.0
  0
INSERT
  5
B4
330
70
100
AcDbEntity
  8
Sichtbar (ISO)
100
AcDbBlockReference
  2
Block_14
 10
0.0
 20
0.0
 30
0.0
  0
INSERT
  5
BA
330
70
100
AcDbEntity
  8
Sichtbar (ISO)
100
AcDbBlockReference
  2
Block_15
 10
0.0
 20
0.0
 30
0.0
  0
INSERT
  5
256
330
70
100
AcDbEntity
  8
Sichtbar (ISO)
100
AcDbBlockReference
  2
Block_16
 10
0.0
 20
0.0
 30
0.0
  0
INSERT
  5
27F
330
70
100
AcDbEntity
  8
Rahmen (ISO)
100
AcDbBlockReference
  2
Block_17
 10
0.0
 20
0.0
 30
0.0
  0
LINE
  5
293
330
70
100
AcDbEntity
  8
Rahmen (ISO)
 62
    18
420
        0
370
     5
100
AcDbLine
 10
109.4170556951716
 20
117.3705674581454
 30
0.0
 11
129.3704005727157
 21
117.3705674576038
 31
0.0
  0
LINE
  5
294
330
70
100
AcDbEntity
  8
Rahmen (ISO)
 62
    18
420
        0
370
     5
100
AcDbLine
 10
109.4170556951716
 20
160.5921988421247
 30
0.0
 11
129.4137179005591
 21
160.5970769408936
 31
0.0
  0
LINE
  5
295
330
70
100
AcDbEntity
  8
Rahmen (ISO)
 62
    18
420
        0
370
     5
100
AcDbLine
 10
110.5101649030739
 20
116.2229712359351
 30
0.0
 11
136.2979848715805
 21
116.2239363333574
 31
0.0
  0
INSERT
  5
297
330
70
100
AcDbEntity
  8
Rahmen (ISO)
100
AcDbBlockReference
  2
Block_21
 10
0.0
 20
0.0
 30
0.0
  0
LINE
  5
2AB
330
70
100
AcDbEntity
  8
Rahmen (ISO)
 62
    18
420
        0
370
     5
100
AcDbLine
 10
110.4933873982522
 20
161.7184537732724
 30
0.0
 11
136.3311820711921
 21
161.718453772419
 31
0.0
  0
LWPOLYLINE
  5
2AC
330
70
100
AcDbEntity
  8
Rahmen (ISO)
 62
    18
420
        0
370
     5
100
AcDbPolyline
 90
        1
 70
     0
 43
0.0
 10
139.453589611347
 20
171.8191463300499
  0
LINE
  5
2AD
330
70
100
AcDbEntity
  8
Rahmen (ISO)
 62
    18
420
        0
370
     5
100
AcDbLine
 10
108.6251798051412
 20
167.2548090544357
 30
0.0
 11
136.4062851949712
 21
167.2885264653437
 31
0.0
  0
LWPOLYLINE
  5
2AE
330
70
100
AcDbEntity
  8
Rahmen (ISO)
 62
    18
420
        0
370
     5
100
AcDbPolyline
 90
        1
 70
     0
 43
0.0
 10
131.7070862351951
 20
171.6185385127733
  0
INSERT
  5
2B0
330
70
100
AcDbEntity
  8
Rahmen (ISO)
100
AcDbBlockReference
  2
Block_25
 10
0.0
 20
0.0
 30
0.0
  0
LWPOLYLINE
  5
2BB
330
70
100
AcDbEntity
  8
Rahmen (ISO)
 62
    18
420
        0
370
     5
100
AcDbPolyline
 90
        1
 70
     0
 43
0.0
 10
119.7837931370373
 20
179.3087018005491
  0
INSERT
  5
2BD
330
70
100
AcDbEntity
  8
Rahmen (ISO)
100
AcDbBlockReference
  2
Block_27
 10
0.0
 20
0.0
 30
0.0
  0
INSERT
  5
2D2
330
70
100
AcDbEntity
  8
Rahmen (ISO)
100
AcDbBlockReference
  2
Block_31
 10
0.0
 20
0.0
 30
0.0
  0
LINE
  5
2DD
330
70
100
AcDbEntity
  8
Rahmen (ISO)
 62
    18
420
        0
370
     5
100
AcDbLine
 10
110.4616441035813
 20
184.9307779269204
 30
0.0
 11
136.4638609311537
 21
184.9638282040619
 31
0.0
  0
INSERT
  5
2DF
330
70
100
AcDbEntity
  8
Rahmen (ISO)
100
AcDbBlockReference
  2
Block_33
 10
0.0
 20
0.0
 30
0.0
  0
LWPOLYLINE
  5
2F3
330
70
100
AcDbEntity
  8
Rahmen (ISO)
 62
    18
420
        0
370
     5
100
AcDbPolyline
 90
        1
 70
     0
 43
0.0
 10
126.6693379330996
 20
179.8714580492308
  0
INSERT
  5
2F5
330
70
100
AcDbEntity
  8
Rahmen (ISO)
100
AcDbBlockReference
  2
Block_37
 10
0.0
 20
0.0
 30
0.0
  0
INSERT
  5
302
330
70
100
AcDbEntity
  8
Rahmen (ISO)
100
AcDbBlockReference
  2
Block_39
 10
0.0
 20
0.0
 30
0.0
  0
INSERT
  5
30F
330
70
100
AcDbEntity
  8
Rahmen (ISO)
100
AcDbBlockReference
  2
Block_40
 10
0.0
 20
0.0
 30
0.0
  0
ENDSEC
  0
SECTION
  2
OBJECTS
  0
DICTIONARY
  5
C
330
0
100
AcDbDictionary
281
     1
  3
ACAD_COLOR
350
63
  3
ACAD_DETAILVIEWSTYLE
350
6A
  3
ACAD_GROUP
350
D
  3
ACAD_LAYOUT
350
62
  3
ACAD_MATERIAL
350
10
  3
ACAD_MLEADERSTYLE
350
66
  3
ACAD_MLINESTYLE
350
5F
  3
ACAD_PLOTSETTINGS
350
61
  3
ACAD_PLOTSTYLENAME
350
E
  3
ACAD_SCALELIST
350
42
  3
ACAD_SECTIONVIEWSTYLE
350
68
  3
ACAD_TABLESTYLE
350
64
  3
ACAD_VISUALSTYLE
350
29
  3
ACDB_RECOMPOSE_DATA
350
324
  3
AcDbVariableDictionary
350
31C
  0
DICTIONARY
  5
63
102
{ACAD_REACTORS
330
C
102
}
330
C
100
AcDbDictionary
281
     1
  0
DICTIONARY
  5
6A
102
{ACAD_REACTORS
330
C
102
}
330
C
100
AcDbDictionary
281
     1
  3
Imperial24
350
6B
  0
DICTIONARY
  5
D
102
{ACAD_REACTORS
330
C
102
}
330
C
100
AcDbDictionary
281
     1
  0
DICTIONARY
  5
62
102
{ACAD_REACTORS
330
C
102
}
330
C
100
AcDbDictionary
281
     1
  3
Layout1
350
6F
  3
Layout2
350
77
  3
Model
350
73
  0
DICTIONARY
  5
10
102
{ACAD_REACTORS
330
C
102
}
330
C
100
AcDbDictionary
281
     1
  3
ByBlock
350
19
  3
ByLayer
350
11
  3
Global
350
21
  0
DICTIONARY
  5
66
102
{ACAD_REACTORS
330
C
102
}
330
C
100
AcDbDictionary
281
     1
  3
Standard
350
67
  0
DICTIONARY
  5
5F
102
{ACAD_REACTORS
330
C
102
}
330
C
100
AcDbDictionary
281
     1
  3
Standard
350
60
  0
DICTIONARY
  5
61
102
{ACAD_REACTORS
330
C
102
}
330
C
100
AcDbDictionary
281
     1
  0
ACDBDICTIONARYWDFLT
  5
E
102
{ACAD_REACTORS
330
C
102
}
330
C
100
AcDbDictionary
281
     1
  3
Normal
350
F
100
AcDbDictionaryWithDefault
340
F
  0
DICTIONARY
  5
42
102
{ACAD_REACTORS
330
C
102
}
330
C
100
AcDbDictionary
281
     1
  3
A0
350
43
  3
A1
350
44
  3
A2
350
45
  3
A3
350
46
  3
A4
350
47
  3
A5
350
48
  3
A6
350
49
  3
A7
350
4A
  3
A8
350
4B
  3
A9
350
4C
  3
B0
350
4D
  3
B1
350
4E
  3
B2
350
4F
  3
B3
350
50
  3
B4
350
51
  3
B5
350
52
  3
B6
350
53
  0
DICTIONARY
  5
68
102
{ACAD_REACTORS
330
C
102
}
330
C
100
AcDbDictionary
281
     1
  3
Imperial24
350
69
  0
DICTIONARY
  5
64
102
{ACAD_REACTORS
330
C
102
}
330
C
100
AcDbDictionary
281
     1
  3
Standard
350
65
  0
DICTIONARY
  5
29
102
{ACAD_REACTORS
330
C
102
}
330
C
100
AcDbDictionary
281
     1
  3
2dWireframe
350
2F
  3
Basic
350
2E
  3
Brighten
350
35
  3
ColorChange
350
39
  3
Conceptual
350
32
  3
Dim
350
34
  3
EdgeColorOff
350
41
  3
Facepattern
350
38
  3
Flat
350
2A
  3
FlatWithEdges
350
2B
  3
Gouraud
350
2C
  3
GouraudWithEdges
350
2D
  3
Hidden
350
31
  3
JitterOff
350
3F
  3
Linepattern
350
37
  3
OverhangOff
350
40
  3
Realistic
350
33
  3
Shaded
350
3E
  3
Shaded with edges
350
3D
  3
Shades of Gray
350
3A
  3
Sketchy
350
3B
  3
Thicken
350
36
  3
Wireframe
350
30
  3
X-Ray
350
3C
  0
XRECORD
  5
324
102
{ACAD_REACTORS
330
C
102
}
330
C
100
AcDbXrecord
280
     1
 90
        1
330
65
  0
DICTIONARY
  5
31C
102
{ACAD_REACTORS
330
C
102
}
330
C
100
AcDbDictionary
281
     1
  3
CANNOSCALE
350
321
  3
CMLEADERSTYLE
350
31E
  3
CTABLESTYLE
350
31D
  3
CVIEWDETAILSTYLE
350
31F
  3
CVIEWSECTIONSTYLE
350
320
  0
ACDBDETAILVIEWSTYLE
  5
6B
102
{ACAD_REACTORS
330
6A
102
}
330
6A
100
AcDbModelDocViewStyle
 70
     0
  3
Imperial24
290
     1
300
Imperial24
 90
        0
100
AcDbDetailViewStyle
 70
     0
 71
     0
 90
        3
 71
     1
340
55
 62
   256
 40
0.24
340
0
 62
   256
 40
0.24
300

 40
0.36
280
     3
 71
     2
340
5D
 90
       25
 62
   256
 71
     3
340
55
 62
   256
 40
0.24
 90
        1
 40
0.75
 90
        1
300
%<\AcVar ViewType \f "%tc1">% %<\AcVar ViewDetailId>%\PSCALE %<\AcVar ViewScale \f "%sn">%
 71
     4
340
5D
 90
       25
 62
   256
340
5D
 90
       25
 62
   256
280
     0
  0
LAYOUT
  5
6F
102
{ACAD_REACTORS
330
62
102
}
330
62
100
AcDbPlotSettings
  1

  2

  4

  6

 40
0.0
 41
0.0
 42
0.0
 43
0.0
 44
0.0
 45
0.0
 46
0.0
 47
0.0
 48
0.0
 49
0.0
140
0.0
141
0.0
142
1.0
143
1.0
 70
   688
 72
     0
 73
     0
 74
     5
  7

 75
    16
147
1.0
 76
     0
 77
     2
 78
   300
148
0.0
149
0.0
100
AcDbLayout
  1
Layout1
 70
     1
 71
     1
 10
0.0
 20
0.0
 11
12.0
 21
9.0
 12
0.0
 22
0.0
 32
0.0
 14
0.0
 24
0.0
 34
0.0
 15
0.0
 25
0.0
 35
0.0
146
0.0
 13
0.0
 23
0.0
 33
0.0
 16
1.0
 26
0.0
 36
0.0
 17
0.0
 27
1.0
 37
0.0
 76
     0
330
6C
  0
LAYOUT
  5
77
102
{ACAD_REACTORS
330
62
102
}
330
62
100
AcDbPlotSettings
  1

  2

  4

  6

 40
0.0
 41
0.0
 42
0.0
 43
0.0
 44
0.0
 45
0.0
 46
0.0
 47
0.0
 48
0.0
 49
0.0
140
0.0
141
0.0
142
1.0
143
1.0
 70
   688
 72
     0
 73
     0
 74
     5
  7

 75
    16
147
1.0
 76
     0
 77
     2
 78
   300
148
0.0
149
0.0
100
AcDbLayout
  1
Layout2
 70
     1
 71
     2
 10
0.0
 20
0.0
 11
12.0
 21
9.0
 12
0.0
 22
0.0
 32
0.0
 14
0.0
 24
0.0
 34
0.0
 15
0.0
 25
0.0
 35
0.0
146
0.0
 13
0.0
 23
0.0
 33
0.0
 16
1.0
 26
0.0
 36
0.0
 17
0.0
 27
1.0
 37
0.0
 76
     0
330
74
  0
LAYOUT
  5
73
102
{ACAD_REACTORS
330
62
102
}
330
62
100
AcDbPlotSettings
  1

  2

  4

  6

 40
0.0
 41
0.0
 42
0.0
 43
0.0
 44
0.0
 45
0.0
 46
0.0
 47
0.0
 48
0.0
 49
0.0
140
0.0
141
0.0
142
1.0
143
1.0
 70
  1712
 72
     0
 73
     0
 74
     0
  7

 75
     0
147
1.0
 76
     0
 77
     2
 78
   300
148
0.0
149
0.0
100
AcDbLayout
  1
Model
 70
     1
 71
     0
 10
0.0
 20
0.0
 11
12.0
 21
9.0
 12
0.0
 22
0.0
 32
0.0
 14
0.0
 24
0.0
 34
0.0
 15
0.0
 25
0.0
 35
0.0
146
0.0
 13
0.0
 23
0.0
 33
0.0
 16
1.0
 26
0.0
 36
0.0
 17
0.0
 27
1.0
 37
0.0
 76
     0
330
70
  0
MATERIAL
  5
19
102
{ACAD_XDICTIONARY
360
1A
102
}
102
{ACAD_REACTORS
330
10
102
}
330
10
100
AcDbMaterial
  1
ByBlock
 72
     0
 43
0.0208333333333333
 43
0.0
 43
0.0
 43
0.0
 43
0.0
 43
0.0208333333333333
 43
0.0
 43
0.0
 43
0.0
 43
0.0
 43
1.0
 43
0.0
 43
0.0
 43
0.0
 43
0.0
 43
1.0
 77
     0
 47
0.0208333333333333
 47
0.0
 47
0.0
 47
0.0
 47
0.0
 47
0.0208333333333333
 47
0.0
 47
0.0
 47
0.0
 47
0.0
 47
1.0
 47
0.0
 47
0.0
 47
0.0
 47
0.0
 47
1.0
171
     0
 49
0.0208333333333333
 49
0.0
 49
0.0
 49
0.0
 49
0.0
 49
0.0208333333333333
 49
0.0
 49
0.0
 49
0.0
 49
0.0
 49
1.0
 49
0.0
 49
0.0
 49
0.0
 49
0.0
 49
1.0
175
     0
142
0.0208333333333333
142
0.0
142
0.0
142
0.0
142
0.0
142
0.0208333333333333
142
0.0
142
0.0
142
0.0
142
0.0
142
1.0
142
0.0
142
0.0
142
0.0
142
0.0
142
1.0
179
     0
144
0.0208333333333333
144
0.0
144
0.0
144
0.0
144
0.0
144
0.0208333333333333
144
0.0
144
0.0
144
0.0
144
0.0
144
1.0
144
0.0
144
0.0
144
0.0
144
0.0
144
1.0
147
0.0208333333333333
147
0.0
147
0.0
147
0.0
147
0.0
147
0.0208333333333333
147
0.0
147
0.0
147
0.0
147
0.0
147
1.0
147
0.0
147
0.0
147
0.0
147
0.0
147
1.0
  0
MATERIAL
  5
11
102
{ACAD_XDICTIONARY
360
12
102
}
102
{ACAD_REACTORS
330
10
102
}
330
10
100
AcDbMaterial
  1
ByLayer
 72
     0
 43
0.0208333333333333
 43
0.0
 43
0.0
 43
0.0
 43
0.0
 43
0.0208333333333333
 43
0.0
 43
0.0
 43
0.0
 43
0.0
 43
1.0
 43
0.0
 43
0.0
 43
0.0
 43
0.0
 43
1.0
 77
     0
 47
0.0208333333333333
 47
0.0
 47
0.0
 47
0.0
 47
0.0
 47
0.0208333333333333
 47
0.0
 47
0.0
 47
0.0
 47
0.0
 47
1.0
 47
0.0
 47
0.0
 47
0.0
 47
0.0
 47
1.0
171
     0
 49
0.0208333333333333
 49
0.0
 49
0.0
 49
0.0
 49
0.0
 49
0.0208333333333333
 49
0.0
 49
0.0
 49
0.0
 49
0.0
 49
1.0
 49
0.0
 49
0.0
 49
0.0
 49
0.0
 49
1.0
175
     0
142
0.0208333333333333
142
0.0
142
0.0
142
0.0
142
0.0
142
0.0208333333333333
142
0.0
142
0.0
142
0.0
142
0.0
142
1.0
142
0.0
142
0.0
142
0.0
142
0.0
142
1.0
179
     0
144
0.0208333333333333
144
0.0
144
0.0
144
0.0
144
0.0
144
0.0208333333333333
144
0.0
144
0.0
144
0.0
144
0.0
144
1.0
144
0.0
144
0.0
144
0.0
144
0.0
144
1.0
147
0.0208333333333333
147
0.0
147
0.0
147
0.0
147
0.0
147
0.0208333333333333
147
0.0
147
0.0
147
0.0
147
0.0
147
1.0
147
0.0
147
0.0
147
0.0
147
0.0
147
1.0
  0
MATERIAL
  5
21
102
{ACAD_XDICTIONARY
360
22
102
}
102
{ACAD_REACTORS
330
10
102
}
330
10
100
AcDbMaterial
  1
Global
 72
     0
 43
0.0208333333333333
 43
0.0
 43
0.0
 43
0.0
 43
0.0
 43
0.0208333333333333
 43
0.0
 43
0.0
 43
0.0
 43
0.0
 43
1.0
 43
0.0
 43
0.0
 43
0.0
 43
0.0
 43
1.0
 77
     0
 47
0.0208333333333333
 47
0.0
 47
0.0
 47
0.0
 47
0.0
 47
0.0208333333333333
 47
0.0
 47
0.0
 47
0.0
 47
0.0
 47
1.0
 47
0.0
 47
0.0
 47
0.0
 47
0.0
 47
1.0
171
     0
 49
0.0208333333333333
 49
0.0
 49
0.0
 49
0.0
 49
0.0
 49
0.0208333333333333
 49
0.0
 49
0.0
 49
0.0
 49
0.0
 49
1.0
 49
0.0
 49
0.0
 49
0.0
 49
0.0
 49
1.0
175
     0
142
0.0208333333333333
142
0.0
142
0.0
142
0.0
142
0.0
142
0.0208333333333333
142
0.0
142
0.0
142
0.0
142
0.0
142
1.0
142
0.0
142
0.0
142
0.0
142
0.0
142
1.0
179
     0
144
0.0208333333333333
144
0.0
144
0.0
144
0.0
144
0.0
144
0.0208333333333333
144
0.0
144
0.0
144
0.0
144
0.0
144
1.0
144
0.0
144
0.0
144
0.0
144
0.0
144
1.0
147
0.0208333333333333
147
0.0
147
0.0
147
0.0
147
0.0
147
0.0208333333333333
147
0.0
147
0.0
147
0.0
147
0.0
147
1.0
147
0.0
147
0.0
147
0.0
147
0.0
147
1.0
  0
MLEADERSTYLE
  5
67
102
{ACAD_REACTORS
330
66
102
}
330
66
100
AcDbMLeaderStyle
179
     2
170
     2
171
     1
172
     0
 90
        2
 40
0.0
 41
0.0
173
     1
 91
-1056964608
340
5B
 92
       -2
290
     1
 42
0.09
291
     1
 43
0.36
  3
Standard
 44
0.18
300

342
55
174
     1
178
     6
175
     1
176
     0
 93
-1056964608
 45
0.18
292
     0
297
     0
 46
0.18
 94
-1056964608
 47
1.0
 49
1.0
140
1.0
293
     1
141
0.0
294
     1
177
     0
142
1.0
295
     1
296
     0
143
0.125
271
     0
272
     9
273
     9
298
     1
  0
MLINESTYLE
  5
60
102
{ACAD_REACTORS
330
5F
102
}
330
5F
100
AcDbMlineStyle
  2
STANDARD
 70
     0
  3

 62
   256
 51
90.0
 52
90.0
 71
     2
 49
0.5
 62
   256
  6
BYLAYER
 49
-0.5
 62
   256
  6
BYLAYER
  0
ACDBPLACEHOLDER
  5
F
102
{ACAD_REACTORS
330
E
102
}
330
E
  0
SCALE
  5
43
102
{ACAD_REACTORS
330
42
102
}
330
42
100
AcDbScale
 70
     0
300
1:1
140
1.0
141
1.0
290
     1
  0
SCALE
  5
44
102
{ACAD_REACTORS
330
42
102
}
330
42
100
AcDbScale
 70
     0
300
1/128" = 1'-0"
140
0.0078125
141
12.0
290
     0
  0
SCALE
  5
45
102
{ACAD_REACTORS
330
42
102
}
330
42
100
AcDbScale
 70
     0
300
1/64" = 1'-0"
140
0.015625
141
12.0
290
     0
  0
SCALE
  5
46
102
{ACAD_REACTORS
330
42
102
}
330
42
100
AcDbScale
 70
     0
300
1/32" = 1'-0"
140
0.03125
141
12.0
290
     0
  0
SCALE
  5
47
102
{ACAD_REACTORS
330
42
102
}
330
42
100
AcDbScale
 70
     0
300
1/16" = 1'-0"
140
0.0625
141
12.0
290
     0
  0
SCALE
  5
48
102
{ACAD_REACTORS
330
42
102
}
330
42
100
AcDbScale
 70
     0
300
3/32" = 1'-0"
140
0.09375
141
12.0
290
     0
  0
SCALE
  5
49
102
{ACAD_REACTORS
330
42
102
}
330
42
100
AcDbScale
 70
     0
300
1/8" = 1'-0"
140
0.125
141
12.0
290
     0
  0
SCALE
  5
4A
102
{ACAD_REACTORS
330
42
102
}
330
42
100
AcDbScale
 70
     0
300
3/16" = 1'-0"
140
0.1875
141
12.0
290
     0
  0
SCALE
  5
4B
102
{ACAD_REACTORS
330
42
102
}
330
42
100
AcDbScale
 70
     0
300
1/4" = 1'-0"
140
0.25
141
12.0
290
     0
  0
SCALE
  5
4C
102
{ACAD_REACTORS
330
42
102
}
330
42
100
AcDbScale
 70
     0
300
3/8" = 1'-0"
140
0.375
141
12.0
290
     0
  0
SCALE
  5
4D
102
{ACAD_REACTORS
330
42
102
}
330
42
100
AcDbScale
 70
     0
300
1/2" = 1'-0"
140
0.5
141
12.0
290
     0
  0
SCALE
  5
4E
102
{ACAD_REACTORS
330
42
102
}
330
42
100
AcDbScale
 70
     0
300
3/4" = 1'-0"
140
0.75
141
12.0
290
     0
  0
SCALE
  5
4F
102
{ACAD_REACTORS
330
42
102
}
330
42
100
AcDbScale
 70
     0
300
1" = 1'-0"
140
1.0
141
12.0
290
     0
  0
SCALE
  5
50
102
{ACAD_REACTORS
330
42
102
}
330
42
100
AcDbScale
 70
     0
300
1-1/2" = 1'-0"
140
1.5
141
12.0
290
     0
  0
SCALE
  5
51
102
{ACAD_REACTORS
330
42
102
}
330
42
100
AcDbScale
 70
     0
300
3" = 1'-0"
140
3.0
141
12.0
290
     0
  0
SCALE
  5
52
102
{ACAD_REACTORS
330
42
102
}
330
42
100
AcDbScale
 70
     0
300
6" = 1'-0"
140
6.0
141
12.0
290
     0
  0
SCALE
  5
53
102
{ACAD_REACTORS
330
42
102
}
330
42
100
AcDbScale
 70
     0
300
1'-0" = 1'-0"
140
12.0
141
12.0
290
     0
  0
ACDBSECTIONVIEWSTYLE
  5
69
102
{ACAD_REACTORS
330
68
102
}
330
68
100
AcDbModelDocViewStyle
 70
     0
  3
Imperial24
290
     1
300
Imperial24
 90
        0
100
AcDbSectionViewStyle
 70
     0
 71
     0
 90
       78
 71
     1
340
55
 62
   256
 40
0.24
340
0
340
0
 62
   256
 40
0.24
300
I, O, Q, S, X, Z
 40
0.48
 90
        3
 40
0.18
 90
        1
 71
     2
340
5D
 90
       25
 62
   256
340
5D
 90
       50
 62
   256
 40
0.24
 40
0.0
 40
0.24
 71
     3
340
55
 62
   256
 40
0.24
 90
        1
 40
0.75
 90
        1
300
%<\AcVar ViewType \f "%tc1">% %<\AcVar ViewSectionStartId>%-%<\AcVar ViewSectionEndId>%\PSCALE %<\AcVar ViewScale \f "%sn">%
 71
     4
 62
   256
 62
   257
300
ANSI31
 40
1.0
 90
        0
290
     0
290
     0
 90
        6
 40
0.0
 40
1.570796326794896
 40
0.2617993877991494
 40
1.308996938995747
 40
-0.2617993877991494
 40
1.832595714594046
  0
TABLESTYLE
  5
65
102
{ACAD_XDICTIONARY
360
322
102
}
102
{ACAD_REACTORS
330
64
102
}
330
64
100
AcDbTableStyle
280
     0
  3
Standard
 70
     0
 71
     0
 40
0.06
 41
0.06
280
     0
281
     0
  7
Standard
140
0.18
170
     2
 62
     0
 63
     7
283
     0
 90
      512
 91
        0
  1

274
    -2
284
     1
 64
     0
275
    -2
285
     1
 65
     0
276
    -2
286
     1
 66
     0
277
    -2
287
     1
 67
     0
278
    -2
288
     1
 68
     0
279
    -2
289
     1
 69
     0
  7
Standard
140
0.25
170
     5
 62
     0
 63
     7
283
     0
 90
      512
 91
        0
  1

274
    -2
284
     1
 64
     0
275
    -2
285
     1
 65
     0
276
    -2
286
     1
 66
     0
277
    -2
287
     1
 67
     0
278
    -2
288
     1
 68
     0
279
    -2
289
     1
 69
     0
  7
Standard
140
0.18
170
     5
 62
     0
 63
     7
283
     0
 90
      512
 91
        0
  1

274
    -2
284
     1
 64
     0
275
    -2
285
     1
 65
     0
276
    -2
286
     1
 66
     0
277
    -2
287
     1
 67
     0
278
    -2
288
     1
 68
     0
279
    -2
289
     1
 69
     0
  0
VISUALSTYLE
  5
2F
102
{ACAD_REACTORS
330
29
102
}
330
29
100
AcDbVisualStyle
  2
2dWireframe
 70
     4
177
     3
291
     0
 70
    58
 90
        0
176
     1
 90
        2
176
     1
 90
        0
176
     1
 90
        0
176
     1
 40
0.6
176
     1
 40
30.0
176
     1
 62
     7
420
 16777215
176
     1
 90
        1
176
     1
 90
        4
176
     1
 62
     7
176
     1
 62
   257
176
     1
 90
        1
176
     1
 90
        1
176
     1
 40
1.0
176
     1
 90
        0
176
     1
 62
   257
176
     1
 40
1.0
176
     1
 90
        1
176
     1
 90
        6
176
     1
 90
        2
176
     1
 62
     7
176
     1
 90
        5
176
     1
 90
        0
176
     1
 90
        0
176
     1
290
     0
176
     1
 90
        1
176
     1
 40
0.0
176
     1
 90
        0
176
     1
290
     1
176
     1
290
     1
176
     1
290
     0
176
     1
290
     0
176
     1
290
     0
176
     1
290
     0
176
     1
290
     0
176
     1
290
     0
176
     1
290
     0
176
     1
 90
       50
176
     1
 40
0.0
176
     1
 40
1.0
176
     1
 90
        0
176
     1
 62
    18
420
        0
176
     1
 90
       50
176
     1
 90
        3
176
     1
 62
     5
420
      255
176
     1
290
     0
176
     1
 90
       50
176
     1
 90
       50
176
     1
 90
       50
176
     1
290
     0
176
     1
 90
       50
176
     1
 62
   256
176
     0
 40
1.0
176
     0
 90
        2
176
     1
  1
strokes_ogs.tif
176
     1
290
     0
176
     1
 40
1.0
176
     1
 40
1.0
176
     1
  0
VISUALSTYLE
  5
2E
102
{ACAD_REACTORS
330
29
102
}
330
29
100
AcDbVisualStyle
  2
Basic
 70
     7
177
     3
291
     1
 70
    58
 90
        1
176
     1
 90
        0
176
     1
 90
        1
176
     1
 90
        0
176
     1
 40
0.6
176
     1
 40
30.0
176
     1
 62
     7
420
 16777215
176
     1
 90
        0
176
     1
 90
        4
176
     1
 62
     7
176
     1
 62
   257
176
     1
 90
        1
176
     1
 90
        1
176
     1
 40
1.0
176
     1
 90
        8
176
     1
 62
     7
176
     1
 40
1.0
176
     1
 90
        1
176
     1
 90
        6
176
     1
 90
        2
176
     1
 62
     7
176
     1
 90
        5
176
     1
 90
        0
176
     1
 90
        0
176
     1
290
     0
176
     1
 90
        1
176
     1
 40
0.0
176
     1
 90
        0
176
     1
290
     0
176
     1
290
     1
176
     1
290
     1
176
     1
290
     0
176
     1
290
     0
176
     1
290
     0
176
     1
290
     0
176
     1
290
     0
176
     1
290
     0
176
     1
 90
       50
176
     1
 40
0.0
176
     1
 40
1.0
176
     1
 90
        0
176
     1
 62
    18
420
        0
176
     1
 90
       50
176
     1
 90
        3
176
     1
 62
     5
420
      255
176
     1
290
     0
176
     1
 90
       50
176
     1
 90
       50
176
     1
 90
       50
176
     1
290
     0
176
     1
 90
       50
176
     1
 62
   256
176
     0
 40
1.0
176
     0
 90
        2
176
     1
  1
strokes_ogs.tif
176
     1
290
     0
176
     1
 40
1.0
176
     1
 40
1.0
176
     1
  0
VISUALSTYLE
  5
35
102
{ACAD_REACTORS
330
29
102
}
330
29
100
AcDbVisualStyle
  2
Brighten
 70
    12
177
     3
291
     1
 70
    58
 90
        2
176
     1
 90
        2
176
     1
 90
        0
176
     1
 90
        0
176
     1
 40
0.6
176
     1
 40
30.0
176
     1
 62
     7
420
 16777215
176
     1
 90
        1
176
     1
 90
        4
176
     1
 62
     7
176
     1
 62
   257
176
     1
 90
        1
176
     1
 90
        1
176
     1
 40
1.0
176
     1
 90
        8
176
     1
 62
     7
176
     1
 40
1.0
176
     1
 90
        1
176
     1
 90
        6
176
     1
 90
        2
176
     1
 62
     7
176
     1
 90
        5
176
     1
 90
        0
176
     1
 90
        0
176
     1
290
     0
176
     1
 90
        1
176
     1
 40
50.0
176
     1
 90
        0
176
     1
290
     0
176
     1
290
     1
176
     1
290
     1
176
     1
290
     0
176
     1
290
     0
176
     1
290
     0
176
     1
290
     0
176
     1
290
     0
176
     1
290
     0
176
     1
 90
       50
176
     1
 40
0.0
176
     1
 40
1.0
176
     1
 90
        0
176
     1
 62
    18
420
        0
176
     1
 90
       50
176
     1
 90
        3
176
     1
 62
     5
420
      255
176
     1
290
     0
176
     1
 90
       50
176
     1
 90
       50
176
     1
 90
       50
176
     1
290
     0
176
     1
 90
       50
176
     1
 62
   256
176
     0
 40
1.0
176
     0
 90
        2
176
     1
  1
strokes_ogs.tif
176
     1
290
     0
176
     1
 40
1.0
176
     1
 40
1.0
176
     1
  0
VISUALSTYLE
  5
39
102
{ACAD_REACTORS
330
29
102
}
330
29
100
AcDbVisualStyle
  2
ColorChange
 70
    16
177
     3
291
     1
 70
    58
 90
        2
176
     1
 90
        2
176
     1
 90
        3
176
     1
 90
        0
176
     1
 40
0.6
176
     1
 40
30.0
176
     1
 62
     8
420
  8421504
176
     1
 90
        1
176
     1
 90
        4
176
     1
 62
     7
176
     1
 62
   257
176
     1
 90
        1
176
     1
 90
        1
176
     1
 40
1.0
176
     1
 90
        8
176
     1
 62
     8
420
  8421504
176
     1
 40
1.0
176
     1
 90
        1
176
     1
 90
        6
176
     1
 90
        2
176
     1
 62
     7
176
     1
 90
        5
176
     1
 90
        0
176
     1
 90
        0
176
     1
290
     0
176
     1
 90
        1
176
     1
 40
0.0
176
     1
 90
        0
176
     1
290
     0
176
     1
290
     1
176
     1
290
     1
176
     1
290
     0
176
     1
290
     0
176
     1
290
     0
176
     1
290
     0
176
     1
290
     0
176
     1
290
     0
176
     1
 90
       50
176
     1
 40
0.0
176
     1
 40
1.0
176
     1
 90
        0
176
     1
 62
    18
420
        0
176
     1
 90
       50
176
     1
 90
        3
176
     1
 62
     5
420
      255
176
     1
290
     0
176
     1
 90
       50
176
     1
 90
       50
176
     1
 90
       50
176
     1
290
     0
176
     1
 90
       50
176
     1
 62
   256
176
     0
 40
1.0
176
     0
 90
        2
176
     1
  1
strokes_ogs.tif
176
     1
290
     0
176
     1
 40
1.0
176
     1
 40
1.0
176
     1
  0
VISUALSTYLE
  5
32
102
{ACAD_REACTORS
330
29
102
}
330
29
100
AcDbVisualStyle
  2
Conceptual
 70
     9
177
     3
291
     0
 70
    58
 90
        3
176
     1
 90
        2
176
     1
 90
        0
176
     1
 90
        0
176
     1
 40
0.6
176
     1
 40
30.0
176
     1
 62
     7
420
 16777215
176
     1
 90
        2
176
     1
 90
        2
176
     1
 62
     7
176
     1
 62
   257
176
     1
 90
        1
176
     1
 90
        1
176
     1
 40
179.0
176
     1
 90
        8
176
     1
 62
     7
176
     1
 40
1.0
176
     1
 90
        1
176
     1
 90
        6
176
     1
 90
        2
176
     1
 62
     7
176
     1
 90
        3
176
     1
 90
        0
176
     1
 90
        0
176
     1
290
     0
176
     1
 90
        1
176
     1
 40
0.0
176
     1
 90
        0
176
     1
290
     0
176
     1
290
     1
176
     1
290
     1
176
     1
290
     0
176
     1
290
     0
176
     1
290
     0
176
     1
290
     0
176
     1
290
     0
176
     1
290
     0
176
     1
 90
       50
176
     1
 40
0.0
176
     1
 40
1.0
176
     1
 90
        0
176
     1
 62
    18
420
        0
176
     1
 90
       50
176
     1
 90
        3
176
     1
 62
     5
420
      255
176
     1
290
     0
176
     1
 90
       50
176
     1
 90
       50
176
     1
 90
       50
176
     1
290
     0
176
     1
 90
       50
176
     1
 62
   256
176
     0
 40
1.0
176
     0
 90
        2
176
     1
  1
strokes_ogs.tif
176
     1
290
     0
176
     1
 40
1.0
176
     1
 40
1.0
176
     1
  0
VISUALSTYLE
  5
34
102
{ACAD_REACTORS
330
29
102
}
330
29
100
AcDbVisualStyle
  2
Dim
 70
    11
177
     3
291
     1
 70
    58
 90
        2
176
     1
 90
        2
176
     1
 90
        0
176
     1
 90
        0
176
     1
 40
0.6
176
     1
 40
30.0
176
     1
 62
     7
420
 16777215
176
     1
 90
        1
176
     1
 90
        4
176
     1
 62
     7
176
     1
 62
   257
176
     1
 90
        1
176
     1
 90
        1
176
     1
 40
1.0
176
     1
 90
        8
176
     1
 62
     7
176
     1
 40
1.0
176
     1
 90
        1
176
     1
 90
        6
176
     1
 90
        2
176
     1
 62
     7
176
     1
 90
        5
176
     1
 90
        0
176
     1
 90
        0
176
     1
290
     0
176
     1
 90
        1
176
     1
 40
-50.0
176
     1
 90
        0
176
     1
290
     0
176
     1
290
     1
176
     1
290
     1
176
     1
290
     0
176
     1
290
     0
176
     1
290
     0
176
     1
290
     0
176
     1
290
     0
176
     1
290
     0
176
     1
 90
       50
176
     1
 40
0.0
176
     1
 40
1.0
176
     1
 90
        0
176
     1
 62
    18
420
        0
176
     1
 90
       50
176
     1
 90
        3
176
     1
 62
     5
420
      255
176
     1
290
     0
176
     1
 90
       50
176
     1
 90
       50
176
     1
 90
       50
176
     1
290
     0
176
     1
 90
       50
176
     1
 62
   256
176
     0
 40
1.0
176
     0
 90
        2
176
     1
  1
strokes_ogs.tif
176
     1
290
     0
176
     1
 40
1.0
176
     1
 40
1.0
176
     1
  0
VISUALSTYLE
  5
41
102
{ACAD_REACTORS
330
29
102
}
330
29
100
AcDbVisualStyle
  2
EdgeColorOff
 70
    22
177
     3
291
     1
 70
    58
 90
        2
176
     0
 90
        2
176
     0
 90
        0
176
     0
 90
        0
176
     0
 40
0.6
176
     0
 40
30.0
176
     0
 62
     7
420
 16777215
176
     0
 90
        1
176
     0
 90
        4
176
     0
 62
     7
176
     0
 62
   257
176
     0
 90
        1
176
     0
 90
        1
176
     0
 40
1.0
176
     0
 90
        8
176
     2
 62
     7
176
     0
 40
1.0
176
     0
 90
        1
176
     0
 90
        6
176
     0
 90
        2
176
     0
 62
     7
176
     0
 90
        5
176
     0
 90
        0
176
     0
 90
        0
176
     0
290
     0
176
     0
 90
        1
176
     0
 40
0.0
176
     0
 90
        0
176
     0
290
     0
176
     0
290
     1
176
     0
290
     1
176
     0
290
     0
176
     0
290
     0
176
     0
290
     0
176
     0
290
     0
176
     0
290
     0
176
     0
290
     0
176
     0
 90
       50
176
     0
 40
0.0
176
     0
 40
1.0
176
     0
 90
        0
176
     0
 62
    18
420
        0
176
     0
 90
       50
176
     0
 90
        3
176
     0
 62
     5
420
      255
176
     0
290
     0
176
     0
 90
       50
176
     0
 90
       50
176
     0
 90
       50
176
     0
290
     0
176
     0
 90
       50
176
     0
 62
   256
176
     0
 40
1.0
176
     0
 90
        2
176
     0
  1
strokes_ogs.tif
176
     0
290
     0
176
     0
 40
1.0
176
     0
 40
1.0
176
     0
  0
VISUALSTYLE
  5
38
102
{ACAD_REACTORS
330
29
102
}
330
29
100
AcDbVisualStyle
  2
Facepattern
 70
    15
177
     3
291
     1
 70
    58
 90
        2
176
     1
 90
        2
176
     1
 90
        0
176
     1
 90
        0
176
     1
 40
0.6
176
     1
 40
30.0
176
     1
 62
     7
420
 16777215
176
     1
 90
        1
176
     1
 90
        4
176
     1
 62
     7
176
     1
 62
   257
176
     1
 90
        1
176
     1
 90
        1
176
     1
 40
1.0
176
     1
 90
        8
176
     1
 62
     7
176
     1
 40
1.0
176
     1
 90
        1
176
     1
 90
        6
176
     1
 90
        2
176
     1
 62
     7
176
     1
 90
        5
176
     1
 90
        0
176
     1
 90
        0
176
     1
290
     0
176
     1
 90
        1
176
     1
 40
0.0
176
     1
 90
        0
176
     1
290
     0
176
     1
290
     1
176
     1
290
     1
176
     1
290
     0
176
     1
290
     0
176
     1
290
     0
176
     1
290
     0
176
     1
290
     0
176
     1
290
     0
176
     1
 90
       50
176
     1
 40
0.0
176
     1
 40
1.0
176
     1
 90
        0
176
     1
 62
    18
420
        0
176
     1
 90
       50
176
     1
 90
        3
176
     1
 62
     5
420
      255
176
     1
290
     0
176
     1
 90
       50
176
     1
 90
       50
176
     1
 90
       50
176
     1
290
     0
176
     1
 90
       50
176
     1
 62
   256
176
     0
 40
1.0
176
     0
 90
        2
176
     1
  1
strokes_ogs.tif
176
     1
290
     0
176
     1
 40
1.0
176
     1
 40
1.0
176
     1
  0
VISUALSTYLE
  5
2A
102
{ACAD_REACTORS
330
29
102
}
330
29
100
AcDbVisualStyle
  2
Flat
 70
     0
177
     3
291
     1
 70
    58
 90
        2
176
     1
 90
        1
176
     1
 90
        1
176
     1
 90
        2
176
     1
 40
0.6
176
     1
 40
30.0
176
     1
 62
     7
420
 16777215
176
     1
 90
        0
176
     1
 90
        0
176
     1
 62
     7
176
     1
 62
   257
176
     1
 90
        1
176
     1
 90
        1
176
     1
 40
1.0
176
     1
 90
        8
176
     1
 62
     7
176
     1
 40
1.0
176
     1
 90
        1
176
     1
 90
        6
176
     1
 90
        2
176
     1
 62
     7
176
     1
 90
        5
176
     1
 90
        0
176
     1
 90
        0
176
     1
290
     0
176
     1
 90
       13
176
     1
 40
0.0
176
     1
 90
        0
176
     1
290
     0
176
     1
290
     1
176
     1
290
     1
176
     1
290
     0
176
     1
290
     0
176
     1
290
     0
176
     1
290
     0
176
     1
290
     0
176
     1
290
     0
176
     1
 90
       50
176
     1
 40
0.0
176
     1
 40
1.0
176
     1
 90
        0
176
     1
 62
    18
420
        0
176
     1
 90
       50
176
     1
 90
        3
176
     1
 62
     5
420
      255
176
     1
290
     0
176
     1
 90
       50
176
     1
 90
       50
176
     1
 90
       50
176
     1
290
     0
176
     1
 90
       50
176
     1
 62
   256
176
     0
 40
1.0
176
     0
 90
        2
176
     1
  1
strokes_ogs.tif
176
     1
290
     0
176
     1
 40
1.0
176
     1
 40
1.0
176
     1
  0
VISUALSTYLE
  5
2B
102
{ACAD_REACTORS
330
29
102
}
330
29
100
AcDbVisualStyle
  2
FlatWithEdges
 70
     1
177
     3
291
     1
 70
    58
 90
        2
176
     1
 90
        1
176
     1
 90
        1
176
     1
 90
        2
176
     1
 40
0.6
176
     1
 40
30.0
176
     1
 62
     7
420
 16777215
176
     1
 90
        1
176
     1
 90
        0
176
     1
 62
     7
176
     1
 62
   257
176
     1
 90
        1
176
     1
 90
        1
176
     1
 40
1.0
176
     1
 90
        0
176
     1
 62
   257
176
     1
 40
1.0
176
     1
 90
        1
176
     1
 90
        6
176
     1
 90
        2
176
     1
 62
     7
176
     1
 90
        5
176
     1
 90
        0
176
     1
 90
        0
176
     1
290
     0
176
     1
 90
       13
176
     1
 40
0.0
176
     1
 90
        0
176
     1
290
     0
176
     1
290
     1
176
     1
290
     1
176
     1
290
     0
176
     1
290
     0
176
     1
290
     0
176
     1
290
     0
176
     1
290
     0
176
     1
290
     0
176
     1
 90
       50
176
     1
 40
0.0
176
     1
 40
1.0
176
     1
 90
        0
176
     1
 62
    18
420
        0
176
     1
 90
       50
176
     1
 90
        3
176
     1
 62
     5
420
      255
176
     1
290
     0
176
     1
 90
       50
176
     1
 90
       50
176
     1
 90
       50
176
     1
290
     0
176
     1
 90
       50
176
     1
 62
   256
176
     0
 40
1.0
176
     0
 90
        2
176
     1
  1
strokes_ogs.tif
176
     1
290
     0
176
     1
 40
1.0
176
     1
 40
1.0
176
     1
  0
VISUALSTYLE
  5
2C
102
{ACAD_REACTORS
330
29
102
}
330
29
100
AcDbVisualStyle
  2
Gouraud
 70
     2
177
     3
291
     1
 70
    58
 90
        2
176
     1
 90
        2
176
     1
 90
        1
176
     1
 90
        2
176
     1
 40
0.6
176
     1
 40
30.0
176
     1
 62
     7
420
 16777215
176
     1
 90
        0
176
     1
 90
        0
176
     1
 62
     7
176
     1
 62
   257
176
     1
 90
        1
176
     1
 90
        1
176
     1
 40
1.0
176
     1
 90
        0
176
     1
 62
     7
176
     1
 40
1.0
176
     1
 90
        1
176
     1
 90
        6
176
     1
 90
        2
176
     1
 62
     7
176
     1
 90
        5
176
     1
 90
        0
176
     1
 90
        0
176
     1
290
     0
176
     1
 90
       13
176
     1
 40
0.0
176
     1
 90
        0
176
     1
290
     0
176
     1
290
     1
176
     1
290
     1
176
     1
290
     0
176
     1
290
     0
176
     1
290
     0
176
     1
290
     0
176
     1
290
     0
176
     1
290
     0
176
     1
 90
       50
176
     1
 40
0.0
176
     1
 40
1.0
176
     1
 90
        0
176
     1
 62
    18
420
        0
176
     1
 90
       50
176
     1
 90
        3
176
     1
 62
     5
420
      255
176
     1
290
     0
176
     1
 90
       50
176
     1
 90
       50
176
     1
 90
       50
176
     1
290
     0
176
     1
 90
       50
176
     1
 62
   256
176
     0
 40
1.0
176
     0
 90
        2
176
     1
  1
strokes_ogs.tif
176
     1
290
     0
176
     1
 40
1.0
176
     1
 40
1.0
176
     1
  0
VISUALSTYLE
  5
2D
102
{ACAD_REACTORS
330
29
102
}
330
29
100
AcDbVisualStyle
  2
GouraudWithEdges
 70
     3
177
     3
291
     1
 70
    58
 90
        2
176
     1
 90
        2
176
     1
 90
        1
176
     1
 90
        2
176
     1
 40
0.6
176
     1
 40
30.0
176
     1
 62
     7
420
 16777215
176
     1
 90
        1
176
     1
 90
        0
176
     1
 62
     7
176
     1
 62
   257
176
     1
 90
        1
176
     1
 90
        1
176
     1
 40
1.0
176
     1
 90
        0
176
     1
 62
   257
176
     1
 40
1.0
176
     1
 90
        1
176
     1
 90
        6
176
     1
 90
        2
176
     1
 62
     7
176
     1
 90
        5
176
     1
 90
        0
176
     1
 90
        0
176
     1
290
     0
176
     1
 90
       13
176
     1
 40
0.0
176
     1
 90
        0
176
     1
290
     0
176
     1
290
     1
176
     1
290
     1
176
     1
290
     0
176
     1
290
     0
176
     1
290
     0
176
     1
290
     0
176
     1
290
     0
176
     1
290
     0
176
     1
 90
       50
176
     1
 40
0.0
176
     1
 40
1.0
176
     1
 90
        0
176
     1
 62
    18
420
        0
176
     1
 90
       50
176
     1
 90
        3
176
     1
 62
     5
420
      255
176
     1
290
     0
176
     1
 90
       50
176
     1
 90
       50
176
     1
 90
       50
176
     1
290
     0
176
     1
 90
       50
176
     1
 62
   256
176
     0
 40
1.0
176
     0
 90
        2
176
     1
  1
strokes_ogs.tif
176
     1
290
     0
176
     1
 40
1.0
176
     1
 40
1.0
176
     1
  0
VISUALSTYLE
  5
31
102
{ACAD_REACTORS
330
29
102
}
330
29
100
AcDbVisualStyle
  2
Hidden
 70
     6
177
     3
291
     0
 70
    58
 90
        1
176
     1
 90
        2
176
     1
 90
        2
176
     1
 90
        0
176
     1
 40
0.6
176
     1
 40
30.0
176
     1
 62
     7
420
 16777215
176
     1
 90
        2
176
     1
 90
        2
176
     1
 62
     7
176
     1
 62
   257
176
     1
 90
        2
176
     1
 90
        1
176
     1
 40
40.0
176
     1
 90
        0
176
     1
 62
   257
176
     1
 40
1.0
176
     1
 90
        1
176
     1
 90
        6
176
     1
 90
        2
176
     1
 62
     7
176
     1
 90
        3
176
     1
 90
        0
176
     1
 90
        0
176
     1
290
     0
176
     1
 90
        1
176
     1
 40
0.0
176
     1
 90
        0
176
     1
290
     0
176
     1
290
     1
176
     1
290
     1
176
     1
290
     0
176
     1
290
     0
176
     1
290
     0
176
     1
290
     0
176
     1
290
     0
176
     1
290
     0
176
     1
 90
       50
176
     1
 40
0.0
176
     1
 40
1.0
176
     1
 90
        0
176
     1
 62
    18
420
        0
176
     1
 90
       50
176
     1
 90
        3
176
     1
 62
     5
420
      255
176
     1
290
     0
176
     1
 90
       50
176
     1
 90
       50
176
     1
 90
       50
176
     1
290
     0
176
     1
 90
       50
176
     1
 62
   256
176
     0
 40
1.0
176
     0
 90
        2
176
     1
  1
strokes_ogs.tif
176
     1
290
     0
176
     1
 40
1.0
176
     1
 40
1.0
176
     1
  0
VISUALSTYLE
  5
3F
102
{ACAD_REACTORS
330
29
102
}
330
29
100
AcDbVisualStyle
  2
JitterOff
 70
    20
177
     3
291
     1
 70
    58
 90
        2
176
     0
 90
        2
176
     0
 90
        0
176
     0
 90
        0
176
     0
 40
0.6
176
     0
 40
30.0
176
     0
 62
     7
420
 16777215
176
     0
 90
        1
176
     0
 90
        4
176
     0
 62
     7
176
     0
 62
   257
176
     0
 90
        1
176
     0
 90
        1
176
     0
 40
1.0
176
     0
 90
       10
176
     2
 62
     7
176
     0
 40
1.0
176
     0
 90
        1
176
     0
 90
        6
176
     0
 90
        2
176
     0
 62
     7
176
     0
 90
        5
176
     0
 90
        0
176
     0
 90
        0
176
     0
290
     0
176
     0
 90
        1
176
     0
 40
0.0
176
     0
 90
        0
176
     0
290
     0
176
     0
290
     1
176
     0
290
     1
176
     0
290
     0
176
     0
290
     0
176
     0
290
     0
176
     0
290
     0
176
     0
290
     0
176
     0
290
     0
176
     0
 90
       50
176
     0
 40
0.0
176
     0
 40
1.0
176
     0
 90
        0
176
     0
 62
    18
420
        0
176
     0
 90
       50
176
     0
 90
        3
176
     0
 62
     5
420
      255
176
     0
290
     0
176
     0
 90
       50
176
     0
 90
       50
176
     0
 90
       50
176
     0
290
     0
176
     0
 90
       50
176
     0
 62
   256
176
     0
 40
1.0
176
     0
 90
        2
176
     0
  1
strokes_ogs.tif
176
     0
290
     0
176
     0
 40
1.0
176
     0
 40
1.0
176
     0
  0
VISUALSTYLE
  5
37
102
{ACAD_REACTORS
330
29
102
}
330
29
100
AcDbVisualStyle
  2
Linepattern
 70
    14
177
     3
291
     1
 70
    58
 90
        2
176
     1
 90
        2
176
     1
 90
        0
176
     1
 90
        0
176
     1
 40
0.6
176
     1
 40
30.0
176
     1
 62
     7
420
 16777215
176
     1
 90
        1
176
     1
 90
        4
176
     1
 62
     7
176
     1
 62
   257
176
     1
 90
        7
176
     1
 90
        7
176
     1
 40
1.0
176
     1
 90
        8
176
     1
 62
     7
176
     1
 40
1.0
176
     1
 90
        1
176
     1
 90
        6
176
     1
 90
        2
176
     1
 62
     7
176
     1
 90
        5
176
     1
 90
        0
176
     1
 90
        0
176
     1
290
     0
176
     1
 90
        1
176
     1
 40
0.0
176
     1
 90
        0
176
     1
290
     0
176
     1
290
     1
176
     1
290
     1
176
     1
290
     0
176
     1
290
     0
176
     1
290
     0
176
     1
290
     0
176
     1
290
     0
176
     1
290
     0
176
     1
 90
       50
176
     1
 40
0.0
176
     1
 40
1.0
176
     1
 90
        0
176
     1
 62
    18
420
        0
176
     1
 90
       50
176
     1
 90
        3
176
     1
 62
     5
420
      255
176
     1
290
     0
176
     1
 90
       50
176
     1
 90
       50
176
     1
 90
       50
176
     1
290
     0
176
     1
 90
       50
176
     1
 62
   256
176
     0
 40
1.0
176
     0
 90
        2
176
     1
  1
strokes_ogs.tif
176
     1
290
     0
176
     1
 40
1.0
176
     1
 40
1.0
176
     1
  0
VISUALSTYLE
  5
40
102
{ACAD_REACTORS
330
29
102
}
330
29
100
AcDbVisualStyle
  2
OverhangOff
 70
    21
177
     3
291
     1
 70
    58
 90
        2
176
     0
 90
        2
176
     0
 90
        0
176
     0
 90
        0
176
     0
 40
0.6
176
     0
 40
30.0
176
     0
 62
     7
420
 16777215
176
     0
 90
        1
176
     0
 90
        4
176
     0
 62
     7
176
     0
 62
   257
176
     0
 90
        1
176
     0
 90
        1
176
     0
 40
1.0
176
     0
 90
        9
176
     2
 62
     7
176
     0
 40
1.0
176
     0
 90
        1
176
     0
 90
        6
176
     0
 90
        2
176
     0
 62
     7
176
     0
 90
        5
176
     0
 90
        0
176
     0
 90
        0
176
     0
290
     0
176
     0
 90
        1
176
     0
 40
0.0
176
     0
 90
        0
176
     0
290
     0
176
     0
290
     1
176
     0
290
     1
176
     0
290
     0
176
     0
290
     0
176
     0
290
     0
176
     0
290
     0
176
     0
290
     0
176
     0
290
     0
176
     0
 90
       50
176
     0
 40
0.0
176
     0
 40
1.0
176
     0
 90
        0
176
     0
 62
    18
420
        0
176
     0
 90
       50
176
     0
 90
        3
176
     0
 62
     5
420
      255
176
     0
290
     0
176
     0
 90
       50
176
     0
 90
       50
176
     0
 90
       50
176
     0
290
     0
176
     0
 90
       50
176
     0
 62
   256
176
     0
 40
1.0
176
     0
 90
        2
176
     0
  1
strokes_ogs.tif
176
     0
290
     0
176
     0
 40
1.0
176
     0
 40
1.0
176
     0
  0
VISUALSTYLE
  5
33
102
{ACAD_REACTORS
330
29
102
}
330
29
100
AcDbVisualStyle
  2
Realistic
 70
     8
177
     3
291
     0
 70
    58
 90
        2
176
     1
 90
        3
176
     1
 90
        0
176
     1
 90
        2
176
     1
 40
0.6
176
     1
 40
30.0
176
     1
 62
     7
420
 16777215
176
     1
 90
        0
176
     1
 90
        0
176
     1
 62
     7
176
     1
 62
   257
176
     1
 90
        1
176
     1
 90
        1
176
     1
 40
1.0
176
     1
 90
        8
176
     1
 62
   257
176
     1
 40
1.0
176
     1
 90
        1
176
     1
 90
        6
176
     1
 90
        2
176
     1
 62
     7
176
     1
 90
        3
176
     1
 90
        0
176
     1
 90
        0
176
     1
290
     0
176
     1
 90
       13
176
     1
 40
0.0
176
     1
 90
        0
176
     1
290
     0
176
     1
290
     1
176
     1
290
     1
176
     1
290
     0
176
     1
290
     0
176
     1
290
     0
176
     1
290
     0
176
     1
290
     0
176
     1
290
     0
176
     1
 90
       50
176
     1
 40
0.0
176
     1
 40
1.0
176
     1
 90
        0
176
     1
 62
    18
420
        0
176
     1
 90
       50
176
     1
 90
        3
176
     1
 62
     5
420
      255
176
     1
290
     0
176
     1
 90
       50
176
     1
 90
       50
176
     1
 90
       50
176
     1
290
     0
176
     1
 90
       50
176
     1
 62
   256
176
     0
 40
1.0
176
     0
 90
        2
176
     1
  1
strokes_ogs.tif
176
     1
290
     0
176
     1
 40
1.0
176
     1
 40
1.0
176
     1
  0
VISUALSTYLE
  5
3E
102
{ACAD_REACTORS
330
29
102
}
330
29
100
AcDbVisualStyle
  2
Shaded
 70
    27
177
     3
291
     0
 70
    58
 90
        2
176
     1
 90
        2
176
     1
 90
        1
176
     1
 90
        2
176
     1
 40
0.6
176
     1
 40
30.0
176
     1
 62
     7
420
 16777215
176
     1
 90
        0
176
     1
 90
        4
176
     1
 62
     7
176
     1
 62
   257
176
     1
 90
        1
176
     1
 90
        1
176
     1
 40
1.0
176
     1
 90
        8
176
     1
 62
   257
176
     1
 40
1.0
176
     1
 90
        1
176
     1
 90
        6
176
     1
 90
        2
176
     1
 62
     8
420
  7895160
176
     1
 90
        3
176
     1
 90
        0
176
     1
 90
        0
176
     1
290
     0
176
     1
 90
        5
176
     1
 40
0.0
176
     1
 90
        0
176
     1
290
     0
176
     1
290
     1
176
     1
290
     1
176
     1
290
     0
176
     1
290
     0
176
     1
290
     0
176
     1
290
     0
176
     1
290
     0
176
     1
290
     0
176
     1
 90
       50
176
     1
 40
0.0
176
     1
 40
1.0
176
     1
 90
        0
176
     1
 62
    18
420
        0
176
     1
 90
       50
176
     1
 90
        3
176
     1
 62
     5
420
      255
176
     1
290
     0
176
     1
 90
       50
176
     1
 90
       50
176
     1
 90
       50
176
     1
290
     0
176
     1
 90
       50
176
     1
 62
   256
176
     0
 40
1.0
176
     0
 90
        2
176
     1
  1
strokes_ogs.tif
176
     1
290
     0
176
     1
 40
1.0
176
     1
 40
1.0
176
     1
  0
VISUALSTYLE
  5
3D
102
{ACAD_REACTORS
330
29
102
}
330
29
100
AcDbVisualStyle
  2
Shaded with edges
 70
    26
177
     3
291
     0
 70
    58
 90
        2
176
     1
 90
        2
176
     1
 90
        1
176
     1
 90
        2
176
     1
 40
0.6
176
     1
 40
30.0
176
     1
 62
     7
420
 16777215
176
     1
 90
        1
176
     1
 90
        2
176
     1
 62
     7
176
     1
 62
   257
176
     1
 90
        2
176
     1
 90
        1
176
     1
 40
1.0
176
     1
 90
        8
176
     1
 62
   257
176
     1
 40
1.0
176
     1
 90
        1
176
     1
 90
        6
176
     1
 90
        2
176
     1
 62
     7
176
     1
 90
        3
176
     1
 90
        0
176
     1
 90
        0
176
     1
290
     0
176
     1
 90
        5
176
     1
 40
0.0
176
     1
 90
        0
176
     1
290
     0
176
     1
290
     1
176
     1
290
     1
176
     1
290
     0
176
     1
290
     0
176
     1
290
     0
176
     1
290
     0
176
     1
290
     0
176
     1
290
     0
176
     1
 90
       50
176
     1
 40
0.0
176
     1
 40
1.0
176
     1
 90
        0
176
     1
 62
    18
420
        0
176
     1
 90
       50
176
     1
 90
        3
176
     1
 62
     5
420
      255
176
     1
290
     0
176
     1
 90
       50
176
     1
 90
       50
176
     1
 90
       50
176
     1
290
     0
176
     1
 90
       50
176
     1
 62
   256
176
     0
 40
1.0
176
     0
 90
        2
176
     1
  1
strokes_ogs.tif
176
     1
290
     0
176
     1
 40
1.0
176
     1
 40
1.0
176
     1
  0
VISUALSTYLE
  5
3A
102
{ACAD_REACTORS
330
29
102
}
330
29
100
AcDbVisualStyle
  2
Shades of Gray
 70
    23
177
     3
291
     0
 70
    58
 90
        2
176
     1
 90
        2
176
     1
 90
        3
176
     1
 90
        0
176
     1
 40
0.6
176
     1
 40
30.0
176
     1
 62
     7
420
 16777215
176
     1
 90
        2
176
     1
 90
        2
176
     1
 62
     7
176
     1
 62
     7
176
     1
 90
        1
176
     1
 90
        1
176
     1
 40
40.0
176
     1
 90
        8
176
     1
 62
     7
176
     1
 40
1.0
176
     1
 90
        1
176
     1
 90
        6
176
     1
 90
        2
176
     1
 62
     7
176
     1
 90
        3
176
     1
 90
        0
176
     1
 90
        0
176
     1
290
     0
176
     1
 90
        1
176
     1
 40
0.0
176
     1
 90
        0
176
     1
290
     0
176
     1
290
     1
176
     1
290
     1
176
     1
290
     0
176
     1
290
     0
176
     1
290
     0
176
     1
290
     0
176
     1
290
     0
176
     1
290
     0
176
     1
 90
       50
176
     1
 40
0.0
176
     1
 40
1.0
176
     1
 90
        0
176
     1
 62
    18
420
        0
176
     1
 90
       50
176
     1
 90
        3
176
     1
 62
     5
420
      255
176
     1
290
     0
176
     1
 90
       50
176
     1
 90
       50
176
     1
 90
       50
176
     1
290
     0
176
     1
 90
       50
176
     1
 62
   256
176
     0
 40
1.0
176
     0
 90
        2
176
     1
  1
strokes_ogs.tif
176
     1
290
     0
176
     1
 40
1.0
176
     1
 40
1.0
176
     1
  0
VISUALSTYLE
  5
3B
102
{ACAD_REACTORS
330
29
102
}
330
29
100
AcDbVisualStyle
  2
Sketchy
 70
    24
177
     3
291
     0
 70
    58
 90
        1
176
     1
 90
        2
176
     1
 90
        2
176
     1
 90
        0
176
     1
 40
0.6
176
     1
 40
30.0
176
     1
 62
     7
420
 16777215
176
     1
 90
        2
176
     1
 90
        2
176
     1
 62
     7
176
     1
 62
     7
176
     1
 90
        1
176
     1
 90
        1
176
     1
 40
40.0
176
     1
 90
       11
176
     1
 62
     7
176
     1
 40
1.0
176
     1
 90
        1
176
     1
 90
        6
176
     1
 90
        2
176
     1
 62
     7
176
     1
 90
        6
176
     1
 90
        0
176
     1
 90
        0
176
     1
290
     0
176
     1
 90
        1
176
     1
 40
0.0
176
     1
 90
        0
176
     1
290
     0
176
     1
290
     1
176
     1
290
     1
176
     1
290
     0
176
     1
290
     0
176
     1
290
     0
176
     1
290
     0
176
     1
290
     0
176
     1
290
     0
176
     1
 90
       50
176
     1
 40
0.0
176
     1
 40
1.0
176
     1
 90
        0
176
     1
 62
    18
420
        0
176
     1
 90
       50
176
     1
 90
        3
176
     1
 62
     5
420
      255
176
     1
290
     0
176
     1
 90
       50
176
     1
 90
       50
176
     1
 90
       50
176
     1
290
     0
176
     1
 90
       50
176
     1
 62
   256
176
     0
 40
1.0
176
     0
 90
        2
176
     1
  1
strokes_ogs.tif
176
     1
290
     0
176
     1
 40
1.0
176
     1
 40
1.0
176
     1
  0
VISUALSTYLE
  5
36
102
{ACAD_REACTORS
330
29
102
}
330
29
100
AcDbVisualStyle
  2
Thicken
 70
    13
177
     3
291
     1
 70
    58
 90
        2
176
     1
 90
        2
176
     1
 90
        0
176
     1
 90
        0
176
     1
 40
0.6
176
     1
 40
30.0
176
     1
 62
     7
420
 16777215
176
     1
 90
        1
176
     1
 90
        4
176
     1
 62
     7
176
     1
 62
   257
176
     1
 90
        1
176
     1
 90
        1
176
     1
 40
1.0
176
     1
 90
       12
176
     1
 62
     7
176
     1
 40
1.0
176
     1
 90
        1
176
     1
 90
        6
176
     1
 90
        2
176
     1
 62
     7
176
     1
 90
        5
176
     1
 90
        0
176
     1
 90
        0
176
     1
290
     0
176
     1
 90
        1
176
     1
 40
0.0
176
     1
 90
        0
176
     1
290
     0
176
     1
290
     1
176
     1
290
     1
176
     1
290
     0
176
     1
290
     0
176
     1
290
     0
176
     1
290
     0
176
     1
290
     0
176
     1
290
     0
176
     1
 90
       50
176
     1
 40
0.0
176
     1
 40
1.0
176
     1
 90
        0
176
     1
 62
    18
420
        0
176
     1
 90
       50
176
     1
 90
        3
176
     1
 62
     5
420
      255
176
     1
290
     0
176
     1
 90
       50
176
     1
 90
       50
176
     1
 90
       50
176
     1
290
     0
176
     1
 90
       50
176
     1
 62
   256
176
     0
 40
1.0
176
     0
 90
        2
176
     1
  1
strokes_ogs.tif
176
     1
290
     0
176
     1
 40
1.0
176
     1
 40
1.0
176
     1
  0
VISUALSTYLE
  5
30
102
{ACAD_REACTORS
330
29
102
}
330
29
100
AcDbVisualStyle
  2
Wireframe
 70
     5
177
     3
291
     0
 70
    58
 90
        0
176
     1
 90
        2
176
     1
 90
        0
176
     1
 90
        0
176
     1
 40
0.6
176
     1
 40
30.0
176
     1
 62
     7
420
 16777215
176
     1
 90
        1
176
     1
 90
        4
176
     1
 62
     7
176
     1
 62
   257
176
     1
 90
        1
176
     1
 90
        1
176
     1
 40
1.0
176
     1
 90
        0
176
     1
 62
   257
176
     1
 40
1.0
176
     1
 90
        1
176
     1
 90
        6
176
     1
 90
        2
176
     1
 62
     7
176
     1
 90
        3
176
     1
 90
        0
176
     1
 90
        0
176
     1
290
     0
176
     1
 90
        1
176
     1
 40
0.0
176
     1
 90
        0
176
     1
290
     0
176
     1
290
     1
176
     1
290
     1
176
     1
290
     0
176
     1
290
     0
176
     1
290
     0
176
     1
290
     0
176
     1
290
     0
176
     1
290
     0
176
     1
 90
       50
176
     1
 40
0.0
176
     1
 40
1.0
176
     1
 90
        0
176
     1
 62
    18
420
        0
176
     1
 90
       50
176
     1
 90
        3
176
     1
 62
     5
420
      255
176
     1
290
     0
176
     1
 90
       50
176
     1
 90
       50
176
     1
 90
       50
176
     1
290
     0
176
     1
 90
       50
176
     1
 62
   256
176
     0
 40
1.0
176
     0
 90
        2
176
     1
  1
strokes_ogs.tif
176
     1
290
     0
176
     1
 40
1.0
176
     1
 40
1.0
176
     1
  0
VISUALSTYLE
  5
3C
102
{ACAD_REACTORS
330
29
102
}
330
29
100
AcDbVisualStyle
  2
X-Ray
 70
    25
177
     3
291
     0
 70
    58
 90
        2
176
     1
 90
        2
176
     1
 90
        1
176
     1
 90
        1
176
     1
 40
0.5
176
     1
 40
30.0
176
     1
 62
     7
420
 16777215
176
     1
 90
        1
176
     1
 90
        0
176
     1
 62
     7
176
     1
 62
   257
176
     1
 90
        1
176
     1
 90
        1
176
     1
 40
1.0
176
     1
 90
        8
176
     1
 62
     7
176
     1
 40
1.0
176
     1
 90
        1
176
     1
 90
        6
176
     1
 90
        2
176
     1
 62
     7
176
     1
 90
        3
176
     1
 90
        0
176
     1
 90
        0
176
     1
290
     0
176
     1
 90
       13
176
     1
 40
0.0
176
     1
 90
        0
176
     1
290
     0
176
     1
290
     1
176
     1
290
     1
176
     1
290
     0
176
     1
290
     0
176
     1
290
     0
176
     1
290
     0
176
     1
290
     0
176
     1
290
     0
176
     1
 90
       50
176
     1
 40
0.0
176
     1
 40
1.0
176
     1
 90
        0
176
     1
 62
    18
420
        0
176
     1
 90
       50
176
     1
 90
        3
176
     1
 62
     5
420
      255
176
     1
290
     0
176
     1
 90
       50
176
     1
 90
       50
176
     1
 90
       50
176
     1
290
     0
176
     1
 90
       50
176
     1
 62
   256
176
     0
 40
1.0
176
     0
 90
        2
176
     1
  1
strokes_ogs.tif
176
     1
290
     0
176
     1
 40
1.0
176
     1
 40
1.0
176
     1
  0
DICTIONARYVAR
  5
321
102
{ACAD_REACTORS
330
31C
102
}
330
31C
100
DictionaryVariables
280
     0
  1
1:1
  0
DICTIONARYVAR
  5
31E
102
{ACAD_REACTORS
330
31C
102
}
330
31C
100
DictionaryVariables
280
     0
  1
STANDARD
  0
DICTIONARYVAR
  5
31D
102
{ACAD_REACTORS
330
31C
102
}
330
31C
100
DictionaryVariables
280
     0
  1
STANDARD
  0
DICTIONARYVAR
  5
31F
102
{ACAD_REACTORS
330
31C
102
}
330
31C
100
DictionaryVariables
280
     0
  1
Imperial24
  0
DICTIONARYVAR
  5
320
102
{ACAD_REACTORS
330
31C
102
}
330
31C
100
DictionaryVariables
280
     0
  1
Imperial24
  0
DICTIONARY
  5
1A
330
19
100
AcDbDictionary
280
     1
281
     1
  3
BUMPTILE
360
1C
  3
DIFFUSETILE
360
1B
  3
OPACITYTILE
360
1F
  3
REFLECTIONTILE
360
1E
  3
REFRACTIONTILE
360
20
  3
SPECULARTILE
360
1D
  0
DICTIONARY
  5
12
330
11
100
AcDbDictionary
280
     1
281
     1
  3
BUMPTILE
360
14
  3
DIFFUSETILE
360
13
  3
OPACITYTILE
360
17
  3
REFLECTIONTILE
360
16
  3
REFRACTIONTILE
360
18
  3
SPECULARTILE
360
15
  0
DICTIONARY
  5
22
330
21
100
AcDbDictionary
280
     1
281
     1
  3
BUMPTILE
360
24
  3
DIFFUSETILE
360
23
  3
OPACITYTILE
360
27
  3
REFLECTIONTILE
360
26
  3
REFRACTIONTILE
360
28
  3
SPECULARTILE
360
25
  0
DICTIONARY
  5
322
330
65
100
AcDbDictionary
280
     1
281
     1
  3
ACAD_ROUNDTRIP_2008_TABLESTYLE_CELLSTYLEMAP
360
323
  0
XRECORD
  5
1C
102
{ACAD_REACTORS
330
1A
102
}
330
1A
100
AcDbXrecord
280
     1
270
     1
271
     1
  0
XRECORD
  5
1B
102
{ACAD_REACTORS
330
1A
102
}
330
1A
100
AcDbXrecord
280
     1
270
     1
271
     1
  0
XRECORD
  5
1F
102
{ACAD_REACTORS
330
1A
102
}
330
1A
100
AcDbXrecord
280
     1
270
     1
271
     1
  0
XRECORD
  5
1E
102
{ACAD_REACTORS
330
1A
102
}
330
1A
100
AcDbXrecord
280
     1
270
     1
271
     1
  0
XRECORD
  5
20
102
{ACAD_REACTORS
330
1A
102
}
330
1A
100
AcDbXrecord
280
     1
270
     1
271
     1
  0
XRECORD
  5
1D
102
{ACAD_REACTORS
330
1A
102
}
330
1A
100
AcDbXrecord
280
     1
270
     1
271
     1
  0
XRECORD
  5
14
102
{ACAD_REACTORS
330
12
102
}
330
12
100
AcDbXrecord
280
     1
270
     1
271
     1
  0
XRECORD
  5
13
102
{ACAD_REACTORS
330
12
102
}
330
12
100
AcDbXrecord
280
     1
270
     1
271
     1
  0
XRECORD
  5
17
102
{ACAD_REACTORS
330
12
102
}
330
12
100
AcDbXrecord
280
     1
270
     1
271
     1
  0
XRECORD
  5
16
102
{ACAD_REACTORS
330
12
102
}
330
12
100
AcDbXrecord
280
     1
270
     1
271
     1
  0
XRECORD
  5
18
102
{ACAD_REACTORS
330
12
102
}
330
12
100
AcDbXrecord
280
     1
270
     1
271
     1
  0
XRECORD
  5
15
102
{ACAD_REACTORS
330
12
102
}
330
12
100
AcDbXrecord
280
     1
270
     1
271
     1
  0
XRECORD
  5
24
102
{ACAD_REACTORS
330
22
102
}
330
22
100
AcDbXrecord
280
     1
270
     1
271
     1
  0
XRECORD
  5
23
102
{ACAD_REACTORS
330
22
102
}
330
22
100
AcDbXrecord
280
     1
270
     1
271
     1
  0
XRECORD
  5
27
102
{ACAD_REACTORS
330
22
102
}
330
22
100
AcDbXrecord
280
     1
270
     1
271
     1
  0
XRECORD
  5
26
102
{ACAD_REACTORS
330
22
102
}
330
22
100
AcDbXrecord
280
     1
270
     1
271
     1
  0
XRECORD
  5
28
102
{ACAD_REACTORS
330
22
102
}
330
22
100
AcDbXrecord
280
     1
270
     1
271
     1
  0
XRECORD
  5
25
102
{ACAD_REACTORS
330
22
102
}
330
22
100
AcDbXrecord
280
     1
270
     1
271
     1
  0
CELLSTYLEMAP
  5
323
102
{ACAD_REACTORS
330
322
102
}
330
322
100
AcDbCellStyleMap
 90
        3
300
CELLSTYLE
  1
TABLEFORMAT_BEGIN
 90
        5
170
     1
 91
        0
 92
    32768
 62
   257
 93
        1
300
CONTENTFORMAT
  1
CONTENTFORMAT_BEGIN
 90
        0
 91
        0
 92
      512
 93
        0
300

 40
0.0
140
1.0
 94
        5
 62
     0
340
55
144
0.25
309
CONTENTFORMAT_END
171
     0
 94
        0
309
TABLEFORMAT_END
  1
CELLSTYLE_BEGIN
 90
        1
 91
        1
300
_TITLE
309
CELLSTYLE_END
300
CELLSTYLE
  1
TABLEFORMAT_BEGIN
 90
        5
170
     1
 91
        0
 92
        0
 62
   257
 93
        1
300
CONTENTFORMAT
  1
CONTENTFORMAT_BEGIN
 90
        0
 91
        0
 92
      512
 93
        0
300

 40
0.0
140
1.0
 94
        5
 62
     0
340
55
144
0.18
309
CONTENTFORMAT_END
171
     0
 94
        0
309
TABLEFORMAT_END
  1
CELLSTYLE_BEGIN
 90
        2
 91
        1
300
_HEADER
309
CELLSTYLE_END
300
CELLSTYLE
  1
TABLEFORMAT_BEGIN
 90
        5
170
     1
 91
        0
 92
        0
 62
   257
 93
        1
300
CONTENTFORMAT
  1
CONTENTFORMAT_BEGIN
 90
        0
 91
        0
 92
      512
 93
        0
300

 40
0.0
140
1.0
 94
        2
 62
     0
340
55
144
0.18
309
CONTENTFORMAT_END
171
     0
 94
        0
309
TABLEFORMAT_END
  1
CELLSTYLE_BEGIN
 90
        3
 91
        2
300
_DATA
309
CELLSTYLE_END
  0
ENDSEC
  0
EOF
