  0
SECTION
  2
HEADER
  9
$ACADVER
  1
AC1032
  9
$ACADMAINTVER
 90
      251
  9
$DWGCODEPAGE
  3
ANSI_1252
  9
$REQUIREDVERSIONS
160
                 0
  9
$INSBASE
 10
0.0
 20
0.0
 30
0.0
  9
$EXTMIN
 10
1.000000000000000E+20
 20
1.000000000000000E+20
 30
1.000000000000000E+20
  9
$EXTMAX
 10
-1.000000000000000E+20
 20
-1.000000000000000E+20
 30
-1.000000000000000E+20
  9
$LIMMIN
 10
0.0
 20
0.0
  9
$LIMMAX
 10
12.0
 20
9.0
  9
$ORTHOMODE
 70
     0
  9
$REGENMODE
 70
     1
  9
$FILLMODE
 70
     1
  9
$QTEXTMODE
 70
     0
  9
$MIRRTEXT
 70
     0
  9
$LTSCALE
 40
1.0
  9
$ATTMODE
 70
     1
  9
$TEXTSIZE
 40
0.2
  9
$TRACEWID
 40
0.05
  9
$TEXTSTYLE
  7
Standard
  9
$CLAYER
  8
0
  9
$CELTYPE
  6
ByLayer
  9
$CECOLOR
 62
   256
  9
$CELTSCALE
 40
1.0
  9
$DISPSILH
 70
     0
  9
$DIMSCALE
 40
1.0
  9
$DIMASZ
 40
0.18
  9
$DIMEXO
 40
0.0625
  9
$DIMDLI
 40
0.38
  9
$DIMRND
 40
0.0
  9
$DIMDLE
 40
0.0
  9
$DIMEXE
 40
0.18
  9
$DIMTP
 40
0.0
  9
$DIMTM
 40
0.0
  9
$DIMTXT
 40
0.18
  9
$DIMCEN
 40
0.09
  9
$DIMTSZ
 40
0.0
  9
$DIMTOL
 70
     0
  9
$DIMLIM
 70
     0
  9
$DIMTIH
 70
     1
  9
$DIMTOH
 70
     1
  9
$DIMSE1
 70
     0
  9
$DIMSE2
 70
     0
  9
$DIMTAD
 70
     0
  9
$DIMZIN
 70
     0
  9
$DIMBLK
  1

  9
$DIMASO
 70
     1
  9
$DIMSHO
 70
     1
  9
$DIMPOST
  1

  9
$DIMAPOST
  1

  9
$DIMALT
 70
     0
  9
$DIMALTD
 70
     2
  9
$DIMALTF
 40
25.4
  9
$DIMLFAC
 40
1.0
  9
$DIMTOFL
 70
     0
  9
$DIMTVP
 40
0.0
  9
$DIMTIX
 70
     0
  9
$DIMSOXD
 70
     0
  9
$DIMSAH
 70
     0
  9
$DIMBLK1
  1

  9
$DIMBLK2
  1

  9
$DIMSTYLE
  2
Standard
  9
$DIMCLRD
 70
     0
  9
$DIMCLRE
 70
     0
  9
$DIMCLRT
 70
     0
  9
$DIMTFAC
 40
1.0
  9
$DIMGAP
 40
0.09
  9
$DIMJUST
 70
     0
  9
$DIMSD1
 70
     0
  9
$DIMSD2
 70
     0
  9
$DIMTOLJ
 70
     1
  9
$DIMTZIN
 70
     0
  9
$DIMALTZ
 70
     0
  9
$DIMALTTZ
 70
     0
  9
$DIMUPT
 70
     0
  9
$DIMDEC
 70
     4
  9
$DIMTDEC
 70
     4
  9
$DIMALTU
 70
     2
  9
$DIMALTTD
 70
     2
  9
$DIMTXSTY
  7
Standard
  9
$DIMAUNIT
 70
     0
  9
$DIMADEC
 70
     0
  9
$DIMALTRND
 40
0.0
  9
$DIMAZIN
 70
     0
  9
$DIMDSEP
 70
    46
  9
$DIMATFIT
 70
     3
  9
$DIMFRAC
 70
     0
  9
$DIMLDRBLK
  1

  9
$DIMLUNIT
 70
     2
  9
$DIMLWD
 70
    -2
  9
$DIMLWE
 70
    -2
  9
$DIMTMOVE
 70
     0
  9
$DIMFXL
 40
1.0
  9
$DIMFXLON
 70
     0
  9
$DIMJOGANG
 40
0.7853981633974483
  9
$DIMTFILL
 70
     0
  9
$DIMTFILLCLR
 70
     0
  9
$DIMARCSYM
 70
     0
  9
$DIMLTYPE
  6

  9
$DIMLTEX1
  6

  9
$DIMLTEX2
  6

  9
$DIMTXTDIRECTION
 70
     0
  9
$LUNITS
 70
     2
  9
$LUPREC
 70
     4
  9
$SKETCHINC
 40
0.1
  9
$FILLETRAD
 40
0.0
  9
$AUNITS
 70
     0
  9
$AUPREC
 70
     0
  9
$MENU
  1
.
  9
$ELEVATION
 40
0.0
  9
$PELEVATION
 40
0.0
  9
$THICKNESS
 40
0.0
  9
$LIMCHECK
 70
     0
  9
$CHAMFERA
 40
0.0
  9
$CHAMFERB
 40
0.0
  9
$CHAMFERC
 40
0.0
  9
$CHAMFERD
 40
0.0
  9
$SKPOLY
 70
     0
  9
$TDCREATE
 40
2459963.397002315
  9
$TDUCREATE
 40
2459963.355335649
  9
$TDUPDATE
 40
2459963.397002315
  9
$TDUUPDATE
 40
2459963.355335649
  9
$TDINDWG
 40
0.0000000000
  9
$TDUSRTIMER
 40
0.0000000000
  9
$USRTIMER
 70
     1
  9
$ANGBASE
 50
0.0
  9
$ANGDIR
 70
     0
  9
$PDMODE
 70
     0
  9
$PDSIZE
 40
0.0
  9
$PLINEWID
 40
0.0
  9
$SPLFRAME
 70
     0
  9
$SPLINETYPE
 70
     6
  9
$SPLINESEGS
 70
     8
  9
$HANDSEED
  5
369
  9
$SURFTAB1
 70
     6
  9
$SURFTAB2
 70
     6
  9
$SURFTYPE
 70
     6
  9
$SURFU
 70
     6
  9
$SURFV
 70
     6
  9
$UCSBASE
  2

  9
$UCSNAME
  2

  9
$UCSORG
 10
0.0
 20
0.0
 30
0.0
  9
$UCSXDIR
 10
1.0
 20
0.0
 30
0.0
  9
$UCSYDIR
 10
0.0
 20
1.0
 30
0.0
  9
$UCSORTHOREF
  2

  9
$UCSORTHOVIEW
 70
     0
  9
$UCSORGTOP
 10
0.0
 20
0.0
 30
0.0
  9
$UCSORGBOTTOM
 10
0.0
 20
0.0
 30
0.0
  9
$UCSORGLEFT
 10
0.0
 20
0.0
 30
0.0
  9
$UCSORGRIGHT
 10
0.0
 20
0.0
 30
0.0
  9
$UCSORGFRONT
 10
0.0
 20
0.0
 30
0.0
  9
$UCSORGBACK
 10
0.0
 20
0.0
 30
0.0
  9
$PUCSBASE
  2

  9
$PUCSNAME
  2

  9
$PUCSORG
 10
0.0
 20
0.0
 30
0.0
  9
$PUCSXDIR
 10
1.0
 20
0.0
 30
0.0
  9
$PUCSYDIR
 10
0.0
 20
1.0
 30
0.0
  9
$PUCSORTHOREF
  2

  9
$PUCSORTHOVIEW
 70
     0
  9
$PUCSORGTOP
 10
0.0
 20
0.0
 30
0.0
  9
$PUCSORGBOTTOM
 10
0.0
 20
0.0
 30
0.0
  9
$PUCSORGLEFT
 10
0.0
 20
0.0
 30
0.0
  9
$PUCSORGRIGHT
 10
0.0
 20
0.0
 30
0.0
  9
$PUCSORGFRONT
 10
0.0
 20
0.0
 30
0.0
  9
$PUCSORGBACK
 10
0.0
 20
0.0
 30
0.0
  9
$USERI1
 70
     0
  9
$USERI2
 70
     0
  9
$USERI3
 70
     0
  9
$USERI4
 70
     0
  9
$USERI5
 70
     0
  9
$USERR1
 40
0.0
  9
$USERR2
 40
0.0
  9
$USERR3
 40
0.0
  9
$USERR4
 40
0.0
  9
$USERR5
 40
0.0
  9
$WORLDVIEW
 70
     1
  9
$SHADEDGE
 70
     3
  9
$SHADEDIF
 70
    70
  9
$TILEMODE
 70
     1
  9
$MAXACTVP
 70
    64
  9
$PINSBASE
 10
0.0
 20
0.0
 30
0.0
  9
$PLIMCHECK
 70
     0
  9
$PEXTMIN
 10
1.000000000000000E+20
 20
1.000000000000000E+20
 30
1.000000000000000E+20
  9
$PEXTMAX
 10
-1.000000000000000E+20
 20
-1.000000000000000E+20
 30
-1.000000000000000E+20
  9
$PLIMMIN
 10
0.0
 20
0.0
  9
$PLIMMAX
 10
12.0
 20
9.0
  9
$UNITMODE
 70
     0
  9
$VISRETAIN
 70
     1
  9
$PLINEGEN
 70
     0
  9
$PSLTSCALE
 70
     1
  9
$TREEDEPTH
 70
  3020
  9
$CMLSTYLE
  2
Standard
  9
$CMLJUST
 70
     0
  9
$CMLSCALE
 40
1.0
  9
$PROXYGRAPHICS
 70
     1
  9
$MEASUREMENT
 70
     0
  9
$CELWEIGHT
370
    -1
  9
$ENDCAPS
280
     0
  9
$JOINSTYLE
280
     0
  9
$LWDISPLAY
290
     1
  9
$INSUNITS
 70
     4
  9
$HYPERLINKBASE
  1

  9
$STYLESHEET
  1

  9
$XEDIT
290
     1
  9
$CEPSNTYPE
380
     0
  9
$PSTYLEMODE
290
     1
  9
$FINGERPRINTGUID
  2
{2D69E412-335B-8345-BE42-737858A8391A}
  9
$VERSIONGUID
  2
{63FB98D8-DA5E-C544-B4D0-966A2FAA22A1}
  9
$EXTNAMES
290
     1
  9
$PSVPSCALE
 40
0.0
  9
$OLESTARTUP
290
     0
  9
$SORTENTS
280
   127
  9
$INDEXCTL
280
     0
  9
$HIDETEXT
280
     1
  9
$XCLIPFRAME
280
     2
  9
$HALOGAP
280
     0
  9
$OBSCOLOR
 70
   257
  9
$OBSLTYPE
280
     0
  9
$INTERSECTIONDISPLAY
280
     0
  9
$INTERSECTIONCOLOR
 70
   257
  9
$DIMASSOC
280
     2
  9
$PROJECTNAME
  1

  9
$CAMERADISPLAY
290
     0
  9
$LENSLENGTH
 40
50.0
  9
$CAMERAHEIGHT
 40
0.0
  9
$STEPSPERSEC
 40
2.0
  9
$STEPSIZE
 40
6.0
  9
$3DDWFPREC
 40
2.0
  9
$PSOLWIDTH
 40
0.25
  9
$PSOLHEIGHT
 40
4.0
  9
$LOFTANG1
 40
1.570796326794896
  9
$LOFTANG2
 40
1.570796326794896
  9
$LOFTMAG1
 40
0.0
  9
$LOFTMAG2
 40
0.0
  9
$LOFTPARAM
 70
     7
  9
$LOFTNORMALS
280
     1
  9
$LATITUDE
 40
37.795
  9
$LONGITUDE
 40
-122.394
  9
$NORTHDIRECTION
 40
0.0
  9
$TIMEZONE
 70
 -8000
  9
$LIGHTGLYPHDISPLAY
280
     1
  9
$TILEMODELIGHTSYNCH
280
     1
  9
$CMATERIAL
347
11
  9
$SOLIDHIST
280
     0
  9
$SHOWHIST
280
     1
  9
$DWFFRAME
280
     2
  9
$DGNFRAME
280
     0
  9
$REALWORLDSCALE
290
     1
  9
$INTERFERECOLOR
 62
     1
  9
$INTERFEREOBJVS
345
33
  9
$INTERFEREVPVS
346
30
  9
$CSHADOW
280
     0
  9
$SHADOWPLANELOCATION
 40
0.0
  0
ENDSEC
  0
SECTION
  2
CLASSES
  0
CLASS
  1
ACDBDICTIONARYWDFLT
  2
AcDbDictionaryWithDefault
  3
ObjectDBX Classes
 90
        0
 91
        1
280
     0
281
     0
  0
CLASS
  1
MATERIAL
  2
AcDbMaterial
  3
ObjectDBX Classes
 90
     1153
 91
        3
280
     0
281
     0
  0
CLASS
  1
VISUALSTYLE
  2
AcDbVisualStyle
  3
ObjectDBX Classes
 90
     4095
 91
       24
280
     0
281
     0
  0
CLASS
  1
SCALE
  2
AcDbScale
  3
ObjectDBX Classes
 90
     1153
 91
       17
280
     0
281
     0
  0
CLASS
  1
TABLESTYLE
  2
AcDbTableStyle
  3
ObjectDBX Classes
 90
     4095
 91
        1
280
     0
281
     0
  0
CLASS
  1
MLEADERSTYLE
  2
AcDbMLeaderStyle
  3
ACDB_MLEADERSTYLE_CLASS
 90
     4095
 91
        1
280
     0
281
     0
  0
CLASS
  1
ACDBSECTIONVIEWSTYLE
  2
AcDbSectionViewStyle
  3
ObjectDBX Classes
 90
     1025
 91
        1
280
     0
281
     0
  0
CLASS
  1
ACDBDETAILVIEWSTYLE
  2
AcDbDetailViewStyle
  3
ObjectDBX Classes
 90
     1025
 91
        1
280
     0
281
     0
  0
CLASS
  1
DICTIONARYVAR
  2
AcDbDictionaryVar
  3
ObjectDBX Classes
 90
        0
 91
        5
280
     0
281
     0
  0
CLASS
  1
CELLSTYLEMAP
  2
AcDbCellStyleMap
  3
ObjectDBX Classes
 90
     1152
 91
        1
280
     0
281
     0
  0
ENDSEC
  0
SECTION
  2
TABLES
  0
TABLE
  2
VPORT
  5
8
330
0
100
AcDbSymbolTable
 70
     1
  0
VPORT
  5
57
330
8
100
AcDbSymbolTableRecord
100
AcDbViewportTableRecord
  2
*Active
 70
     0
 10
0.0
 20
0.0
 11
1.0
 21
1.0
 12
0.0
 22
0.0
 13
0.0
 23
0.0
 14
1.0
 24
1.0
 15
0.0
 25
0.0
 16
0.0
 26
0.0
 36
1.0
 17
105.0000721959721
 27
148.5000416295418
 37
0.0
 40
89.75999997755987
 41
1.0
 42
50.0
 43
0.0
 44
0.0
 50
0.0
 51
0.0
 71
     0
 72
   100
 73
     1
 74
     1
 75
     0
 76
     0
 77
     0
 78
     0
281
     0
 65
     1
110
0.0
120
0.0
130
0.0
111
1.0
121
0.0
131
0.0
112
0.0
122
1.0
132
0.0
 79
     0
146
0.0
 60
     3
 61
     5
292
     1
282
     1
141
0.0
142
0.0
 63
   250
421
  3355443
  0
ENDTAB
  0
TABLE
  2
LTYPE
  5
5
330
0
100
AcDbSymbolTable
 70
     3
  0
LTYPE
  5
5B
330
5
100
AcDbSymbolTableRecord
100
AcDbLinetypeTableRecord
  2
ByBlock
 70
     0
  3

 72
    65
 73
     0
 40
0.0
  0
LTYPE
  5
5C
330
5
100
AcDbSymbolTableRecord
100
AcDbLinetypeTableRecord
  2
ByLayer
 70
     0
  3

 72
    65
 73
     0
 40
0.0
  0
LTYPE
  5
5D
330
5
100
AcDbSymbolTableRecord
100
AcDbLinetypeTableRecord
  2
Continuous
 70
     0
  3
Solid line
 72
    65
 73
     0
 40
0.0
  0
LTYPE
  5
2CC
330
5
100
AcDbSymbolTableRecord
100
AcDbLinetypeTableRecord
  2
AI-Linetype-0
 70
     0
  3
Adobe Illustrator Linetype No. 0
 72
    65
 73
     2
 40
1.353148556741875
 49
0.6765742783709379
 74
     0
 49
-0.6765742783709379
 74
     0
  0
LTYPE
  5
30A
330
5
100
AcDbSymbolTableRecord
100
AcDbLinetypeTableRecord
  2
AI-Linetype-1
 70
     0
  3
Adobe Illustrator Linetype No. 1
 72
    65
 73
     2
 40
1.518069045693972
 49
0.7590345228469863
 74
     0
 49
-0.7590345228469863
 74
     0
  0
ENDTAB
  0
TABLE
  2
LAYER
  5
2
330
0
100
AcDbSymbolTable
 70
     5
  0
LAYER
  5
54
330
2
100
AcDbSymbolTableRecord
100
AcDbLayerTableRecord
  2
0
 70
     0
 62
     7
  6
Continuous
370
     0
390
F
347
21
348
0
  0
LAYER
  5
8C
330
2
100
AcDbSymbolTableRecord
100
AcDbLayerTableRecord
  2
Rahmen (ISO)
 70
     0
 62
     7
  6
Continuous
370
     0
390
F
347
21
348
0
  0
LAYER
  5
8D
330
2
100
AcDbSymbolTableRecord
100
AcDbLayerTableRecord
  2
Titel (ISO)
 70
     0
 62
     7
  6
Continuous
370
     0
390
F
347
21
348
0
  0
LAYER
  5
B2
330
2
100
AcDbSymbolTableRecord
100
AcDbLayerTableRecord
  2
Sichtbar schmal (ISO)
 70
     0
 62
     7
  6
Continuous
370
     0
390
F
347
21
348
0
  0
LAYER
  5
B3
330
2
100
AcDbSymbolTableRecord
100
AcDbLayerTableRecord
  2
Sichtbar (ISO)
 70
     0
 62
     7
  6
Continuous
370
     0
390
F
347
21
348
0
  0
ENDTAB
  0
TABLE
  2
STYLE
  5
3
330
0
100
AcDbSymbolTable
 70
     2
  0
STYLE
  5
55
330
3
100
AcDbSymbolTableRecord
100
AcDbTextStyleTableRecord
  2
Standard
 70
     0
 40
0.0
 41
1.0
 50
0.0
 71
     0
 42
0.2
  3
txt
  4

  0
STYLE
  5
5A
330
3
100
AcDbSymbolTableRecord
100
AcDbTextStyleTableRecord
  2
Annotative
 70
     0
 40
0.0
 41
1.0
 50
0.0
 71
     0
 42
0.2
  3
txt
  4

1001
AcadAnnotative
1000
AnnotativeData
1002
{
1070
     1
1070
     1
1002
}
  0
ENDTAB
  0
TABLE
  2
VIEW
  5
6
330
0
100
AcDbSymbolTable
 70
     0
  0
ENDTAB
  0
TABLE
  2
UCS
  5
7
330
0
100
AcDbSymbolTable
 70
     0
  0
ENDTAB
  0
TABLE
  2
APPID
  5
9
330
0
100
AcDbSymbolTable
 70
     2
  0
APPID
  5
56
330
9
100
AcDbSymbolTableRecord
100
AcDbRegAppTableRecord
  2
ACAD
 70
     0
  0
APPID
  5
5E
330
9
100
AcDbSymbolTableRecord
100
AcDbRegAppTableRecord
  2
AcadAnnotative
 70
     0
  0
ENDTAB
  0
TABLE
  2
DIMSTYLE
  5
A
330
0
100
AcDbSymbolTable
 70
     2
100
AcDbDimStyleTable
 71
     0
  0
DIMSTYLE
105
58
330
A
100
AcDbSymbolTableRecord
100
AcDbDimStyleTableRecord
  2
Standard
 70
     0
340
55
  0
DIMSTYLE
105
59
330
A
100
AcDbSymbolTableRecord
100
AcDbDimStyleTableRecord
  2
Annotative
 70
     0
340
55
1001
AcadAnnotative
1000
AnnotativeData
1002
{
1070
     1
1070
     1
1002
}
  0
ENDTAB
  0
TABLE
  2
BLOCK_RECORD
  5
1
330
0
100
AcDbSymbolTable
 70
    49
  0
BLOCK_RECORD
  5
70
330
1
100
AcDbSymbolTableRecord
100
AcDbBlockTableRecord
  2
*Model_Space
340
73
 70
     0
280
     1
281
     0
  0
BLOCK_RECORD
  5
6C
330
1
100
AcDbSymbolTableRecord
100
AcDbBlockTableRecord
  2
*Paper_Space
340
6F
 70
     0
280
     1
281
     0
  0
BLOCK_RECORD
  5
74
330
1
100
AcDbSymbolTableRecord
100
AcDbBlockTableRecord
  2
*Paper_Space0
340
77
 70
     0
280
     1
281
     0
  0
BLOCK_RECORD
  5
78
330
1
100
AcDbSymbolTableRecord
100
AcDbBlockTableRecord
  2
Block_0
340
0
102
{BLKREFS
331
79
102
}
 70
     0
280
     1
281
     0
  0
BLOCK_RECORD
  5
7C
330
1
100
AcDbSymbolTableRecord
100
AcDbBlockTableRecord
  2
Block_1
340
0
102
{BLKREFS
331
7D
102
}
 70
     0
280
     1
281
     0
  0
BLOCK_RECORD
  5
80
330
1
100
AcDbSymbolTableRecord
100
AcDbBlockTableRecord
  2
Block_2
340
0
102
{BLKREFS
331
81
102
}
 70
     0
280
     1
281
     0
  0
BLOCK_RECORD
  5
84
330
1
100
AcDbSymbolTableRecord
100
AcDbBlockTableRecord
  2
Block_3
340
0
102
{BLKREFS
331
85
102
}
 70
     0
280
     1
281
     0
  0
BLOCK_RECORD
  5
88
330
1
100
AcDbSymbolTableRecord
100
AcDbBlockTableRecord
  2
Block_4
340
0
102
{BLKREFS
331
89
102
}
 70
     0
280
     1
281
     0
  0
BLOCK_RECORD
  5
8E
330
1
100
AcDbSymbolTableRecord
100
AcDbBlockTableRecord
  2
Block_5
340
0
102
{BLKREFS
331
8F
102
}
 70
     0
280
     1
281
     0
  0
BLOCK_RECORD
  5
92
330
1
100
AcDbSymbolTableRecord
100
AcDbBlockTableRecord
  2
Block_6
340
0
102
{BLKREFS
331
93
102
}
 70
     0
280
     1
281
     0
  0
BLOCK_RECORD
  5
96
330
1
100
AcDbSymbolTableRecord
100
AcDbBlockTableRecord
  2
Block_7
340
0
102
{BLKREFS
331
97
102
}
 70
     0
280
     1
281
     0
  0
BLOCK_RECORD
  5
9A
330
1
100
AcDbSymbolTableRecord
100
AcDbBlockTableRecord
  2
Block_8
340
0
102
{BLKREFS
331
9B
102
}
 70
     0
280
     1
281
     0
  0
BLOCK_RECORD
  5
9E
330
1
100
AcDbSymbolTableRecord
100
AcDbBlockTableRecord
  2
Block_9
340
0
102
{BLKREFS
331
9F
102
}
 70
     0
280
     1
281
     0
  0
BLOCK_RECORD
  5
A2
330
1
100
AcDbSymbolTableRecord
100
AcDbBlockTableRecord
  2
Block_10
340
0
102
{BLKREFS
331
A3
102
}
 70
     0
280
     1
281
     0
  0
BLOCK_RECORD
  5
A6
330
1
100
AcDbSymbolTableRecord
100
AcDbBlockTableRecord
  2
Block_11
340
0
102
{BLKREFS
331
A7
102
}
 70
     0
280
     1
281
     0
  0
BLOCK_RECORD
  5
AA
330
1
100
AcDbSymbolTableRecord
100
AcDbBlockTableRecord
  2
Block_12
340
0
102
{BLKREFS
331
AB
102
}
 70
     0
280
     1
281
     0
  0
BLOCK_RECORD
  5
AE
330
1
100
AcDbSymbolTableRecord
100
AcDbBlockTableRecord
  2
Block_13
340
0
102
{BLKREFS
331
AF
102
}
 70
     0
280
     1
281
     0
  0
BLOCK_RECORD
  5
B4
330
1
100
AcDbSymbolTableRecord
100
AcDbBlockTableRecord
  2
Block_14
340
0
102
{BLKREFS
331
B5
102
}
 70
     0
280
     1
281
     0
  0
BLOCK_RECORD
  5
BA
330
1
100
AcDbSymbolTableRecord
100
AcDbBlockTableRecord
  2
Block_15
340
0
102
{BLKREFS
331
BB
102
}
 70
     0
280
     1
281
     0
  0
BLOCK_RECORD
  5
256
330
1
100
AcDbSymbolTableRecord
100
AcDbBlockTableRecord
  2
Block_16
340
0
102
{BLKREFS
331
257
102
}
 70
     0
280
     1
281
     0
  0
BLOCK_RECORD
  5
290
330
1
100
AcDbSymbolTableRecord
100
AcDbBlockTableRecord
  2
Block_17
340
0
102
{BLKREFS
331
291
102
}
 70
     0
280
     1
281
     0
  0
BLOCK_RECORD
  5
294
330
1
100
AcDbSymbolTableRecord
100
AcDbBlockTableRecord
  2
Block_18
340
0
102
{BLKREFS
331
295
102
}
 70
     0
280
     1
281
     0
  0
BLOCK_RECORD
  5
299
330
1
100
AcDbSymbolTableRecord
100
AcDbBlockTableRecord
  2
Block_19
340
0
102
{BLKREFS
331
29A
102
}
 70
     0
280
     1
281
     0
  0
BLOCK_RECORD
  5
29F
330
1
100
AcDbSymbolTableRecord
100
AcDbBlockTableRecord
  2
Block_20
340
0
102
{BLKREFS
331
2A0
102
}
 70
     0
280
     1
281
     0
  0
BLOCK_RECORD
  5
2A8
330
1
100
AcDbSymbolTableRecord
100
AcDbBlockTableRecord
  2
Block_21
340
0
102
{BLKREFS
331
2A9
102
}
 70
     0
280
     1
281
     0
  0
BLOCK_RECORD
  5
2AC
330
1
100
AcDbSymbolTableRecord
100
AcDbBlockTableRecord
  2
Block_22
340
0
102
{BLKREFS
331
2AD
102
}
 70
     0
280
     1
281
     0
  0
BLOCK_RECORD
  5
2B1
330
1
100
AcDbSymbolTableRecord
100
AcDbBlockTableRecord
  2
Block_23
340
0
102
{BLKREFS
331
2B2
102
}
 70
     0
280
     1
281
     0
  0
BLOCK_RECORD
  5
2B7
330
1
100
AcDbSymbolTableRecord
100
AcDbBlockTableRecord
  2
Block_24
340
0
102
{BLKREFS
331
2B8
102
}
 70
     0
280
     1
281
     0
  0
BLOCK_RECORD
  5
2C2
330
1
100
AcDbSymbolTableRecord
100
AcDbBlockTableRecord
  2
Block_25
340
0
102
{BLKREFS
331
2C3
102
}
 70
     0
280
     1
281
     0
  0
BLOCK_RECORD
  5
2C6
330
1
100
AcDbSymbolTableRecord
100
AcDbBlockTableRecord
  2
Block_26
340
0
102
{BLKREFS
331
2C7
102
}
 70
     0
280
     1
281
     0
  0
BLOCK_RECORD
  5
2CE
330
1
100
AcDbSymbolTableRecord
100
AcDbBlockTableRecord
  2
Block_27
340
0
102
{BLKREFS
331
2CF
102
}
 70
     0
280
     1
281
     0
  0
BLOCK_RECORD
  5
2D2
330
1
100
AcDbSymbolTableRecord
100
AcDbBlockTableRecord
  2
Block_28
340
0
102
{BLKREFS
331
2D3
102
}
 70
     0
280
     1
281
     0
  0
BLOCK_RECORD
  5
2D7
330
1
100
AcDbSymbolTableRecord
100
AcDbBlockTableRecord
  2
Block_29
340
0
102
{BLKREFS
331
2D8
102
}
 70
     0
280
     1
281
     0
  0
BLOCK_RECORD
  5
2DE
330
1
100
AcDbSymbolTableRecord
100
AcDbBlockTableRecord
  2
Block_30
340
0
102
{BLKREFS
331
2DF
102
}
 70
     0
280
     1
281
     0
  0
BLOCK_RECORD
  5
2E2
330
1
100
AcDbSymbolTableRecord
100
AcDbBlockTableRecord
  2
Block_31
340
0
102
{BLKREFS
331
2E3
102
}
 70
     0
280
     1
281
     0
  0
BLOCK_RECORD
  5
2E7
330
1
100
AcDbSymbolTableRecord
100
AcDbBlockTableRecord
  2
Block_32
340
0
102
{BLKREFS
331
2E8
102
}
 70
     0
280
     1
281
     0
  0
BLOCK_RECORD
  5
2ED
330
1
100
AcDbSymbolTableRecord
100
AcDbBlockTableRecord
  2
Block_33
340
0
102
{BLKREFS
331
2EE
102
}
 70
     0
280
     1
281
     0
  0
BLOCK_RECORD
  5
2F3
330
1
100
AcDbSymbolTableRecord
100
AcDbBlockTableRecord
  2
Block_34
340
0
102
{BLKREFS
331
2F4
102
}
 70
     0
280
     1
281
     0
  0
BLOCK_RECORD
  5
2F7
330
1
100
AcDbSymbolTableRecord
100
AcDbBlockTableRecord
  2
Block_35
340
0
102
{BLKREFS
331
2F8
102
}
 70
     0
280
     1
281
     0
  0
BLOCK_RECORD
  5
300
330
1
100
AcDbSymbolTableRecord
100
AcDbBlockTableRecord
  2
Block_36
340
0
102
{BLKREFS
331
301
102
}
 70
     0
280
     1
281
     0
  0
BLOCK_RECORD
  5
304
330
1
100
AcDbSymbolTableRecord
100
AcDbBlockTableRecord
  2
Block_37
340
0
102
{BLKREFS
331
305
102
}
 70
     0
280
     1
281
     0
  0
BLOCK_RECORD
  5
30D
330
1
100
AcDbSymbolTableRecord
100
AcDbBlockTableRecord
  2
Block_38
340
0
102
{BLKREFS
331
30E
102
}
 70
     0
280
     1
281
     0
  0
BLOCK_RECORD
  5
311
330
1
100
AcDbSymbolTableRecord
100
AcDbBlockTableRecord
  2
Block_39
340
0
102
{BLKREFS
331
312
102
}
 70
     0
280
     1
281
     0
  0
BLOCK_RECORD
  5
31B
330
1
100
AcDbSymbolTableRecord
100
AcDbBlockTableRecord
  2
Block_40
340
0
102
{BLKREFS
331
31C
102
}
 70
     0
280
     1
281
     0
  0
BLOCK_RECORD
  5
328
330
1
100
AcDbSymbolTableRecord
100
AcDbBlockTableRecord
  2
Block_41
340
0
102
{BLKREFS
331
329
102
}
 70
     0
280
     1
281
     0
  0
BLOCK_RECORD
  5
339
330
1
100
AcDbSymbolTableRecord
100
AcDbBlockTableRecord
  2
Block_42
340
0
102
{BLKREFS
331
33A
102
}
 70
     0
280
     1
281
     0
  0
BLOCK_RECORD
  5
33D
330
1
100
AcDbSymbolTableRecord
100
AcDbBlockTableRecord
  2
Block_43
340
0
102
{BLKREFS
331
33E
102
}
 70
     0
280
     1
281
     0
  0
BLOCK_RECORD
  5
342
330
1
100
AcDbSymbolTableRecord
100
AcDbBlockTableRecord
  2
Block_44
340
0
102
{BLKREFS
331
343
102
}
 70
     0
280
     1
281
     0
  0
BLOCK_RECORD
  5
348
330
1
100
AcDbSymbolTableRecord
100
AcDbBlockTableRecord
  2
Block_45
340
0
102
{BLKREFS
331
349
102
}
 70
     0
280
     1
281
     0
  0
BLOCK_RECORD
  5
34E
330
1
100
AcDbSymbolTableRecord
100
AcDbBlockTableRecord
  2
Block_46
340
0
102
{BLKREFS
331
34F
102
}
 70
     0
280
     1
281
     0
  0
BLOCK_RECORD
  5
352
330
1
100
AcDbSymbolTableRecord
100
AcDbBlockTableRecord
  2
Block_47
340
0
102
{BLKREFS
331
353
102
}
 70
     0
280
     1
281
     0
  0
ENDTAB
  0
ENDSEC
  0
SECTION
  2
BLOCKS
  0
BLOCK
  5
71
330
70
100
AcDbEntity
  8
0
100
AcDbBlockBegin
  2
*Model_Space
 70
     0
 10
0.0
 20
0.0
 30
0.0
  3
*Model_Space
  1

  0
ENDBLK
  5
72
330
70
100
AcDbEntity
  8
0
100
AcDbBlockEnd
  0
BLOCK
  5
6D
330
6C
100
AcDbEntity
 67
     1
  8
0
100
AcDbBlockBegin
  2
*Paper_Space
 70
     0
 10
0.0
 20
0.0
 30
0.0
  3
*Paper_Space
  1

  0
ENDBLK
  5
6E
330
6C
100
AcDbEntity
 67
     1
  8
0
100
AcDbBlockEnd
  0
BLOCK
  5
75
330
74
100
AcDbEntity
 67
     1
  8
0
100
AcDbBlockBegin
  2
*Paper_Space0
 70
     0
 10
0.0
 20
0.0
 30
0.0
  3
*Paper_Space0
  1

  0
ENDBLK
  5
76
330
74
100
AcDbEntity
 67
     1
  8
0
100
AcDbBlockEnd
  0
BLOCK
  5
7A
330
78
100
AcDbEntity
  8
0
100
AcDbBlockBegin
  2
Block_0
 70
     0
 10
0.0
 20
0.0
 30
0.0
  3
Block_0
  1

  0
ENDBLK
  5
7B
330
78
100
AcDbEntity
  8
0
100
AcDbBlockEnd
  0
BLOCK
  5
7E
330
7C
100
AcDbEntity
  8
0
100
AcDbBlockBegin
  2
Block_1
 70
     0
 10
0.0
 20
0.0
 30
0.0
  3
Block_1
  1

  0
ENDBLK
  5
7F
330
7C
100
AcDbEntity
  8
0
100
AcDbBlockEnd
  0
BLOCK
  5
82
330
80
100
AcDbEntity
  8
0
100
AcDbBlockBegin
  2
Block_2
 70
     0
 10
0.0
 20
0.0
 30
0.0
  3
Block_2
  1

  0
ENDBLK
  5
83
330
80
100
AcDbEntity
  8
0
100
AcDbBlockEnd
  0
BLOCK
  5
86
330
84
100
AcDbEntity
  8
0
100
AcDbBlockBegin
  2
Block_3
 70
     0
 10
0.0
 20
0.0
 30
0.0
  3
Block_3
  1

  0
ENDBLK
  5
87
330
84
100
AcDbEntity
  8
0
100
AcDbBlockEnd
  0
BLOCK
  5
8A
330
88
100
AcDbEntity
  8
0
100
AcDbBlockBegin
  2
Block_4
 70
     0
 10
0.0
 20
0.0
 30
0.0
  3
Block_4
  1

  0
ENDBLK
  5
8B
330
88
100
AcDbEntity
  8
0
100
AcDbBlockEnd
  0
BLOCK
  5
90
330
8E
100
AcDbEntity
  8
0
100
AcDbBlockBegin
  2
Block_5
 70
     0
 10
0.0
 20
0.0
 30
0.0
  3
Block_5
  1

  0
ENDBLK
  5
91
330
8E
100
AcDbEntity
  8
0
100
AcDbBlockEnd
  0
BLOCK
  5
94
330
92
100
AcDbEntity
  8
0
100
AcDbBlockBegin
  2
Block_6
 70
     0
 10
0.0
 20
0.0
 30
0.0
  3
Block_6
  1

  0
ENDBLK
  5
95
330
92
100
AcDbEntity
  8
0
100
AcDbBlockEnd
  0
BLOCK
  5
98
330
96
100
AcDbEntity
  8
0
100
AcDbBlockBegin
  2
Block_7
 70
     0
 10
0.0
 20
0.0
 30
0.0
  3
Block_7
  1

  0
ENDBLK
  5
99
330
96
100
AcDbEntity
  8
0
100
AcDbBlockEnd
  0
BLOCK
  5
9C
330
9A
100
AcDbEntity
  8
0
100
AcDbBlockBegin
  2
Block_8
 70
     0
 10
0.0
 20
0.0
 30
0.0
  3
Block_8
  1

  0
ENDBLK
  5
9D
330
9A
100
AcDbEntity
  8
0
100
AcDbBlockEnd
  0
BLOCK
  5
A0
330
9E
100
AcDbEntity
  8
0
100
AcDbBlockBegin
  2
Block_9
 70
     0
 10
0.0
 20
0.0
 30
0.0
  3
Block_9
  1

  0
ENDBLK
  5
A1
330
9E
100
AcDbEntity
  8
0
100
AcDbBlockEnd
  0
BLOCK
  5
A4
330
A2
100
AcDbEntity
  8
0
100
AcDbBlockBegin
  2
Block_10
 70
     0
 10
0.0
 20
0.0
 30
0.0
  3
Block_10
  1

  0
ENDBLK
  5
A5
330
A2
100
AcDbEntity
  8
0
100
AcDbBlockEnd
  0
BLOCK
  5
A8
330
A6
100
AcDbEntity
  8
0
100
AcDbBlockBegin
  2
Block_11
 70
     0
 10
0.0
 20
0.0
 30
0.0
  3
Block_11
  1

  0
ENDBLK
  5
A9
330
A6
100
AcDbEntity
  8
0
100
AcDbBlockEnd
  0
BLOCK
  5
AC
330
AA
100
AcDbEntity
  8
0
100
AcDbBlockBegin
  2
Block_12
 70
     0
 10
0.0
 20
0.0
 30
0.0
  3
Block_12
  1

  0
ENDBLK
  5
AD
330
AA
100
AcDbEntity
  8
0
100
AcDbBlockEnd
  0
BLOCK
  5
B0
330
AE
100
AcDbEntity
  8
0
100
AcDbBlockBegin
  2
Block_13
 70
     0
 10
0.0
 20
0.0
 30
0.0
  3
Block_13
  1

  0
ENDBLK
  5
B1
330
AE
100
AcDbEntity
  8
0
100
AcDbBlockEnd
  0
BLOCK
  5
B6
330
B4
100
AcDbEntity
  8
0
100
AcDbBlockBegin
  2
Block_14
 70
     0
 10
0.0
 20
0.0
 30
0.0
  3
Block_14
  1

  0
SPLINE
  5
B8
330
B4
100
AcDbEntity
  8
Sichtbar (ISO)
100
AcDbSpline
210
0.0
220
0.0
230
1.0
 70
     8
 71
     3
 72
    38
 73
    34
 74
     0
 42
0.0000000001
 43
0.0000000001
 40
0.0
 40
0.0
 40
0.0
 40
0.0
 40
1.0
 40
1.0
 40
1.0
 40
2.0
 40
2.0
 40
2.0
 40
3.0
 40
3.0
 40
3.0
 40
4.0
 40
4.0
 40
4.0
 40
5.0
 40
5.0
 40
5.0
 40
6.0
 40
6.0
 40
6.0
 40
7.0
 40
7.0
 40
7.0
 40
8.0
 40
8.0
 40
8.0
 40
9.0
 40
9.0
 40
9.0
 40
10.0
 40
10.0
 40
10.0
 40
11.0
 40
11.0
 40
11.0
 40
11.0
 10
117.1945745600022
 20
185.0385302880069
 30
0.0
 10
117.1945745600022
 20
185.0385302880069
 30
0.0
 10
117.6274497967347
 20
185.0385302880069
 30
0.0
 10
117.6274497967347
 20
185.0385302880069
 30
0.0
 10
117.6274497967347
 20
185.0385302880069
 30
0.0
 10
117.6274497967347
 20
181.5064497722557
 30
0.0
 10
117.6274497967347
 20
181.5064497722557
 30
0.0
 10
117.6274497967347
 20
181.5064497722557
 30
0.0
 10
117.6274497967347
 20
181.1521666526158
 30
0.0
 10
117.6274497967347
 20
181.1521666526158
 30
0.0
 10
117.6274497967347
 20
180.8132646471219
 30
0.0
 10
117.3367425293781
 20
180.538530289132
 30
0.0
 10
116.9781369416373
 20
180.538530289132
 30
0.0
 10
116.9781369416373
 20
180.538530289132
 30
0.0
 10
75.20567659706116
 20
180.538530289132
 30
0.0
 10
75.20567659706116
 20
180.538530289132
 30
0.0
 10
74.84707100932357
 20
180.538530289132
 30
0.0
 10
74.55636374196337
 20
180.8132646471219
 30
0.0
 10
74.55636374196337
 20
181.1521666526158
 30
0.0
 10
74.55636374196337
 20
181.1521666526158
 30
0.0
 10
74.55636374196337
 20
181.5064497722557
 30
0.0
 10
74.55636374196337
 20
181.5064497722557
 30
0.0
 10
74.55636374196337
 20
181.5064497722557
 30
0.0
 10
74.55636374196337
 20
185.0385302880069
 30
0.0
 10
74.55636374196337
 20
185.0385302880069
 30
0.0
 10
74.55636374196337
 20
185.0385302880069
 30
0.0
 10
74.98923897869619
 20
185.0385302880069
 30
0.0
 10
74.98923897869619
 20
185.0385302880069
 30
0.0
 10
74.98923897869619
 20
185.0385302880069
 30
0.0
 10
75.01088274053249
 20
185.0385302880069
 30
0.0
 10
75.01088274053249
 20
185.0385302880069
 30
0.0
 10
75.01088274053249
 20
185.0385302880069
 30
0.0
 10
117.1729307981662
 20
185.0385302880069
 30
0.0
 10
117.1729307981662
 20
185.0385302880069
 30
0.0
  0
HATCH
  5
B9
330
B4
100
AcDbEntity
  8
Sichtbar (ISO)
 62
   254
420
 14606046
440
 33554687
100
AcDbHatch
 10
0.0
 20
0.0
 30
0.0
210
0.0
220
0.0
230
1.0
  2
SOLID
 70
     1
 71
     1
 91
        1
 92
        1
 93
        2
 72
     4
 94
        3
 73
     0
 74
     0
 95
       38
 96
       34
 40
0.0
 40
0.0
 40
0.0
 40
0.0
 40
1.0
 40
1.0
 40
1.0
 40
2.0
 40
2.0
 40
2.0
 40
3.0
 40
3.0
 40
3.0
 40
4.0
 40
4.0
 40
4.0
 40
5.0
 40
5.0
 40
5.0
 40
6.0
 40
6.0
 40
6.0
 40
7.0
 40
7.0
 40
7.0
 40
8.0
 40
8.0
 40
8.0
 40
9.0
 40
9.0
 40
9.0
 40
10.0
 40
10.0
 40
10.0
 40
11.0
 40
11.0
 40
11.0
 40
11.0
 10
117.1945745600022
 20
185.0385302880069
 10
117.1945745600022
 20
185.0385302880069
 10
117.6274497967347
 20
185.0385302880069
 10
117.6274497967347
 20
185.0385302880069
 10
117.6274497967347
 20
185.0385302880069
 10
117.6274497967347
 20
181.5064497722557
 10
117.6274497967347
 20
181.5064497722557
 10
117.6274497967347
 20
181.5064497722557
 10
117.6274497967347
 20
181.1521666526158
 10
117.6274497967347
 20
181.1521666526158
 10
117.6274497967347
 20
180.8132646471219
 10
117.3367425293781
 20
180.538530289132
 10
116.9781369416373
 20
180.538530289132
 10
116.9781369416373
 20
180.538530289132
 10
75.20567659706116
 20
180.538530289132
 10
75.20567659706116
 20
180.538530289132
 10
74.84707100932357
 20
180.538530289132
 10
74.55636374196337
 20
180.8132646471219
 10
74.55636374196337
 20
181.1521666526158
 10
74.55636374196337
 20
181.1521666526158
 10
74.55636374196337
 20
181.5064497722557
 10
74.55636374196337
 20
181.5064497722557
 10
74.55636374196337
 20
181.5064497722557
 10
74.55636374196337
 20
185.0385302880069
 10
74.55636374196337
 20
185.0385302880069
 10
74.55636374196337
 20
185.0385302880069
 10
74.98923897869619
 20
185.0385302880069
 10
74.98923897869619
 20
185.0385302880069
 10
74.98923897869619
 20
185.0385302880069
 10
75.01088274053249
 20
185.0385302880069
 10
75.01088274053249
 20
185.0385302880069
 10
75.01088274053249
 20
185.0385302880069
 10
117.1729307981662
 20
185.0385302880069
 10
117.1729307981662
 20
185.0385302880069
 97
        0
 72
     1
 10
117.1729307981662
 20
185.0385302880069
 11
117.1945745600022
 21
185.0385302880069
 97
        0
 75
     2
 76
     1
 98
        1
 10
0.0
 20
0.0
450
        0
451
        0
460
0.0
461
0.0
452
        0
462
0.0
453
        0
470

  0
ENDBLK
  5
B7
330
B4
100
AcDbEntity
  8
0
100
AcDbBlockEnd
  0
BLOCK
  5
BC
330
BA
100
AcDbEntity
  8
0
100
AcDbBlockBegin
  2
Block_15
 70
     0
 10
0.0
 20
0.0
 30
0.0
  3
Block_15
  1

  0
LINE
  5
BE
330
BA
100
AcDbEntity
  8
Sichtbar (ISO)
 62
    18
420
        0
370
     5
100
AcDbLine
 10
118.35462397688
 20
185.0608445699165
 30
0.0
 11
73.82918956181774
 21
185.0608445699165
 31
0.0
  0
SPLINE
  5
BF
330
BA
100
AcDbEntity
  8
Sichtbar (ISO)
 62
    18
420
        0
370
     5
100
AcDbSpline
210
0.0
220
0.0
230
1.0
 70
     8
 71
     3
 72
     8
 73
     4
 74
     0
 42
0.0000000001
 43
0.0000000001
 40
0.0
 40
0.0
 40
0.0
 40
0.0
 40
1.0
 40
1.0
 40
1.0
 40
1.0
 10
118.1868145506926
 20
178.5593273301618
 30
0.0
 10
118.4957431738963
 20
178.5593273301618
 30
0.0
 10
118.7461793046505
 20
178.8322174943009
 30
0.0
 10
118.7461793046505
 20
179.1688445713895
 30
0.0
  0
LINE
  5
C0
330
BA
100
AcDbEntity
  8
Sichtbar (ISO)
 62
    18
420
        0
370
     5
100
AcDbLine
 10
118.7461793046505
 20
185.0608445699165
 30
0.0
 11
118.7461793046505
 21
179.5207495146874
 31
0.0
  0
LINE
  5
C1
330
BA
100
AcDbEntity
  8
Sichtbar (ISO)
 62
    18
420
        0
370
     5
100
AcDbLine
 10
118.7461793046505
 20
179.5207495146874
 30
0.0
 11
118.7461793046505
 21
179.1688445713895
 31
0.0
  0
LINE
  5
C2
330
BA
100
AcDbEntity
  8
Sichtbar (ISO)
 62
    18
420
        0
370
     5
100
AcDbLine
 10
118.7461793046505
 20
185.0608445699165
 30
0.0
 11
118.2334282801891
 21
185.0608445699165
 31
0.0
  0
SPLINE
  5
C3
330
BA
100
AcDbEntity
  8
Sichtbar (ISO)
 62
    18
420
        0
370
     5
100
AcDbSpline
210
0.0
220
0.0
230
1.0
 70
     8
 71
     3
 72
     8
 73
     4
 74
     0
 42
0.0000000001
 43
0.0000000001
 40
0.0
 40
0.0
 40
0.0
 40
0.0
 40
1.0
 40
1.0
 40
1.0
 40
1.0
 10
73.43763423404697
 20
179.1688445713895
 30
0.0
 10
73.43763423404697
 20
178.8322174943009
 30
0.0
 10
73.6880703648012
 20
178.5593273301618
 30
0.0
 10
73.99699898800516
 20
178.5593273301618
 30
0.0
  0
LINE
  5
C4
330
BA
100
AcDbEntity
  8
Sichtbar (ISO)
 62
    18
420
        0
370
     5
100
AcDbLine
 10
73.43763423404697
 20
179.5207495146874
 30
0.0
 11
73.43763423404697
 21
179.1688445713895
 31
0.0
  0
LINE
  5
C5
330
BA
100
AcDbEntity
  8
Sichtbar (ISO)
 62
    18
420
        0
370
     5
100
AcDbLine
 10
73.43763423404697
 20
185.0608445699165
 30
0.0
 11
73.43763423404697
 21
179.5207495146874
 31
0.0
  0
LINE
  5
C6
330
BA
100
AcDbEntity
  8
Sichtbar (ISO)
 62
    18
420
        0
370
     5
100
AcDbLine
 10
73.43763423404697
 20
185.0608445699165
 30
0.0
 11
73.99699898800516
 21
185.0608445699165
 31
0.0
  0
LINE
  5
C7
330
BA
100
AcDbEntity
  8
Sichtbar (ISO)
 62
    18
420
        0
370
     5
100
AcDbLine
 10
117.8139047147205
 20
178.1529825026773
 30
0.0
 11
118.7461793046505
 21
178.1529825026773
 31
0.0
  0
LINE
  5
C8
330
BA
100
AcDbEntity
  8
Sichtbar (ISO)
 62
    18
420
        0
370
     5
100
AcDbLine
 10
117.8139047147205
 20
178.1529825026773
 30
0.0
 11
74.36990882397697
 21
178.1529825026773
 31
0.0
  0
LINE
  5
C9
330
BA
100
AcDbEntity
  8
Sichtbar (ISO)
 62
    18
420
        0
370
     5
100
AcDbLine
 10
74.36990882397697
 20
178.1529825026773
 30
0.0
 11
73.43763423404697
 21
178.1529825026773
 31
0.0
  0
LINE
  5
CA
330
BA
100
AcDbEntity
  8
Sichtbar (ISO)
 62
    18
420
        0
370
     5
100
AcDbLine
 10
73.43763423404697
 20
178.5593273301618
 30
0.0
 11
74.36990882397697
 21
178.5593273301618
 31
0.0
  0
LINE
  5
CB
330
BA
100
AcDbEntity
  8
Sichtbar (ISO)
 62
    18
420
        0
370
     5
100
AcDbLine
 10
74.36990882397697
 20
178.5593273301618
 30
0.0
 11
117.8139047147205
 21
178.5593273301618
 31
0.0
  0
LINE
  5
CC
330
BA
100
AcDbEntity
  8
Sichtbar (ISO)
 62
    18
420
        0
370
     5
100
AcDbLine
 10
118.7461793046505
 20
178.5593273301618
 30
0.0
 11
117.8139047147205
 21
178.5593273301618
 31
0.0
  0
SPLINE
  5
CD
330
BA
100
AcDbEntity
  8
Sichtbar (ISO)
 62
    18
420
        0
370
     5
100
AcDbSpline
210
0.0
220
0.0
230
1.0
 70
     8
 71
     3
 72
     8
 73
     4
 74
     0
 42
0.0000000001
 43
0.0000000001
 40
0.0
 40
0.0
 40
0.0
 40
0.0
 40
1.0
 40
1.0
 40
1.0
 40
1.0
 10
118.373269468679
 20
177.9498100889351
 30
0.0
 10
118.373269468679
 20
178.0620191146318
 30
0.0
 10
118.2897907584272
 20
178.1529825026773
 30
0.0
 10
118.1868145506926
 20
178.1529825026773
 30
0.0
  0
SPLINE
  5
CE
330
BA
100
AcDbEntity
  8
Sichtbar (ISO)
 62
    18
420
        0
370
     5
100
AcDbSpline
210
0.0
220
0.0
230
1.0
 70
     8
 71
     3
 72
     8
 73
     4
 74
     0
 42
0.0000000001
 43
0.0000000001
 40
0.0
 40
0.0
 40
0.0
 40
0.0
 40
1.0
 40
1.0
 40
1.0
 40
1.0
 10
118.7461793046505
 20
177.9498100889351
 30
0.0
 10
118.7461793046505
 20
178.0190221802094
 30
0.0
 10
118.7353610850827
 20
178.0877287172376
 30
0.0
 10
118.7141886982662
 20
178.1529825026773
 30
0.0
  0
LINE
  5
CF
330
BA
100
AcDbEntity
  8
Sichtbar (ISO)
 62
    18
420
        0
370
     5
100
AcDbLine
 10
118.7461793046505
 20
178.5593273301618
 30
0.0
 11
118.7461793046505
 21
178.1529825026773
 31
0.0
  0
LINE
  5
D0
330
BA
100
AcDbEntity
  8
Sichtbar (ISO)
 62
    18
420
        0
370
     5
100
AcDbLine
 10
73.43763423404697
 20
178.5593273301618
 30
0.0
 11
73.43763423404697
 21
178.1529825026773
 31
0.0
  0
LINE
  5
D1
330
BA
100
AcDbEntity
  8
Sichtbar (ISO)
 62
    18
420
        0
370
     5
100
AcDbLine
 10
118.373269468679
 20
176.1212583652541
 30
0.0
 11
118.373269468679
 21
175.9180859515119
 31
0.0
  0
LINE
  5
D2
330
BA
100
AcDbEntity
  8
Sichtbar (ISO)
 62
    18
420
        0
370
     5
100
AcDbLine
 10
118.373269468679
 20
177.9498100889351
 30
0.0
 11
118.373269468679
 21
176.1212583652541
 31
0.0
  0
LINE
  5
D3
330
BA
100
AcDbEntity
  8
Sichtbar (ISO)
 62
    18
420
        0
370
     5
100
AcDbLine
 10
118.7461793046505
 20
177.9498100889351
 30
0.0
 11
118.7461793046505
 21
176.1212583652541
 31
0.0
  0
LINE
  5
D4
330
BA
100
AcDbEntity
  8
Sichtbar (ISO)
 62
    18
420
        0
370
     5
100
AcDbLine
 10
118.7461793046505
 20
175.9180859515119
 30
0.0
 11
118.7461793046505
 21
176.1212583652541
 31
0.0
  0
LINE
  5
D5
330
BA
100
AcDbEntity
  8
Sichtbar (ISO)
 62
    18
420
        0
370
     5
100
AcDbLine
 10
118.373269468679
 20
175.9180859515119
 30
0.0
 11
118.7461793046505
 21
175.9180859515119
 31
0.0
  0
LINE
  5
D6
330
BA
100
AcDbEntity
  8
Sichtbar (ISO)
 62
    18
420
        0
370
     5
100
AcDbLine
 10
115.7629006168747
 20
167.3848445743359
 30
0.0
 11
118.0003596327062
 21
167.3848445743359
 31
0.0
  0
LINE
  5
D7
330
BA
100
AcDbEntity
  8
Sichtbar (ISO)
 62
    18
420
        0
370
     5
100
AcDbLine
 10
118.0003596327062
 20
178.1529825026773
 30
0.0
 11
118.0003596327062
 21
167.3848445743359
 31
0.0
  0
LINE
  5
D8
330
BA
100
AcDbEntity
  8
Sichtbar (ISO)
 62
    18
420
        0
370
     5
100
AcDbLine
 10
115.7629006168747
 20
178.1529825026773
 30
0.0
 11
115.7629006168747
 21
167.3848445743359
 31
0.0
  0
LINE
  5
D9
330
BA
100
AcDbEntity
  8
Sichtbar (ISO)
 62
    18
420
        0
370
     5
100
AcDbLine
 10
74.18345390599092
 20
167.3848445743359
 30
0.0
 11
76.42091292182339
 21
167.3848445743359
 31
0.0
  0
LINE
  5
DA
330
BA
100
AcDbEntity
  8
Sichtbar (ISO)
 62
    18
420
        0
370
     5
100
AcDbLine
 10
76.42091292182339
 20
178.1529825026773
 30
0.0
 11
76.42091292182339
 21
167.3848445743359
 31
0.0
  0
LINE
  5
DB
330
BA
100
AcDbEntity
  8
Sichtbar (ISO)
 62
    18
420
        0
370
     5
100
AcDbLine
 10
74.18345390599092
 20
178.1529825026773
 30
0.0
 11
74.18345390599092
 21
167.3848445743359
 31
0.0
  0
LINE
  5
DC
330
BA
100
AcDbEntity
  8
Sichtbar (ISO)
 62
    18
420
        0
370
     5
100
AcDbLine
 10
118.0003596327062
 20
169.8229135392433
 30
0.0
 11
118.1868145506926
 21
169.8229135392433
 31
0.0
  0
LINE
  5
DD
330
BA
100
AcDbEntity
  8
Sichtbar (ISO)
 62
    18
420
        0
370
     5
100
AcDbLine
 10
118.1868145506926
 20
176.1212583652541
 30
0.0
 11
118.1868145506926
 21
169.8229135392433
 31
0.0
  0
LINE
  5
DE
330
BA
100
AcDbEntity
  8
Sichtbar (ISO)
 62
    18
420
        0
370
     5
100
AcDbLine
 10
118.1868145506926
 20
178.1529825026773
 30
0.0
 11
118.1868145506926
 21
176.1212583652541
 31
0.0
  0
LINE
  5
DF
330
BA
100
AcDbEntity
  8
Sichtbar (ISO)
 62
    18
420
        0
370
     5
100
AcDbLine
 10
101.9652366859087
 20
169.8229135392433
 30
0.0
 11
90.21857685278908
 21
169.8229135392433
 31
0.0
  0
LINE
  5
E0
330
BA
100
AcDbEntity
  8
Sichtbar (ISO)
 62
    18
420
        0
370
     5
100
AcDbLine
 10
90.21857685279069
 20
169.8229135392433
 30
0.0
 11
89.65921209882962
 21
169.8229135392433
 31
0.0
  0
LINE
  5
E1
330
BA
100
AcDbEntity
  8
Sichtbar (ISO)
 62
    18
420
        0
370
     5
100
AcDbLine
 10
89.6592120988309
 20
169.8229135392433
 30
0.0
 11
89.47275718084515
 21
169.8229135392433
 31
0.0
  0
LINE
  5
E2
330
BA
100
AcDbEntity
  8
Sichtbar (ISO)
 62
    18
420
        0
370
     5
100
AcDbLine
 10
88.72693750890055
 20
169.8229135392433
 30
0.0
 11
89.47275718084515
 21
169.8229135392433
 31
0.0
  0
LINE
  5
E3
330
BA
100
AcDbEntity
  8
Sichtbar (ISO)
 62
    18
420
        0
370
     5
100
AcDbLine
 10
88.72693750890055
 20
169.8229135392433
 30
0.0
 11
87.79466291897087
 21
169.8229135392433
 31
0.0
  0
LINE
  5
E4
330
BA
100
AcDbEntity
  8
Sichtbar (ISO)
 62
    18
420
        0
370
     5
100
AcDbLine
 10
87.04884324702661
 20
169.8229135392433
 30
0.0
 11
87.79466291897087
 21
169.8229135392433
 31
0.0
  0
LINE
  5
E5
330
BA
100
AcDbEntity
  8
Sichtbar (ISO)
 62
    18
420
        0
370
     5
100
AcDbLine
 10
87.04884324702661
 20
169.8229135392433
 30
0.0
 11
79.03128177362766
 21
169.8229135392433
 31
0.0
  0
LINE
  5
E6
330
BA
100
AcDbEntity
  8
Sichtbar (ISO)
 62
    18
420
        0
370
     5
100
AcDbLine
 10
79.03128177362896
 20
169.8229135392433
 30
0.0
 11
78.4719170196682
 21
169.8229135392433
 31
0.0
  0
LINE
  5
E7
330
BA
100
AcDbEntity
  8
Sichtbar (ISO)
 62
    18
420
        0
370
     5
100
AcDbLine
 10
78.47191701966948
 20
169.8229135392433
 30
0.0
 11
77.52489118388885
 21
169.8229135392433
 31
0.0
  0
LINE
  5
E8
330
BA
100
AcDbEntity
  8
Sichtbar (ISO)
 62
    18
420
        0
370
     5
100
AcDbLine
 10
76.48058411153285
 20
169.8229135392433
 30
0.0
 11
77.52489118388917
 21
169.8229135392433
 31
0.0
  0
LINE
  5
E9
330
BA
100
AcDbEntity
  8
Sichtbar (ISO)
 62
    18
420
        0
370
     5
100
AcDbLine
 10
76.42091292182339
 20
169.8229135392433
 30
0.0
 11
76.48058411152996
 21
169.8229135392433
 31
0.0
  0
LINE
  5
EA
330
BA
100
AcDbEntity
  8
Sichtbar (ISO)
 62
    18
420
        0
370
     5
100
AcDbLine
 10
73.99699898800516
 20
169.8229135392433
 30
0.0
 11
74.18345390599092
 21
169.8229135392433
 31
0.0
  0
LINE
  5
EB
330
BA
100
AcDbEntity
  8
Sichtbar (ISO)
 62
    18
420
        0
370
     5
100
AcDbLine
 10
115.7629006168747
 20
169.8229135392433
 30
0.0
 11
115.7032294271675
 21
169.8229135392433
 31
0.0
  0
LINE
  5
EC
330
BA
100
AcDbEntity
  8
Sichtbar (ISO)
 62
    18
420
        0
370
     5
100
AcDbLine
 10
115.7032294271649
 20
169.8229135392433
 30
0.0
 11
114.6589223548083
 21
169.8229135392433
 31
0.0
  0
LINE
  5
ED
330
BA
100
AcDbEntity
  8
Sichtbar (ISO)
 62
    18
420
        0
370
     5
100
AcDbLine
 10
113.7118965190283
 20
169.8229135392433
 30
0.0
 11
114.6589223548089
 21
169.8229135392433
 31
0.0
  0
LINE
  5
EE
330
BA
100
AcDbEntity
  8
Sichtbar (ISO)
 62
    18
420
        0
370
     5
100
AcDbLine
 10
113.1525317650685
 20
169.8229135392433
 30
0.0
 11
113.7118965190296
 21
169.8229135392433
 31
0.0
  0
LINE
  5
EF
330
BA
100
AcDbEntity
  8
Sichtbar (ISO)
 62
    18
420
        0
370
     5
100
AcDbLine
 10
105.1349702916705
 20
169.8229135392433
 30
0.0
 11
113.1525317650704
 21
169.8229135392433
 31
0.0
  0
LINE
  5
F0
330
BA
100
AcDbEntity
  8
Sichtbar (ISO)
 62
    18
420
        0
370
     5
100
AcDbLine
 10
105.1349702916705
 20
169.8229135392433
 30
0.0
 11
104.3891506197269
 21
169.8229135392433
 31
0.0
  0
LINE
  5
F1
330
BA
100
AcDbEntity
  8
Sichtbar (ISO)
 62
    18
420
        0
370
     5
100
AcDbLine
 10
103.4568760297969
 20
169.8229135392433
 30
0.0
 11
104.3891506197269
 21
169.8229135392433
 31
0.0
  0
LINE
  5
F2
330
BA
100
AcDbEntity
  8
Sichtbar (ISO)
 62
    18
420
        0
370
     5
100
AcDbLine
 10
103.4568760297969
 20
169.8229135392433
 30
0.0
 11
102.7110563578526
 21
169.8229135392433
 31
0.0
  0
LINE
  5
F3
330
BA
100
AcDbEntity
  8
Sichtbar (ISO)
 62
    18
420
        0
370
     5
100
AcDbLine
 10
102.5246014398672
 20
169.8229135392433
 30
0.0
 11
102.7110563578526
 21
169.8229135392433
 31
0.0
  0
LINE
  5
F4
330
BA
100
AcDbEntity
  8
Sichtbar (ISO)
 62
    18
420
        0
370
     5
100
AcDbLine
 10
101.9652366859071
 20
169.8229135392433
 30
0.0
 11
102.5246014398682
 21
169.8229135392433
 31
0.0
  0
LINE
  5
F5
330
BA
100
AcDbEntity
  8
Sichtbar (ISO)
 62
    18
420
        0
370
     5
100
AcDbLine
 10
90.21857685278908
 20
173.7441411244697
 30
0.0
 11
90.21857685278908
 21
169.8229135392433
 31
0.0
  0
LINE
  5
F6
330
BA
100
AcDbEntity
  8
Sichtbar (ISO)
 62
    18
420
        0
370
     5
100
AcDbLine
 10
101.9652366859087
 20
173.7441411244697
 30
0.0
 11
101.9652366859087
 21
169.8229135392433
 31
0.0
  0
LINE
  5
F7
330
BA
100
AcDbEntity
  8
Sichtbar (ISO)
 62
    18
420
        0
370
     5
100
AcDbLine
 10
96.66059426920641
 20
170.7676652631444
 30
0.0
 11
95.52321926949138
 21
170.7676652631444
 31
0.0
  0
LINE
  5
F8
330
BA
100
AcDbEntity
  8
Sichtbar (ISO)
 62
    18
420
        0
370
     5
100
AcDbLine
 10
95.52321926949138
 20
170.5644928494022
 30
0.0
 11
95.52321926949138
 21
170.7676652631444
 31
0.0
  0
LINE
  5
F9
330
BA
100
AcDbEntity
  8
Sichtbar (ISO)
 62
    18
420
        0
370
     5
100
AcDbLine
 10
93.48153791754446
 20
170.5644928494022
 30
0.0
 11
95.52321926949138
 21
170.5644928494022
 31
0.0
  0
SPLINE
  5
FA
330
BA
100
AcDbEntity
  8
Sichtbar (ISO)
 62
    18
420
        0
370
     5
100
AcDbSpline
210
0.0
220
0.0
230
1.0
 70
     8
 71
     3
 72
     8
 73
     4
 74
     0
 42
0.0000000001
 43
0.0000000001
 40
0.0
 40
0.0
 40
0.0
 40
0.0
 40
1.0
 40
1.0
 40
1.0
 40
1.0
 10
93.2950829995587
 20
170.7676652631444
 30
0.0
 10
93.2950829995587
 20
170.655456237448
 30
0.0
 10
93.37856170980959
 20
170.5644928494022
 30
0.0
 10
93.48153791754446
 20
170.5644928494022
 30
0.0
  0
LINE
  5
FB
330
BA
100
AcDbEntity
  8
Sichtbar (ISO)
 62
    18
420
        0
370
     5
100
AcDbLine
 10
93.2950829995587
 20
170.9403618148257
 30
0.0
 11
93.2950829995587
 21
170.7676652631444
 31
0.0
  0
SPLINE
  5
FC
330
BA
100
AcDbEntity
  8
Sichtbar (ISO)
 62
    18
420
        0
370
     5
100
AcDbSpline
210
0.0
220
0.0
230
1.0
 70
     8
 71
     3
 72
     8
 73
     4
 74
     0
 42
0.0000000001
 43
0.0000000001
 40
0.0
 40
0.0
 40
0.0
 40
0.0
 40
1.0
 40
1.0
 40
1.0
 40
1.0
 10
93.48153791754446
 20
171.143534228568
 30
0.0
 10
93.37856170980959
 20
171.143534228568
 30
0.0
 10
93.29508299955838
 20
171.0525708405218
 30
0.0
 10
93.29508299955838
 20
170.9403618148257
 30
0.0
  0
LINE
  5
FD
330
BA
100
AcDbEntity
  8
Sichtbar (ISO)
 62
    18
420
        0
370
     5
100
AcDbLine
 10
95.53254201539086
 20
171.143534228568
 30
0.0
 11
93.48153791754446
 21
171.143534228568
 31
0.0
  0
LINE
  5
FE
330
BA
100
AcDbEntity
  8
Sichtbar (ISO)
 62
    18
420
        0
370
     5
100
AcDbLine
 10
95.53254201539086
 20
171.3467066423102
 30
0.0
 11
95.53254201539086
 21
171.143534228568
 31
0.0
  0
LINE
  5
FF
330
BA
100
AcDbEntity
  8
Sichtbar (ISO)
 62
    18
420
        0
370
     5
100
AcDbLine
 10
95.53254201539086
 20
171.3467066423102
 30
0.0
 11
96.65127152330693
 21
171.3467066423102
 31
0.0
  0
LINE
  5
100
330
BA
100
AcDbEntity
  8
Sichtbar (ISO)
 62
    18
420
        0
370
     5
100
AcDbLine
 10
96.65127152330693
 20
171.3467066423102
 30
0.0
 11
96.65127152330693
 21
171.143534228568
 31
0.0
  0
LINE
  5
101
330
BA
100
AcDbEntity
  8
Sichtbar (ISO)
 62
    18
420
        0
370
     5
100
AcDbLine
 10
96.65127152330693
 20
171.143534228568
 30
0.0
 11
98.70227562115303
 21
171.143534228568
 31
0.0
  0
SPLINE
  5
102
330
BA
100
AcDbEntity
  8
Sichtbar (ISO)
 62
    18
420
        0
370
     5
100
AcDbSpline
210
0.0
220
0.0
230
1.0
 70
     8
 71
     3
 72
     8
 73
     4
 74
     0
 42
0.0000000001
 43
0.0000000001
 40
0.0
 40
0.0
 40
0.0
 40
0.0
 40
1.0
 40
1.0
 40
1.0
 40
1.0
 10
98.8887305391391
 20
170.9403618148257
 30
0.0
 10
98.8887305391391
 20
171.0525708405218
 30
0.0
 10
98.80525182888789
 20
171.143534228568
 30
0.0
 10
98.70227562115303
 20
171.143534228568
 30
0.0
  0
LINE
  5
103
330
BA
100
AcDbEntity
  8
Sichtbar (ISO)
 62
    18
420
        0
370
     5
100
AcDbLine
 10
98.8887305391391
 20
170.9403618148257
 30
0.0
 11
98.8887305391391
 21
170.7676652631444
 31
0.0
  0
SPLINE
  5
104
330
BA
100
AcDbEntity
  8
Sichtbar (ISO)
 62
    18
420
        0
370
     5
100
AcDbSpline
210
0.0
220
0.0
230
1.0
 70
     8
 71
     3
 72
     8
 73
     4
 74
     0
 42
0.0000000001
 43
0.0000000001
 40
0.0
 40
0.0
 40
0.0
 40
0.0
 40
1.0
 40
1.0
 40
1.0
 40
1.0
 10
98.70227562115303
 20
170.5644928494022
 30
0.0
 10
98.80525182888789
 20
170.5644928494022
 30
0.0
 10
98.8887305391391
 20
170.655456237448
 30
0.0
 10
98.8887305391391
 20
170.7676652631444
 30
0.0
  0
LINE
  5
105
330
BA
100
AcDbEntity
  8
Sichtbar (ISO)
 62
    18
420
        0
370
     5
100
AcDbLine
 10
98.70227562115303
 20
170.5644928494022
 30
0.0
 11
96.66059426920641
 21
170.5644928494022
 31
0.0
  0
LINE
  5
106
330
BA
100
AcDbEntity
  8
Sichtbar (ISO)
 62
    18
420
        0
370
     5
100
AcDbLine
 10
96.66059426920641
 20
170.5644928494022
 30
0.0
 11
96.66059426920641
 21
170.7676652631444
 31
0.0
  0
LINE
  5
107
330
BA
100
AcDbEntity
  8
Sichtbar (ISO)
 62
    18
420
        0
370
     5
100
AcDbLine
 10
96.66059426920641
 20
175.6438031929598
 30
0.0
 11
95.52321926949138
 21
175.6438031929598
 31
0.0
  0
LINE
  5
108
330
BA
100
AcDbEntity
  8
Sichtbar (ISO)
 62
    18
420
        0
370
     5
100
AcDbLine
 10
95.52321926949138
 20
175.4406307792175
 30
0.0
 11
95.52321926949138
 21
175.6438031929598
 31
0.0
  0
LINE
  5
109
330
BA
100
AcDbEntity
  8
Sichtbar (ISO)
 62
    18
420
        0
370
     5
100
AcDbLine
 10
93.48153791754446
 20
175.4406307792175
 30
0.0
 11
95.52321926949138
 21
175.4406307792175
 31
0.0
  0
SPLINE
  5
10A
330
BA
100
AcDbEntity
  8
Sichtbar (ISO)
 62
    18
420
        0
370
     5
100
AcDbSpline
210
0.0
220
0.0
230
1.0
 70
     8
 71
     3
 72
     8
 73
     4
 74
     0
 42
0.0000000001
 43
0.0000000001
 40
0.0
 40
0.0
 40
0.0
 40
0.0
 40
1.0
 40
1.0
 40
1.0
 40
1.0
 10
93.29508299955838
 20
175.6438031929598
 30
0.0
 10
93.29508299955838
 20
175.5315941672637
 30
0.0
 10
93.37856170980959
 20
175.4406307792175
 30
0.0
 10
93.48153791754446
 20
175.4406307792175
 30
0.0
  0
LINE
  5
10B
330
BA
100
AcDbEntity
  8
Sichtbar (ISO)
 62
    18
420
        0
370
     5
100
AcDbLine
 10
93.2950829995587
 20
175.8164997446411
 30
0.0
 11
93.2950829995587
 21
175.6438031929598
 31
0.0
  0
SPLINE
  5
10C
330
BA
100
AcDbEntity
  8
Sichtbar (ISO)
 62
    18
420
        0
370
     5
100
AcDbSpline
210
0.0
220
0.0
230
1.0
 70
     8
 71
     3
 72
     8
 73
     4
 74
     0
 42
0.0000000001
 43
0.0000000001
 40
0.0
 40
0.0
 40
0.0
 40
0.0
 40
1.0
 40
1.0
 40
1.0
 40
1.0
 10
93.48153791754446
 20
176.0196721583833
 30
0.0
 10
93.37856170980959
 20
176.0196721583833
 30
0.0
 10
93.29508299955838
 20
175.9287087703372
 30
0.0
 10
93.29508299955838
 20
175.8164997446411
 30
0.0
  0
LINE
  5
10D
330
BA
100
AcDbEntity
  8
Sichtbar (ISO)
 62
    18
420
        0
370
     5
100
AcDbLine
 10
95.53254201539086
 20
176.0196721583833
 30
0.0
 11
93.48153791754446
 21
176.0196721583833
 31
0.0
  0
LINE
  5
10E
330
BA
100
AcDbEntity
  8
Sichtbar (ISO)
 62
    18
420
        0
370
     5
100
AcDbLine
 10
95.53254201539086
 20
176.2228445721256
 30
0.0
 11
95.53254201539086
 21
176.0196721583833
 31
0.0
  0
LINE
  5
10F
330
BA
100
AcDbEntity
  8
Sichtbar (ISO)
 62
    18
420
        0
370
     5
100
AcDbLine
 10
95.53254201539086
 20
176.2228445721256
 30
0.0
 11
96.65127152330693
 21
176.2228445721256
 31
0.0
  0
LINE
  5
110
330
BA
100
AcDbEntity
  8
Sichtbar (ISO)
 62
    18
420
        0
370
     5
100
AcDbLine
 10
96.65127152330693
 20
176.2228445721256
 30
0.0
 11
96.65127152330693
 21
176.0196721583833
 31
0.0
  0
LINE
  5
111
330
BA
100
AcDbEntity
  8
Sichtbar (ISO)
 62
    18
420
        0
370
     5
100
AcDbLine
 10
96.65127152330693
 20
176.0196721583833
 30
0.0
 11
98.70227562115303
 21
176.0196721583833
 31
0.0
  0
SPLINE
  5
112
330
BA
100
AcDbEntity
  8
Sichtbar (ISO)
 62
    18
420
        0
370
     5
100
AcDbSpline
210
0.0
220
0.0
230
1.0
 70
     8
 71
     3
 72
     8
 73
     4
 74
     0
 42
0.0000000001
 43
0.0000000001
 40
0.0
 40
0.0
 40
0.0
 40
0.0
 40
1.0
 40
1.0
 40
1.0
 40
1.0
 10
98.8887305391391
 20
175.8164997446411
 30
0.0
 10
98.8887305391391
 20
175.9287087703372
 30
0.0
 10
98.80525182888789
 20
176.0196721583833
 30
0.0
 10
98.70227562115303
 20
176.0196721583833
 30
0.0
  0
LINE
  5
113
330
BA
100
AcDbEntity
  8
Sichtbar (ISO)
 62
    18
420
        0
370
     5
100
AcDbLine
 10
98.8887305391391
 20
175.8164997446411
 30
0.0
 11
98.8887305391391
 21
175.6438031929598
 31
0.0
  0
SPLINE
  5
114
330
BA
100
AcDbEntity
  8
Sichtbar (ISO)
 62
    18
420
        0
370
     5
100
AcDbSpline
210
0.0
220
0.0
230
1.0
 70
     8
 71
     3
 72
     8
 73
     4
 74
     0
 42
0.0000000001
 43
0.0000000001
 40
0.0
 40
0.0
 40
0.0
 40
0.0
 40
1.0
 40
1.0
 40
1.0
 40
1.0
 10
98.70227562115303
 20
175.4406307792175
 30
0.0
 10
98.80525182888789
 20
175.4406307792175
 30
0.0
 10
98.8887305391391
 20
175.5315941672637
 30
0.0
 10
98.8887305391391
 20
175.6438031929598
 30
0.0
  0
LINE
  5
115
330
BA
100
AcDbEntity
  8
Sichtbar (ISO)
 62
    18
420
        0
370
     5
100
AcDbLine
 10
98.70227562115303
 20
175.4406307792175
 30
0.0
 11
96.66059426920641
 21
175.4406307792175
 31
0.0
  0
LINE
  5
116
330
BA
100
AcDbEntity
  8
Sichtbar (ISO)
 62
    18
420
        0
370
     5
100
AcDbLine
 10
96.66059426920641
 20
175.4406307792175
 30
0.0
 11
96.66059426920641
 21
175.6438031929598
 31
0.0
  0
LINE
  5
117
330
BA
100
AcDbEntity
  8
Sichtbar (ISO)
 62
    18
420
        0
370
     5
100
AcDbLine
 10
96.66059426920641
 20
174.4247687105063
 30
0.0
 11
95.52321926949138
 21
174.4247687105063
 31
0.0
  0
LINE
  5
118
330
BA
100
AcDbEntity
  8
Sichtbar (ISO)
 62
    18
420
        0
370
     5
100
AcDbLine
 10
95.52321926949138
 20
174.221596296764
 30
0.0
 11
95.52321926949138
 21
174.4247687105063
 31
0.0
  0
LINE
  5
119
330
BA
100
AcDbEntity
  8
Sichtbar (ISO)
 62
    18
420
        0
370
     5
100
AcDbLine
 10
93.48153791754446
 20
174.221596296764
 30
0.0
 11
95.52321926949138
 21
174.221596296764
 31
0.0
  0
SPLINE
  5
11A
330
BA
100
AcDbEntity
  8
Sichtbar (ISO)
 62
    18
420
        0
370
     5
100
AcDbSpline
210
0.0
220
0.0
230
1.0
 70
     8
 71
     3
 72
     8
 73
     4
 74
     0
 42
0.0000000001
 43
0.0000000001
 40
0.0
 40
0.0
 40
0.0
 40
0.0
 40
1.0
 40
1.0
 40
1.0
 40
1.0
 10
93.29508299955838
 20
174.4247687105063
 30
0.0
 10
93.29508299955838
 20
174.3125596848102
 30
0.0
 10
93.37856170980959
 20
174.221596296764
 30
0.0
 10
93.48153791754446
 20
174.221596296764
 30
0.0
  0
LINE
  5
11B
330
BA
100
AcDbEntity
  8
Sichtbar (ISO)
 62
    18
420
        0
370
     5
100
AcDbLine
 10
93.2950829995587
 20
174.5974652621869
 30
0.0
 11
93.2950829995587
 21
174.4247687105063
 31
0.0
  0
SPLINE
  5
11C
330
BA
100
AcDbEntity
  8
Sichtbar (ISO)
 62
    18
420
        0
370
     5
100
AcDbSpline
210
0.0
220
0.0
230
1.0
 70
     8
 71
     3
 72
     8
 73
     4
 74
     0
 42
0.0000000001
 43
0.0000000001
 40
0.0
 40
0.0
 40
0.0
 40
0.0
 40
1.0
 40
1.0
 40
1.0
 40
1.0
 10
93.48153791754446
 20
174.8006376759295
 30
0.0
 10
93.37856170980959
 20
174.8006376759295
 30
0.0
 10
93.29508299955838
 20
174.709674287883
 30
0.0
 10
93.29508299955838
 20
174.5974652621869
 30
0.0
  0
LINE
  5
11D
330
BA
100
AcDbEntity
  8
Sichtbar (ISO)
 62
    18
420
        0
370
     5
100
AcDbLine
 10
95.53254201539086
 20
174.8006376759295
 30
0.0
 11
93.48153791754446
 21
174.8006376759295
 31
0.0
  0
LINE
  5
11E
330
BA
100
AcDbEntity
  8
Sichtbar (ISO)
 62
    18
420
        0
370
     5
100
AcDbLine
 10
95.53254201539086
 20
175.0038100896711
 30
0.0
 11
95.53254201539086
 21
174.8006376759295
 31
0.0
  0
LINE
  5
11F
330
BA
100
AcDbEntity
  8
Sichtbar (ISO)
 62
    18
420
        0
370
     5
100
AcDbLine
 10
95.53254201539086
 20
175.0038100896711
 30
0.0
 11
96.65127152330693
 21
175.0038100896711
 31
0.0
  0
LINE
  5
120
330
BA
100
AcDbEntity
  8
Sichtbar (ISO)
 62
    18
420
        0
370
     5
100
AcDbLine
 10
96.65127152330693
 20
175.0038100896711
 30
0.0
 11
96.65127152330693
 21
174.8006376759295
 31
0.0
  0
LINE
  5
121
330
BA
100
AcDbEntity
  8
Sichtbar (ISO)
 62
    18
420
        0
370
     5
100
AcDbLine
 10
96.65127152330693
 20
174.8006376759295
 30
0.0
 11
98.70227562115303
 21
174.8006376759295
 31
0.0
  0
SPLINE
  5
122
330
BA
100
AcDbEntity
  8
Sichtbar (ISO)
 62
    18
420
        0
370
     5
100
AcDbSpline
210
0.0
220
0.0
230
1.0
 70
     8
 71
     3
 72
     8
 73
     4
 74
     0
 42
0.0000000001
 43
0.0000000001
 40
0.0
 40
0.0
 40
0.0
 40
0.0
 40
1.0
 40
1.0
 40
1.0
 40
1.0
 10
98.8887305391391
 20
174.5974652621869
 30
0.0
 10
98.8887305391391
 20
174.709674287883
 30
0.0
 10
98.80525182888789
 20
174.8006376759295
 30
0.0
 10
98.70227562115303
 20
174.8006376759295
 30
0.0
  0
LINE
  5
123
330
BA
100
AcDbEntity
  8
Sichtbar (ISO)
 62
    18
420
        0
370
     5
100
AcDbLine
 10
98.8887305391391
 20
174.5974652621869
 30
0.0
 11
98.8887305391391
 21
174.4247687105063
 31
0.0
  0
SPLINE
  5
124
330
BA
100
AcDbEntity
  8
Sichtbar (ISO)
 62
    18
420
        0
370
     5
100
AcDbSpline
210
0.0
220
0.0
230
1.0
 70
     8
 71
     3
 72
     8
 73
     4
 74
     0
 42
0.0000000001
 43
0.0000000001
 40
0.0
 40
0.0
 40
0.0
 40
0.0
 40
1.0
 40
1.0
 40
1.0
 40
1.0
 10
98.70227562115303
 20
174.221596296764
 30
0.0
 10
98.80525182888789
 20
174.221596296764
 30
0.0
 10
98.8887305391391
 20
174.3125596848102
 30
0.0
 10
98.8887305391391
 20
174.4247687105063
 30
0.0
  0
LINE
  5
125
330
BA
100
AcDbEntity
  8
Sichtbar (ISO)
 62
    18
420
        0
370
     5
100
AcDbLine
 10
98.70227562115303
 20
174.221596296764
 30
0.0
 11
96.66059426920641
 21
174.221596296764
 31
0.0
  0
LINE
  5
126
330
BA
100
AcDbEntity
  8
Sichtbar (ISO)
 62
    18
420
        0
370
     5
100
AcDbLine
 10
96.66059426920641
 20
174.221596296764
 30
0.0
 11
96.66059426920641
 21
174.4247687105063
 31
0.0
  0
LINE
  5
127
330
BA
100
AcDbEntity
  8
Sichtbar (ISO)
 62
    18
420
        0
370
     5
100
AcDbLine
 10
96.66059426920641
 20
173.2057342280521
 30
0.0
 11
95.52321926949138
 21
173.2057342280521
 31
0.0
  0
LINE
  5
128
330
BA
100
AcDbEntity
  8
Sichtbar (ISO)
 62
    18
420
        0
370
     5
100
AcDbLine
 10
95.52321926949138
 20
173.0025618143099
 30
0.0
 11
95.52321926949138
 21
173.2057342280521
 31
0.0
  0
LINE
  5
129
330
BA
100
AcDbEntity
  8
Sichtbar (ISO)
 62
    18
420
        0
370
     5
100
AcDbLine
 10
93.48153791754446
 20
173.0025618143099
 30
0.0
 11
95.52321926949138
 21
173.0025618143099
 31
0.0
  0
SPLINE
  5
12A
330
BA
100
AcDbEntity
  8
Sichtbar (ISO)
 62
    18
420
        0
370
     5
100
AcDbSpline
210
0.0
220
0.0
230
1.0
 70
     8
 71
     3
 72
     8
 73
     4
 74
     0
 42
0.0000000001
 43
0.0000000001
 40
0.0
 40
0.0
 40
0.0
 40
0.0
 40
1.0
 40
1.0
 40
1.0
 40
1.0
 10
93.2950829995587
 20
173.2057342280521
 30
0.0
 10
93.2950829995587
 20
173.093525202356
 30
0.0
 10
93.37856170980959
 20
173.0025618143099
 30
0.0
 10
93.48153791754446
 20
173.0025618143099
 30
0.0
  0
LINE
  5
12B
330
BA
100
AcDbEntity
  8
Sichtbar (ISO)
 62
    18
420
        0
370
     5
100
AcDbLine
 10
93.2950829995587
 20
173.3784307797334
 30
0.0
 11
93.2950829995587
 21
173.2057342280521
 31
0.0
  0
SPLINE
  5
12C
330
BA
100
AcDbEntity
  8
Sichtbar (ISO)
 62
    18
420
        0
370
     5
100
AcDbSpline
210
0.0
220
0.0
230
1.0
 70
     8
 71
     3
 72
     8
 73
     4
 74
     0
 42
0.0000000001
 43
0.0000000001
 40
0.0
 40
0.0
 40
0.0
 40
0.0
 40
1.0
 40
1.0
 40
1.0
 40
1.0
 10
93.48153791754446
 20
173.5816031934757
 30
0.0
 10
93.37856170980959
 20
173.5816031934757
 30
0.0
 10
93.29508299955838
 20
173.4906398054295
 30
0.0
 10
93.29508299955838
 20
173.3784307797334
 30
0.0
  0
LINE
  5
12D
330
BA
100
AcDbEntity
  8
Sichtbar (ISO)
 62
    18
420
        0
370
     5
100
AcDbLine
 10
95.53254201539086
 20
173.5816031934757
 30
0.0
 11
93.48153791754446
 21
173.5816031934757
 31
0.0
  0
LINE
  5
12E
330
BA
100
AcDbEntity
  8
Sichtbar (ISO)
 62
    18
420
        0
370
     5
100
AcDbLine
 10
95.53254201539086
 20
173.7847756072179
 30
0.0
 11
95.53254201539086
 21
173.5816031934757
 31
0.0
  0
LINE
  5
12F
330
BA
100
AcDbEntity
  8
Sichtbar (ISO)
 62
    18
420
        0
370
     5
100
AcDbLine
 10
95.53254201539086
 20
173.7847756072179
 30
0.0
 11
96.65127152330693
 21
173.7847756072179
 31
0.0
  0
LINE
  5
130
330
BA
100
AcDbEntity
  8
Sichtbar (ISO)
 62
    18
420
        0
370
     5
100
AcDbLine
 10
96.65127152330693
 20
173.7847756072179
 30
0.0
 11
96.65127152330693
 21
173.5816031934757
 31
0.0
  0
LINE
  5
131
330
BA
100
AcDbEntity
  8
Sichtbar (ISO)
 62
    18
420
        0
370
     5
100
AcDbLine
 10
96.65127152330693
 20
173.5816031934757
 30
0.0
 11
98.70227562115303
 21
173.5816031934757
 31
0.0
  0
SPLINE
  5
132
330
BA
100
AcDbEntity
  8
Sichtbar (ISO)
 62
    18
420
        0
370
     5
100
AcDbSpline
210
0.0
220
0.0
230
1.0
 70
     8
 71
     3
 72
     8
 73
     4
 74
     0
 42
0.0000000001
 43
0.0000000001
 40
0.0
 40
0.0
 40
0.0
 40
0.0
 40
1.0
 40
1.0
 40
1.0
 40
1.0
 10
98.8887305391391
 20
173.3784307797334
 30
0.0
 10
98.8887305391391
 20
173.4906398054295
 30
0.0
 10
98.80525182888789
 20
173.5816031934757
 30
0.0
 10
98.70227562115303
 20
173.5816031934757
 30
0.0
  0
LINE
  5
133
330
BA
100
AcDbEntity
  8
Sichtbar (ISO)
 62
    18
420
        0
370
     5
100
AcDbLine
 10
98.8887305391391
 20
173.3784307797334
 30
0.0
 11
98.8887305391391
 21
173.2057342280521
 31
0.0
  0
SPLINE
  5
134
330
BA
100
AcDbEntity
  8
Sichtbar (ISO)
 62
    18
420
        0
370
     5
100
AcDbSpline
210
0.0
220
0.0
230
1.0
 70
     8
 71
     3
 72
     8
 73
     4
 74
     0
 42
0.0000000001
 43
0.0000000001
 40
0.0
 40
0.0
 40
0.0
 40
0.0
 40
1.0
 40
1.0
 40
1.0
 40
1.0
 10
98.70227562115303
 20
173.0025618143099
 30
0.0
 10
98.80525182888789
 20
173.0025618143099
 30
0.0
 10
98.8887305391391
 20
173.093525202356
 30
0.0
 10
98.8887305391391
 20
173.2057342280521
 30
0.0
  0
LINE
  5
135
330
BA
100
AcDbEntity
  8
Sichtbar (ISO)
 62
    18
420
        0
370
     5
100
AcDbLine
 10
98.70227562115303
 20
173.0025618143099
 30
0.0
 11
96.66059426920641
 21
173.0025618143099
 31
0.0
  0
LINE
  5
136
330
BA
100
AcDbEntity
  8
Sichtbar (ISO)
 62
    18
420
        0
370
     5
100
AcDbLine
 10
96.66059426920641
 20
173.0025618143099
 30
0.0
 11
96.66059426920641
 21
173.2057342280521
 31
0.0
  0
LINE
  5
137
330
BA
100
AcDbEntity
  8
Sichtbar (ISO)
 62
    18
420
        0
370
     5
100
AcDbLine
 10
96.66059426920641
 20
171.9866997455986
 30
0.0
 11
95.52321926949138
 21
171.9866997455986
 31
0.0
  0
LINE
  5
138
330
BA
100
AcDbEntity
  8
Sichtbar (ISO)
 62
    18
420
        0
370
     5
100
AcDbLine
 10
95.52321926949138
 20
171.7835273318563
 30
0.0
 11
95.52321926949138
 21
171.9866997455986
 31
0.0
  0
LINE
  5
139
330
BA
100
AcDbEntity
  8
Sichtbar (ISO)
 62
    18
420
        0
370
     5
100
AcDbLine
 10
93.48153791754446
 20
171.7835273318563
 30
0.0
 11
95.52321926949138
 21
171.7835273318563
 31
0.0
  0
SPLINE
  5
13A
330
BA
100
AcDbEntity
  8
Sichtbar (ISO)
 62
    18
420
        0
370
     5
100
AcDbSpline
210
0.0
220
0.0
230
1.0
 70
     8
 71
     3
 72
     8
 73
     4
 74
     0
 42
0.0000000001
 43
0.0000000001
 40
0.0
 40
0.0
 40
0.0
 40
0.0
 40
1.0
 40
1.0
 40
1.0
 40
1.0
 10
93.2950829995587
 20
171.9866997455986
 30
0.0
 10
93.2950829995587
 20
171.8744907199025
 30
0.0
 10
93.37856170980959
 20
171.7835273318563
 30
0.0
 10
93.48153791754446
 20
171.7835273318563
 30
0.0
  0
LINE
  5
13B
330
BA
100
AcDbEntity
  8
Sichtbar (ISO)
 62
    18
420
        0
370
     5
100
AcDbLine
 10
93.2950829995587
 20
172.1593962972792
 30
0.0
 11
93.2950829995587
 21
171.9866997455986
 31
0.0
  0
SPLINE
  5
13C
330
BA
100
AcDbEntity
  8
Sichtbar (ISO)
 62
    18
420
        0
370
     5
100
AcDbSpline
210
0.0
220
0.0
230
1.0
 70
     8
 71
     3
 72
     8
 73
     4
 74
     0
 42
0.0000000001
 43
0.0000000001
 40
0.0
 40
0.0
 40
0.0
 40
0.0
 40
1.0
 40
1.0
 40
1.0
 40
1.0
 10
93.48153791754446
 20
172.3625687110218
 30
0.0
 10
93.37856170980959
 20
172.3625687110218
 30
0.0
 10
93.2950829995587
 20
172.2716053229753
 30
0.0
 10
93.2950829995587
 20
172.1593962972792
 30
0.0
  0
LINE
  5
13D
330
BA
100
AcDbEntity
  8
Sichtbar (ISO)
 62
    18
420
        0
370
     5
100
AcDbLine
 10
95.53254201539086
 20
172.3625687110218
 30
0.0
 11
93.48153791754446
 21
172.3625687110218
 31
0.0
  0
LINE
  5
13E
330
BA
100
AcDbEntity
  8
Sichtbar (ISO)
 62
    18
420
        0
370
     5
100
AcDbLine
 10
95.53254201539086
 20
172.565741124764
 30
0.0
 11
95.53254201539086
 21
172.3625687110218
 31
0.0
  0
LINE
  5
13F
330
BA
100
AcDbEntity
  8
Sichtbar (ISO)
 62
    18
420
        0
370
     5
100
AcDbLine
 10
95.53254201539086
 20
172.565741124764
 30
0.0
 11
96.65127152330693
 21
172.565741124764
 31
0.0
  0
LINE
  5
140
330
BA
100
AcDbEntity
  8
Sichtbar (ISO)
 62
    18
420
        0
370
     5
100
AcDbLine
 10
96.65127152330693
 20
172.565741124764
 30
0.0
 11
96.65127152330693
 21
172.3625687110218
 31
0.0
  0
LINE
  5
141
330
BA
100
AcDbEntity
  8
Sichtbar (ISO)
 62
    18
420
        0
370
     5
100
AcDbLine
 10
96.65127152330693
 20
172.3625687110218
 30
0.0
 11
98.70227562115303
 21
172.3625687110218
 31
0.0
  0
SPLINE
  5
142
330
BA
100
AcDbEntity
  8
Sichtbar (ISO)
 62
    18
420
        0
370
     5
100
AcDbSpline
210
0.0
220
0.0
230
1.0
 70
     8
 71
     3
 72
     8
 73
     4
 74
     0
 42
0.0000000001
 43
0.0000000001
 40
0.0
 40
0.0
 40
0.0
 40
0.0
 40
1.0
 40
1.0
 40
1.0
 40
1.0
 10
98.8887305391391
 20
172.1593962972792
 30
0.0
 10
98.8887305391391
 20
172.2716053229753
 30
0.0
 10
98.80525182888789
 20
172.3625687110218
 30
0.0
 10
98.70227562115303
 20
172.3625687110218
 30
0.0
  0
LINE
  5
143
330
BA
100
AcDbEntity
  8
Sichtbar (ISO)
 62
    18
420
        0
370
     5
100
AcDbLine
 10
98.8887305391391
 20
172.1593962972792
 30
0.0
 11
98.8887305391391
 21
171.9866997455986
 31
0.0
  0
SPLINE
  5
144
330
BA
100
AcDbEntity
  8
Sichtbar (ISO)
 62
    18
420
        0
370
     5
100
AcDbSpline
210
0.0
220
0.0
230
1.0
 70
     8
 71
     3
 72
     8
 73
     4
 74
     0
 42
0.0000000001
 43
0.0000000001
 40
0.0
 40
0.0
 40
0.0
 40
0.0
 40
1.0
 40
1.0
 40
1.0
 40
1.0
 10
98.70227562115303
 20
171.7835273318563
 30
0.0
 10
98.80525182888789
 20
171.7835273318563
 30
0.0
 10
98.8887305391391
 20
171.8744907199025
 30
0.0
 10
98.8887305391391
 20
171.9866997455986
 30
0.0
  0
LINE
  5
145
330
BA
100
AcDbEntity
  8
Sichtbar (ISO)
 62
    18
420
        0
370
     5
100
AcDbLine
 10
98.70227562115303
 20
171.7835273318563
 30
0.0
 11
96.66059426920641
 21
171.7835273318563
 31
0.0
  0
LINE
  5
146
330
BA
100
AcDbEntity
  8
Sichtbar (ISO)
 62
    18
420
        0
370
     5
100
AcDbLine
 10
96.66059426920641
 20
171.7835273318563
 30
0.0
 11
96.66059426920641
 21
171.9866997455986
 31
0.0
  0
LINE
  5
147
330
BA
100
AcDbEntity
  8
Sichtbar (ISO)
 62
    18
420
        0
370
     5
100
AcDbLine
 10
113.83717110759
 20
176.7307756064822
 30
0.0
 11
113.83717110759
 21
177.137120433966
 31
0.0
  0
LINE
  5
148
330
BA
100
AcDbEntity
  8
Sichtbar (ISO)
 62
    18
420
        0
370
     5
100
AcDbLine
 10
113.7118965190283
 20
176.7307756064822
 30
0.0
 11
113.7118965190283
 21
169.8229135392433
 31
0.0
  0
LINE
  5
149
330
BA
100
AcDbEntity
  8
Sichtbar (ISO)
 62
    18
420
        0
370
     5
100
AcDbLine
 10
114.6589223548089
 20
176.7307756064822
 30
0.0
 11
114.6589223548089
 21
169.8229135392433
 31
0.0
  0
LINE
  5
14A
330
BA
100
AcDbEntity
  8
Sichtbar (ISO)
 62
    18
420
        0
370
     5
100
AcDbLine
 10
114.6589223548089
 20
176.7307756064822
 30
0.0
 11
114.7159812427569
 21
176.7307756064822
 31
0.0
  0
LINE
  5
14B
330
BA
100
AcDbEntity
  8
Sichtbar (ISO)
 62
    18
420
        0
370
     5
100
AcDbLine
 10
114.7159812427569
 20
177.9498100889351
 30
0.0
 11
114.7159812427569
 21
176.7307756064822
 31
0.0
  0
LINE
  5
14C
330
BA
100
AcDbEntity
  8
Sichtbar (ISO)
 62
    18
420
        0
370
     5
100
AcDbLine
 10
113.9076327159157
 20
177.9498100889351
 30
0.0
 11
114.7159812427569
 21
177.9498100889351
 31
0.0
  0
LINE
  5
14D
330
BA
100
AcDbEntity
  8
Sichtbar (ISO)
 62
    18
420
        0
370
     5
100
AcDbLine
 10
113.9076327159157
 20
177.9498100889351
 30
0.0
 11
113.9076327159157
 21
178.1529825026773
 31
0.0
  0
LINE
  5
14E
330
BA
100
AcDbEntity
  8
Sichtbar (ISO)
 62
    18
420
        0
370
     5
100
AcDbLine
 10
113.1525317650704
 20
176.7307756064822
 30
0.0
 11
113.1525317650704
 21
169.8229135392433
 31
0.0
  0
LINE
  5
14F
330
BA
100
AcDbEntity
  8
Sichtbar (ISO)
 62
    18
420
        0
370
     5
100
AcDbLine
 10
109.5073381184434
 20
170.7676652631444
 30
0.0
 11
109.5073381184434
 21
170.5644928494022
 31
0.0
  0
LINE
  5
150
330
BA
100
AcDbEntity
  8
Sichtbar (ISO)
 62
    18
420
        0
370
     5
100
AcDbLine
 10
109.5073381184434
 20
170.5644928494022
 30
0.0
 11
107.4656567664962
 21
170.5644928494022
 31
0.0
  0
SPLINE
  5
151
330
BA
100
AcDbEntity
  8
Sichtbar (ISO)
 62
    18
420
        0
370
     5
100
AcDbSpline
210
0.0
220
0.0
230
1.0
 70
     8
 71
     3
 72
     8
 73
     4
 74
     0
 42
0.0000000001
 43
0.0000000001
 40
0.0
 40
0.0
 40
0.0
 40
0.0
 40
1.0
 40
1.0
 40
1.0
 40
1.0
 10
107.2792018485104
 20
170.7676652631444
 30
0.0
 10
107.2792018485104
 20
170.655456237448
 30
0.0
 10
107.3626805587617
 20
170.5644928494022
 30
0.0
 10
107.4656567664962
 20
170.5644928494022
 30
0.0
  0
LINE
  5
152
330
BA
100
AcDbEntity
  8
Sichtbar (ISO)
 62
    18
420
        0
370
     5
100
AcDbLine
 10
107.2792018485104
 20
170.7676652631444
 30
0.0
 11
107.2792018485104
 21
170.9403618148257
 31
0.0
  0
SPLINE
  5
153
330
BA
100
AcDbEntity
  8
Sichtbar (ISO)
 62
    18
420
        0
370
     5
100
AcDbSpline
210
0.0
220
0.0
230
1.0
 70
     8
 71
     3
 72
     8
 73
     4
 74
     0
 42
0.0000000001
 43
0.0000000001
 40
0.0
 40
0.0
 40
0.0
 40
0.0
 40
1.0
 40
1.0
 40
1.0
 40
1.0
 10
107.4656567664962
 20
171.143534228568
 30
0.0
 10
107.3626805587617
 20
171.143534228568
 30
0.0
 10
107.2792018485104
 20
171.0525708405218
 30
0.0
 10
107.2792018485104
 20
170.9403618148257
 30
0.0
  0
LINE
  5
154
330
BA
100
AcDbEntity
  8
Sichtbar (ISO)
 62
    18
420
        0
370
     5
100
AcDbLine
 10
107.4656567664962
 20
171.143534228568
 30
0.0
 11
109.5166608643426
 21
171.143534228568
 31
0.0
  0
LINE
  5
155
330
BA
100
AcDbEntity
  8
Sichtbar (ISO)
 62
    18
420
        0
370
     5
100
AcDbLine
 10
109.5166608643426
 20
171.143534228568
 30
0.0
 11
109.5166608643426
 21
171.3467066423102
 31
0.0
  0
LINE
  5
156
330
BA
100
AcDbEntity
  8
Sichtbar (ISO)
 62
    18
420
        0
370
     5
100
AcDbLine
 10
109.5166608643426
 20
171.3467066423102
 30
0.0
 11
110.635390372259
 21
171.3467066423102
 31
0.0
  0
LINE
  5
157
330
BA
100
AcDbEntity
  8
Sichtbar (ISO)
 62
    18
420
        0
370
     5
100
AcDbLine
 10
110.635390372259
 20
171.3467066423102
 30
0.0
 11
110.635390372259
 21
171.143534228568
 31
0.0
  0
LINE
  5
158
330
BA
100
AcDbEntity
  8
Sichtbar (ISO)
 62
    18
420
        0
370
     5
100
AcDbLine
 10
110.635390372259
 20
171.143534228568
 30
0.0
 11
112.6863944701048
 21
171.143534228568
 31
0.0
  0
SPLINE
  5
159
330
BA
100
AcDbEntity
  8
Sichtbar (ISO)
 62
    18
420
        0
370
     5
100
AcDbSpline
210
0.0
220
0.0
230
1.0
 70
     8
 71
     3
 72
     8
 73
     4
 74
     0
 42
0.0000000001
 43
0.0000000001
 40
0.0
 40
0.0
 40
0.0
 40
0.0
 40
1.0
 40
1.0
 40
1.0
 40
1.0
 10
112.8728493880912
 20
170.9403618148257
 30
0.0
 10
112.8728493880912
 20
171.0525708405218
 30
0.0
 10
112.78937067784
 20
171.143534228568
 30
0.0
 10
112.6863944701048
 20
171.143534228568
 30
0.0
  0
LINE
  5
15A
330
BA
100
AcDbEntity
  8
Sichtbar (ISO)
 62
    18
420
        0
370
     5
100
AcDbLine
 10
112.8728493880912
 20
170.9403618148257
 30
0.0
 11
112.8728493880912
 21
170.7676652631444
 31
0.0
  0
SPLINE
  5
15B
330
BA
100
AcDbEntity
  8
Sichtbar (ISO)
 62
    18
420
        0
370
     5
100
AcDbSpline
210
0.0
220
0.0
230
1.0
 70
     8
 71
     3
 72
     8
 73
     4
 74
     0
 42
0.0000000001
 43
0.0000000001
 40
0.0
 40
0.0
 40
0.0
 40
0.0
 40
1.0
 40
1.0
 40
1.0
 40
1.0
 10
112.6863944701048
 20
170.5644928494022
 30
0.0
 10
112.78937067784
 20
170.5644928494022
 30
0.0
 10
112.8728493880912
 20
170.655456237448
 30
0.0
 10
112.8728493880912
 20
170.7676652631444
 30
0.0
  0
LINE
  5
15C
330
BA
100
AcDbEntity
  8
Sichtbar (ISO)
 62
    18
420
        0
370
     5
100
AcDbLine
 10
112.6863944701048
 20
170.5644928494022
 30
0.0
 11
110.6447131181582
 21
170.5644928494022
 31
0.0
  0
LINE
  5
15D
330
BA
100
AcDbEntity
  8
Sichtbar (ISO)
 62
    18
420
        0
370
     5
100
AcDbLine
 10
110.6447131181582
 20
170.5644928494022
 30
0.0
 11
110.6447131181582
 21
170.7676652631444
 31
0.0
  0
LINE
  5
15E
330
BA
100
AcDbEntity
  8
Sichtbar (ISO)
 62
    18
420
        0
370
     5
100
AcDbLine
 10
110.6447131181582
 20
170.7676652631444
 30
0.0
 11
109.5073381184434
 21
170.7676652631444
 31
0.0
  0
LINE
  5
15F
330
BA
100
AcDbEntity
  8
Sichtbar (ISO)
 62
    18
420
        0
370
     5
100
AcDbLine
 10
109.5073381184434
 20
171.9866997455986
 30
0.0
 11
109.5073381184434
 21
171.7835273318563
 31
0.0
  0
LINE
  5
160
330
BA
100
AcDbEntity
  8
Sichtbar (ISO)
 62
    18
420
        0
370
     5
100
AcDbLine
 10
109.5073381184434
 20
171.7835273318563
 30
0.0
 11
107.4656567664962
 21
171.7835273318563
 31
0.0
  0
SPLINE
  5
161
330
BA
100
AcDbEntity
  8
Sichtbar (ISO)
 62
    18
420
        0
370
     5
100
AcDbSpline
210
0.0
220
0.0
230
1.0
 70
     8
 71
     3
 72
     8
 73
     4
 74
     0
 42
0.0000000001
 43
0.0000000001
 40
0.0
 40
0.0
 40
0.0
 40
0.0
 40
1.0
 40
1.0
 40
1.0
 40
1.0
 10
107.2792018485104
 20
171.9866997455986
 30
0.0
 10
107.2792018485104
 20
171.8744907199025
 30
0.0
 10
107.3626805587617
 20
171.7835273318563
 30
0.0
 10
107.4656567664962
 20
171.7835273318563
 30
0.0
  0
LINE
  5
162
330
BA
100
AcDbEntity
  8
Sichtbar (ISO)
 62
    18
420
        0
370
     5
100
AcDbLine
 10
107.2792018485104
 20
171.9866997455986
 30
0.0
 11
107.2792018485104
 21
172.1593962972792
 31
0.0
  0
SPLINE
  5
163
330
BA
100
AcDbEntity
  8
Sichtbar (ISO)
 62
    18
420
        0
370
     5
100
AcDbSpline
210
0.0
220
0.0
230
1.0
 70
     8
 71
     3
 72
     8
 73
     4
 74
     0
 42
0.0000000001
 43
0.0000000001
 40
0.0
 40
0.0
 40
0.0
 40
0.0
 40
1.0
 40
1.0
 40
1.0
 40
1.0
 10
107.4656567664962
 20
172.3625687110218
 30
0.0
 10
107.3626805587617
 20
172.3625687110218
 30
0.0
 10
107.2792018485104
 20
172.2716053229753
 30
0.0
 10
107.2792018485104
 20
172.1593962972792
 30
0.0
  0
LINE
  5
164
330
BA
100
AcDbEntity
  8
Sichtbar (ISO)
 62
    18
420
        0
370
     5
100
AcDbLine
 10
107.4656567664962
 20
172.3625687110218
 30
0.0
 11
109.5166608643426
 21
172.3625687110218
 31
0.0
  0
LINE
  5
165
330
BA
100
AcDbEntity
  8
Sichtbar (ISO)
 62
    18
420
        0
370
     5
100
AcDbLine
 10
109.5166608643426
 20
172.3625687110218
 30
0.0
 11
109.5166608643426
 21
172.565741124764
 31
0.0
  0
LINE
  5
166
330
BA
100
AcDbEntity
  8
Sichtbar (ISO)
 62
    18
420
        0
370
     5
100
AcDbLine
 10
109.5166608643426
 20
172.565741124764
 30
0.0
 11
110.635390372259
 21
172.565741124764
 31
0.0
  0
LINE
  5
167
330
BA
100
AcDbEntity
  8
Sichtbar (ISO)
 62
    18
420
        0
370
     5
100
AcDbLine
 10
110.635390372259
 20
172.565741124764
 30
0.0
 11
110.635390372259
 21
172.3625687110218
 31
0.0
  0
LINE
  5
168
330
BA
100
AcDbEntity
  8
Sichtbar (ISO)
 62
    18
420
        0
370
     5
100
AcDbLine
 10
110.635390372259
 20
172.3625687110218
 30
0.0
 11
112.6863944701048
 21
172.3625687110218
 31
0.0
  0
SPLINE
  5
169
330
BA
100
AcDbEntity
  8
Sichtbar (ISO)
 62
    18
420
        0
370
     5
100
AcDbSpline
210
0.0
220
0.0
230
1.0
 70
     8
 71
     3
 72
     8
 73
     4
 74
     0
 42
0.0000000001
 43
0.0000000001
 40
0.0
 40
0.0
 40
0.0
 40
0.0
 40
1.0
 40
1.0
 40
1.0
 40
1.0
 10
112.8728493880912
 20
172.1593962972792
 30
0.0
 10
112.8728493880912
 20
172.2716053229753
 30
0.0
 10
112.78937067784
 20
172.3625687110218
 30
0.0
 10
112.6863944701048
 20
172.3625687110218
 30
0.0
  0
LINE
  5
16A
330
BA
100
AcDbEntity
  8
Sichtbar (ISO)
 62
    18
420
        0
370
     5
100
AcDbLine
 10
112.8728493880912
 20
172.1593962972792
 30
0.0
 11
112.8728493880912
 21
171.9866997455986
 31
0.0
  0
SPLINE
  5
16B
330
BA
100
AcDbEntity
  8
Sichtbar (ISO)
 62
    18
420
        0
370
     5
100
AcDbSpline
210
0.0
220
0.0
230
1.0
 70
     8
 71
     3
 72
     8
 73
     4
 74
     0
 42
0.0000000001
 43
0.0000000001
 40
0.0
 40
0.0
 40
0.0
 40
0.0
 40
1.0
 40
1.0
 40
1.0
 40
1.0
 10
112.6863944701048
 20
171.7835273318563
 30
0.0
 10
112.78937067784
 20
171.7835273318563
 30
0.0
 10
112.8728493880912
 20
171.8744907199025
 30
0.0
 10
112.8728493880912
 20
171.9866997455986
 30
0.0
  0
LINE
  5
16C
330
BA
100
AcDbEntity
  8
Sichtbar (ISO)
 62
    18
420
        0
370
     5
100
AcDbLine
 10
112.6863944701048
 20
171.7835273318563
 30
0.0
 11
110.6447131181582
 21
171.7835273318563
 31
0.0
  0
LINE
  5
16D
330
BA
100
AcDbEntity
  8
Sichtbar (ISO)
 62
    18
420
        0
370
     5
100
AcDbLine
 10
110.6447131181582
 20
171.7835273318563
 30
0.0
 11
110.6447131181582
 21
171.9866997455986
 31
0.0
  0
LINE
  5
16E
330
BA
100
AcDbEntity
  8
Sichtbar (ISO)
 62
    18
420
        0
370
     5
100
AcDbLine
 10
110.6447131181582
 20
171.9866997455986
 30
0.0
 11
109.5073381184434
 21
171.9866997455986
 31
0.0
  0
LINE
  5
16F
330
BA
100
AcDbEntity
  8
Sichtbar (ISO)
 62
    18
420
        0
370
     5
100
AcDbLine
 10
109.5073381184434
 20
173.2057342280521
 30
0.0
 11
109.5073381184434
 21
173.0025618143099
 31
0.0
  0
LINE
  5
170
330
BA
100
AcDbEntity
  8
Sichtbar (ISO)
 62
    18
420
        0
370
     5
100
AcDbLine
 10
109.5073381184434
 20
173.0025618143099
 30
0.0
 11
107.4656567664962
 21
173.0025618143099
 31
0.0
  0
SPLINE
  5
171
330
BA
100
AcDbEntity
  8
Sichtbar (ISO)
 62
    18
420
        0
370
     5
100
AcDbSpline
210
0.0
220
0.0
230
1.0
 70
     8
 71
     3
 72
     8
 73
     4
 74
     0
 42
0.0000000001
 43
0.0000000001
 40
0.0
 40
0.0
 40
0.0
 40
0.0
 40
1.0
 40
1.0
 40
1.0
 40
1.0
 10
107.2792018485104
 20
173.2057342280521
 30
0.0
 10
107.2792018485104
 20
173.093525202356
 30
0.0
 10
107.3626805587617
 20
173.0025618143099
 30
0.0
 10
107.4656567664962
 20
173.0025618143099
 30
0.0
  0
LINE
  5
172
330
BA
100
AcDbEntity
  8
Sichtbar (ISO)
 62
    18
420
        0
370
     5
100
AcDbLine
 10
107.2792018485104
 20
173.2057342280521
 30
0.0
 11
107.2792018485104
 21
173.3784307797334
 31
0.0
  0
SPLINE
  5
173
330
BA
100
AcDbEntity
  8
Sichtbar (ISO)
 62
    18
420
        0
370
     5
100
AcDbSpline
210
0.0
220
0.0
230
1.0
 70
     8
 71
     3
 72
     8
 73
     4
 74
     0
 42
0.0000000001
 43
0.0000000001
 40
0.0
 40
0.0
 40
0.0
 40
0.0
 40
1.0
 40
1.0
 40
1.0
 40
1.0
 10
107.4656567664962
 20
173.5816031934757
 30
0.0
 10
107.3626805587617
 20
173.5816031934757
 30
0.0
 10
107.2792018485104
 20
173.4906398054295
 30
0.0
 10
107.2792018485104
 20
173.3784307797334
 30
0.0
  0
LINE
  5
174
330
BA
100
AcDbEntity
  8
Sichtbar (ISO)
 62
    18
420
        0
370
     5
100
AcDbLine
 10
107.4656567664962
 20
173.5816031934757
 30
0.0
 11
109.5166608643426
 21
173.5816031934757
 31
0.0
  0
LINE
  5
175
330
BA
100
AcDbEntity
  8
Sichtbar (ISO)
 62
    18
420
        0
370
     5
100
AcDbLine
 10
109.5166608643426
 20
173.5816031934757
 30
0.0
 11
109.5166608643426
 21
173.7847756072179
 31
0.0
  0
LINE
  5
176
330
BA
100
AcDbEntity
  8
Sichtbar (ISO)
 62
    18
420
        0
370
     5
100
AcDbLine
 10
109.5166608643426
 20
173.7847756072179
 30
0.0
 11
110.635390372259
 21
173.7847756072179
 31
0.0
  0
LINE
  5
177
330
BA
100
AcDbEntity
  8
Sichtbar (ISO)
 62
    18
420
        0
370
     5
100
AcDbLine
 10
110.635390372259
 20
173.7847756072179
 30
0.0
 11
110.635390372259
 21
173.5816031934757
 31
0.0
  0
LINE
  5
178
330
BA
100
AcDbEntity
  8
Sichtbar (ISO)
 62
    18
420
        0
370
     5
100
AcDbLine
 10
110.635390372259
 20
173.5816031934757
 30
0.0
 11
112.6863944701048
 21
173.5816031934757
 31
0.0
  0
SPLINE
  5
179
330
BA
100
AcDbEntity
  8
Sichtbar (ISO)
 62
    18
420
        0
370
     5
100
AcDbSpline
210
0.0
220
0.0
230
1.0
 70
     8
 71
     3
 72
     8
 73
     4
 74
     0
 42
0.0000000001
 43
0.0000000001
 40
0.0
 40
0.0
 40
0.0
 40
0.0
 40
1.0
 40
1.0
 40
1.0
 40
1.0
 10
112.8728493880912
 20
173.3784307797334
 30
0.0
 10
112.8728493880912
 20
173.4906398054295
 30
0.0
 10
112.78937067784
 20
173.5816031934757
 30
0.0
 10
112.6863944701048
 20
173.5816031934757
 30
0.0
  0
LINE
  5
17A
330
BA
100
AcDbEntity
  8
Sichtbar (ISO)
 62
    18
420
        0
370
     5
100
AcDbLine
 10
112.8728493880912
 20
173.3784307797334
 30
0.0
 11
112.8728493880912
 21
173.2057342280521
 31
0.0
  0
SPLINE
  5
17B
330
BA
100
AcDbEntity
  8
Sichtbar (ISO)
 62
    18
420
        0
370
     5
100
AcDbSpline
210
0.0
220
0.0
230
1.0
 70
     8
 71
     3
 72
     8
 73
     4
 74
     0
 42
0.0000000001
 43
0.0000000001
 40
0.0
 40
0.0
 40
0.0
 40
0.0
 40
1.0
 40
1.0
 40
1.0
 40
1.0
 10
112.6863944701048
 20
173.0025618143099
 30
0.0
 10
112.78937067784
 20
173.0025618143099
 30
0.0
 10
112.8728493880912
 20
173.093525202356
 30
0.0
 10
112.8728493880912
 20
173.2057342280521
 30
0.0
  0
LINE
  5
17C
330
BA
100
AcDbEntity
  8
Sichtbar (ISO)
 62
    18
420
        0
370
     5
100
AcDbLine
 10
112.6863944701048
 20
173.0025618143099
 30
0.0
 11
110.6447131181582
 21
173.0025618143099
 31
0.0
  0
LINE
  5
17D
330
BA
100
AcDbEntity
  8
Sichtbar (ISO)
 62
    18
420
        0
370
     5
100
AcDbLine
 10
110.6447131181582
 20
173.0025618143099
 30
0.0
 11
110.6447131181582
 21
173.2057342280521
 31
0.0
  0
LINE
  5
17E
330
BA
100
AcDbEntity
  8
Sichtbar (ISO)
 62
    18
420
        0
370
     5
100
AcDbLine
 10
110.6447131181582
 20
173.2057342280521
 30
0.0
 11
109.5073381184434
 21
173.2057342280521
 31
0.0
  0
LINE
  5
17F
330
BA
100
AcDbEntity
  8
Sichtbar (ISO)
 62
    18
420
        0
370
     5
100
AcDbLine
 10
109.5073381184434
 20
174.4247687105063
 30
0.0
 11
109.5073381184434
 21
174.221596296764
 31
0.0
  0
LINE
  5
180
330
BA
100
AcDbEntity
  8
Sichtbar (ISO)
 62
    18
420
        0
370
     5
100
AcDbLine
 10
109.5073381184434
 20
174.221596296764
 30
0.0
 11
107.4656567664962
 21
174.221596296764
 31
0.0
  0
SPLINE
  5
181
330
BA
100
AcDbEntity
  8
Sichtbar (ISO)
 62
    18
420
        0
370
     5
100
AcDbSpline
210
0.0
220
0.0
230
1.0
 70
     8
 71
     3
 72
     8
 73
     4
 74
     0
 42
0.0000000001
 43
0.0000000001
 40
0.0
 40
0.0
 40
0.0
 40
0.0
 40
1.0
 40
1.0
 40
1.0
 40
1.0
 10
107.2792018485104
 20
174.4247687105063
 30
0.0
 10
107.2792018485104
 20
174.3125596848102
 30
0.0
 10
107.3626805587617
 20
174.221596296764
 30
0.0
 10
107.4656567664962
 20
174.221596296764
 30
0.0
  0
LINE
  5
182
330
BA
100
AcDbEntity
  8
Sichtbar (ISO)
 62
    18
420
        0
370
     5
100
AcDbLine
 10
107.2792018485104
 20
174.4247687105063
 30
0.0
 11
107.2792018485104
 21
174.5974652621869
 31
0.0
  0
SPLINE
  5
183
330
BA
100
AcDbEntity
  8
Sichtbar (ISO)
 62
    18
420
        0
370
     5
100
AcDbSpline
210
0.0
220
0.0
230
1.0
 70
     8
 71
     3
 72
     8
 73
     4
 74
     0
 42
0.0000000001
 43
0.0000000001
 40
0.0
 40
0.0
 40
0.0
 40
0.0
 40
1.0
 40
1.0
 40
1.0
 40
1.0
 10
107.4656567664962
 20
174.8006376759295
 30
0.0
 10
107.3626805587617
 20
174.8006376759295
 30
0.0
 10
107.2792018485104
 20
174.709674287883
 30
0.0
 10
107.2792018485104
 20
174.5974652621869
 30
0.0
  0
LINE
  5
184
330
BA
100
AcDbEntity
  8
Sichtbar (ISO)
 62
    18
420
        0
370
     5
100
AcDbLine
 10
107.4656567664962
 20
174.8006376759295
 30
0.0
 11
109.5166608643426
 21
174.8006376759295
 31
0.0
  0
LINE
  5
185
330
BA
100
AcDbEntity
  8
Sichtbar (ISO)
 62
    18
420
        0
370
     5
100
AcDbLine
 10
109.5166608643426
 20
174.8006376759295
 30
0.0
 11
109.5166608643426
 21
175.0038100896711
 31
0.0
  0
LINE
  5
186
330
BA
100
AcDbEntity
  8
Sichtbar (ISO)
 62
    18
420
        0
370
     5
100
AcDbLine
 10
109.5166608643426
 20
175.0038100896711
 30
0.0
 11
110.635390372259
 21
175.0038100896711
 31
0.0
  0
LINE
  5
187
330
BA
100
AcDbEntity
  8
Sichtbar (ISO)
 62
    18
420
        0
370
     5
100
AcDbLine
 10
110.635390372259
 20
175.0038100896711
 30
0.0
 11
110.635390372259
 21
174.8006376759295
 31
0.0
  0
LINE
  5
188
330
BA
100
AcDbEntity
  8
Sichtbar (ISO)
 62
    18
420
        0
370
     5
100
AcDbLine
 10
110.635390372259
 20
174.8006376759295
 30
0.0
 11
112.6863944701048
 21
174.8006376759295
 31
0.0
  0
SPLINE
  5
189
330
BA
100
AcDbEntity
  8
Sichtbar (ISO)
 62
    18
420
        0
370
     5
100
AcDbSpline
210
0.0
220
0.0
230
1.0
 70
     8
 71
     3
 72
     8
 73
     4
 74
     0
 42
0.0000000001
 43
0.0000000001
 40
0.0
 40
0.0
 40
0.0
 40
0.0
 40
1.0
 40
1.0
 40
1.0
 40
1.0
 10
112.8728493880912
 20
174.5974652621869
 30
0.0
 10
112.8728493880912
 20
174.709674287883
 30
0.0
 10
112.78937067784
 20
174.8006376759295
 30
0.0
 10
112.6863944701048
 20
174.8006376759295
 30
0.0
  0
LINE
  5
18A
330
BA
100
AcDbEntity
  8
Sichtbar (ISO)
 62
    18
420
        0
370
     5
100
AcDbLine
 10
112.8728493880912
 20
174.5974652621869
 30
0.0
 11
112.8728493880912
 21
174.4247687105063
 31
0.0
  0
SPLINE
  5
18B
330
BA
100
AcDbEntity
  8
Sichtbar (ISO)
 62
    18
420
        0
370
     5
100
AcDbSpline
210
0.0
220
0.0
230
1.0
 70
     8
 71
     3
 72
     8
 73
     4
 74
     0
 42
0.0000000001
 43
0.0000000001
 40
0.0
 40
0.0
 40
0.0
 40
0.0
 40
1.0
 40
1.0
 40
1.0
 40
1.0
 10
112.6863944701048
 20
174.221596296764
 30
0.0
 10
112.78937067784
 20
174.221596296764
 30
0.0
 10
112.8728493880912
 20
174.3125596848102
 30
0.0
 10
112.8728493880912
 20
174.4247687105063
 30
0.0
  0
LINE
  5
18C
330
BA
100
AcDbEntity
  8
Sichtbar (ISO)
 62
    18
420
        0
370
     5
100
AcDbLine
 10
112.6863944701048
 20
174.221596296764
 30
0.0
 11
110.6447131181582
 21
174.221596296764
 31
0.0
  0
LINE
  5
18D
330
BA
100
AcDbEntity
  8
Sichtbar (ISO)
 62
    18
420
        0
370
     5
100
AcDbLine
 10
110.6447131181582
 20
174.221596296764
 30
0.0
 11
110.6447131181582
 21
174.4247687105063
 31
0.0
  0
LINE
  5
18E
330
BA
100
AcDbEntity
  8
Sichtbar (ISO)
 62
    18
420
        0
370
     5
100
AcDbLine
 10
110.6447131181582
 20
174.4247687105063
 30
0.0
 11
109.5073381184434
 21
174.4247687105063
 31
0.0
  0
LINE
  5
18F
330
BA
100
AcDbEntity
  8
Sichtbar (ISO)
 62
    18
420
        0
370
     5
100
AcDbLine
 10
109.5073381184434
 20
175.4406307792175
 30
0.0
 11
107.4656567664962
 21
175.4406307792175
 31
0.0
  0
SPLINE
  5
190
330
BA
100
AcDbEntity
  8
Sichtbar (ISO)
 62
    18
420
        0
370
     5
100
AcDbSpline
210
0.0
220
0.0
230
1.0
 70
     8
 71
     3
 72
     8
 73
     4
 74
     0
 42
0.0000000001
 43
0.0000000001
 40
0.0
 40
0.0
 40
0.0
 40
0.0
 40
1.0
 40
1.0
 40
1.0
 40
1.0
 10
107.2792018485104
 20
175.6438031929598
 30
0.0
 10
107.2792018485104
 20
175.5315941672637
 30
0.0
 10
107.3626805587617
 20
175.4406307792175
 30
0.0
 10
107.4656567664962
 20
175.4406307792175
 30
0.0
  0
LINE
  5
191
330
BA
100
AcDbEntity
  8
Sichtbar (ISO)
 62
    18
420
        0
370
     5
100
AcDbLine
 10
107.2792018485104
 20
175.6438031929598
 30
0.0
 11
107.2792018485104
 21
175.8164997446411
 31
0.0
  0
SPLINE
  5
192
330
BA
100
AcDbEntity
  8
Sichtbar (ISO)
 62
    18
420
        0
370
     5
100
AcDbSpline
210
0.0
220
0.0
230
1.0
 70
     8
 71
     3
 72
     8
 73
     4
 74
     0
 42
0.0000000001
 43
0.0000000001
 40
0.0
 40
0.0
 40
0.0
 40
0.0
 40
1.0
 40
1.0
 40
1.0
 40
1.0
 10
107.4656567664962
 20
176.0196721583833
 30
0.0
 10
107.3626805587617
 20
176.0196721583833
 30
0.0
 10
107.2792018485104
 20
175.9287087703372
 30
0.0
 10
107.2792018485104
 20
175.8164997446411
 30
0.0
  0
LINE
  5
193
330
BA
100
AcDbEntity
  8
Sichtbar (ISO)
 62
    18
420
        0
370
     5
100
AcDbLine
 10
107.4656567664962
 20
176.0196721583833
 30
0.0
 11
109.5166608643426
 21
176.0196721583833
 31
0.0
  0
LINE
  5
194
330
BA
100
AcDbEntity
  8
Sichtbar (ISO)
 62
    18
420
        0
370
     5
100
AcDbLine
 10
109.5166608643426
 20
176.0196721583833
 30
0.0
 11
109.5166608643426
 21
176.2228445721256
 31
0.0
  0
LINE
  5
195
330
BA
100
AcDbEntity
  8
Sichtbar (ISO)
 62
    18
420
        0
370
     5
100
AcDbLine
 10
109.5166608643426
 20
176.2228445721256
 30
0.0
 11
110.635390372259
 21
176.2228445721256
 31
0.0
  0
LINE
  5
196
330
BA
100
AcDbEntity
  8
Sichtbar (ISO)
 62
    18
420
        0
370
     5
100
AcDbLine
 10
110.635390372259
 20
176.2228445721256
 30
0.0
 11
110.635390372259
 21
176.0196721583833
 31
0.0
  0
LINE
  5
197
330
BA
100
AcDbEntity
  8
Sichtbar (ISO)
 62
    18
420
        0
370
     5
100
AcDbLine
 10
110.635390372259
 20
176.0196721583833
 30
0.0
 11
112.6863944701048
 21
176.0196721583833
 31
0.0
  0
SPLINE
  5
198
330
BA
100
AcDbEntity
  8
Sichtbar (ISO)
 62
    18
420
        0
370
     5
100
AcDbSpline
210
0.0
220
0.0
230
1.0
 70
     8
 71
     3
 72
     8
 73
     4
 74
     0
 42
0.0000000001
 43
0.0000000001
 40
0.0
 40
0.0
 40
0.0
 40
0.0
 40
1.0
 40
1.0
 40
1.0
 40
1.0
 10
112.8728493880912
 20
175.8164997446411
 30
0.0
 10
112.8728493880912
 20
175.9287087703372
 30
0.0
 10
112.78937067784
 20
176.0196721583833
 30
0.0
 10
112.6863944701048
 20
176.0196721583833
 30
0.0
  0
LINE
  5
199
330
BA
100
AcDbEntity
  8
Sichtbar (ISO)
 62
    18
420
        0
370
     5
100
AcDbLine
 10
112.8728493880912
 20
175.8164997446411
 30
0.0
 11
112.8728493880912
 21
175.6438031929598
 31
0.0
  0
SPLINE
  5
19A
330
BA
100
AcDbEntity
  8
Sichtbar (ISO)
 62
    18
420
        0
370
     5
100
AcDbSpline
210
0.0
220
0.0
230
1.0
 70
     8
 71
     3
 72
     8
 73
     4
 74
     0
 42
0.0000000001
 43
0.0000000001
 40
0.0
 40
0.0
 40
0.0
 40
0.0
 40
1.0
 40
1.0
 40
1.0
 40
1.0
 10
112.6863944701048
 20
175.4406307792175
 30
0.0
 10
112.78937067784
 20
175.4406307792175
 30
0.0
 10
112.8728493880912
 20
175.5315941672637
 30
0.0
 10
112.8728493880912
 20
175.6438031929598
 30
0.0
  0
LINE
  5
19B
330
BA
100
AcDbEntity
  8
Sichtbar (ISO)
 62
    18
420
        0
370
     5
100
AcDbLine
 10
112.6863944701048
 20
175.4406307792175
 30
0.0
 11
110.6447131181582
 21
175.4406307792175
 31
0.0
  0
LINE
  5
19C
330
BA
100
AcDbEntity
  8
Sichtbar (ISO)
 62
    18
420
        0
370
     5
100
AcDbLine
 10
110.6447131181582
 20
175.4406307792175
 30
0.0
 11
110.6447131181582
 21
175.6438031929598
 31
0.0
  0
LINE
  5
19D
330
BA
100
AcDbEntity
  8
Sichtbar (ISO)
 62
    18
420
        0
370
     5
100
AcDbLine
 10
110.6447131181582
 20
175.6438031929598
 30
0.0
 11
109.5073381184434
 21
175.6438031929598
 31
0.0
  0
LINE
  5
19E
330
BA
100
AcDbEntity
  8
Sichtbar (ISO)
 62
    18
420
        0
370
     5
100
AcDbLine
 10
109.5073381184434
 20
175.6438031929598
 30
0.0
 11
109.5073381184434
 21
175.4406307792175
 31
0.0
  0
LINE
  5
19F
330
BA
100
AcDbEntity
  8
Sichtbar (ISO)
 62
    18
420
        0
370
     5
100
AcDbLine
 10
103.4568760297969
 20
172.4235204351441
 30
0.0
 11
104.3891506197269
 21
172.4235204351441
 31
0.0
  0
LINE
  5
1A0
330
BA
100
AcDbEntity
  8
Sichtbar (ISO)
 62
    18
420
        0
370
     5
100
AcDbLine
 10
104.3891506197269
 20
170.7981411252061
 30
0.0
 11
103.4568760297969
 21
170.7981411252061
 31
0.0
  0
LINE
  5
1A1
330
BA
100
AcDbEntity
  8
Sichtbar (ISO)
 62
    18
420
        0
370
     5
100
AcDbLine
 10
87.79466291897087
 20
170.7981411252061
 30
0.0
 11
88.72693750890055
 21
170.7981411252061
 31
0.0
  0
LINE
  5
1A2
330
BA
100
AcDbEntity
  8
Sichtbar (ISO)
 62
    18
420
        0
370
     5
100
AcDbLine
 10
88.72693750890055
 20
172.4235204351441
 30
0.0
 11
87.79466291897087
 21
172.4235204351441
 31
0.0
  0
LINE
  5
1A3
330
BA
100
AcDbEntity
  8
Sichtbar (ISO)
 62
    18
420
        0
370
     5
100
AcDbLine
 10
79.03128177362766
 20
176.7307756064822
 30
0.0
 11
79.03128177362766
 21
169.8229135392433
 31
0.0
  0
LINE
  5
1A4
330
BA
100
AcDbEntity
  8
Sichtbar (ISO)
 62
    18
420
        0
370
     5
100
AcDbLine
 10
82.67647542025432
 20
175.4406307792175
 30
0.0
 11
84.71815677220158
 21
175.4406307792175
 31
0.0
  0
LINE
  5
1A5
330
BA
100
AcDbEntity
  8
Sichtbar (ISO)
 62
    18
420
        0
370
     5
100
AcDbLine
 10
82.67647542025432
 20
175.6438031929598
 30
0.0
 11
82.67647542025432
 21
175.4406307792175
 31
0.0
  0
LINE
  5
1A6
330
BA
100
AcDbEntity
  8
Sichtbar (ISO)
 62
    18
420
        0
370
     5
100
AcDbLine
 10
81.53910042053961
 20
175.6438031929598
 30
0.0
 11
82.67647542025432
 21
175.6438031929598
 31
0.0
  0
LINE
  5
1A7
330
BA
100
AcDbEntity
  8
Sichtbar (ISO)
 62
    18
420
        0
370
     5
100
AcDbLine
 10
81.53910042053961
 20
175.4406307792175
 30
0.0
 11
81.53910042053961
 21
175.6438031929598
 31
0.0
  0
LINE
  5
1A8
330
BA
100
AcDbEntity
  8
Sichtbar (ISO)
 62
    18
420
        0
370
     5
100
AcDbLine
 10
79.49741906859268
 20
175.4406307792175
 30
0.0
 11
81.53910042053961
 21
175.4406307792175
 31
0.0
  0
SPLINE
  5
1A9
330
BA
100
AcDbEntity
  8
Sichtbar (ISO)
 62
    18
420
        0
370
     5
100
AcDbSpline
210
0.0
220
0.0
230
1.0
 70
     8
 71
     3
 72
     8
 73
     4
 74
     0
 42
0.0000000001
 43
0.0000000001
 40
0.0
 40
0.0
 40
0.0
 40
0.0
 40
1.0
 40
1.0
 40
1.0
 40
1.0
 10
79.31096415060661
 20
175.6438031929598
 30
0.0
 10
79.31096415060661
 20
175.5315941672637
 30
0.0
 10
79.39444286085813
 20
175.4406307792175
 30
0.0
 10
79.49741906859268
 20
175.4406307792175
 30
0.0
  0
LINE
  5
1AA
330
BA
100
AcDbEntity
  8
Sichtbar (ISO)
 62
    18
420
        0
370
     5
100
AcDbLine
 10
79.31096415060661
 20
175.8164997446411
 30
0.0
 11
79.31096415060661
 21
175.6438031929598
 31
0.0
  0
SPLINE
  5
1AB
330
BA
100
AcDbEntity
  8
Sichtbar (ISO)
 62
    18
420
        0
370
     5
100
AcDbSpline
210
0.0
220
0.0
230
1.0
 70
     8
 71
     3
 72
     8
 73
     4
 74
     0
 42
0.0000000001
 43
0.0000000001
 40
0.0
 40
0.0
 40
0.0
 40
0.0
 40
1.0
 40
1.0
 40
1.0
 40
1.0
 10
79.49741906859268
 20
176.0196721583833
 30
0.0
 10
79.39444286085813
 20
176.0196721583833
 30
0.0
 10
79.31096415060661
 20
175.9287087703372
 30
0.0
 10
79.31096415060661
 20
175.8164997446411
 30
0.0
  0
LINE
  5
1AC
330
BA
100
AcDbEntity
  8
Sichtbar (ISO)
 62
    18
420
        0
370
     5
100
AcDbLine
 10
81.54842316643909
 20
176.0196721583833
 30
0.0
 11
79.49741906859268
 21
176.0196721583833
 31
0.0
  0
LINE
  5
1AD
330
BA
100
AcDbEntity
  8
Sichtbar (ISO)
 62
    18
420
        0
370
     5
100
AcDbLine
 10
81.54842316643909
 20
176.2228445721256
 30
0.0
 11
81.54842316643909
 21
176.0196721583833
 31
0.0
  0
LINE
  5
1AE
330
BA
100
AcDbEntity
  8
Sichtbar (ISO)
 62
    18
420
        0
370
     5
100
AcDbLine
 10
82.66715267435516
 20
176.2228445721256
 30
0.0
 11
81.54842316643909
 21
176.2228445721256
 31
0.0
  0
LINE
  5
1AF
330
BA
100
AcDbEntity
  8
Sichtbar (ISO)
 62
    18
420
        0
370
     5
100
AcDbLine
 10
82.66715267435516
 20
176.0196721583833
 30
0.0
 11
82.66715267435516
 21
176.2228445721256
 31
0.0
  0
LINE
  5
1B0
330
BA
100
AcDbEntity
  8
Sichtbar (ISO)
 62
    18
420
        0
370
     5
100
AcDbLine
 10
84.71815677220158
 20
176.0196721583833
 30
0.0
 11
82.66715267435516
 21
176.0196721583833
 31
0.0
  0
SPLINE
  5
1B1
330
BA
100
AcDbEntity
  8
Sichtbar (ISO)
 62
    18
420
        0
370
     5
100
AcDbSpline
210
0.0
220
0.0
230
1.0
 70
     8
 71
     3
 72
     8
 73
     4
 74
     0
 42
0.0000000001
 43
0.0000000001
 40
0.0
 40
0.0
 40
0.0
 40
0.0
 40
1.0
 40
1.0
 40
1.0
 40
1.0
 10
84.90461169018733
 20
175.8164997446411
 30
0.0
 10
84.90461169018733
 20
175.9287087703372
 30
0.0
 10
84.82113297993612
 20
176.0196721583833
 30
0.0
 10
84.71815677220158
 20
176.0196721583833
 30
0.0
  0
LINE
  5
1B2
330
BA
100
AcDbEntity
  8
Sichtbar (ISO)
 62
    18
420
        0
370
     5
100
AcDbLine
 10
84.90461169018733
 20
175.6438031929598
 30
0.0
 11
84.90461169018733
 21
175.8164997446411
 31
0.0
  0
SPLINE
  5
1B3
330
BA
100
AcDbEntity
  8
Sichtbar (ISO)
 62
    18
420
        0
370
     5
100
AcDbSpline
210
0.0
220
0.0
230
1.0
 70
     8
 71
     3
 72
     8
 73
     4
 74
     0
 42
0.0000000001
 43
0.0000000001
 40
0.0
 40
0.0
 40
0.0
 40
0.0
 40
1.0
 40
1.0
 40
1.0
 40
1.0
 10
84.71815677220158
 20
175.4406307792175
 30
0.0
 10
84.82113297993612
 20
175.4406307792175
 30
0.0
 10
84.90461169018733
 20
175.5315941672637
 30
0.0
 10
84.90461169018733
 20
175.6438031929598
 30
0.0
  0
LINE
  5
1B4
330
BA
100
AcDbEntity
  8
Sichtbar (ISO)
 62
    18
420
        0
370
     5
100
AcDbLine
 10
82.67647542025432
 20
174.4247687105063
 30
0.0
 11
82.67647542025432
 21
174.221596296764
 31
0.0
  0
LINE
  5
1B5
330
BA
100
AcDbEntity
  8
Sichtbar (ISO)
 62
    18
420
        0
370
     5
100
AcDbLine
 10
81.53910042053961
 20
174.4247687105063
 30
0.0
 11
82.67647542025432
 21
174.4247687105063
 31
0.0
  0
LINE
  5
1B6
330
BA
100
AcDbEntity
  8
Sichtbar (ISO)
 62
    18
420
        0
370
     5
100
AcDbLine
 10
81.53910042053961
 20
174.221596296764
 30
0.0
 11
81.53910042053961
 21
174.4247687105063
 31
0.0
  0
LINE
  5
1B7
330
BA
100
AcDbEntity
  8
Sichtbar (ISO)
 62
    18
420
        0
370
     5
100
AcDbLine
 10
79.49741906859268
 20
174.221596296764
 30
0.0
 11
81.53910042053961
 21
174.221596296764
 31
0.0
  0
SPLINE
  5
1B8
330
BA
100
AcDbEntity
  8
Sichtbar (ISO)
 62
    18
420
        0
370
     5
100
AcDbSpline
210
0.0
220
0.0
230
1.0
 70
     8
 71
     3
 72
     8
 73
     4
 74
     0
 42
0.0000000001
 43
0.0000000001
 40
0.0
 40
0.0
 40
0.0
 40
0.0
 40
1.0
 40
1.0
 40
1.0
 40
1.0
 10
79.31096415060661
 20
174.4247687105063
 30
0.0
 10
79.31096415060661
 20
174.3125596848102
 30
0.0
 10
79.39444286085813
 20
174.221596296764
 30
0.0
 10
79.49741906859268
 20
174.221596296764
 30
0.0
  0
LINE
  5
1B9
330
BA
100
AcDbEntity
  8
Sichtbar (ISO)
 62
    18
420
        0
370
     5
100
AcDbLine
 10
79.31096415060661
 20
174.5974652621869
 30
0.0
 11
79.31096415060661
 21
174.4247687105063
 31
0.0
  0
SPLINE
  5
1BA
330
BA
100
AcDbEntity
  8
Sichtbar (ISO)
 62
    18
420
        0
370
     5
100
AcDbSpline
210
0.0
220
0.0
230
1.0
 70
     8
 71
     3
 72
     8
 73
     4
 74
     0
 42
0.0000000001
 43
0.0000000001
 40
0.0
 40
0.0
 40
0.0
 40
0.0
 40
1.0
 40
1.0
 40
1.0
 40
1.0
 10
79.49741906859268
 20
174.8006376759295
 30
0.0
 10
79.39444286085813
 20
174.8006376759295
 30
0.0
 10
79.31096415060661
 20
174.709674287883
 30
0.0
 10
79.31096415060661
 20
174.5974652621869
 30
0.0
  0
LINE
  5
1BB
330
BA
100
AcDbEntity
  8
Sichtbar (ISO)
 62
    18
420
        0
370
     5
100
AcDbLine
 10
81.54842316643909
 20
174.8006376759295
 30
0.0
 11
79.49741906859268
 21
174.8006376759295
 31
0.0
  0
LINE
  5
1BC
330
BA
100
AcDbEntity
  8
Sichtbar (ISO)
 62
    18
420
        0
370
     5
100
AcDbLine
 10
81.54842316643909
 20
175.0038100896711
 30
0.0
 11
81.54842316643909
 21
174.8006376759295
 31
0.0
  0
LINE
  5
1BD
330
BA
100
AcDbEntity
  8
Sichtbar (ISO)
 62
    18
420
        0
370
     5
100
AcDbLine
 10
82.66715267435516
 20
175.0038100896711
 30
0.0
 11
81.54842316643909
 21
175.0038100896711
 31
0.0
  0
LINE
  5
1BE
330
BA
100
AcDbEntity
  8
Sichtbar (ISO)
 62
    18
420
        0
370
     5
100
AcDbLine
 10
82.66715267435516
 20
174.8006376759295
 30
0.0
 11
82.66715267435516
 21
175.0038100896711
 31
0.0
  0
LINE
  5
1BF
330
BA
100
AcDbEntity
  8
Sichtbar (ISO)
 62
    18
420
        0
370
     5
100
AcDbLine
 10
84.71815677220158
 20
174.8006376759295
 30
0.0
 11
82.66715267435516
 21
174.8006376759295
 31
0.0
  0
SPLINE
  5
1C0
330
BA
100
AcDbEntity
  8
Sichtbar (ISO)
 62
    18
420
        0
370
     5
100
AcDbSpline
210
0.0
220
0.0
230
1.0
 70
     8
 71
     3
 72
     8
 73
     4
 74
     0
 42
0.0000000001
 43
0.0000000001
 40
0.0
 40
0.0
 40
0.0
 40
0.0
 40
1.0
 40
1.0
 40
1.0
 40
1.0
 10
84.90461169018733
 20
174.5974652621869
 30
0.0
 10
84.90461169018733
 20
174.709674287883
 30
0.0
 10
84.82113297993612
 20
174.8006376759295
 30
0.0
 10
84.71815677220158
 20
174.8006376759295
 30
0.0
  0
LINE
  5
1C1
330
BA
100
AcDbEntity
  8
Sichtbar (ISO)
 62
    18
420
        0
370
     5
100
AcDbLine
 10
84.90461169018733
 20
174.4247687105063
 30
0.0
 11
84.90461169018733
 21
174.5974652621869
 31
0.0
  0
SPLINE
  5
1C2
330
BA
100
AcDbEntity
  8
Sichtbar (ISO)
 62
    18
420
        0
370
     5
100
AcDbSpline
210
0.0
220
0.0
230
1.0
 70
     8
 71
     3
 72
     8
 73
     4
 74
     0
 42
0.0000000001
 43
0.0000000001
 40
0.0
 40
0.0
 40
0.0
 40
0.0
 40
1.0
 40
1.0
 40
1.0
 40
1.0
 10
84.71815677220158
 20
174.221596296764
 30
0.0
 10
84.82113297993612
 20
174.221596296764
 30
0.0
 10
84.90461169018733
 20
174.3125596848102
 30
0.0
 10
84.90461169018733
 20
174.4247687105063
 30
0.0
  0
LINE
  5
1C3
330
BA
100
AcDbEntity
  8
Sichtbar (ISO)
 62
    18
420
        0
370
     5
100
AcDbLine
 10
82.67647542025432
 20
174.221596296764
 30
0.0
 11
84.71815677220158
 21
174.221596296764
 31
0.0
  0
LINE
  5
1C4
330
BA
100
AcDbEntity
  8
Sichtbar (ISO)
 62
    18
420
        0
370
     5
100
AcDbLine
 10
82.67647542025432
 20
173.2057342280521
 30
0.0
 11
82.67647542025432
 21
173.0025618143099
 31
0.0
  0
LINE
  5
1C5
330
BA
100
AcDbEntity
  8
Sichtbar (ISO)
 62
    18
420
        0
370
     5
100
AcDbLine
 10
81.53910042053961
 20
173.2057342280521
 30
0.0
 11
82.67647542025432
 21
173.2057342280521
 31
0.0
  0
LINE
  5
1C6
330
BA
100
AcDbEntity
  8
Sichtbar (ISO)
 62
    18
420
        0
370
     5
100
AcDbLine
 10
81.53910042053961
 20
173.0025618143099
 30
0.0
 11
81.53910042053961
 21
173.2057342280521
 31
0.0
  0
LINE
  5
1C7
330
BA
100
AcDbEntity
  8
Sichtbar (ISO)
 62
    18
420
        0
370
     5
100
AcDbLine
 10
79.49741906859268
 20
173.0025618143099
 30
0.0
 11
81.53910042053961
 21
173.0025618143099
 31
0.0
  0
SPLINE
  5
1C8
330
BA
100
AcDbEntity
  8
Sichtbar (ISO)
 62
    18
420
        0
370
     5
100
AcDbSpline
210
0.0
220
0.0
230
1.0
 70
     8
 71
     3
 72
     8
 73
     4
 74
     0
 42
0.0000000001
 43
0.0000000001
 40
0.0
 40
0.0
 40
0.0
 40
0.0
 40
1.0
 40
1.0
 40
1.0
 40
1.0
 10
79.31096415060661
 20
173.2057342280521
 30
0.0
 10
79.31096415060661
 20
173.093525202356
 30
0.0
 10
79.39444286085813
 20
173.0025618143099
 30
0.0
 10
79.49741906859268
 20
173.0025618143099
 30
0.0
  0
LINE
  5
1C9
330
BA
100
AcDbEntity
  8
Sichtbar (ISO)
 62
    18
420
        0
370
     5
100
AcDbLine
 10
79.31096415060661
 20
173.3784307797334
 30
0.0
 11
79.31096415060661
 21
173.2057342280521
 31
0.0
  0
SPLINE
  5
1CA
330
BA
100
AcDbEntity
  8
Sichtbar (ISO)
 62
    18
420
        0
370
     5
100
AcDbSpline
210
0.0
220
0.0
230
1.0
 70
     8
 71
     3
 72
     8
 73
     4
 74
     0
 42
0.0000000001
 43
0.0000000001
 40
0.0
 40
0.0
 40
0.0
 40
0.0
 40
1.0
 40
1.0
 40
1.0
 40
1.0
 10
79.49741906859268
 20
173.5816031934757
 30
0.0
 10
79.39444286085813
 20
173.5816031934757
 30
0.0
 10
79.31096415060661
 20
173.4906398054295
 30
0.0
 10
79.31096415060661
 20
173.3784307797334
 30
0.0
  0
LINE
  5
1CB
330
BA
100
AcDbEntity
  8
Sichtbar (ISO)
 62
    18
420
        0
370
     5
100
AcDbLine
 10
81.54842316643909
 20
173.5816031934757
 30
0.0
 11
79.49741906859268
 21
173.5816031934757
 31
0.0
  0
LINE
  5
1CC
330
BA
100
AcDbEntity
  8
Sichtbar (ISO)
 62
    18
420
        0
370
     5
100
AcDbLine
 10
81.54842316643909
 20
173.7847756072179
 30
0.0
 11
81.54842316643909
 21
173.5816031934757
 31
0.0
  0
LINE
  5
1CD
330
BA
100
AcDbEntity
  8
Sichtbar (ISO)
 62
    18
420
        0
370
     5
100
AcDbLine
 10
82.66715267435516
 20
173.7847756072179
 30
0.0
 11
81.54842316643909
 21
173.7847756072179
 31
0.0
  0
LINE
  5
1CE
330
BA
100
AcDbEntity
  8
Sichtbar (ISO)
 62
    18
420
        0
370
     5
100
AcDbLine
 10
82.66715267435516
 20
173.5816031934757
 30
0.0
 11
82.66715267435516
 21
173.7847756072179
 31
0.0
  0
LINE
  5
1CF
330
BA
100
AcDbEntity
  8
Sichtbar (ISO)
 62
    18
420
        0
370
     5
100
AcDbLine
 10
84.71815677220158
 20
173.5816031934757
 30
0.0
 11
82.66715267435516
 21
173.5816031934757
 31
0.0
  0
SPLINE
  5
1D0
330
BA
100
AcDbEntity
  8
Sichtbar (ISO)
 62
    18
420
        0
370
     5
100
AcDbSpline
210
0.0
220
0.0
230
1.0
 70
     8
 71
     3
 72
     8
 73
     4
 74
     0
 42
0.0000000001
 43
0.0000000001
 40
0.0
 40
0.0
 40
0.0
 40
0.0
 40
1.0
 40
1.0
 40
1.0
 40
1.0
 10
84.90461169018733
 20
173.3784307797334
 30
0.0
 10
84.90461169018733
 20
173.4906398054295
 30
0.0
 10
84.82113297993612
 20
173.5816031934757
 30
0.0
 10
84.71815677220158
 20
173.5816031934757
 30
0.0
  0
LINE
  5
1D1
330
BA
100
AcDbEntity
  8
Sichtbar (ISO)
 62
    18
420
        0
370
     5
100
AcDbLine
 10
84.90461169018733
 20
173.2057342280521
 30
0.0
 11
84.90461169018733
 21
173.3784307797334
 31
0.0
  0
SPLINE
  5
1D2
330
BA
100
AcDbEntity
  8
Sichtbar (ISO)
 62
    18
420
        0
370
     5
100
AcDbSpline
210
0.0
220
0.0
230
1.0
 70
     8
 71
     3
 72
     8
 73
     4
 74
     0
 42
0.0000000001
 43
0.0000000001
 40
0.0
 40
0.0
 40
0.0
 40
0.0
 40
1.0
 40
1.0
 40
1.0
 40
1.0
 10
84.71815677220158
 20
173.0025618143099
 30
0.0
 10
84.82113297993612
 20
173.0025618143099
 30
0.0
 10
84.90461169018733
 20
173.093525202356
 30
0.0
 10
84.90461169018733
 20
173.2057342280521
 30
0.0
  0
LINE
  5
1D3
330
BA
100
AcDbEntity
  8
Sichtbar (ISO)
 62
    18
420
        0
370
     5
100
AcDbLine
 10
82.67647542025432
 20
173.0025618143099
 30
0.0
 11
84.71815677220158
 21
173.0025618143099
 31
0.0
  0
LINE
  5
1D4
330
BA
100
AcDbEntity
  8
Sichtbar (ISO)
 62
    18
420
        0
370
     5
100
AcDbLine
 10
82.67647542025432
 20
171.9866997455986
 30
0.0
 11
82.67647542025432
 21
171.7835273318563
 31
0.0
  0
LINE
  5
1D5
330
BA
100
AcDbEntity
  8
Sichtbar (ISO)
 62
    18
420
        0
370
     5
100
AcDbLine
 10
81.53910042053961
 20
171.9866997455986
 30
0.0
 11
82.67647542025432
 21
171.9866997455986
 31
0.0
  0
LINE
  5
1D6
330
BA
100
AcDbEntity
  8
Sichtbar (ISO)
 62
    18
420
        0
370
     5
100
AcDbLine
 10
81.53910042053961
 20
171.7835273318563
 30
0.0
 11
81.53910042053961
 21
171.9866997455986
 31
0.0
  0
LINE
  5
1D7
330
BA
100
AcDbEntity
  8
Sichtbar (ISO)
 62
    18
420
        0
370
     5
100
AcDbLine
 10
79.49741906859268
 20
171.7835273318563
 30
0.0
 11
81.53910042053961
 21
171.7835273318563
 31
0.0
  0
SPLINE
  5
1D8
330
BA
100
AcDbEntity
  8
Sichtbar (ISO)
 62
    18
420
        0
370
     5
100
AcDbSpline
210
0.0
220
0.0
230
1.0
 70
     8
 71
     3
 72
     8
 73
     4
 74
     0
 42
0.0000000001
 43
0.0000000001
 40
0.0
 40
0.0
 40
0.0
 40
0.0
 40
1.0
 40
1.0
 40
1.0
 40
1.0
 10
79.31096415060661
 20
171.9866997455986
 30
0.0
 10
79.31096415060661
 20
171.8744907199025
 30
0.0
 10
79.39444286085813
 20
171.7835273318563
 30
0.0
 10
79.49741906859268
 20
171.7835273318563
 30
0.0
  0
LINE
  5
1D9
330
BA
100
AcDbEntity
  8
Sichtbar (ISO)
 62
    18
420
        0
370
     5
100
AcDbLine
 10
79.31096415060661
 20
172.1593962972792
 30
0.0
 11
79.31096415060661
 21
171.9866997455986
 31
0.0
  0
SPLINE
  5
1DA
330
BA
100
AcDbEntity
  8
Sichtbar (ISO)
 62
    18
420
        0
370
     5
100
AcDbSpline
210
0.0
220
0.0
230
1.0
 70
     8
 71
     3
 72
     8
 73
     4
 74
     0
 42
0.0000000001
 43
0.0000000001
 40
0.0
 40
0.0
 40
0.0
 40
0.0
 40
1.0
 40
1.0
 40
1.0
 40
1.0
 10
79.49741906859268
 20
172.3625687110218
 30
0.0
 10
79.39444286085813
 20
172.3625687110218
 30
0.0
 10
79.31096415060661
 20
172.2716053229753
 30
0.0
 10
79.31096415060661
 20
172.1593962972792
 30
0.0
  0
LINE
  5
1DB
330
BA
100
AcDbEntity
  8
Sichtbar (ISO)
 62
    18
420
        0
370
     5
100
AcDbLine
 10
81.54842316643909
 20
172.3625687110218
 30
0.0
 11
79.49741906859268
 21
172.3625687110218
 31
0.0
  0
LINE
  5
1DC
330
BA
100
AcDbEntity
  8
Sichtbar (ISO)
 62
    18
420
        0
370
     5
100
AcDbLine
 10
81.54842316643909
 20
172.565741124764
 30
0.0
 11
81.54842316643909
 21
172.3625687110218
 31
0.0
  0
LINE
  5
1DD
330
BA
100
AcDbEntity
  8
Sichtbar (ISO)
 62
    18
420
        0
370
     5
100
AcDbLine
 10
82.66715267435516
 20
172.565741124764
 30
0.0
 11
81.54842316643909
 21
172.565741124764
 31
0.0
  0
LINE
  5
1DE
330
BA
100
AcDbEntity
  8
Sichtbar (ISO)
 62
    18
420
        0
370
     5
100
AcDbLine
 10
82.66715267435516
 20
172.3625687110218
 30
0.0
 11
82.66715267435516
 21
172.565741124764
 31
0.0
  0
LINE
  5
1DF
330
BA
100
AcDbEntity
  8
Sichtbar (ISO)
 62
    18
420
        0
370
     5
100
AcDbLine
 10
84.71815677220158
 20
172.3625687110218
 30
0.0
 11
82.66715267435516
 21
172.3625687110218
 31
0.0
  0
SPLINE
  5
1E0
330
BA
100
AcDbEntity
  8
Sichtbar (ISO)
 62
    18
420
        0
370
     5
100
AcDbSpline
210
0.0
220
0.0
230
1.0
 70
     8
 71
     3
 72
     8
 73
     4
 74
     0
 42
0.0000000001
 43
0.0000000001
 40
0.0
 40
0.0
 40
0.0
 40
0.0
 40
1.0
 40
1.0
 40
1.0
 40
1.0
 10
84.90461169018733
 20
172.1593962972792
 30
0.0
 10
84.90461169018733
 20
172.2716053229753
 30
0.0
 10
84.82113297993612
 20
172.3625687110218
 30
0.0
 10
84.71815677220158
 20
172.3625687110218
 30
0.0
  0
LINE
  5
1E1
330
BA
100
AcDbEntity
  8
Sichtbar (ISO)
 62
    18
420
        0
370
     5
100
AcDbLine
 10
84.90461169018733
 20
171.9866997455986
 30
0.0
 11
84.90461169018733
 21
172.1593962972792
 31
0.0
  0
SPLINE
  5
1E2
330
BA
100
AcDbEntity
  8
Sichtbar (ISO)
 62
    18
420
        0
370
     5
100
AcDbSpline
210
0.0
220
0.0
230
1.0
 70
     8
 71
     3
 72
     8
 73
     4
 74
     0
 42
0.0000000001
 43
0.0000000001
 40
0.0
 40
0.0
 40
0.0
 40
0.0
 40
1.0
 40
1.0
 40
1.0
 40
1.0
 10
84.71815677220158
 20
171.7835273318563
 30
0.0
 10
84.82113297993612
 20
171.7835273318563
 30
0.0
 10
84.90461169018733
 20
171.8744907199025
 30
0.0
 10
84.90461169018733
 20
171.9866997455986
 30
0.0
  0
LINE
  5
1E3
330
BA
100
AcDbEntity
  8
Sichtbar (ISO)
 62
    18
420
        0
370
     5
100
AcDbLine
 10
82.67647542025432
 20
171.7835273318563
 30
0.0
 11
84.71815677220158
 21
171.7835273318563
 31
0.0
  0
LINE
  5
1E4
330
BA
100
AcDbEntity
  8
Sichtbar (ISO)
 62
    18
420
        0
370
     5
100
AcDbLine
 10
82.67647542025432
 20
170.7676652631444
 30
0.0
 11
82.67647542025432
 21
170.5644928494022
 31
0.0
  0
LINE
  5
1E5
330
BA
100
AcDbEntity
  8
Sichtbar (ISO)
 62
    18
420
        0
370
     5
100
AcDbLine
 10
81.53910042053961
 20
170.7676652631444
 30
0.0
 11
82.67647542025432
 21
170.7676652631444
 31
0.0
  0
LINE
  5
1E6
330
BA
100
AcDbEntity
  8
Sichtbar (ISO)
 62
    18
420
        0
370
     5
100
AcDbLine
 10
81.53910042053961
 20
170.5644928494022
 30
0.0
 11
81.53910042053961
 21
170.7676652631444
 31
0.0
  0
LINE
  5
1E7
330
BA
100
AcDbEntity
  8
Sichtbar (ISO)
 62
    18
420
        0
370
     5
100
AcDbLine
 10
79.49741906859268
 20
170.5644928494022
 30
0.0
 11
81.53910042053961
 21
170.5644928494022
 31
0.0
  0
SPLINE
  5
1E8
330
BA
100
AcDbEntity
  8
Sichtbar (ISO)
 62
    18
420
        0
370
     5
100
AcDbSpline
210
0.0
220
0.0
230
1.0
 70
     8
 71
     3
 72
     8
 73
     4
 74
     0
 42
0.0000000001
 43
0.0000000001
 40
0.0
 40
0.0
 40
0.0
 40
0.0
 40
1.0
 40
1.0
 40
1.0
 40
1.0
 10
79.31096415060661
 20
170.7676652631444
 30
0.0
 10
79.31096415060661
 20
170.655456237448
 30
0.0
 10
79.39444286085813
 20
170.5644928494022
 30
0.0
 10
79.49741906859268
 20
170.5644928494022
 30
0.0
  0
LINE
  5
1E9
330
BA
100
AcDbEntity
  8
Sichtbar (ISO)
 62
    18
420
        0
370
     5
100
AcDbLine
 10
79.31096415060661
 20
170.9403618148257
 30
0.0
 11
79.31096415060661
 21
170.7676652631444
 31
0.0
  0
SPLINE
  5
1EA
330
BA
100
AcDbEntity
  8
Sichtbar (ISO)
 62
    18
420
        0
370
     5
100
AcDbSpline
210
0.0
220
0.0
230
1.0
 70
     8
 71
     3
 72
     8
 73
     4
 74
     0
 42
0.0000000001
 43
0.0000000001
 40
0.0
 40
0.0
 40
0.0
 40
0.0
 40
1.0
 40
1.0
 40
1.0
 40
1.0
 10
79.49741906859268
 20
171.143534228568
 30
0.0
 10
79.39444286085813
 20
171.143534228568
 30
0.0
 10
79.31096415060661
 20
171.0525708405218
 30
0.0
 10
79.31096415060661
 20
170.9403618148257
 30
0.0
  0
LINE
  5
1EB
330
BA
100
AcDbEntity
  8
Sichtbar (ISO)
 62
    18
420
        0
370
     5
100
AcDbLine
 10
81.54842316643909
 20
171.143534228568
 30
0.0
 11
79.49741906859268
 21
171.143534228568
 31
0.0
  0
LINE
  5
1EC
330
BA
100
AcDbEntity
  8
Sichtbar (ISO)
 62
    18
420
        0
370
     5
100
AcDbLine
 10
81.54842316643909
 20
171.3467066423102
 30
0.0
 11
81.54842316643909
 21
171.143534228568
 31
0.0
  0
LINE
  5
1ED
330
BA
100
AcDbEntity
  8
Sichtbar (ISO)
 62
    18
420
        0
370
     5
100
AcDbLine
 10
82.66715267435516
 20
171.3467066423102
 30
0.0
 11
81.54842316643909
 21
171.3467066423102
 31
0.0
  0
LINE
  5
1EE
330
BA
100
AcDbEntity
  8
Sichtbar (ISO)
 62
    18
420
        0
370
     5
100
AcDbLine
 10
82.66715267435516
 20
171.143534228568
 30
0.0
 11
82.66715267435516
 21
171.3467066423102
 31
0.0
  0
LINE
  5
1EF
330
BA
100
AcDbEntity
  8
Sichtbar (ISO)
 62
    18
420
        0
370
     5
100
AcDbLine
 10
84.71815677220158
 20
171.143534228568
 30
0.0
 11
82.66715267435516
 21
171.143534228568
 31
0.0
  0
SPLINE
  5
1F0
330
BA
100
AcDbEntity
  8
Sichtbar (ISO)
 62
    18
420
        0
370
     5
100
AcDbSpline
210
0.0
220
0.0
230
1.0
 70
     8
 71
     3
 72
     8
 73
     4
 74
     0
 42
0.0000000001
 43
0.0000000001
 40
0.0
 40
0.0
 40
0.0
 40
0.0
 40
1.0
 40
1.0
 40
1.0
 40
1.0
 10
84.90461169018733
 20
170.9403618148257
 30
0.0
 10
84.90461169018733
 20
171.0525708405218
 30
0.0
 10
84.82113297993612
 20
171.143534228568
 30
0.0
 10
84.71815677220158
 20
171.143534228568
 30
0.0
  0
LINE
  5
1F1
330
BA
100
AcDbEntity
  8
Sichtbar (ISO)
 62
    18
420
        0
370
     5
100
AcDbLine
 10
84.90461169018733
 20
170.7676652631444
 30
0.0
 11
84.90461169018733
 21
170.9403618148257
 31
0.0
  0
SPLINE
  5
1F2
330
BA
100
AcDbEntity
  8
Sichtbar (ISO)
 62
    18
420
        0
370
     5
100
AcDbSpline
210
0.0
220
0.0
230
1.0
 70
     8
 71
     3
 72
     8
 73
     4
 74
     0
 42
0.0000000001
 43
0.0000000001
 40
0.0
 40
0.0
 40
0.0
 40
0.0
 40
1.0
 40
1.0
 40
1.0
 40
1.0
 10
84.71815677220158
 20
170.5644928494022
 30
0.0
 10
84.82113297993612
 20
170.5644928494022
 30
0.0
 10
84.90461169018733
 20
170.655456237448
 30
0.0
 10
84.90461169018733
 20
170.7676652631444
 30
0.0
  0
LINE
  5
1F3
330
BA
100
AcDbEntity
  8
Sichtbar (ISO)
 62
    18
420
        0
370
     5
100
AcDbLine
 10
82.67647542025432
 20
170.5644928494022
 30
0.0
 11
84.71815677220158
 21
170.5644928494022
 31
0.0
  0
LINE
  5
1F4
330
BA
100
AcDbEntity
  8
Sichtbar (ISO)
 62
    18
420
        0
370
     5
100
AcDbLine
 10
78.27618082278205
 20
177.9498100889351
 30
0.0
 11
78.27618082278205
 21
178.1529825026773
 31
0.0
  0
LINE
  5
1F5
330
BA
100
AcDbEntity
  8
Sichtbar (ISO)
 62
    18
420
        0
370
     5
100
AcDbLine
 10
78.27618082278205
 20
177.9498100889351
 30
0.0
 11
77.46783229594125
 21
177.9498100889351
 31
0.0
  0
LINE
  5
1F6
330
BA
100
AcDbEntity
  8
Sichtbar (ISO)
 62
    18
420
        0
370
     5
100
AcDbLine
 10
77.46783229594125
 20
177.9498100889351
 30
0.0
 11
77.46783229594125
 21
176.7307756064822
 31
0.0
  0
LINE
  5
1F7
330
BA
100
AcDbEntity
  8
Sichtbar (ISO)
 62
    18
420
        0
370
     5
100
AcDbLine
 10
77.52489118388885
 20
176.7307756064822
 30
0.0
 11
77.46783229594125
 21
176.7307756064822
 31
0.0
  0
LINE
  5
1F8
330
BA
100
AcDbEntity
  8
Sichtbar (ISO)
 62
    18
420
        0
370
     5
100
AcDbLine
 10
77.52489118388885
 20
176.7307756064822
 30
0.0
 11
77.52489118388885
 21
169.8229135392433
 31
0.0
  0
LINE
  5
1F9
330
BA
100
AcDbEntity
  8
Sichtbar (ISO)
 62
    18
420
        0
370
     5
100
AcDbLine
 10
78.47191701966948
 20
176.7307756064822
 30
0.0
 11
78.47191701966948
 21
169.8229135392433
 31
0.0
  0
LINE
  5
1FA
330
BA
100
AcDbEntity
  8
Sichtbar (ISO)
 62
    18
420
        0
370
     5
100
AcDbLine
 10
78.34664243110743
 20
176.7307756064822
 30
0.0
 11
78.34664243110743
 21
177.137120433966
 31
0.0
  0
SPLINE
  5
1FB
330
BA
100
AcDbEntity
  8
Sichtbar (ISO)
 62
    18
420
        0
370
     5
100
AcDbSpline
210
0.0
220
0.0
230
1.0
 70
     8
 71
     3
 72
     8
 73
     4
 74
     0
 42
0.0000000001
 43
0.0000000001
 40
0.0
 40
0.0
 40
0.0
 40
0.0
 40
1.0
 40
1.0
 40
1.0
 40
1.0
 10
101.6552184524623
 20
175.6920411510196
 30
0.0
 10
101.6552184524623
 20
175.714477281702
 30
0.0
 10
101.6385402195226
 20
175.7326508803384
 30
0.0
 10
101.6179501855253
 20
175.7326508803384
 30
0.0
  0
LINE
  5
1FC
330
BA
100
AcDbEntity
  8
Sichtbar (ISO)
 62
    18
420
        0
370
     5
100
AcDbLine
 10
101.1797356949375
 20
175.7326508803384
 30
0.0
 11
101.6179501855253
 21
175.7326508803384
 31
0.0
  0
SPLINE
  5
1FD
330
BA
100
AcDbEntity
  8
Sichtbar (ISO)
 62
    18
420
        0
370
     5
100
AcDbSpline
210
0.0
220
0.0
230
1.0
 70
     8
 71
     3
 72
     8
 73
     4
 74
     0
 42
0.0000000001
 43
0.0000000001
 40
0.0
 40
0.0
 40
0.0
 40
0.0
 40
1.0
 40
1.0
 40
1.0
 40
1.0
 10
101.1424674279999
 20
175.7732606096571
 30
0.0
 10
101.1424674280002
 20
175.7508244789747
 30
0.0
 10
101.1591456609399
 20
175.7326508803384
 30
0.0
 10
101.1797356949375
 20
175.7326508803384
 30
0.0
  0
LINE
  5
1FE
330
BA
100
AcDbEntity
  8
Sichtbar (ISO)
 62
    18
420
        0
370
     5
100
AcDbLine
 10
101.1424674280005
 20
176.5708423277226
 30
0.0
 11
101.1424674280005
 21
175.7732606096571
 31
0.0
  0
SPLINE
  5
1FF
330
BA
100
AcDbEntity
  8
Sichtbar (ISO)
 62
    18
420
        0
370
     5
100
AcDbSpline
210
0.0
220
0.0
230
1.0
 70
     8
 71
     3
 72
     8
 73
     4
 74
     0
 42
0.0000000001
 43
0.0000000001
 40
0.0
 40
0.0
 40
0.0
 40
0.0
 40
1.0
 40
1.0
 40
1.0
 40
1.0
 10
101.1797356949375
 20
176.611452057043
 30
0.0
 10
101.1591456609396
 20
176.611452057043
 30
0.0
 10
101.1424674279993
 20
176.593278458405
 30
0.0
 10
101.1424674279999
 20
176.5708423277226
 30
0.0
  0
LINE
  5
200
330
BA
100
AcDbEntity
  8
Sichtbar (ISO)
 62
    18
420
        0
370
     5
100
AcDbLine
 10
103.3101024308378
 20
176.611452057042
 30
0.0
 11
101.1797356949375
 21
176.611452057042
 31
0.0
  0
SPLINE
  5
201
330
BA
100
AcDbEntity
  8
Sichtbar (ISO)
 62
    18
420
        0
370
     5
100
AcDbSpline
210
0.0
220
0.0
230
1.0
 70
     8
 71
     3
 72
     8
 73
     4
 74
     0
 42
0.0000000001
 43
0.0000000001
 40
0.0
 40
0.0
 40
0.0
 40
0.0
 40
1.0
 40
1.0
 40
1.0
 40
1.0
 10
103.3473706977753
 20
176.5708423277226
 30
0.0
 10
103.347370697776
 20
176.593278458405
 30
0.0
 10
103.3306924648359
 20
176.611452057043
 30
0.0
 10
103.3101024308378
 20
176.611452057043
 30
0.0
  0
LINE
  5
202
330
BA
100
AcDbEntity
  8
Sichtbar (ISO)
 62
    18
420
        0
370
     5
100
AcDbLine
 10
103.3473706977747
 20
175.7732606096571
 30
0.0
 11
103.3473706977747
 21
176.5708423277226
 31
0.0
  0
SPLINE
  5
203
330
BA
100
AcDbEntity
  8
Sichtbar (ISO)
 62
    18
420
        0
370
     5
100
AcDbSpline
210
0.0
220
0.0
230
1.0
 70
     8
 71
     3
 72
     8
 73
     4
 74
     0
 42
0.0000000001
 43
0.0000000001
 40
0.0
 40
0.0
 40
0.0
 40
0.0
 40
1.0
 40
1.0
 40
1.0
 40
1.0
 10
103.3101024308378
 20
175.7326508803384
 30
0.0
 10
103.3306924648353
 20
175.7326508803384
 30
0.0
 10
103.347370697775
 20
175.7508244789747
 30
0.0
 10
103.3473706977753
 20
175.7732606096571
 30
0.0
  0
LINE
  5
204
330
BA
100
AcDbEntity
  8
Sichtbar (ISO)
 62
    18
420
        0
370
     5
100
AcDbLine
 10
102.8718879402499
 20
175.7326508803384
 30
0.0
 11
103.3101024308378
 21
175.7326508803384
 31
0.0
  0
SPLINE
  5
205
330
BA
100
AcDbEntity
  8
Sichtbar (ISO)
 62
    18
420
        0
370
     5
100
AcDbSpline
210
0.0
220
0.0
230
1.0
 70
     8
 71
     3
 72
     8
 73
     4
 74
     0
 42
0.0000000001
 43
0.0000000001
 40
0.0
 40
0.0
 40
0.0
 40
0.0
 40
1.0
 40
1.0
 40
1.0
 40
1.0
 10
102.8718879402499
 20
175.732650880339
 30
0.0
 10
102.8512979062527
 20
175.7326508803384
 30
0.0
 10
102.8346196733129
 20
175.714477281702
 30
0.0
 10
102.8346196733129
 20
175.6920411510196
 30
0.0
  0
LINE
  5
206
330
BA
100
AcDbEntity
  8
Sichtbar (ISO)
 62
    18
420
        0
370
     5
100
AcDbLine
 10
102.8346196733133
 20
174.8589847478167
 30
0.0
 11
102.8346196733133
 21
175.6920411510196
 31
0.0
  0
SPLINE
  5
207
330
BA
100
AcDbEntity
  8
Sichtbar (ISO)
 62
    18
420
        0
370
     5
100
AcDbSpline
210
0.0
220
0.0
230
1.0
 70
     8
 71
     3
 72
     8
 73
     4
 74
     0
 42
0.0000000001
 43
0.0000000001
 40
0.0
 40
0.0
 40
0.0
 40
0.0
 40
1.0
 40
1.0
 40
1.0
 40
1.0
 10
102.7973514063763
 20
174.8183750184976
 30
0.0
 10
102.8179414403739
 20
174.8183750184976
 30
0.0
 10
102.8346196733139
 20
174.8365486171343
 30
0.0
 10
102.8346196733139
 20
174.8589847478167
 30
0.0
  0
LINE
  5
208
330
BA
100
AcDbEntity
  8
Sichtbar (ISO)
 62
    18
420
        0
370
     5
100
AcDbLine
 10
101.6924867193989
 20
174.8183750184979
 30
0.0
 11
102.7973514063763
 21
174.8183750184979
 31
0.0
  0
SPLINE
  5
209
330
BA
100
AcDbEntity
  8
Sichtbar (ISO)
 62
    18
420
        0
370
     5
100
AcDbSpline
210
0.0
220
0.0
230
1.0
 70
     8
 71
     3
 72
     8
 73
     4
 74
     0
 42
0.0000000001
 43
0.0000000001
 40
0.0
 40
0.0
 40
0.0
 40
0.0
 40
1.0
 40
1.0
 40
1.0
 40
1.0
 10
101.6552184524613
 20
174.8589847478167
 30
0.0
 10
101.6552184524613
 20
174.8365486171343
 30
0.0
 10
101.6718966854014
 20
174.8183750184976
 30
0.0
 10
101.6924867193989
 20
174.8183750184976
 30
0.0
  0
LINE
  5
20A
330
BA
100
AcDbEntity
  8
Sichtbar (ISO)
 62
    18
420
        0
370
     5
100
AcDbLine
 10
101.6552184524623
 20
175.6920411510196
 30
0.0
 11
101.6552184524623
 21
174.8589847478167
 31
0.0
  0
SPLINE
  5
20B
330
BA
100
AcDbEntity
  8
Sichtbar (ISO)
 62
    18
420
        0
370
     5
100
AcDbSpline
210
0.0
220
0.0
230
1.0
 70
     8
 71
     3
 72
     8
 73
     4
 74
     0
 42
0.0000000001
 43
0.0000000001
 40
0.0
 40
0.0
 40
0.0
 40
0.0
 40
1.0
 40
1.0
 40
1.0
 40
1.0
 10
90.56586335317243
 20
175.7326508803384
 30
0.0
 10
90.54527331917553
 20
175.7326508803384
 30
0.0
 10
90.5285950862358
 20
175.714477281702
 30
0.0
 10
90.52859508623546
 20
175.6920411510196
 30
0.0
  0
LINE
  5
20C
330
BA
100
AcDbEntity
  8
Sichtbar (ISO)
 62
    18
420
        0
370
     5
100
AcDbLine
 10
90.52859508623546
 20
175.6920411510196
 30
0.0
 11
90.52859508623546
 21
174.8589847478167
 31
0.0
  0
SPLINE
  5
20D
330
BA
100
AcDbEntity
  8
Sichtbar (ISO)
 62
    18
420
        0
370
     5
100
AcDbSpline
210
0.0
220
0.0
230
1.0
 70
     8
 71
     3
 72
     8
 73
     4
 74
     0
 42
0.0000000001
 43
0.0000000001
 40
0.0
 40
0.0
 40
0.0
 40
0.0
 40
1.0
 40
1.0
 40
1.0
 40
1.0
 10
90.49132681929883
 20
174.8183750184976
 30
0.0
 10
90.51191685329639
 20
174.8183750184976
 30
0.0
 10
90.52859508623644
 20
174.8365486171343
 30
0.0
 10
90.52859508623644
 20
174.8589847478167
 30
0.0
  0
LINE
  5
20E
330
BA
100
AcDbEntity
  8
Sichtbar (ISO)
 62
    18
420
        0
370
     5
100
AcDbLine
 10
90.49132681929883
 20
174.8183750184979
 30
0.0
 11
89.38646213232146
 21
174.8183750184979
 31
0.0
  0
SPLINE
  5
20F
330
BA
100
AcDbEntity
  8
Sichtbar (ISO)
 62
    18
420
        0
370
     5
100
AcDbSpline
210
0.0
220
0.0
230
1.0
 70
     8
 71
     3
 72
     8
 73
     4
 74
     0
 42
0.0000000001
 43
0.0000000001
 40
0.0
 40
0.0
 40
0.0
 40
0.0
 40
1.0
 40
1.0
 40
1.0
 40
1.0
 10
89.34919386538387
 20
174.8589847478167
 30
0.0
 10
89.34919386538387
 20
174.8365486171343
 30
0.0
 10
89.36587209832358
 20
174.8183750184976
 30
0.0
 10
89.38646213232146
 20
174.8183750184976
 30
0.0
  0
LINE
  5
210
330
BA
100
AcDbEntity
  8
Sichtbar (ISO)
 62
    18
420
        0
370
     5
100
AcDbLine
 10
89.34919386538451
 20
174.8589847478167
 30
0.0
 11
89.34919386538451
 21
175.6920411510196
 31
0.0
  0
SPLINE
  5
211
330
BA
100
AcDbEntity
  8
Sichtbar (ISO)
 62
    18
420
        0
370
     5
100
AcDbSpline
210
0.0
220
0.0
230
1.0
 70
     8
 71
     3
 72
     8
 73
     4
 74
     0
 42
0.0000000001
 43
0.0000000001
 40
0.0
 40
0.0
 40
0.0
 40
0.0
 40
1.0
 40
1.0
 40
1.0
 40
1.0
 10
89.34919386538483
 20
175.6920411510196
 30
0.0
 10
89.34919386538483
 20
175.714477281702
 30
0.0
 10
89.3325156324451
 20
175.7326508803384
 30
0.0
 10
89.31192559844786
 20
175.732650880339
 30
0.0
  0
LINE
  5
212
330
BA
100
AcDbEntity
  8
Sichtbar (ISO)
 62
    18
420
        0
370
     5
100
AcDbLine
 10
89.31192559844786
 20
175.7326508803384
 30
0.0
 11
88.87371110786004
 21
175.7326508803384
 31
0.0
  0
SPLINE
  5
213
330
BA
100
AcDbEntity
  8
Sichtbar (ISO)
 62
    18
420
        0
370
     5
100
AcDbSpline
210
0.0
220
0.0
230
1.0
 70
     8
 71
     3
 72
     8
 73
     4
 74
     0
 42
0.0000000001
 43
0.0000000001
 40
0.0
 40
0.0
 40
0.0
 40
0.0
 40
1.0
 40
1.0
 40
1.0
 40
1.0
 10
88.83644284092211
 20
175.7732606096571
 30
0.0
 10
88.83644284092243
 20
175.7508244789747
 30
0.0
 10
88.85312107386246
 20
175.7326508803384
 30
0.0
 10
88.87371110786004
 20
175.7326508803384
 30
0.0
  0
LINE
  5
214
330
BA
100
AcDbEntity
  8
Sichtbar (ISO)
 62
    18
420
        0
370
     5
100
AcDbLine
 10
88.83644284092307
 20
175.7732606096571
 30
0.0
 11
88.83644284092307
 21
176.5708423277226
 31
0.0
  0
SPLINE
  5
215
330
BA
100
AcDbEntity
  8
Sichtbar (ISO)
 62
    18
420
        0
370
     5
100
AcDbSpline
210
0.0
220
0.0
230
1.0
 70
     8
 71
     3
 72
     8
 73
     4
 74
     0
 42
0.0000000001
 43
0.0000000001
 40
0.0
 40
0.0
 40
0.0
 40
0.0
 40
1.0
 40
1.0
 40
1.0
 40
1.0
 10
88.87371110786004
 20
176.611452057043
 30
0.0
 10
88.85312107386182
 20
176.611452057043
 30
0.0
 10
88.83644284092177
 20
176.593278458405
 30
0.0
 10
88.83644284092211
 20
176.5708423277226
 30
0.0
  0
LINE
  5
216
330
BA
100
AcDbEntity
  8
Sichtbar (ISO)
 62
    18
420
        0
370
     5
100
AcDbLine
 10
88.87371110786004
 20
176.611452057042
 30
0.0
 11
91.00407784376029
 21
176.611452057042
 31
0.0
  0
SPLINE
  5
217
330
BA
100
AcDbEntity
  8
Sichtbar (ISO)
 62
    18
420
        0
370
     5
100
AcDbSpline
210
0.0
220
0.0
230
1.0
 70
     8
 71
     3
 72
     8
 73
     4
 74
     0
 42
0.0000000001
 43
0.0000000001
 40
0.0
 40
0.0
 40
0.0
 40
0.0
 40
1.0
 40
1.0
 40
1.0
 40
1.0
 10
91.04134611069788
 20
176.5708423277226
 30
0.0
 10
91.0413461106982
 20
176.593278458405
 30
0.0
 10
91.02466787775815
 20
176.611452057043
 30
0.0
 10
91.00407784376029
 20
176.611452057043
 30
0.0
  0
LINE
  5
218
330
BA
100
AcDbEntity
  8
Sichtbar (ISO)
 62
    18
420
        0
370
     5
100
AcDbLine
 10
91.04134611069722
 20
176.5708423277226
 30
0.0
 11
91.04134611069722
 21
175.7732606096571
 31
0.0
  0
SPLINE
  5
219
330
BA
100
AcDbEntity
  8
Sichtbar (ISO)
 62
    18
420
        0
370
     5
100
AcDbSpline
210
0.0
220
0.0
230
1.0
 70
     8
 71
     3
 72
     8
 73
     4
 74
     0
 42
0.0000000001
 43
0.0000000001
 40
0.0
 40
0.0
 40
0.0
 40
0.0
 40
1.0
 40
1.0
 40
1.0
 40
1.0
 10
91.00407784376029
 20
175.7326508803384
 30
0.0
 10
91.02466787775783
 20
175.7326508803384
 30
0.0
 10
91.04134611069756
 20
175.7508244789747
 30
0.0
 10
91.04134611069788
 20
175.7732606096571
 30
0.0
  0
LINE
  5
21A
330
BA
100
AcDbEntity
  8
Sichtbar (ISO)
 62
    18
420
        0
370
     5
100
AcDbLine
 10
91.00407784376029
 20
175.7326508803384
 30
0.0
 11
90.56586335317243
 21
175.7326508803384
 31
0.0
  0
LINE
  5
21B
330
BA
100
AcDbEntity
  8
Sichtbar (ISO)
 62
    18
420
        0
370
     5
100
AcDbLine
 10
115.7629006168747
 20
177.9498100889351
 30
0.0
 11
115.6901321966044
 21
177.9498100889351
 31
0.0
  0
LINE
  5
21C
330
BA
100
AcDbEntity
  8
Sichtbar (ISO)
 62
    18
420
        0
370
     5
100
AcDbLine
 10
115.6901321965993
 20
177.9498100889351
 30
0.0
 11
114.7159812427569
 21
177.9498100889351
 31
0.0
  0
LINE
  5
21D
330
BA
100
AcDbEntity
  8
Sichtbar (ISO)
 62
    18
420
        0
370
     5
100
AcDbLine
 10
115.7032294271675
 20
176.7307756064822
 30
0.0
 11
115.6901321966044
 21
176.7307756064822
 31
0.0
  0
LINE
  5
21E
330
BA
100
AcDbEntity
  8
Sichtbar (ISO)
 62
    18
420
        0
370
     5
100
AcDbLine
 10
115.7629006168747
 20
176.7307756064822
 30
0.0
 11
114.7159812427569
 21
176.7307756064822
 31
0.0
  0
LINE
  5
21F
330
BA
100
AcDbEntity
  8
Sichtbar (ISO)
 62
    18
420
        0
370
     5
100
AcDbLine
 10
73.99699898800516
 20
178.1529825026773
 30
0.0
 11
73.99699898800516
 21
169.8229135392433
 31
0.0
  0
LINE
  5
220
330
BA
100
AcDbEntity
  8
Sichtbar (ISO)
 62
    18
420
        0
370
     5
100
AcDbLine
 10
76.42091292182339
 20
177.9498100889351
 30
0.0
 11
76.49368134209336
 21
177.9498100889351
 31
0.0
  0
LINE
  5
221
330
BA
100
AcDbEntity
  8
Sichtbar (ISO)
 62
    18
420
        0
370
     5
100
AcDbLine
 10
76.49368134209881
 20
177.9498100889351
 30
0.0
 11
77.46783229594093
 21
177.9498100889351
 31
0.0
  0
LINE
  5
222
330
BA
100
AcDbEntity
  8
Sichtbar (ISO)
 62
    18
420
        0
370
     5
100
AcDbLine
 10
76.48058411152996
 20
176.7307756064822
 30
0.0
 11
76.49368134209336
 21
176.7307756064822
 31
0.0
  0
LINE
  5
223
330
BA
100
AcDbEntity
  8
Sichtbar (ISO)
 62
    18
420
        0
370
     5
100
AcDbLine
 10
76.42091292182339
 20
176.7307756064822
 30
0.0
 11
77.46783229594093
 21
176.7307756064822
 31
0.0
  0
LINE
  5
224
330
BA
100
AcDbEntity
  8
Sichtbar (ISO)
 62
    18
420
        0
370
     5
100
AcDbLine
 10
103.4568760297969
 20
169.8229135392433
 30
0.0
 11
103.4568760297969
 21
173.6831894003464
 31
0.0
  0
LINE
  5
225
330
BA
100
AcDbEntity
  8
Sichtbar (ISO)
 62
    18
420
        0
370
     5
100
AcDbLine
 10
100.9397346369855
 20
177.137120433966
 30
0.0
 11
91.2440789017123
 21
177.137120433966
 31
0.0
  0
LINE
  5
226
330
BA
100
AcDbEntity
  8
Sichtbar (ISO)
 62
    18
420
        0
370
     5
100
AcDbLine
 10
91.2440789017123
 20
177.137120433966
 30
0.0
 11
91.22972751824837
 21
174.1504859519542
 31
0.0
  0
LINE
  5
227
330
BA
100
AcDbEntity
  8
Sichtbar (ISO)
 62
    18
420
        0
370
     5
100
AcDbLine
 10
91.22972751824837
 20
174.1504859519542
 30
0.0
 11
87.43610446646265
 21
174.1504859519542
 31
0.0
  0
LINE
  5
228
330
BA
100
AcDbEntity
  8
Sichtbar (ISO)
 62
    18
420
        0
370
     5
100
AcDbLine
 10
87.42175308299906
 20
177.137120433966
 30
0.0
 11
87.43610446646265
 21
174.1504859519542
 31
0.0
  0
LINE
  5
229
330
BA
100
AcDbEntity
  8
Sichtbar (ISO)
 62
    18
420
        0
370
     5
100
AcDbLine
 10
87.42175308299906
 20
177.137120433966
 30
0.0
 11
79.49741906859268
 21
177.137120433966
 31
0.0
  0
LINE
  5
22A
330
BA
100
AcDbEntity
  8
Sichtbar (ISO)
 62
    18
420
        0
370
     5
100
AcDbLine
 10
87.04884324702661
 20
176.7307756064822
 30
0.0
 11
79.49741906859268
 21
176.7307756064822
 31
0.0
  0
LINE
  5
22B
330
BA
100
AcDbEntity
  8
Sichtbar (ISO)
 62
    18
420
        0
370
     5
100
AcDbLine
 10
87.04884324702661
 20
176.7307756064822
 30
0.0
 11
87.04884324702661
 21
169.8229135392433
 31
0.0
  0
LINE
  5
22C
330
BA
100
AcDbEntity
  8
Sichtbar (ISO)
 62
    18
420
        0
370
     5
100
AcDbLine
 10
87.79466291897087
 20
169.8229135392433
 30
0.0
 11
87.79466291897087
 21
173.6831894003464
 31
0.0
  0
LINE
  5
22D
330
BA
100
AcDbEntity
  8
Sichtbar (ISO)
 62
    18
420
        0
370
     5
100
AcDbLine
 10
88.72693750890055
 20
173.6831894003464
 30
0.0
 11
87.79466291897087
 21
173.6831894003464
 31
0.0
  0
LINE
  5
22E
330
BA
100
AcDbEntity
  8
Sichtbar (ISO)
 62
    18
420
        0
370
     5
100
AcDbLine
 10
88.72693750890055
 20
169.8229135392433
 30
0.0
 11
88.72693750890055
 21
173.6831894003464
 31
0.0
  0
LINE
  5
22F
330
BA
100
AcDbEntity
  8
Sichtbar (ISO)
 62
    18
420
        0
370
     5
100
AcDbLine
 10
89.47275718084515
 20
173.7441411244697
 30
0.0
 11
89.47275718084515
 21
169.8229135392433
 31
0.0
  0
LINE
  5
230
330
BA
100
AcDbEntity
  8
Sichtbar (ISO)
 62
    18
420
        0
370
     5
100
AcDbLine
 10
91.61698873768441
 20
173.7441411244697
 30
0.0
 11
89.47275718084515
 21
173.7441411244697
 31
0.0
  0
LINE
  5
231
330
BA
100
AcDbEntity
  8
Sichtbar (ISO)
 62
    18
420
        0
370
     5
100
AcDbLine
 10
91.61698873768441
 20
176.7307756064822
 30
0.0
 11
91.61698873768441
 21
173.7441411244697
 31
0.0
  0
LINE
  5
232
330
BA
100
AcDbEntity
  8
Sichtbar (ISO)
 62
    18
420
        0
370
     5
100
AcDbLine
 10
91.61698873768441
 20
176.7307756064822
 30
0.0
 11
100.5668248010133
 21
176.7307756064822
 31
0.0
  0
LINE
  5
233
330
BA
100
AcDbEntity
  8
Sichtbar (ISO)
 62
    18
420
        0
370
     5
100
AcDbLine
 10
100.5668248010133
 20
176.7307756064822
 30
0.0
 11
100.5668248010133
 21
173.7441411244697
 31
0.0
  0
LINE
  5
234
330
BA
100
AcDbEntity
  8
Sichtbar (ISO)
 62
    18
420
        0
370
     5
100
AcDbLine
 10
100.5668248010133
 20
173.7441411244697
 30
0.0
 11
102.7110563578526
 21
173.7441411244697
 31
0.0
  0
LINE
  5
235
330
BA
100
AcDbEntity
  8
Sichtbar (ISO)
 62
    18
420
        0
370
     5
100
AcDbLine
 10
102.7110563578526
 20
173.7441411244697
 30
0.0
 11
102.7110563578526
 21
169.8229135392433
 31
0.0
  0
LINE
  5
236
330
BA
100
AcDbEntity
  8
Sichtbar (ISO)
 62
    18
420
        0
370
     5
100
AcDbLine
 10
103.4568760297969
 20
173.6831894003464
 30
0.0
 11
104.3891506197269
 21
173.6831894003464
 31
0.0
  0
LINE
  5
237
330
BA
100
AcDbEntity
  8
Sichtbar (ISO)
 62
    18
420
        0
370
     5
100
AcDbLine
 10
104.3891506197269
 20
169.8229135392433
 30
0.0
 11
104.3891506197269
 21
173.6831894003464
 31
0.0
  0
LINE
  5
238
330
BA
100
AcDbEntity
  8
Sichtbar (ISO)
 62
    18
420
        0
370
     5
100
AcDbLine
 10
105.1349702916705
 20
176.7307756064822
 30
0.0
 11
105.1349702916705
 21
169.8229135392433
 31
0.0
  0
LINE
  5
239
330
BA
100
AcDbEntity
  8
Sichtbar (ISO)
 62
    18
420
        0
370
     5
100
AcDbLine
 10
105.1349702916705
 20
176.7307756064822
 30
0.0
 11
112.6863944701048
 21
176.7307756064822
 31
0.0
  0
LINE
  5
23A
330
BA
100
AcDbEntity
  8
Sichtbar (ISO)
 62
    18
420
        0
370
     5
100
AcDbLine
 10
104.762060455699
 20
177.137120433966
 30
0.0
 11
112.6863944701048
 21
177.137120433966
 31
0.0
  0
LINE
  5
23B
330
BA
100
AcDbEntity
  8
Sichtbar (ISO)
 62
    18
420
        0
370
     5
100
AcDbLine
 10
104.762060455699
 20
177.137120433966
 30
0.0
 11
104.7477090722351
 21
174.1504859519542
 31
0.0
  0
LINE
  5
23C
330
BA
100
AcDbEntity
  8
Sichtbar (ISO)
 62
    18
420
        0
370
     5
100
AcDbLine
 10
100.9540860204491
 20
174.1504859519542
 30
0.0
 11
104.7477090722351
 21
174.1504859519542
 31
0.0
  0
LINE
  5
23D
330
BA
100
AcDbEntity
  8
Sichtbar (ISO)
 62
    18
420
        0
370
     5
100
AcDbLine
 10
100.9397346369855
 20
177.137120433966
 30
0.0
 11
100.9540860204491
 21
174.1504859519542
 31
0.0
  0
LINE
  5
23E
330
BA
100
AcDbEntity
  8
Sichtbar (ISO)
 62
    18
420
        0
370
     5
100
AcDbLine
 10
113.3600894660029
 20
177.137120433966
 30
0.0
 11
112.6863944701048
 21
177.137120433966
 31
0.0
  0
LINE
  5
23F
330
BA
100
AcDbEntity
  8
Sichtbar (ISO)
 62
    18
420
        0
370
     5
100
AcDbLine
 10
113.8371711075907
 20
177.137120433966
 30
0.0
 11
113.3600894660029
 21
177.137120433966
 31
0.0
  0
LINE
  5
240
330
BA
100
AcDbEntity
  8
Sichtbar (ISO)
 62
    18
420
        0
370
     5
100
AcDbLine
 10
78.34664243110679
 20
177.137120433966
 30
0.0
 11
78.82372407269524
 21
177.137120433966
 31
0.0
  0
LINE
  5
241
330
BA
100
AcDbEntity
  8
Sichtbar (ISO)
 62
    18
420
        0
370
     5
100
AcDbLine
 10
78.82372407269429
 20
177.137120433966
 30
0.0
 11
79.49741906859268
 21
177.137120433966
 31
0.0
  0
LINE
  5
242
330
BA
100
AcDbEntity
  8
Sichtbar (ISO)
 62
    18
420
        0
370
     5
100
AcDbLine
 10
113.8371711075907
 20
176.7307756064822
 30
0.0
 11
113.3600894660029
 21
176.7307756064822
 31
0.0
  0
LINE
  5
243
330
BA
100
AcDbEntity
  8
Sichtbar (ISO)
 62
    18
420
        0
370
     5
100
AcDbLine
 10
113.3600894660029
 20
176.7307756064822
 30
0.0
 11
112.6863944701048
 21
176.7307756064822
 31
0.0
  0
LINE
  5
244
330
BA
100
AcDbEntity
  8
Sichtbar (ISO)
 62
    18
420
        0
370
     5
100
AcDbLine
 10
78.82372407269429
 20
176.7307756064822
 30
0.0
 11
79.49741906859268
 21
176.7307756064822
 31
0.0
  0
LINE
  5
245
330
BA
100
AcDbEntity
  8
Sichtbar (ISO)
 62
    18
420
        0
370
     5
100
AcDbLine
 10
78.34664243110679
 20
176.7307756064822
 30
0.0
 11
78.82372407269524
 21
176.7307756064822
 31
0.0
  0
LINE
  5
246
330
BA
100
AcDbEntity
  8
Sichtbar (ISO)
 62
    18
420
        0
370
     5
100
AcDbLine
 10
106.7198370945519
 20
178.1529825026773
 30
0.0
 11
106.7198370945519
 21
177.137120433966
 31
0.0
  0
LINE
  5
247
330
BA
100
AcDbEntity
  8
Sichtbar (ISO)
 62
    18
420
        0
370
     5
100
AcDbLine
 10
106.7198370945519
 20
176.7307756064822
 30
0.0
 11
106.7198370945519
 21
174.0895342278316
 31
0.0
  0
LINE
  5
248
330
BA
100
AcDbEntity
  8
Sichtbar (ISO)
 62
    18
420
        0
370
     5
100
AcDbLine
 10
105.6011075866362
 20
178.1529825026773
 30
0.0
 11
105.6011075866362
 21
177.137120433966
 31
0.0
  0
LINE
  5
249
330
BA
100
AcDbEntity
  8
Sichtbar (ISO)
 62
    18
420
        0
370
     5
100
AcDbLine
 10
105.6011075866362
 20
176.7307756064822
 30
0.0
 11
105.6011075866362
 21
174.0895342278316
 31
0.0
  0
LINE
  5
24A
330
BA
100
AcDbEntity
  8
Sichtbar (ISO)
 62
    18
420
        0
370
     5
100
AcDbLine
 10
105.6011075866362
 20
174.0895342278316
 30
0.0
 11
106.7198370945519
 21
174.0895342278316
 31
0.0
  0
LINE
  5
24B
330
BA
100
AcDbEntity
  8
Sichtbar (ISO)
 62
    18
420
        0
370
     5
100
AcDbLine
 10
86.58270595206159
 20
178.1529825026773
 30
0.0
 11
86.58270595206159
 21
177.137120433966
 31
0.0
  0
LINE
  5
24C
330
BA
100
AcDbEntity
  8
Sichtbar (ISO)
 62
    18
420
        0
370
     5
100
AcDbLine
 10
86.58270595206159
 20
176.7307756064822
 30
0.0
 11
86.58270595206159
 21
174.0895342278316
 31
0.0
  0
LINE
  5
24D
330
BA
100
AcDbEntity
  8
Sichtbar (ISO)
 62
    18
420
        0
370
     5
100
AcDbLine
 10
85.46397644414552
 20
178.1529825026773
 30
0.0
 11
85.46397644414552
 21
177.137120433966
 31
0.0
  0
LINE
  5
24E
330
BA
100
AcDbEntity
  8
Sichtbar (ISO)
 62
    18
420
        0
370
     5
100
AcDbLine
 10
85.46397644414552
 20
176.7307756064822
 30
0.0
 11
85.46397644414552
 21
174.0895342278316
 31
0.0
  0
LINE
  5
24F
330
BA
100
AcDbEntity
  8
Sichtbar (ISO)
 62
    18
420
        0
370
     5
100
AcDbLine
 10
86.58270595206159
 20
174.0895342278316
 30
0.0
 11
85.46397644414552
 21
174.0895342278316
 31
0.0
  0
LINE
  5
250
330
BA
100
AcDbEntity
  8
Sichtbar (ISO)
 62
    18
420
        0
370
     5
100
AcDbLine
 10
118.9326342226735
 20
176.3041135375408
 30
0.0
 11
118.9326342226735
 21
177.5637825029068
 31
0.0
  0
LINE
  5
251
330
BA
100
AcDbEntity
  8
Sichtbar (ISO)
 62
    18
420
        0
370
     5
100
AcDbLine
 10
118.7648247964494
 20
176.1212583652541
 30
0.0
 11
118.7461793046505
 21
176.1212583652541
 31
0.0
  0
LINE
  5
252
330
BA
100
AcDbEntity
  8
Sichtbar (ISO)
 62
    18
420
        0
370
     5
100
AcDbLine
 10
118.7648247964494
 20
177.7466376751928
 30
0.0
 11
118.7461793046505
 21
177.7466376751928
 31
0.0
  0
SPLINE
  5
253
330
BA
100
AcDbEntity
  8
Sichtbar (ISO)
 62
    18
420
        0
370
     5
100
AcDbSpline
210
0.0
220
0.0
230
1.0
 70
     8
 71
     3
 72
     8
 73
     4
 74
     0
 42
0.0000000001
 43
0.0000000001
 40
0.0
 40
0.0
 40
0.0
 40
0.0
 40
1.0
 40
1.0
 40
1.0
 40
1.0
 10
118.9326342226735
 20
177.5637825027172
 30
0.0
 10
118.9326342226735
 20
177.6647706258832
 30
0.0
 10
118.8575033834469
 20
177.7466376751729
 30
0.0
 10
118.7648247964494
 20
177.7466376752326
 30
0.0
  0
SPLINE
  5
254
330
BA
100
AcDbEntity
  8
Sichtbar (ISO)
 62
    18
420
        0
370
     5
100
AcDbSpline
210
0.0
220
0.0
230
1.0
 70
     8
 71
     3
 72
     8
 73
     4
 74
     0
 42
0.0000000001
 43
0.0000000001
 40
0.0
 40
0.0
 40
0.0
 40
0.0
 40
1.0
 40
1.0
 40
1.0
 40
1.0
 10
118.7648247964494
 20
176.121258365215
 30
0.0
 10
118.8575033834469
 20
176.121258365274
 30
0.0
 10
118.9326342226735
 20
176.2031254145644
 30
0.0
 10
118.9326342226735
 20
176.3041135377298
 30
0.0
  0
LINE
  5
255
330
BA
100
AcDbEntity
  8
Sichtbar (ISO)
 62
    18
420
        0
370
     5
100
AcDbLine
 10
118.1868145506926
 20
176.1304531387213
 30
0.0
 11
118.373269468679
 21
176.1304531387213
 31
0.0
  0
ENDBLK
  5
BD
330
BA
100
AcDbEntity
  8
0
100
AcDbBlockEnd
  0
BLOCK
  5
258
330
256
100
AcDbEntity
  8
0
100
AcDbBlockBegin
  2
Block_16
 70
     0
 10
0.0
 20
0.0
 30
0.0
  3
Block_16
  1

  0
LINE
  5
25A
330
256
100
AcDbEntity
  8
Sichtbar (ISO)
 62
    18
420
        0
370
     5
100
AcDbLine
 10
73.99699898800516
 20
160.9119622501036
 30
0.0
 11
73.99699898800516
 21
160.9026011389947
 31
0.0
  0
LINE
  5
25B
330
256
100
AcDbEntity
  8
Sichtbar (ISO)
 62
    18
420
        0
370
     5
100
AcDbLine
 10
73.99699898800516
 20
117.2985455943402
 30
0.0
 11
73.99699898800516
 21
117.2891844832313
 31
0.0
  0
LINE
  5
25C
330
256
100
AcDbEntity
  8
Sichtbar (ISO)
 62
    18
420
        0
370
     5
100
AcDbLine
 10
118.186814550692
 20
160.9119622501036
 30
0.0
 11
118.186814550692
 21
160.9026011389947
 31
0.0
  0
LINE
  5
25D
330
256
100
AcDbEntity
  8
Sichtbar (ISO)
 62
    18
420
        0
370
     5
100
AcDbLine
 10
118.186814550692
 20
117.2985455943402
 30
0.0
 11
118.186814550692
 21
117.2891844832313
 31
0.0
  0
LINE
  5
25E
330
256
100
AcDbEntity
  8
Sichtbar (ISO)
 62
    18
420
        0
370
     5
100
AcDbLine
 10
74.55636374196337
 20
117.4764067054068
 30
0.0
 11
117.6274497967347
 21
117.4764067054068
 31
0.0
  0
LINE
  5
25F
330
256
100
AcDbEntity
  8
Sichtbar (ISO)
 62
    18
420
        0
370
     5
100
AcDbLine
 10
117.6274497967347
 20
160.7247400279281
 30
0.0
 11
74.55636374196337
 21
160.7247400279281
 31
0.0
  0
LINE
  5
260
330
256
100
AcDbEntity
  8
Sichtbar (ISO)
 62
    18
420
        0
370
     5
100
AcDbLine
 10
74.55636374196337
 20
160.7247400279281
 30
0.0
 11
74.55636374196337
 21
140.6451566996147
 31
0.0
  0
LINE
  5
261
330
256
100
AcDbEntity
  8
Sichtbar (ISO)
 62
    18
420
        0
370
     5
100
AcDbLine
 10
74.55636374196337
 20
137.5559900337202
 30
0.0
 11
74.55636374196337
 21
117.4764067054068
 31
0.0
  0
LINE
  5
262
330
256
100
AcDbEntity
  8
Sichtbar (ISO)
 62
    18
420
        0
370
     5
100
AcDbLine
 10
117.6274497967347
 20
137.5559900337202
 30
0.0
 11
117.6274497967347
 21
117.4764067054068
 31
0.0
  0
LINE
  5
263
330
256
100
AcDbEntity
  8
Sichtbar (ISO)
 62
    18
420
        0
370
     5
100
AcDbLine
 10
117.6274497967347
 20
160.7247400279281
 30
0.0
 11
117.6274497967347
 21
140.6451566996147
 31
0.0
  0
LINE
  5
264
330
256
100
AcDbEntity
  8
Sichtbar (ISO)
 62
    18
420
        0
370
     5
100
AcDbLine
 10
105.1251253801045
 20
133.8421226680462
 30
0.0
 11
105.1245673110346
 21
133.8424464475688
 31
0.0
  0
LINE
  5
265
330
256
100
AcDbEntity
  8
Sichtbar (ISO)
 62
    18
420
        0
370
     5
100
AcDbLine
 10
105.138306033683
 20
133.8650182664384
 30
0.0
 11
105.1389852793116
 21
133.8666375844179
 31
0.0
  0
LINE
  5
266
330
256
100
AcDbEntity
  8
Sichtbar (ISO)
 62
    18
420
        0
370
     5
100
AcDbLine
 10
87.40965747170744
 20
133.2764710158505
 30
0.0
 11
87.41080085325787
 21
133.2751443952826
 31
0.0
  0
ELLIPSE
  5
267
330
256
100
AcDbEntity
  8
Sichtbar (ISO)
 62
    18
420
        0
370
     5
100
AcDbEllipse
 10
96.09190676934874
 20
139.1005733666675
 30
0.0
 11
0.0000000000000006
 21
10.44111193666969
 31
0.0
210
0.0
220
0.0
230
1.0
 40
0.9959016393434815
 41
0.0
 42
6.283185307179586
  0
SPLINE
  5
268
330
256
100
AcDbEntity
  8
Sichtbar (ISO)
 62
    18
420
        0
370
     5
100
AcDbSpline
210
0.0
220
0.0
230
1.0
 70
     8
 71
     3
 72
     8
 73
     4
 74
     0
 42
0.0000000001
 43
0.0000000001
 40
0.0
 40
0.0
 40
0.0
 40
0.0
 40
1.0
 40
1.0
 40
1.0
 40
1.0
 10
98.34793422068244
 20
139.3532128484965
 30
0.0
 10
98.3479234346684
 20
139.3841284767419
 30
0.0
 10
98.32094609536079
 20
139.4090082526328
 30
0.0
 10
98.2874393060112
 20
139.4090041147296
 30
0.0
  0
LINE
  5
269
330
256
100
AcDbEntity
  8
Sichtbar (ISO)
 62
    18
420
        0
370
     5
100
AcDbLine
 10
98.34793422068244
 20
139.3532128485472
 30
0.0
 11
98.34793422634541
 21
138.8479338848712
 31
0.0
  0
SPLINE
  5
26A
330
256
100
AcDbEntity
  8
Sichtbar (ISO)
 62
    18
420
        0
370
     5
100
AcDbSpline
210
0.0
220
0.0
230
1.0
 70
     8
 71
     3
 72
     8
 73
     4
 74
     0
 42
0.0000000001
 43
0.0000000001
 40
0.0
 40
0.0
 40
0.0
 40
0.0
 40
1.0
 40
1.0
 40
1.0
 40
1.0
 10
98.28743934000906
 20
138.7921426186053
 30
0.0
 10
98.32094342350181
 20
138.7921360526721
 30
0.0
 10
98.34792757305001
 20
138.8170221209636
 30
0.0
 10
98.34793422634541
 20
138.8479338848808
 30
0.0
  0
LINE
  5
26B
330
256
100
AcDbEntity
  8
Sichtbar (ISO)
 62
    18
420
        0
370
     5
100
AcDbLine
 10
98.28743934000906
 20
138.7921426186053
 30
0.0
 11
93.89637423268723
 21
138.7921426186053
 31
0.0
  0
SPLINE
  5
26C
330
256
100
AcDbEntity
  8
Sichtbar (ISO)
 62
    18
420
        0
370
     5
100
AcDbSpline
210
0.0
220
0.0
230
1.0
 70
     8
 71
     3
 72
     8
 73
     4
 74
     0
 42
0.0000000001
 43
0.0000000001
 40
0.0
 40
0.0
 40
0.0
 40
0.0
 40
1.0
 40
1.0
 40
1.0
 40
1.0
 10
93.83587931801537
 20
138.8479338848385
 30
0.0
 10
93.83589010402941
 20
138.817018256593
 30
0.0
 10
93.862867443337
 20
138.7921384807021
 30
0.0
 10
93.89637423268723
 20
138.7921426186053
 30
0.0
  0
LINE
  5
26D
330
256
100
AcDbEntity
  8
Sichtbar (ISO)
 62
    18
420
        0
370
     5
100
AcDbLine
 10
93.83587931801537
 20
138.8479338847877
 30
0.0
 11
93.83587931235238
 21
139.3532128484638
 31
0.0
  0
SPLINE
  5
26E
330
256
100
AcDbEntity
  8
Sichtbar (ISO)
 62
    18
420
        0
370
     5
100
AcDbSpline
210
0.0
220
0.0
230
1.0
 70
     8
 71
     3
 72
     8
 73
     4
 74
     0
 42
0.0000000001
 43
0.0000000001
 40
0.0
 40
0.0
 40
0.0
 40
0.0
 40
1.0
 40
1.0
 40
1.0
 40
1.0
 10
93.89637419868874
 20
139.4090041147296
 30
0.0
 10
93.86287011519918
 20
139.4090106806654
 30
0.0
 10
93.83588596564717
 20
139.3841246123706
 30
0.0
 10
93.83587931235238
 20
139.3532128484548
 30
0.0
  0
LINE
  5
26F
330
256
100
AcDbEntity
  8
Sichtbar (ISO)
 62
    18
420
        0
370
     5
100
AcDbLine
 10
93.89637419868874
 20
139.4090041147296
 30
0.0
 11
98.2874393060112
 21
139.4090041147296
 31
0.0
  0
LINE
  5
270
330
256
100
AcDbEntity
  8
Sichtbar (ISO)
 62
    18
420
        0
370
     5
100
AcDbLine
 10
118.3546239768794
 20
116.3530733723545
 30
0.0
 11
73.7686464760657
 21
116.3530733723545
 31
0.0
  0
LINE
  5
271
330
256
100
AcDbEntity
  8
Sichtbar (ISO)
 62
    18
420
        0
370
     5
100
AcDbLine
 10
73.81054407001909
 20
161.8480733609807
 30
0.0
 11
118.3546239768794
 21
161.8480733609807
 31
0.0
  0
LINE
  5
272
330
256
100
AcDbEntity
  8
Sichtbar (ISO)
 62
    18
420
        0
370
     5
100
AcDbLine
 10
118.7461793046505
 20
116.3530733723545
 30
0.0
 11
118.7461793046505
 21
161.8480733609807
 31
0.0
  0
LINE
  5
273
330
256
100
AcDbEntity
  8
Sichtbar (ISO)
 62
    18
420
        0
370
     5
100
AcDbLine
 10
118.7461793046505
 20
116.3530733723545
 30
0.0
 11
118.3546239768794
 21
116.3530733723545
 31
0.0
  0
LINE
  5
274
330
256
100
AcDbEntity
  8
Sichtbar (ISO)
 62
    18
420
        0
370
     5
100
AcDbLine
 10
118.7461793046505
 20
161.8480733609807
 30
0.0
 11
118.373269468679
 21
161.8480733609807
 31
0.0
  0
LINE
  5
275
330
256
100
AcDbEntity
  8
Sichtbar (ISO)
 62
    18
420
        0
370
     5
100
AcDbLine
 10
73.43763423404697
 20
116.3530733723545
 30
0.0
 11
73.43763423404697
 21
161.8480733609807
 31
0.0
  0
LINE
  5
276
330
256
100
AcDbEntity
  8
Sichtbar (ISO)
 62
    18
420
        0
370
     5
100
AcDbLine
 10
73.43763423404697
 20
161.8480733609807
 30
0.0
 11
73.81054407001909
 21
161.8480733609807
 31
0.0
  0
LINE
  5
277
330
256
100
AcDbEntity
  8
Sichtbar (ISO)
 62
    18
420
        0
370
     5
100
AcDbLine
 10
73.43763423404697
 20
116.3530733723545
 30
0.0
 11
73.81054407001909
 21
116.3530733723545
 31
0.0
  0
SPLINE
  5
278
330
256
100
AcDbEntity
  8
Sichtbar (ISO)
 62
    18
420
        0
370
     5
100
AcDbSpline
210
0.0
220
0.0
230
1.0
 70
     8
 71
     3
 72
     8
 73
     4
 74
     0
 42
0.0000000001
 43
0.0000000001
 40
0.0
 40
0.0
 40
0.0
 40
0.0
 40
1.0
 40
1.0
 40
1.0
 40
1.0
 10
76.02432020608564
 20
161.2864066944546
 30
0.0
 10
75.57499064650787
 20
161.5360363240217
 30
0.0
 10
75.02937618130641
 20
161.5360363240217
 30
0.0
 10
74.58004662172896
 20
161.2864066944546
 30
0.0
  0
SPLINE
  5
279
330
256
100
AcDbEntity
  8
Sichtbar (ISO)
 62
    18
420
        0
370
     5
100
AcDbSpline
210
0.0
220
0.0
230
1.0
 70
     8
 71
     3
 72
     8
 73
     4
 74
     0
 42
0.0000000001
 43
0.0000000001
 40
0.0
 40
0.0
 40
0.0
 40
0.0
 40
1.0
 40
1.0
 40
1.0
 40
1.0
 10
73.99699898800516
 20
160.7009596877514
 30
0.0
 10
73.74839243069018
 20
160.249781035336
 30
0.0
 10
73.74839243069018
 20
159.701921243117
 30
0.0
 10
73.99699898800516
 20
159.2507425907009
 30
0.0
  0
SPLINE
  5
27A
330
256
100
AcDbEntity
  8
Sichtbar (ISO)
 62
    18
420
        0
370
     5
100
AcDbSpline
210
0.0
220
0.0
230
1.0
 70
     8
 71
     3
 72
     8
 73
     4
 74
     0
 42
0.0000000001
 43
0.0000000001
 40
0.0
 40
0.0
 40
0.0
 40
0.0
 40
1.0
 40
1.0
 40
1.0
 40
1.0
 10
74.58004662172896
 20
116.9147400388803
 30
0.0
 10
75.02937618130641
 20
116.6651104093132
 30
0.0
 10
75.57499064650787
 20
116.6651104093132
 30
0.0
 10
76.02432020608564
 20
116.9147400388803
 30
0.0
  0
SPLINE
  5
27B
330
256
100
AcDbEntity
  8
Sichtbar (ISO)
 62
    18
420
        0
370
     5
100
AcDbSpline
210
0.0
220
0.0
230
1.0
 70
     8
 71
     3
 72
     8
 73
     4
 74
     0
 42
0.0000000001
 43
0.0000000001
 40
0.0
 40
0.0
 40
0.0
 40
0.0
 40
1.0
 40
1.0
 40
1.0
 40
1.0
 10
73.99699898800516
 20
118.950404142634
 30
0.0
 10
73.74839243069018
 20
118.4992254902179
 30
0.0
 10
73.74839243069018
 20
117.9513656979989
 30
0.0
 10
73.99699898800516
 20
117.5001870455835
 30
0.0
  0
SPLINE
  5
27C
330
256
100
AcDbEntity
  8
Sichtbar (ISO)
 62
    18
420
        0
370
     5
100
AcDbSpline
210
0.0
220
0.0
230
1.0
 70
     8
 71
     3
 72
     8
 73
     4
 74
     0
 42
0.0000000001
 43
0.0000000001
 40
0.0
 40
0.0
 40
0.0
 40
0.0
 40
1.0
 40
1.0
 40
1.0
 40
1.0
 10
116.1594933326121
 20
116.9147400388803
 30
0.0
 10
116.6088228921899
 20
116.6651104093132
 30
0.0
 10
117.154437357391
 20
116.6651104093132
 30
0.0
 10
117.6037669169688
 20
116.9147400388803
 30
0.0
  0
SPLINE
  5
27D
330
256
100
AcDbEntity
  8
Sichtbar (ISO)
 62
    18
420
        0
370
     5
100
AcDbSpline
210
0.0
220
0.0
230
1.0
 70
     8
 71
     3
 72
     8
 73
     4
 74
     0
 42
0.0000000001
 43
0.0000000001
 40
0.0
 40
0.0
 40
0.0
 40
0.0
 40
1.0
 40
1.0
 40
1.0
 40
1.0
 10
118.186814550692
 20
117.5001870455835
 30
0.0
 10
118.4354211080076
 20
117.9513656979989
 30
0.0
 10
118.4354211080076
 20
118.4992254902179
 30
0.0
 10
118.186814550692
 20
118.950404142634
 30
0.0
  0
SPLINE
  5
27E
330
256
100
AcDbEntity
  8
Sichtbar (ISO)
 62
    18
420
        0
370
     5
100
AcDbSpline
210
0.0
220
0.0
230
1.0
 70
     8
 71
     3
 72
     8
 73
     4
 74
     0
 42
0.0000000001
 43
0.0000000001
 40
0.0
 40
0.0
 40
0.0
 40
0.0
 40
1.0
 40
1.0
 40
1.0
 40
1.0
 10
117.6037669169688
 20
161.2864066944546
 30
0.0
 10
117.154437357391
 20
161.5360363240217
 30
0.0
 10
116.6088228921899
 20
161.5360363240217
 30
0.0
 10
116.1594933326121
 20
161.2864066944546
 30
0.0
  0
SPLINE
  5
27F
330
256
100
AcDbEntity
  8
Sichtbar (ISO)
 62
    18
420
        0
370
     5
100
AcDbSpline
210
0.0
220
0.0
230
1.0
 70
     8
 71
     3
 72
     8
 73
     4
 74
     0
 42
0.0000000001
 43
0.0000000001
 40
0.0
 40
0.0
 40
0.0
 40
0.0
 40
1.0
 40
1.0
 40
1.0
 40
1.0
 10
118.186814550692
 20
159.2507425907009
 30
0.0
 10
118.4354211080076
 20
159.701921243117
 30
0.0
 10
118.4354211080076
 20
160.249781035336
 30
0.0
 10
118.186814550692
 20
160.7009596877514
 30
0.0
  0
LINE
  5
280
330
256
100
AcDbEntity
  8
Sichtbar (ISO)
 62
    18
420
        0
370
     5
100
AcDbLine
 10
118.186814550692
 20
116.9147400388803
 30
0.0
 11
73.99699898800516
 21
116.9147400388803
 31
0.0
  0
LINE
  5
281
330
256
100
AcDbEntity
  8
Sichtbar (ISO)
 62
    18
420
        0
370
     5
100
AcDbLine
 10
73.99699898800516
 20
116.9147400388803
 30
0.0
 11
73.99699898800516
 21
117.2891844832313
 31
0.0
  0
LINE
  5
282
330
256
100
AcDbEntity
  8
Sichtbar (ISO)
 62
    18
420
        0
370
     5
100
AcDbLine
 10
118.186814550692
 20
116.9147400388803
 30
0.0
 11
118.186814550692
 21
117.2891844832313
 31
0.0
  0
LINE
  5
283
330
256
100
AcDbEntity
  8
Sichtbar (ISO)
 62
    18
420
        0
370
     5
100
AcDbLine
 10
74.55636374196337
 20
137.5559900337202
 30
0.0
 11
74.55636374196337
 21
140.6451566996147
 31
0.0
  0
LINE
  5
284
330
256
100
AcDbEntity
  8
Sichtbar (ISO)
 62
    18
420
        0
370
     5
100
AcDbLine
 10
117.6274497967347
 20
137.5559900337202
 30
0.0
 11
117.6274497967347
 21
140.6451566996147
 31
0.0
  0
LINE
  5
285
330
256
100
AcDbEntity
  8
Sichtbar (ISO)
 62
    18
420
        0
370
     5
100
AcDbLine
 10
73.99699898800516
 20
161.2864066944546
 30
0.0
 11
118.186814550692
 21
161.2864066944546
 31
0.0
  0
LINE
  5
286
330
256
100
AcDbEntity
  8
Sichtbar (ISO)
 62
    18
420
        0
370
     5
100
AcDbLine
 10
73.99699898800516
 20
161.2864066944546
 30
0.0
 11
73.99699898800516
 21
160.9119622501036
 31
0.0
  0
LINE
  5
287
330
256
100
AcDbEntity
  8
Sichtbar (ISO)
 62
    18
420
        0
370
     5
100
AcDbLine
 10
118.186814550692
 20
161.2864066944546
 30
0.0
 11
118.186814550692
 21
160.9119622501036
 31
0.0
  0
LINE
  5
288
330
256
100
AcDbEntity
  8
Sichtbar (ISO)
 62
    18
420
        0
370
     5
100
AcDbLine
 10
118.186814550692
 20
117.2985455943402
 30
0.0
 11
118.186814550692
 21
160.9026011389947
 31
0.0
  0
LINE
  5
289
330
256
100
AcDbEntity
  8
Sichtbar (ISO)
 62
    18
420
        0
370
     5
100
AcDbLine
 10
73.99699898800516
 20
117.2985455943402
 30
0.0
 11
73.99699898800516
 21
160.9026011389947
 31
0.0
  0
SPLINE
  5
28A
330
256
100
AcDbEntity
  8
Sichtbar (ISO)
 62
    18
420
        0
370
     5
100
AcDbSpline
210
0.0
220
0.0
230
1.0
 70
     8
 71
     3
 72
     8
 73
     4
 74
     0
 42
0.0000000001
 43
0.0000000001
 40
0.0
 40
0.0
 40
0.0
 40
0.0
 40
1.0
 40
1.0
 40
1.0
 40
1.0
 10
105.1251253801045
 20
133.8421226680462
 30
0.0
 10
105.1259493055372
 20
133.8435497198161
 30
0.0
 10
105.1265817984846
 20
133.8450798477476
 30
0.0
 10
105.1270064320444
 20
133.846673311855
 30
0.0
  0
ELLIPSE
  5
28B
330
256
100
AcDbEntity
  8
Sichtbar (ISO)
 62
    18
420
        0
370
     5
100
AcDbEllipse
 10
96.09190676934874
 20
139.1005733666675
 30
0.0
 11
0.0000000000000007
 21
10.76527777508629
 31
0.0
210
0.0
220
0.0
230
1.0
 40
0.9959016393434538
 41
0.0
 42
6.283185307179586
  0
ELLIPSE
  5
28C
330
256
100
AcDbEntity
  8
Sichtbar (ISO)
 62
    18
420
        0
370
     5
100
AcDbEllipse
 10
104.4823780787198
 20
147.5255733645611
 30
0.0
 11
0.0
 21
0.3744444443509728
 31
0.0
210
0.0
220
0.0
230
1.0
 40
0.9959016393426784
 41
0.0
 42
6.283185307179586
  0
ELLIPSE
  5
28D
330
256
100
AcDbEntity
  8
Sichtbar (ISO)
 62
    18
420
        0
370
     5
100
AcDbEllipse
 10
87.70143545997775
 20
147.5255733645611
 30
0.0
 11
0.0
 21
0.3744444443509728
 31
0.0
210
0.0
220
0.0
230
1.0
 40
0.9959016393426784
 41
0.0
 42
6.283185307179586
  0
ELLIPSE
  5
28E
330
256
100
AcDbEntity
  8
Sichtbar (ISO)
 62
    18
420
        0
370
     5
100
AcDbEllipse
 10
87.70143545997775
 20
130.6755733687738
 30
0.0
 11
0.0
 21
0.3744444443509728
 31
0.0
210
0.0
220
0.0
230
1.0
 40
0.9959016393426784
 41
0.0
 42
6.283185307179586
  0
ELLIPSE
  5
28F
330
256
100
AcDbEntity
  8
Sichtbar (ISO)
 62
    18
420
        0
370
     5
100
AcDbEllipse
 10
104.4823780787198
 20
130.6755733687738
 30
0.0
 11
0.0
 21
0.3744444443509728
 31
0.0
210
0.0
220
0.0
230
1.0
 40
0.9959016393426784
 41
0.0
 42
6.283185307179586
  0
ENDBLK
  5
259
330
256
100
AcDbEntity
  8
0
100
AcDbBlockEnd
  0
BLOCK
  5
292
330
290
100
AcDbEntity
  8
0
100
AcDbBlockBegin
  2
Block_17
 70
     0
 10
0.0
 20
0.0
 30
0.0
  3
Block_17
  1

  0
INSERT
  5
295
330
290
100
AcDbEntity
  8
Sichtbar (ISO)
100
AcDbBlockReference
  2
Block_18
 10
0.0
 20
0.0
 30
0.0
  0
ENDBLK
  5
293
330
290
100
AcDbEntity
  8
0
100
AcDbBlockEnd
  0
BLOCK
  5
296
330
294
100
AcDbEntity
  8
0
100
AcDbBlockBegin
  2
Block_18
 70
     0
 10
0.0
 20
0.0
 30
0.0
  3
Block_18
  1

  0
LINE
  5
298
330
294
100
AcDbEntity
  8
Sichtbar (ISO)
 62
    18
420
        0
370
     5
100
AcDbLine
 10
135.5533969116411
 20
159.610724769532
 30
0.0
 11
135.5291089884701
 21
118.5251296700757
 31
0.0
  0
INSERT
  5
29A
330
294
100
AcDbEntity
  8
Sichtbar (ISO)
100
AcDbBlockReference
  2
Block_19
 10
0.0
 20
0.0
 30
0.0
  0
INSERT
  5
2A0
330
294
100
AcDbEntity
  8
Sichtbar (ISO)
100
AcDbBlockReference
  2
Block_20
 10
0.0
 20
0.0
 30
0.0
  0
ENDBLK
  5
297
330
294
100
AcDbEntity
  8
0
100
AcDbBlockEnd
  0
BLOCK
  5
29B
330
299
100
AcDbEntity
  8
0
100
AcDbBlockBegin
  2
Block_19
 70
     0
 10
0.0
 20
0.0
 30
0.0
  3
Block_19
  1

  0
LWPOLYLINE
  5
29D
330
299
100
AcDbEntity
  8
Sichtbar (ISO)
100
AcDbPolyline
 90
        3
 70
     1
 43
0.0
 10
135.3317157830887
 20
158.9783990250612
 10
135.5533323161008
 20
160.6594441330122
 10
135.7743351914796
 20
158.9781406428997
  0
HATCH
  5
29E
330
299
100
AcDbEntity
  8
Sichtbar (ISO)
 62
    18
420
        0
440
 33554687
100
AcDbHatch
 10
0.0
 20
0.0
 30
0.0
210
0.0
220
0.0
230
1.0
  2
SOLID
 70
     1
 71
     1
 91
        1
 92
        1
 93
        3
 72
     1
 10
135.3317157830887
 20
158.9783990250612
 11
135.5533323161008
 21
160.6594441330122
 72
     1
 10
135.5533323161008
 20
160.6594441330122
 11
135.7743351914796
 21
158.9781406428997
 72
     1
 10
135.7743351914796
 20
158.9781406428997
 11
135.3317157830887
 21
158.9783990250612
 97
        1
330
29D
 75
     2
 76
     1
 98
        1
 10
0.0
 20
0.0
450
        0
451
        0
460
0.0
461
0.0
452
        0
462
0.0
453
        0
470

  0
ENDBLK
  5
29C
330
299
100
AcDbEntity
  8
0
100
AcDbBlockEnd
  0
BLOCK
  5
2A1
330
29F
100
AcDbEntity
  8
0
100
AcDbBlockBegin
  2
Block_20
 70
     0
 10
0.0
 20
0.0
 30
0.0
  3
Block_20
  1

  0
LWPOLYLINE
  5
2A3
330
29F
100
AcDbEntity
  8
Sichtbar (ISO)
100
AcDbPolyline
 90
        3
 70
     1
 43
0.0
 10
135.3081707086317
 20
119.1577137967079
 10
135.5278063117398
 20
117.4764103065955
 10
135.7508008829459
 20
119.1574554145466
  0
HATCH
  5
2A4
330
29F
100
AcDbEntity
  8
Sichtbar (ISO)
 62
    18
420
        0
440
 33554687
100
AcDbHatch
 10
0.0
 20
0.0
 30
0.0
210
0.0
220
0.0
230
1.0
  2
SOLID
 70
     1
 71
     1
 91
        1
 92
        1
 93
        3
 72
     1
 10
135.3081707086317
 20
119.1577137967079
 11
135.5278063117398
 21
117.4764103065955
 72
     1
 10
135.5278063117398
 20
117.4764103065955
 11
135.7508008829459
 21
119.1574554145466
 72
     1
 10
135.7508008829459
 20
119.1574554145466
 11
135.3081707086317
 21
119.1577137967079
 97
        1
330
2A3
 75
     2
 76
     1
 98
        1
 10
0.0
 20
0.0
450
        0
451
        0
460
0.0
461
0.0
452
        0
462
0.0
453
        0
470

  0
ENDBLK
  5
2A2
330
29F
100
AcDbEntity
  8
0
100
AcDbBlockEnd
  0
BLOCK
  5
2AA
330
2A8
100
AcDbEntity
  8
0
100
AcDbBlockBegin
  2
Block_21
 70
     0
 10
0.0
 20
0.0
 30
0.0
  3
Block_21
  1

  0
INSERT
  5
2AD
330
2A8
100
AcDbEntity
  8
Sichtbar (ISO)
100
AcDbBlockReference
  2
Block_22
 10
0.0
 20
0.0
 30
0.0
  0
ENDBLK
  5
2AB
330
2A8
100
AcDbEntity
  8
0
100
AcDbBlockEnd
  0
BLOCK
  5
2AE
330
2AC
100
AcDbEntity
  8
0
100
AcDbBlockBegin
  2
Block_22
 70
     0
 10
0.0
 20
0.0
 30
0.0
  3
Block_22
  1

  0
LINE
  5
2B0
330
2AC
100
AcDbEntity
  8
Sichtbar (ISO)
 62
    18
420
        0
370
     5
100
AcDbLine
 10
142.6035479718903
 20
160.8531984562873
 30
0.0
 11
142.5745338083505
 21
117.4022007966585
 31
0.0
  0
INSERT
  5
2B2
330
2AC
100
AcDbEntity
  8
Sichtbar (ISO)
100
AcDbBlockReference
  2
Block_23
 10
0.0
 20
0.0
 30
0.0
  0
INSERT
  5
2B8
330
2AC
100
AcDbEntity
  8
Sichtbar (ISO)
100
AcDbBlockReference
  2
Block_24
 10
0.0
 20
0.0
 30
0.0
  0
ENDBLK
  5
2AF
330
2AC
100
AcDbEntity
  8
0
100
AcDbBlockEnd
  0
BLOCK
  5
2B3
330
2B1
100
AcDbEntity
  8
0
100
AcDbBlockBegin
  2
Block_23
 70
     0
 10
0.0
 20
0.0
 30
0.0
  3
Block_23
  1

  0
LWPOLYLINE
  5
2B5
330
2B1
100
AcDbEntity
  8
Sichtbar (ISO)
100
AcDbPolyline
 90
        3
 70
     1
 43
0.0
 10
142.3818130137209
 20
160.2208834777399
 10
142.6035587378137
 20
161.9019178197676
 10
142.8244324221118
 20
160.2205927978083
  0
HATCH
  5
2B6
330
2B1
100
AcDbEntity
  8
Sichtbar (ISO)
 62
    18
420
        0
440
 33554687
100
AcDbHatch
 10
0.0
 20
0.0
 30
0.0
210
0.0
220
0.0
230
1.0
  2
SOLID
 70
     1
 71
     1
 91
        1
 92
        1
 93
        3
 72
     1
 10
142.3818130137209
 20
160.2208834777399
 11
142.6035587378137
 21
161.9019178197676
 72
     1
 10
142.6035587378137
 20
161.9019178197676
 11
142.8244324221118
 21
160.2205927978083
 72
     1
 10
142.8244324221118
 20
160.2205927978083
 11
142.3818130137209
 21
160.2208834777399
 97
        1
330
2B5
 75
     2
 76
     1
 98
        1
 10
0.0
 20
0.0
450
        0
451
        0
460
0.0
461
0.0
452
        0
462
0.0
453
        0
470

  0
ENDBLK
  5
2B4
330
2B1
100
AcDbEntity
  8
0
100
AcDbBlockEnd
  0
BLOCK
  5
2B9
330
2B7
100
AcDbEntity
  8
0
100
AcDbBlockBegin
  2
Block_24
 70
     0
 10
0.0
 20
0.0
 30
0.0
  3
Block_24
  1

  0
LWPOLYLINE
  5
2BB
330
2B7
100
AcDbEntity
  8
Sichtbar (ISO)
100
AcDbPolyline
 90
        3
 70
     1
 43
0.0
 10
142.353649358129
 20
118.0348064551375
 10
142.573145004233
 20
116.3534814331783
 10
142.7962687665199
 20
118.034515775206
  0
HATCH
  5
2BC
330
2B7
100
AcDbEntity
  8
Sichtbar (ISO)
 62
    18
420
        0
440
 33554687
100
AcDbHatch
 10
0.0
 20
0.0
 30
0.0
210
0.0
220
0.0
230
1.0
  2
SOLID
 70
     1
 71
     1
 91
        1
 92
        1
 93
        3
 72
     1
 10
142.353649358129
 20
118.0348064551375
 11
142.573145004233
 21
116.3534814331783
 72
     1
 10
142.573145004233
 20
116.3534814331783
 11
142.7962687665199
 21
118.034515775206
 72
     1
 10
142.7962687665199
 20
118.034515775206
 11
142.353649358129
 21
118.0348064551375
 97
        1
330
2BB
 75
     2
 76
     1
 98
        1
 10
0.0
 20
0.0
450
        0
451
        0
460
0.0
461
0.0
452
        0
462
0.0
453
        0
470

  0
ENDBLK
  5
2BA
330
2B7
100
AcDbEntity
  8
0
100
AcDbBlockEnd
  0
BLOCK
  5
2C4
330
2C2
100
AcDbEntity
  8
0
100
AcDbBlockBegin
  2
Block_25
 70
     0
 10
0.0
 20
0.0
 30
0.0
  3
Block_25
  1

  0
INSERT
  5
2C7
330
2C2
100
AcDbEntity
  8
Sichtbar (ISO)
100
AcDbBlockReference
  2
Block_26
 10
0.0
 20
0.0
 30
0.0
  0
ENDBLK
  5
2C5
330
2C2
100
AcDbEntity
  8
0
100
AcDbBlockEnd
  0
BLOCK
  5
2C8
330
2C6
100
AcDbEntity
  8
0
100
AcDbBlockBegin
  2
Block_26
 70
     0
 10
0.0
 20
0.0
 30
0.0
  3
Block_26
  1

  0
LINE
  5
2CA
330
2C6
100
AcDbEntity
  8
Sichtbar (ISO)
 62
    18
420
        0
370
     5
100
AcDbLine
 10
130.5385974981542
 20
180.5545583485517
 30
0.0
 11
130.1858197204646
 21
180.5541384775397
 31
0.0
  0
LINE
  5
2CB
330
2C6
100
AcDbEntity
  8
Sichtbar (ISO)
  6
AI-Linetype-0
 62
    18
420
        0
370
     5
100
AcDbLine
 10
129.5092460308551
 20
180.5533417992084
 30
0.0
 11
117.6692064626888
 21
180.5393460987996
 31
0.0
  0
LINE
  5
2CD
330
2C6
100
AcDbEntity
  8
Sichtbar (ISO)
 62
    18
420
        0
370
     5
100
AcDbLine
 10
117.3309196178841
 20
180.5389477596341
 30
0.0
 11
116.9781418401945
 21
180.5385278886219
 31
0.0
  0
ENDBLK
  5
2C9
330
2C6
100
AcDbEntity
  8
0
100
AcDbBlockEnd
  0
BLOCK
  5
2D0
330
2CE
100
AcDbEntity
  8
0
100
AcDbBlockBegin
  2
Block_27
 70
     0
 10
0.0
 20
0.0
 30
0.0
  3
Block_27
  1

  0
INSERT
  5
2D3
330
2CE
100
AcDbEntity
  8
Sichtbar (ISO)
100
AcDbBlockReference
  2
Block_28
 10
0.0
 20
0.0
 30
0.0
  0
ENDBLK
  5
2D1
330
2CE
100
AcDbEntity
  8
0
100
AcDbBlockEnd
  0
BLOCK
  5
2D4
330
2D2
100
AcDbEntity
  8
0
100
AcDbBlockBegin
  2
Block_28
 70
     0
 10
0.0
 20
0.0
 30
0.0
  3
Block_28
  1

  0
LINE
  5
2D6
330
2D2
100
AcDbEntity
  8
Sichtbar (ISO)
 62
    18
420
        0
370
     5
100
AcDbLine
 10
128.5362218747398
 20
179.5198346854806
 30
0.0
 11
128.5365448524416
 21
175.9072752618771
 31
0.0
  0
INSERT
  5
2D8
330
2D2
100
AcDbEntity
  8
Sichtbar (ISO)
100
AcDbBlockReference
  2
Block_29
 10
0.0
 20
0.0
 30
0.0
  0
ENDBLK
  5
2D5
330
2D2
100
AcDbEntity
  8
0
100
AcDbBlockEnd
  0
BLOCK
  5
2D9
330
2D7
100
AcDbEntity
  8
0
100
AcDbBlockBegin
  2
Block_29
 70
     0
 10
0.0
 20
0.0
 30
0.0
  3
Block_29
  1

  0
LWPOLYLINE
  5
2DB
330
2D7
100
AcDbEntity
  8
Sichtbar (ISO)
100
AcDbPolyline
 90
        3
 70
     1
 43
0.0
 10
128.3149606171997
 20
178.887358218082
 10
128.5354359623323
 20
180.5685648148839
 10
128.7575907915139
 20
178.8874012817759
  0
HATCH
  5
2DC
330
2D7
100
AcDbEntity
  8
Sichtbar (ISO)
 62
    18
420
        0
440
 33554687
100
AcDbHatch
 10
0.0
 20
0.0
 30
0.0
210
0.0
220
0.0
230
1.0
  2
SOLID
 70
     1
 71
     1
 91
        1
 92
        1
 93
        3
 72
     1
 10
128.3149606171997
 20
178.887358218082
 11
128.5354359623323
 21
180.5685648148839
 72
     1
 10
128.5354359623323
 20
180.5685648148839
 11
128.7575907915139
 21
178.8874012817759
 72
     1
 10
128.7575907915139
 20
178.8874012817759
 11
128.3149606171997
 21
178.887358218082
 97
        1
330
2DB
 75
     2
 76
     1
 98
        1
 10
0.0
 20
0.0
450
        0
451
        0
460
0.0
461
0.0
452
        0
462
0.0
453
        0
470

  0
ENDBLK
  5
2DA
330
2D7
100
AcDbEntity
  8
0
100
AcDbBlockEnd
  0
BLOCK
  5
2E0
330
2DE
100
AcDbEntity
  8
0
100
AcDbBlockBegin
  2
Block_30
 70
     0
 10
0.0
 20
0.0
 30
0.0
  3
Block_30
  1

  0
INSERT
  5
2E3
330
2DE
100
AcDbEntity
  8
Sichtbar (ISO)
100
AcDbBlockReference
  2
Block_31
 10
0.0
 20
0.0
 30
0.0
  0
ENDBLK
  5
2E1
330
2DE
100
AcDbEntity
  8
0
100
AcDbBlockEnd
  0
BLOCK
  5
2E4
330
2E2
100
AcDbEntity
  8
0
100
AcDbBlockBegin
  2
Block_31
 70
     0
 10
0.0
 20
0.0
 30
0.0
  3
Block_31
  1

  0
LINE
  5
2E6
330
2E2
100
AcDbEntity
  8
Sichtbar (ISO)
 62
    18
420
        0
370
     5
100
AcDbLine
 10
142.5827374419747
 20
168.4680760280327
 30
0.0
 11
142.5649413706087
 21
184.0459365384612
 31
0.0
  0
INSERT
  5
2E8
330
2E2
100
AcDbEntity
  8
Sichtbar (ISO)
100
AcDbBlockReference
  2
Block_32
 10
0.0
 20
0.0
 30
0.0
  0
INSERT
  5
2EE
330
2E2
100
AcDbEntity
  8
Sichtbar (ISO)
100
AcDbBlockReference
  2
Block_33
 10
0.0
 20
0.0
 30
0.0
  0
ENDBLK
  5
2E5
330
2E2
100
AcDbEntity
  8
0
100
AcDbBlockEnd
  0
BLOCK
  5
2E9
330
2E7
100
AcDbEntity
  8
0
100
AcDbBlockBegin
  2
Block_32
 70
     0
 10
0.0
 20
0.0
 30
0.0
  3
Block_32
  1

  0
LWPOLYLINE
  5
2EB
330
2E7
100
AcDbEntity
  8
Sichtbar (ISO)
100
AcDbPolyline
 90
        3
 70
     1
 43
0.0
 10
142.8033312122646
 20
169.1007785798222
 10
142.5846214785682
 20
167.4193458986291
 10
142.3607010379504
 20
169.1002725814228
  0
HATCH
  5
2EC
330
2E7
100
AcDbEntity
  8
Sichtbar (ISO)
 62
    18
420
        0
440
 33554687
100
AcDbHatch
 10
0.0
 20
0.0
 30
0.0
210
0.0
220
0.0
230
1.0
  2
SOLID
 70
     1
 71
     1
 91
        1
 92
        1
 93
        3
 72
     1
 10
142.8033312122646
 20
169.1007785798222
 11
142.5846214785682
 21
167.4193458986291
 72
     1
 10
142.5846214785682
 20
167.4193458986291
 11
142.3607010379504
 21
169.1002725814228
 72
     1
 10
142.3607010379504
 20
169.1002725814228
 11
142.8033312122646
 21
169.1007785798222
 97
        1
330
2EB
 75
     2
 76
     1
 98
        1
 10
0.0
 20
0.0
450
        0
451
        0
460
0.0
461
0.0
452
        0
462
0.0
453
        0
470

  0
ENDBLK
  5
2EA
330
2E7
100
AcDbEntity
  8
0
100
AcDbBlockEnd
  0
BLOCK
  5
2EF
330
2ED
100
AcDbEntity
  8
0
100
AcDbBlockBegin
  2
Block_33
 70
     0
 10
0.0
 20
0.0
 30
0.0
  3
Block_33
  1

  0
LWPOLYLINE
  5
2F1
330
2ED
100
AcDbEntity
  8
Sichtbar (ISO)
100
AcDbPolyline
 90
        3
 70
     1
 43
0.0
 10
142.7869777746331
 20
183.4137184532242
 10
142.564424606286
 20
185.094645136018
 10
142.3443476003188
 20
183.4132232207483
  0
HATCH
  5
2F2
330
2ED
100
AcDbEntity
  8
Sichtbar (ISO)
 62
    18
420
        0
440
 33554687
100
AcDbHatch
 10
0.0
 20
0.0
 30
0.0
210
0.0
220
0.0
230
1.0
  2
SOLID
 70
     1
 71
     1
 91
        1
 92
        1
 93
        3
 72
     1
 10
142.7869777746331
 20
183.4137184532242
 11
142.564424606286
 21
185.094645136018
 72
     1
 10
142.564424606286
 20
185.094645136018
 11
142.3443476003188
 21
183.4132232207483
 72
     1
 10
142.3443476003188
 20
183.4132232207483
 11
142.7869777746331
 21
183.4137184532242
 97
        1
330
2F1
 75
     2
 76
     1
 98
        1
 10
0.0
 20
0.0
450
        0
451
        0
460
0.0
461
0.0
452
        0
462
0.0
453
        0
470

  0
ENDBLK
  5
2F0
330
2ED
100
AcDbEntity
  8
0
100
AcDbBlockEnd
  0
BLOCK
  5
2F5
330
2F3
100
AcDbEntity
  8
0
100
AcDbBlockBegin
  2
Block_34
 70
     0
 10
0.0
 20
0.0
 30
0.0
  3
Block_34
  1

  0
INSERT
  5
2F8
330
2F3
100
AcDbEntity
  8
Sichtbar (ISO)
100
AcDbBlockReference
  2
Block_35
 10
0.0
 20
0.0
 30
0.0
  0
ENDBLK
  5
2F6
330
2F3
100
AcDbEntity
  8
0
100
AcDbBlockEnd
  0
BLOCK
  5
2F9
330
2F7
100
AcDbEntity
  8
0
100
AcDbBlockBegin
  2
Block_35
 70
     0
 10
0.0
 20
0.0
 30
0.0
  3
Block_35
  1

  0
SPLINE
  5
2FB
330
2F7
100
AcDbEntity
  8
Sichtbar (ISO)
100
AcDbSpline
210
0.0
220
0.0
230
1.0
 70
    11
 71
     3
 72
    26
 73
    22
 74
     0
 42
0.0000000001
 43
0.0000000001
 40
0.0
 40
0.0
 40
0.0
 40
0.0
 40
1.0
 40
1.0
 40
1.0
 40
2.0
 40
2.0
 40
2.0
 40
3.0
 40
3.0
 40
3.0
 40
4.0
 40
4.0
 40
4.0
 40
5.0
 40
5.0
 40
5.0
 40
6.0
 40
6.0
 40
6.0
 40
7.0
 40
7.0
 40
7.0
 40
7.0
 10
129.9362548503284
 20
176.6290120001136
 30
0.0
 10
129.9362548503284
 20
176.6290120001136
 30
0.0
 10
129.9362548503284
 20
176.1100083652607
 30
0.0
 10
129.9362548503284
 20
176.1100083652607
 30
0.0
 10
129.9362548503284
 20
176.1100083652607
 30
0.0
 10
129.7443630318
 20
176.1100083652607
 30
0.0
 10
129.7443630318
 20
176.1100083652607
 30
0.0
 10
129.7443630318
 20
176.3835489467895
 30
0.0
 10
129.6740830839009
 20
176.6317680765018
 30
0.0
 10
129.3691921334563
 20
176.6853393112974
 30
0.0
 10
129.3691921334563
 20
176.6853393112974
 30
0.0
 10
129.3691921334563
 20
176.868790645887
 30
0.0
 10
129.3691921334563
 20
176.868790645887
 30
0.0
 10
129.3691921334563
 20
176.868790645887
 30
0.0
 10
131.3690700626438
 20
176.868790645887
 30
0.0
 10
131.3690700626438
 20
176.868790645887
 30
0.0
 10
131.3690700626438
 20
176.868790645887
 30
0.0
 10
131.3690700626438
 20
176.6290120001136
 30
0.0
 10
131.3690700626438
 20
176.6290120001136
 30
0.0
 10
131.3690700626438
 20
176.6290120001136
 30
0.0
 10
129.9362548503284
 20
176.6290120001136
 30
0.0
 10
129.9362548503284
 20
176.6290120001136
 30
0.0
  0
HATCH
  5
2FC
330
2F7
100
AcDbEntity
  8
Sichtbar (ISO)
 62
    18
420
        0
440
 33554687
100
AcDbHatch
 10
0.0
 20
0.0
 30
0.0
210
0.0
220
0.0
230
1.0
  2
SOLID
 70
     1
 71
     1
 91
        1
 92
        1
 93
        1
 72
     4
 94
        3
 73
     0
 74
     0
 95
       26
 96
       22
 40
0.0
 40
0.0
 40
0.0
 40
0.0
 40
1.0
 40
1.0
 40
1.0
 40
2.0
 40
2.0
 40
2.0
 40
3.0
 40
3.0
 40
3.0
 40
4.0
 40
4.0
 40
4.0
 40
5.0
 40
5.0
 40
5.0
 40
6.0
 40
6.0
 40
6.0
 40
7.0
 40
7.0
 40
7.0
 40
7.0
 10
129.9362548503284
 20
176.6290120001136
 10
129.9362548503284
 20
176.6290120001136
 10
129.9362548503284
 20
176.1100083652607
 10
129.9362548503284
 20
176.1100083652607
 10
129.9362548503284
 20
176.1100083652607
 10
129.7443630318
 20
176.1100083652607
 10
129.7443630318
 20
176.1100083652607
 10
129.7443630318
 20
176.3835489467895
 10
129.6740830839009
 20
176.6317680765018
 10
129.3691921334563
 20
176.6853393112974
 10
129.3691921334563
 20
176.6853393112974
 10
129.3691921334563
 20
176.868790645887
 10
129.3691921334563
 20
176.868790645887
 10
129.3691921334563
 20
176.868790645887
 10
131.3690700626438
 20
176.868790645887
 10
131.3690700626438
 20
176.868790645887
 10
131.3690700626438
 20
176.868790645887
 10
131.3690700626438
 20
176.6290120001136
 10
131.3690700626438
 20
176.6290120001136
 10
131.3690700626438
 20
176.6290120001136
 10
129.9362548503284
 20
176.6290120001136
 10
129.9362548503284
 20
176.6290120001136
 97
        0
 97
        1
330
2FB
 75
     2
 76
     1
 98
        1
 10
0.0
 20
0.0
450
        0
451
        0
460
0.0
461
0.0
452
        0
462
0.0
453
        0
470

  0
SPLINE
  5
2FD
330
2F7
100
AcDbEntity
  8
Sichtbar (ISO)
100
AcDbSpline
210
0.0
220
0.0
230
1.0
 70
     9
 71
     3
 72
    53
 73
    49
 74
     0
 42
0.0000000001
 43
0.0000000001
 40
0.0
 40
0.0
 40
0.0
 40
0.0
 40
1.0
 40
1.0
 40
1.0
 40
2.0
 40
2.0
 40
2.0
 40
3.0
 40
3.0
 40
3.0
 40
4.0
 40
4.0
 40
4.0
 40
5.0
 40
5.0
 40
5.0
 40
6.0
 40
6.0
 40
6.0
 40
7.0
 40
7.0
 40
7.0
 40
8.0
 40
8.0
 40
8.0
 40
9.0
 40
9.0
 40
9.0
 40
10.0
 40
10.0
 40
10.0
 40
11.0
 40
11.0
 40
11.0
 40
12.0
 40
12.0
 40
12.0
 40
13.0
 40
13.0
 40
13.0
 40
14.0
 40
14.0
 40
14.0
 40
15.0
 40
15.0
 40
15.0
 40
16.0
 40
16.0
 40
16.0
 40
16.0
 10
130.8302571287508
 20
177.7722669368937
 30
0.0
 10
131.0362738387687
 20
177.7863918283832
 30
0.0
 10
131.1913031356049
 20
177.9527899403208
 30
0.0
 10
131.1913031356049
 20
178.1925685860942
 30
0.0
 10
131.1913031356049
 20
178.4209784167663
 30
0.0
 10
131.0335177623805
 20
178.6156263116829
 30
0.0
 10
130.7176025063831
 20
178.6156263116829
 30
0.0
 10
130.455086230407
 20
178.6156263116829
 30
0.0
 10
130.2635389214271
 20
178.4351033082558
 30
0.0
 10
130.2635389214271
 20
178.1643188031152
 30
0.0
 10
130.2635389214271
 20
178.0091172515047
 30
0.0
 10
130.3396755316512
 20
177.8850938140356
 30
0.0
 10
130.4523301540189
 20
177.7920762359339
 30
0.0
 10
130.4523301540189
 20
177.7920762359339
 30
0.0
 10
130.441305848466
 20
177.586059525916
 30
0.0
 10
130.441305848466
 20
177.586059525916
 30
0.0
 10
130.441305848466
 20
177.586059525916
 30
0.0
 10
129.4032985787603
 20
177.7722669368937
 30
0.0
 10
129.4032985787603
 20
177.7722669368937
 30
0.0
 10
129.4032985787603
 20
177.7722669368937
 30
0.0
 10
129.4032985787603
 20
178.7594590481921
 30
0.0
 10
129.4032985787603
 20
178.7594590481921
 30
0.0
 10
129.4032985787603
 20
178.7594590481921
 30
0.0
 10
129.6148274415546
 20
178.7594590481921
 30
0.0
 10
129.6148274415546
 20
178.7594590481921
 30
0.0
 10
129.6148274415546
 20
178.7594590481921
 30
0.0
 10
129.6148274415546
 20
177.9527899403208
 30
0.0
 10
129.6148274415546
 20
177.9527899403208
 30
0.0
 10
129.6148274415546
 20
177.9527899403208
 30
0.0
 10
130.1901583875913
 20
177.8456474707295
 30
0.0
 10
130.1901583875913
 20
177.8456474707295
 30
0.0
 10
130.1901583875913
 20
177.8456474707295
 30
0.0
 10
130.1956705403677
 20
177.8513318782802
 30
0.0
 10
130.1956705403677
 20
177.8513318782802
 30
0.0
 10
130.0971408094896
 20
177.9386650488313
 30
0.0
 10
130.0520100586328
 20
178.0881821928911
 30
0.0
 10
130.0520100586328
 20
178.2235744454615
 30
0.0
 10
130.0520100586328
 20
178.5789360447649
 30
0.0
 10
130.2776638129167
 20
178.8695298489458
 30
0.0
 10
130.737239550649
 20
178.8695298489458
 30
0.0
 10
131.0758924368491
 20
178.8695298489458
 30
0.0
 10
131.4028319983993
 20
178.6354356107231
 30
0.0
 10
131.4028319983993
 20
178.1700032106658
 30
0.0
 10
131.4028319983993
 20
177.8230820953011
 30
0.0
 10
131.1913031356049
 20
177.5409287750592
 30
0.0
 10
130.8302571287508
 20
177.5324882911203
 30
0.0
 10
130.8302571287508
 20
177.5324882911203
 30
0.0
 10
130.8302571287508
 20
177.7722669368937
 30
0.0
 10
130.8302571287508
 20
177.7722669368937
 30
0.0
  0
HATCH
  5
2FE
330
2F7
100
AcDbEntity
  8
Sichtbar (ISO)
 62
    18
420
        0
440
 33554687
100
AcDbHatch
 10
0.0
 20
0.0
 30
0.0
210
0.0
220
0.0
230
1.0
  2
SOLID
 70
     1
 71
     1
 91
        1
 92
        1
 93
        1
 72
     4
 94
        3
 73
     0
 74
     0
 95
       53
 96
       49
 40
0.0
 40
0.0
 40
0.0
 40
0.0
 40
1.0
 40
1.0
 40
1.0
 40
2.0
 40
2.0
 40
2.0
 40
3.0
 40
3.0
 40
3.0
 40
4.0
 40
4.0
 40
4.0
 40
5.0
 40
5.0
 40
5.0
 40
6.0
 40
6.0
 40
6.0
 40
7.0
 40
7.0
 40
7.0
 40
8.0
 40
8.0
 40
8.0
 40
9.0
 40
9.0
 40
9.0
 40
10.0
 40
10.0
 40
10.0
 40
11.0
 40
11.0
 40
11.0
 40
12.0
 40
12.0
 40
12.0
 40
13.0
 40
13.0
 40
13.0
 40
14.0
 40
14.0
 40
14.0
 40
15.0
 40
15.0
 40
15.0
 40
16.0
 40
16.0
 40
16.0
 40
16.0
 10
130.8302571287508
 20
177.7722669368937
 10
131.0362738387687
 20
177.7863918283832
 10
131.1913031356049
 20
177.9527899403208
 10
131.1913031356049
 20
178.1925685860942
 10
131.1913031356049
 20
178.4209784167663
 10
131.0335177623805
 20
178.6156263116829
 10
130.7176025063831
 20
178.6156263116829
 10
130.455086230407
 20
178.6156263116829
 10
130.2635389214271
 20
178.4351033082558
 10
130.2635389214271
 20
178.1643188031152
 10
130.2635389214271
 20
178.0091172515047
 10
130.3396755316512
 20
177.8850938140356
 10
130.4523301540189
 20
177.7920762359339
 10
130.4523301540189
 20
177.7920762359339
 10
130.441305848466
 20
177.586059525916
 10
130.441305848466
 20
177.586059525916
 10
130.441305848466
 20
177.586059525916
 10
129.4032985787603
 20
177.7722669368937
 10
129.4032985787603
 20
177.7722669368937
 10
129.4032985787603
 20
177.7722669368937
 10
129.4032985787603
 20
178.7594590481921
 10
129.4032985787603
 20
178.7594590481921
 10
129.4032985787603
 20
178.7594590481921
 10
129.6148274415546
 20
178.7594590481921
 10
129.6148274415546
 20
178.7594590481921
 10
129.6148274415546
 20
178.7594590481921
 10
129.6148274415546
 20
177.9527899403208
 10
129.6148274415546
 20
177.9527899403208
 10
129.6148274415546
 20
177.9527899403208
 10
130.1901583875913
 20
177.8456474707295
 10
130.1901583875913
 20
177.8456474707295
 10
130.1901583875913
 20
177.8456474707295
 10
130.1956705403677
 20
177.8513318782802
 10
130.1956705403677
 20
177.8513318782802
 10
130.0971408094896
 20
177.9386650488313
 10
130.0520100586328
 20
178.0881821928911
 10
130.0520100586328
 20
178.2235744454615
 10
130.0520100586328
 20
178.5789360447649
 10
130.2776638129167
 20
178.8695298489458
 10
130.737239550649
 20
178.8695298489458
 10
131.0758924368491
 20
178.8695298489458
 10
131.4028319983993
 20
178.6354356107231
 10
131.4028319983993
 20
178.1700032106658
 10
131.4028319983993
 20
177.8230820953011
 10
131.1913031356049
 20
177.5409287750592
 10
130.8302571287508
 20
177.5324882911203
 10
130.8302571287508
 20
177.5324882911203
 10
130.8302571287508
 20
177.7722669368937
 10
130.8302571287508
 20
177.7722669368937
 97
        0
 97
        1
330
2FD
 75
     2
 76
     1
 98
        1
 10
0.0
 20
0.0
450
        0
451
        0
460
0.0
461
0.0
452
        0
462
0.0
453
        0
470

  0
ENDBLK
  5
2FA
330
2F7
100
AcDbEntity
  8
0
100
AcDbBlockEnd
  0
BLOCK
  5
302
330
300
100
AcDbEntity
  8
0
100
AcDbBlockBegin
  2
Block_36
 70
     0
 10
0.0
 20
0.0
 30
0.0
  3
Block_36
  1

  0
INSERT
  5
305
330
300
100
AcDbEntity
  8
Sichtbar (ISO)
100
AcDbBlockReference
  2
Block_37
 10
0.0
 20
0.0
 30
0.0
  0
ENDBLK
  5
303
330
300
100
AcDbEntity
  8
0
100
AcDbBlockEnd
  0
BLOCK
  5
306
330
304
100
AcDbEntity
  8
0
100
AcDbBlockBegin
  2
Block_37
 70
     0
 10
0.0
 20
0.0
 30
0.0
  3
Block_37
  1

  0
LINE
  5
308
330
304
100
AcDbEntity
  8
Sichtbar (ISO)
 62
    18
420
        0
370
     5
100
AcDbLine
 10
128.5404098189391
 20
185.038533143302
 30
0.0
 11
128.5401299049309
 21
184.6857553656124
 31
0.0
  0
LINE
  5
309
330
304
100
AcDbEntity
  8
Sichtbar (ISO)
  6
AI-Linetype-1
 62
    18
420
        0
370
     5
100
AcDbLine
 10
128.5395162472976
 20
183.9267147028247
 30
0.0
 11
128.5373630626193
 21
181.2700939149147
 31
0.0
  0
LINE
  5
30B
330
304
100
AcDbEntity
  8
Sichtbar (ISO)
 62
    18
420
        0
370
     5
100
AcDbLine
 10
128.5370616167644
 20
180.8905735835208
 30
0.0
 11
128.5367709368328
 21
180.5378065717546
 31
0.0
  0
ENDBLK
  5
307
330
304
100
AcDbEntity
  8
0
100
AcDbBlockEnd
  0
BLOCK
  5
30F
330
30D
100
AcDbEntity
  8
0
100
AcDbBlockBegin
  2
Block_38
 70
     0
 10
0.0
 20
0.0
 30
0.0
  3
Block_38
  1

  0
INSERT
  5
312
330
30D
100
AcDbEntity
  8
Sichtbar (ISO)
100
AcDbBlockReference
  2
Block_39
 10
0.0
 20
0.0
 30
0.0
  0
ENDBLK
  5
310
330
30D
100
AcDbEntity
  8
0
100
AcDbBlockEnd
  0
BLOCK
  5
313
330
311
100
AcDbEntity
  8
0
100
AcDbBlockBegin
  2
Block_39
 70
     0
 10
0.0
 20
0.0
 30
0.0
  3
Block_39
  1

  0
SPLINE
  5
315
330
311
100
AcDbEntity
  8
Sichtbar (ISO)
100
AcDbSpline
210
0.0
220
0.0
230
1.0
 70
     9
 71
     3
 72
    17
 73
    13
 74
     0
 42
0.0000000001
 43
0.0000000001
 40
0.0
 40
0.0
 40
0.0
 40
0.0
 40
1.0
 40
1.0
 40
1.0
 40
2.0
 40
2.0
 40
2.0
 40
3.0
 40
3.0
 40
3.0
 40
4.0
 40
4.0
 40
4.0
 40
4.0
 10
145.3940537830959
 20
175.4280517139554
 30
0.0
 10
145.3940537830959
 20
175.6678303597289
 30
0.0
 10
145.2276556711584
 20
175.8371568028289
 30
0.0
 10
145.0047579932627
 20
175.8371568028289
 30
0.0
 10
144.7904730540801
 20
175.8371568028289
 30
0.0
 10
144.6240749421426
 20
175.6509493918511
 30
0.0
 10
144.6240749421426
 20
175.4252956375673
 30
0.0
 10
144.6240749421426
 20
175.1882730681821
 30
0.0
 10
144.7735920862024
 20
175.0022379119786
 30
0.0
 10
145.0075140696509
 20
175.0022379119786
 30
0.0
 10
145.2472927154243
 20
175.0022379119786
 30
0.0
 10
145.3940537830959
 20
175.1798325842432
 30
0.0
 10
145.3940537830959
 20
175.4280517139554
 30
0.0
  0
SPLINE
  5
316
330
311
100
AcDbEntity
  8
Sichtbar (ISO)
100
AcDbSpline
210
0.0
220
0.0
230
1.0
 70
     9
 71
     3
 72
    17
 73
    13
 74
     0
 42
0.0000000001
 43
0.0000000001
 40
0.0
 40
0.0
 40
0.0
 40
0.0
 40
1.0
 40
1.0
 40
1.0
 40
2.0
 40
2.0
 40
2.0
 40
3.0
 40
3.0
 40
3.0
 40
4.0
 40
4.0
 40
4.0
 40
4.0
 10
144.0907741610259
 20
175.7580918614424
 30
0.0
 10
143.8878580369447
 20
175.7580918614424
 30
0.0
 10
143.7834716437416
 20
175.6171874560957
 30
0.0
 10
143.7834716437416
 20
175.4225395611791
 30
0.0
 10
143.7834716437416
 20
175.2306477426507
 30
0.0
 10
143.8906141133329
 20
175.072690114652
 30
0.0
 10
144.0907741610259
 20
175.072690114652
 30
0.0
 10
144.3081596861452
 20
175.072690114652
 30
0.0
 10
144.4125460793482
 20
175.2334038190388
 30
0.0
 10
144.4125460793482
 20
175.4280517139554
 30
0.0
 10
144.4125460793482
 20
175.6199435324839
 30
0.0
 10
144.2940347946556
 20
175.7580918614424
 30
0.0
 10
144.0907741610259
 20
175.7580918614424
 30
0.0
  0
SPLINE
  5
317
330
311
100
AcDbEntity
  8
Sichtbar (ISO)
100
AcDbSpline
210
0.0
220
0.0
230
1.0
 70
     9
 71
     3
 72
    29
 73
    25
 74
     0
 42
0.0000000001
 43
0.0000000001
 40
0.0
 40
0.0
 40
0.0
 40
0.0
 40
1.0
 40
1.0
 40
1.0
 40
2.0
 40
2.0
 40
2.0
 40
3.0
 40
3.0
 40
3.0
 40
4.0
 40
4.0
 40
4.0
 40
5.0
 40
5.0
 40
5.0
 40
6.0
 40
6.0
 40
6.0
 40
7.0
 40
7.0
 40
7.0
 40
8.0
 40
8.0
 40
8.0
 40
8.0
 10
144.4969509187368
 20
175.0980115664685
 30
0.0
 10
144.4294270472259
 20
174.9288573781428
 30
0.0
 10
144.2630289352884
 20
174.818786577389
 30
0.0
 10
144.0825059318613
 20
174.818786577389
 30
0.0
 10
143.7552218607626
 20
174.818786577389
 30
0.0
 10
143.5719427809473
 20
175.0980115664685
 30
0.0
 10
143.5719427809473
 20
175.4054863385271
 30
0.0
 10
143.5719427809473
 20
175.8428412103796
 30
0.0
 10
143.8258463182102
 20
176.0119953987053
 30
0.0
 10
144.0825059318613
 20
176.0119953987053
 30
0.0
 10
144.2630289352884
 20
176.0119953987053
 30
0.0
 10
144.4208143085128
 20
175.9019245979516
 30
0.0
 10
144.4969509187368
 20
175.735526486014
 30
0.0
 10
144.5730875289609
 20
175.9753051317874
 30
0.0
 10
144.7480983796116
 20
176.0908880853176
 30
0.0
 10
144.9961452545496
 20
176.0908880853176
 30
0.0
 10
145.3826849679946
 20
176.0908880853176
 30
0.0
 10
145.6055826458903
 20
175.7977104595228
 30
0.0
 10
145.6055826458903
 20
175.4280517139554
 30
0.0
 10
145.6055826458903
 20
175.0444403316729
 30
0.0
 10
145.4023220122605
 20
174.7483343747157
 30
0.0
 10
144.9961452545496
 20
174.7483343747157
 30
0.0
 10
144.7594671947129
 20
174.7483343747157
 30
0.0
 10
144.5761881148976
 20
174.8723578121847
 30
0.0
 10
144.4969509187368
 20
175.0980115664685
 30
0.0
  0
HATCH
  5
318
330
311
100
AcDbEntity
  8
Sichtbar (ISO)
 62
    18
420
        0
440
 33554687
100
AcDbHatch
 10
0.0
 20
0.0
 30
0.0
210
0.0
220
0.0
230
1.0
  2
SOLID
 70
     1
 71
     1
 91
        3
 92
        1
 93
        1
 72
     4
 94
        3
 73
     0
 74
     0
 95
       17
 96
       13
 40
0.0
 40
0.0
 40
0.0
 40
0.0
 40
1.0
 40
1.0
 40
1.0
 40
2.0
 40
2.0
 40
2.0
 40
3.0
 40
3.0
 40
3.0
 40
4.0
 40
4.0
 40
4.0
 40
4.0
 10
145.3940537830959
 20
175.4280517139554
 10
145.3940537830959
 20
175.6678303597289
 10
145.2276556711584
 20
175.8371568028289
 10
145.0047579932627
 20
175.8371568028289
 10
144.7904730540801
 20
175.8371568028289
 10
144.6240749421426
 20
175.6509493918511
 10
144.6240749421426
 20
175.4252956375673
 10
144.6240749421426
 20
175.1882730681821
 10
144.7735920862024
 20
175.0022379119786
 10
145.0075140696509
 20
175.0022379119786
 10
145.2472927154243
 20
175.0022379119786
 10
145.3940537830959
 20
175.1798325842432
 10
145.3940537830959
 20
175.4280517139554
 97
        0
 97
        1
330
315
 92
        1
 93
        1
 72
     4
 94
        3
 73
     0
 74
     0
 95
       17
 96
       13
 40
0.0
 40
0.0
 40
0.0
 40
0.0
 40
1.0
 40
1.0
 40
1.0
 40
2.0
 40
2.0
 40
2.0
 40
3.0
 40
3.0
 40
3.0
 40
4.0
 40
4.0
 40
4.0
 40
4.0
 10
144.0907741610259
 20
175.7580918614424
 10
143.8878580369447
 20
175.7580918614424
 10
143.7834716437416
 20
175.6171874560957
 10
143.7834716437416
 20
175.4225395611791
 10
143.7834716437416
 20
175.2306477426507
 10
143.8906141133329
 20
175.072690114652
 10
144.0907741610259
 20
175.072690114652
 10
144.3081596861452
 20
175.072690114652
 10
144.4125460793482
 20
175.2334038190388
 10
144.4125460793482
 20
175.4280517139554
 10
144.4125460793482
 20
175.6199435324839
 10
144.2940347946556
 20
175.7580918614424
 10
144.0907741610259
 20
175.7580918614424
 97
        0
 97
        1
330
316
 92
        1
 93
        1
 72
     4
 94
        3
 73
     0
 74
     0
 95
       29
 96
       25
 40
0.0
 40
0.0
 40
0.0
 40
0.0
 40
1.0
 40
1.0
 40
1.0
 40
2.0
 40
2.0
 40
2.0
 40
3.0
 40
3.0
 40
3.0
 40
4.0
 40
4.0
 40
4.0
 40
5.0
 40
5.0
 40
5.0
 40
6.0
 40
6.0
 40
6.0
 40
7.0
 40
7.0
 40
7.0
 40
8.0
 40
8.0
 40
8.0
 40
8.0
 10
144.4969509187368
 20
175.0980115664685
 10
144.4294270472259
 20
174.9288573781428
 10
144.2630289352884
 20
174.818786577389
 10
144.0825059318613
 20
174.818786577389
 10
143.7552218607626
 20
174.818786577389
 10
143.5719427809473
 20
175.0980115664685
 10
143.5719427809473
 20
175.4054863385271
 10
143.5719427809473
 20
175.8428412103796
 10
143.8258463182102
 20
176.0119953987053
 10
144.0825059318613
 20
176.0119953987053
 10
144.2630289352884
 20
176.0119953987053
 10
144.4208143085128
 20
175.9019245979516
 10
144.4969509187368
 20
175.735526486014
 10
144.5730875289609
 20
175.9753051317874
 10
144.7480983796116
 20
176.0908880853176
 10
144.9961452545496
 20
176.0908880853176
 10
145.3826849679946
 20
176.0908880853176
 10
145.6055826458903
 20
175.7977104595228
 10
145.6055826458903
 20
175.4280517139554
 10
145.6055826458903
 20
175.0444403316729
 10
145.4023220122605
 20
174.7483343747157
 10
144.9961452545496
 20
174.7483343747157
 10
144.7594671947129
 20
174.7483343747157
 10
144.5761881148976
 20
174.8723578121847
 10
144.4969509187368
 20
175.0980115664685
 97
        0
 97
        1
330
317
 75
     2
 76
     1
 98
        1
 10
0.0
 20
0.0
450
        0
451
        0
460
0.0
461
0.0
452
        0
462
0.0
453
        0
470

  0
SPLINE
  5
319
330
311
100
AcDbEntity
  8
Sichtbar (ISO)
100
AcDbSpline
210
0.0
220
0.0
230
1.0
 70
     9
 71
     3
 72
    26
 73
    22
 74
     0
 42
0.0000000001
 43
0.0000000001
 40
0.0
 40
0.0
 40
0.0
 40
0.0
 40
1.0
 40
1.0
 40
1.0
 40
2.0
 40
2.0
 40
2.0
 40
3.0
 40
3.0
 40
3.0
 40
4.0
 40
4.0
 40
4.0
 40
5.0
 40
5.0
 40
5.0
 40
6.0
 40
6.0
 40
6.0
 40
7.0
 40
7.0
 40
7.0
 40
7.0
 10
143.8313584709866
 20
177.3948567264846
 30
0.0
 10
143.8313584709866
 20
177.3948567264846
 30
0.0
 10
143.8313584709866
 20
176.3456528964518
 30
0.0
 10
143.8313584709866
 20
176.3456528964518
 30
0.0
 10
143.8313584709866
 20
176.3456528964518
 30
0.0
 10
143.6057047167027
 20
176.3456528964518
 30
0.0
 10
143.6057047167027
 20
176.3456528964518
 30
0.0
 10
143.6057047167027
 20
176.3456528964518
 30
0.0
 10
143.6057047167027
 20
177.6403197798087
 30
0.0
 10
143.6057047167027
 20
177.6403197798087
 30
0.0
 10
143.6057047167027
 20
177.6403197798087
 30
0.0
 10
143.8117214267206
 20
177.6403197798087
 30
0.0
 10
143.8117214267206
 20
177.6403197798087
 30
0.0
 10
144.2092854457185
 20
177.2368990984859
 30
0.0
 10
144.9482584273046
 20
176.9097872821614
 30
0.0
 10
145.5718207101348
 20
176.8730970152435
 30
0.0
 10
145.5718207101348
 20
176.8730970152435
 30
0.0
 10
145.5718207101348
 20
176.6050685864911
 30
0.0
 10
145.5718207101348
 20
176.6050685864911
 30
0.0
 10
144.8948594472832
 20
176.6501993373479
 30
0.0
 10
144.2740532408412
 20
176.9745550772841
 30
0.0
 10
143.8313584709866
 20
177.3948567264846
 30
0.0
  0
HATCH
  5
31A
330
311
100
AcDbEntity
  8
Sichtbar (ISO)
 62
    18
420
        0
440
 33554687
100
AcDbHatch
 10
0.0
 20
0.0
 30
0.0
210
0.0
220
0.0
230
1.0
  2
SOLID
 70
     1
 71
     1
 91
        1
 92
        1
 93
        1
 72
     4
 94
        3
 73
     0
 74
     0
 95
       26
 96
       22
 40
0.0
 40
0.0
 40
0.0
 40
0.0
 40
1.0
 40
1.0
 40
1.0
 40
2.0
 40
2.0
 40
2.0
 40
3.0
 40
3.0
 40
3.0
 40
4.0
 40
4.0
 40
4.0
 40
5.0
 40
5.0
 40
5.0
 40
6.0
 40
6.0
 40
6.0
 40
7.0
 40
7.0
 40
7.0
 40
7.0
 10
143.8313584709866
 20
177.3948567264846
 10
143.8313584709866
 20
177.3948567264846
 10
143.8313584709866
 20
176.3456528964518
 10
143.8313584709866
 20
176.3456528964518
 10
143.8313584709866
 20
176.3456528964518
 10
143.6057047167027
 20
176.3456528964518
 10
143.6057047167027
 20
176.3456528964518
 10
143.6057047167027
 20
176.3456528964518
 10
143.6057047167027
 20
177.6403197798087
 10
143.6057047167027
 20
177.6403197798087
 10
143.6057047167027
 20
177.6403197798087
 10
143.8117214267206
 20
177.6403197798087
 10
143.8117214267206
 20
177.6403197798087
 10
144.2092854457185
 20
177.2368990984859
 10
144.9482584273046
 20
176.9097872821614
 10
145.5718207101348
 20
176.8730970152435
 10
145.5718207101348
 20
176.8730970152435
 10
145.5718207101348
 20
176.6050685864911
 10
145.5718207101348
 20
176.6050685864911
 10
144.8948594472832
 20
176.6501993373479
 10
144.2740532408412
 20
176.9745550772841
 10
143.8313584709866
 20
177.3948567264846
 97
        0
 97
        1
330
319
 75
     2
 76
     1
 98
        1
 10
0.0
 20
0.0
450
        0
451
        0
460
0.0
461
0.0
452
        0
462
0.0
453
        0
470

  0
ENDBLK
  5
314
330
311
100
AcDbEntity
  8
0
100
AcDbBlockEnd
  0
BLOCK
  5
31D
330
31B
100
AcDbEntity
  8
0
100
AcDbBlockBegin
  2
Block_40
 70
     0
 10
0.0
 20
0.0
 30
0.0
  3
Block_40
  1

  0
SPLINE
  5
31F
330
31B
100
AcDbEntity
  8
Sichtbar (ISO)
100
AcDbSpline
210
0.0
220
0.0
230
1.0
 70
    11
 71
     3
 72
    17
 73
    13
 74
     0
 42
0.0000000001
 43
0.0000000001
 40
0.0
 40
0.0
 40
0.0
 40
0.0
 40
1.0
 40
1.0
 40
1.0
 40
2.0
 40
2.0
 40
2.0
 40
3.0
 40
3.0
 40
3.0
 40
4.0
 40
4.0
 40
4.0
 40
4.0
 10
138.3305745096882
 20
136.9521918060397
 30
0.0
 10
138.3305745096882
 20
136.9521918060397
 30
0.0
 10
136.6693494667007
 20
136.9521918060397
 30
0.0
 10
136.6693494667007
 20
136.9521918060397
 30
0.0
 10
136.6693494667007
 20
136.9521918060397
 30
0.0
 10
136.6693494667007
 20
135.2937228394405
 30
0.0
 10
136.6693494667007
 20
135.2937228394405
 30
0.0
 10
136.6693494667007
 20
135.2937228394405
 30
0.0
 10
138.3305745096882
 20
135.2937228394405
 30
0.0
 10
138.3305745096882
 20
135.2937228394405
 30
0.0
 10
138.3305745096882
 20
135.2937228394405
 30
0.0
 10
138.3305745096882
 20
136.9521918060397
 30
0.0
 10
138.3305745096882
 20
136.9521918060397
 30
0.0
  0
SPLINE
  5
320
330
31B
100
AcDbEntity
  8
Sichtbar (ISO)
100
AcDbSpline
210
0.0
220
0.0
230
1.0
 70
    11
 71
     3
 72
    17
 73
    13
 74
     0
 42
0.0000000001
 43
0.0000000001
 40
0.0
 40
0.0
 40
0.0
 40
0.0
 40
1.0
 40
1.0
 40
1.0
 40
2.0
 40
2.0
 40
2.0
 40
3.0
 40
3.0
 40
3.0
 40
4.0
 40
4.0
 40
4.0
 40
4.0
 10
136.4436957124168
 20
135.0649684992198
 30
0.0
 10
136.4436957124168
 20
135.0649684992198
 30
0.0
 10
136.4436957124168
 20
137.1778455603236
 30
0.0
 10
136.4436957124168
 20
137.1778455603236
 30
0.0
 10
136.4436957124168
 20
137.1778455603236
 30
0.0
 10
138.5589843403602
 20
137.1778455603236
 30
0.0
 10
138.5589843403602
 20
137.1778455603236
 30
0.0
 10
138.5589843403602
 20
137.1778455603236
 30
0.0
 10
138.5589843403602
 20
135.0649684992198
 30
0.0
 10
138.5589843403602
 20
135.0649684992198
 30
0.0
 10
138.5589843403602
 20
135.0649684992198
 30
0.0
 10
136.4436957124168
 20
135.0649684992198
 30
0.0
 10
136.4436957124168
 20
135.0649684992198
 30
0.0
  0
HATCH
  5
321
330
31B
100
AcDbEntity
  8
Sichtbar (ISO)
 62
    18
420
        0
440
 33554687
100
AcDbHatch
 10
0.0
 20
0.0
 30
0.0
210
0.0
220
0.0
230
1.0
  2
SOLID
 70
     1
 71
     1
 91
        2
 92
        1
 93
        1
 72
     4
 94
        3
 73
     0
 74
     0
 95
       17
 96
       13
 40
0.0
 40
0.0
 40
0.0
 40
0.0
 40
1.0
 40
1.0
 40
1.0
 40
2.0
 40
2.0
 40
2.0
 40
3.0
 40
3.0
 40
3.0
 40
4.0
 40
4.0
 40
4.0
 40
4.0
 10
138.3305745096882
 20
136.9521918060397
 10
138.3305745096882
 20
136.9521918060397
 10
136.6693494667007
 20
136.9521918060397
 10
136.6693494667007
 20
136.9521918060397
 10
136.6693494667007
 20
136.9521918060397
 10
136.6693494667007
 20
135.2937228394405
 10
136.6693494667007
 20
135.2937228394405
 10
136.6693494667007
 20
135.2937228394405
 10
138.3305745096882
 20
135.2937228394405
 10
138.3305745096882
 20
135.2937228394405
 10
138.3305745096882
 20
135.2937228394405
 10
138.3305745096882
 20
136.9521918060397
 10
138.3305745096882
 20
136.9521918060397
 97
        0
 97
        1
330
31F
 92
        1
 93
        1
 72
     4
 94
        3
 73
     0
 74
     0
 95
       17
 96
       13
 40
0.0
 40
0.0
 40
0.0
 40
0.0
 40
1.0
 40
1.0
 40
1.0
 40
2.0
 40
2.0
 40
2.0
 40
3.0
 40
3.0
 40
3.0
 40
4.0
 40
4.0
 40
4.0
 40
4.0
 10
136.4436957124168
 20
135.0649684992198
 10
136.4436957124168
 20
135.0649684992198
 10
136.4436957124168
 20
137.1778455603236
 10
136.4436957124168
 20
137.1778455603236
 10
136.4436957124168
 20
137.1778455603236
 10
138.5589843403602
 20
137.1778455603236
 10
138.5589843403602
 20
137.1778455603236
 10
138.5589843403602
 20
137.1778455603236
 10
138.5589843403602
 20
135.0649684992198
 10
138.5589843403602
 20
135.0649684992198
 10
138.5589843403602
 20
135.0649684992198
 10
136.4436957124168
 20
135.0649684992198
 10
136.4436957124168
 20
135.0649684992198
 97
        0
 97
        1
330
320
 75
     2
 76
     1
 98
        1
 10
0.0
 20
0.0
450
        0
451
        0
460
0.0
461
0.0
452
        0
462
0.0
453
        0
470

  0
SPLINE
  5
322
330
31B
100
AcDbEntity
  8
Sichtbar (ISO)
100
AcDbSpline
210
0.0
220
0.0
230
1.0
 70
     9
 71
     3
 72
    41
 73
    37
 74
     0
 42
0.0000000001
 43
0.0000000001
 40
0.0
 40
0.0
 40
0.0
 40
0.0
 40
1.0
 40
1.0
 40
1.0
 40
2.0
 40
2.0
 40
2.0
 40
3.0
 40
3.0
 40
3.0
 40
4.0
 40
4.0
 40
4.0
 40
5.0
 40
5.0
 40
5.0
 40
6.0
 40
6.0
 40
6.0
 40
7.0
 40
7.0
 40
7.0
 40
8.0
 40
8.0
 40
8.0
 40
9.0
 40
9.0
 40
9.0
 40
10.0
 40
10.0
 40
10.0
 40
11.0
 40
11.0
 40
11.0
 40
12.0
 40
12.0
 40
12.0
 40
12.0
 10
137.7411186721619
 20
138.5955023525039
 30
0.0
 10
137.5295898093676
 20
138.9338107291554
 30
0.0
 10
137.411078524675
 20
139.1060655034179
 30
0.0
 10
137.1316812808212
 20
139.1060655034179
 30
0.0
 10
136.9146402652505
 20
139.1060655034179
 30
0.0
 10
136.770635273967
 20
138.9310546527672
 30
0.0
 10
136.770635273967
 20
138.7195257899729
 30
0.0
 10
136.770635273967
 20
138.4404730556676
 30
0.0
 10
137.0272948876182
 20
138.321961770975
 30
0.0
 10
137.2670735333915
 20
138.3302300001396
 30
0.0
 10
137.2670735333915
 20
138.3302300001396
 30
0.0
 10
137.2670735333915
 20
138.090447865908
 30
0.0
 10
137.2670735333915
 20
138.090447865908
 30
0.0
 10
136.8608967756806
 20
138.0680582337121
 30
0.0
 10
136.5591064111727
 20
138.3105929558737
 30
0.0
 10
136.5591064111727
 20
138.7336506814624
 30
0.0
 10
136.5591064111727
 20
139.0805717968271
 30
0.0
 10
136.7623670448024
 20
139.3596245311323
 30
0.0
 10
137.134781866758
 20
139.3596245311323
 30
0.0
 10
137.487215134899
 20
139.3596245311323
 30
0.0
 10
137.6622259855497
 20
139.1229464712956
 30
0.0
 10
137.8200113587741
 20
138.8745550868091
 30
0.0
 10
137.969528502834
 20
138.6265082118711
 30
0.0
 10
138.1021646790161
 20
138.3584797831187
 30
0.0
 10
138.3474554775659
 20
138.3133490322619
 30
0.0
 10
138.3474554775659
 20
138.3133490322619
 30
0.0
 10
138.3474554775659
 20
139.3403319964149
 30
0.0
 10
138.3474554775659
 20
139.3403319964149
 30
0.0
 10
138.3474554775659
 20
139.3403319964149
 30
0.0
 10
138.5589843403602
 20
139.3403319964149
 30
0.0
 10
138.5589843403602
 20
139.3403319964149
 30
0.0
 10
138.5589843403602
 20
139.3403319964149
 30
0.0
 10
138.5589843403602
 20
138.0339517884082
 30
0.0
 10
138.5589843403602
 20
138.0339517884082
 30
0.0
 10
138.0880397875266
 20
138.0708143101003
 30
0.0
 10
137.9102728604877
 20
138.3133490322619
 30
0.0
 10
137.7411186721619
 20
138.5955023525039
 30
0.0
  0
HATCH
  5
323
330
31B
100
AcDbEntity
  8
Sichtbar (ISO)
 62
    18
420
        0
440
 33554687
100
AcDbHatch
 10
0.0
 20
0.0
 30
0.0
210
0.0
220
0.0
230
1.0
  2
SOLID
 70
     1
 71
     1
 91
        1
 92
        1
 93
        1
 72
     4
 94
        3
 73
     0
 74
     0
 95
       41
 96
       37
 40
0.0
 40
0.0
 40
0.0
 40
0.0
 40
1.0
 40
1.0
 40
1.0
 40
2.0
 40
2.0
 40
2.0
 40
3.0
 40
3.0
 40
3.0
 40
4.0
 40
4.0
 40
4.0
 40
5.0
 40
5.0
 40
5.0
 40
6.0
 40
6.0
 40
6.0
 40
7.0
 40
7.0
 40
7.0
 40
8.0
 40
8.0
 40
8.0
 40
9.0
 40
9.0
 40
9.0
 40
10.0
 40
10.0
 40
10.0
 40
11.0
 40
11.0
 40
11.0
 40
12.0
 40
12.0
 40
12.0
 40
12.0
 10
137.7411186721619
 20
138.5955023525039
 10
137.5295898093676
 20
138.9338107291554
 10
137.411078524675
 20
139.1060655034179
 10
137.1316812808212
 20
139.1060655034179
 10
136.9146402652505
 20
139.1060655034179
 10
136.770635273967
 20
138.9310546527672
 10
136.770635273967
 20
138.7195257899729
 10
136.770635273967
 20
138.4404730556676
 10
137.0272948876182
 20
138.321961770975
 10
137.2670735333915
 20
138.3302300001396
 10
137.2670735333915
 20
138.3302300001396
 10
137.2670735333915
 20
138.090447865908
 10
137.2670735333915
 20
138.090447865908
 10
136.8608967756806
 20
138.0680582337121
 10
136.5591064111727
 20
138.3105929558737
 10
136.5591064111727
 20
138.7336506814624
 10
136.5591064111727
 20
139.0805717968271
 10
136.7623670448024
 20
139.3596245311323
 10
137.134781866758
 20
139.3596245311323
 10
137.487215134899
 20
139.3596245311323
 10
137.6622259855497
 20
139.1229464712956
 10
137.8200113587741
 20
138.8745550868091
 10
137.969528502834
 20
138.6265082118711
 10
138.1021646790161
 20
138.3584797831187
 10
138.3474554775659
 20
138.3133490322619
 10
138.3474554775659
 20
138.3133490322619
 10
138.3474554775659
 20
139.3403319964149
 10
138.3474554775659
 20
139.3403319964149
 10
138.3474554775659
 20
139.3403319964149
 10
138.5589843403602
 20
139.3403319964149
 10
138.5589843403602
 20
139.3403319964149
 10
138.5589843403602
 20
139.3403319964149
 10
138.5589843403602
 20
138.0339517884082
 10
138.5589843403602
 20
138.0339517884082
 10
138.0880397875266
 20
138.0708143101003
 10
137.9102728604877
 20
138.3133490322619
 10
137.7411186721619
 20
138.5955023525039
 97
        0
 97
        1
330
322
 75
     2
 76
     1
 98
        1
 10
0.0
 20
0.0
450
        0
451
        0
460
0.0
461
0.0
452
        0
462
0.0
453
        0
470

  0
SPLINE
  5
324
330
31B
100
AcDbEntity
  8
Sichtbar (ISO)
100
AcDbSpline
210
0.0
220
0.0
230
1.0
 70
     9
 71
     3
 72
    62
 73
    58
 74
     0
 42
0.0000000001
 43
0.0000000001
 40
0.0
 40
0.0
 40
0.0
 40
0.0
 40
1.0
 40
1.0
 40
1.0
 40
2.0
 40
2.0
 40
2.0
 40
3.0
 40
3.0
 40
3.0
 40
4.0
 40
4.0
 40
4.0
 40
5.0
 40
5.0
 40
5.0
 40
6.0
 40
6.0
 40
6.0
 40
7.0
 40
7.0
 40
7.0
 40
8.0
 40
8.0
 40
8.0
 40
9.0
 40
9.0
 40
9.0
 40
10.0
 40
10.0
 40
10.0
 40
11.0
 40
11.0
 40
11.0
 40
12.0
 40
12.0
 40
12.0
 40
13.0
 40
13.0
 40
13.0
 40
14.0
 40
14.0
 40
14.0
 40
15.0
 40
15.0
 40
15.0
 40
16.0
 40
16.0
 40
16.0
 40
17.0
 40
17.0
 40
17.0
 40
18.0
 40
18.0
 40
18.0
 40
19.0
 40
19.0
 40
19.0
 40
19.0
 10
137.9412787198549
 20
139.8598523955906
 30
0.0
 10
138.2006944098943
 20
139.8684651343037
 30
0.0
 10
138.3812174133213
 20
140.0121256160386
 30
0.0
 10
138.3812174133213
 20
140.286010707116
 30
0.0
 10
138.3812174133213
 20
140.5199326905645
 30
0.0
 10
138.2348008551982
 20
140.720437247806
 30
0.0
 10
137.9950222094248
 20
140.720437247806
 30
0.0
 10
137.7438747485501
 20
140.720437247806
 30
0.0
 10
137.611238572368
 20
140.5313015056658
 30
0.0
 10
137.611238572368
 20
140.2946234458291
 30
0.0
 10
137.611238572368
 20
140.2436360326474
 30
0.0
 10
137.6139946487562
 20
140.1957492054024
 30
0.0
 10
137.6198513110811
 20
140.1506184545457
 30
0.0
 10
137.6198513110811
 20
140.1506184545457
 30
0.0
 10
137.4165906774514
 20
140.1506184545457
 30
0.0
 10
137.4165906774514
 20
140.1506184545457
 30
0.0
 10
137.4193467538396
 20
140.1702554988116
 30
0.0
 10
137.4193467538396
 20
140.1871364666893
 30
0.0
 10
137.4193467538396
 20
140.2043619441156
 30
0.0
 10
137.4193467538396
 20
140.2043619441156
 30
0.0
 10
137.4193467538396
 20
140.2550048477487
 30
0.0
 10
137.4193467538396
 20
140.2550048477487
 30
0.0
 10
137.4193467538396
 20
140.4579209718299
 30
0.0
 10
137.3066921314719
 20
140.6356878988688
 30
0.0
 10
137.0924071922894
 20
140.6356878988688
 30
0.0
 10
136.880878329495
 20
140.6356878988688
 30
0.0
 10
136.770635273967
 20
140.4834146784208
 30
0.0
 10
136.770635273967
 20
140.2801540447911
 30
0.0
 10
136.770635273967
 20
140.0207383547517
 30
0.0
 10
136.9711398312086
 20
139.9025715796077
 30
0.0
 10
137.2050618146571
 20
139.9025715796077
 30
0.0
 10
137.2050618146571
 20
139.9025715796077
 30
0.0
 10
137.2050618146571
 20
139.6627929338343
 30
0.0
 10
137.2050618146571
 20
139.6627929338343
 30
0.0
 10
136.8243787635369
 20
139.6765733157753
 30
0.0
 10
136.5591064111727
 20
139.879833949405
 30
0.0
 10
136.5591064111727
 20
140.2801540447911
 30
0.0
 10
136.5591064111727
 20
140.6274196697042
 30
0.0
 10
136.7255045231103
 20
140.8895914361318
 30
0.0
 10
137.0951632686776
 20
140.8895914361318
 30
0.0
 10
137.2729301957165
 20
140.8895914361318
 30
0.0
 10
137.4224473397763
 20
140.7683240750509
 30
0.0
 10
137.4927272876754
 20
140.6129502686662
 30
0.0
 10
137.4927272876754
 20
140.6129502686662
 30
0.0
 10
137.4985839500003
 20
140.6129502686662
 30
0.0
 10
137.4985839500003
 20
140.6129502686662
 30
0.0
 10
137.5519829300217
 20
140.8585855767645
 30
0.0
 10
137.7438747485501
 20
140.9739962755204
 30
0.0
 10
137.9836533943235
 20
140.9739962755204
 30
0.0
 10
138.3812174133213
 20
140.9739962755204
 30
0.0
 10
138.5927462761157
 20
140.6611816054597
 30
0.0
 10
138.5927462761157
 20
140.286010707116
 30
0.0
 10
138.5927462761157
 20
139.879833949405
 30
0.0
 10
138.356068216279
 20
139.6118055206526
 30
0.0
 10
137.9412787198549
 20
139.6200737498172
 30
0.0
 10
137.9412787198549
 20
139.6200737498172
 30
0.0
 10
137.9412787198549
 20
139.8598523955906
 30
0.0
 10
137.9412787198549
 20
139.8598523955906
 30
0.0
  0
HATCH
  5
325
330
31B
100
AcDbEntity
  8
Sichtbar (ISO)
 62
    18
420
        0
440
 33554687
100
AcDbHatch
 10
0.0
 20
0.0
 30
0.0
210
0.0
220
0.0
230
1.0
  2
SOLID
 70
     1
 71
     1
 91
        1
 92
        1
 93
        1
 72
     4
 94
        3
 73
     0
 74
     0
 95
       62
 96
       58
 40
0.0
 40
0.0
 40
0.0
 40
0.0
 40
1.0
 40
1.0
 40
1.0
 40
2.0
 40
2.0
 40
2.0
 40
3.0
 40
3.0
 40
3.0
 40
4.0
 40
4.0
 40
4.0
 40
5.0
 40
5.0
 40
5.0
 40
6.0
 40
6.0
 40
6.0
 40
7.0
 40
7.0
 40
7.0
 40
8.0
 40
8.0
 40
8.0
 40
9.0
 40
9.0
 40
9.0
 40
10.0
 40
10.0
 40
10.0
 40
11.0
 40
11.0
 40
11.0
 40
12.0
 40
12.0
 40
12.0
 40
13.0
 40
13.0
 40
13.0
 40
14.0
 40
14.0
 40
14.0
 40
15.0
 40
15.0
 40
15.0
 40
16.0
 40
16.0
 40
16.0
 40
17.0
 40
17.0
 40
17.0
 40
18.0
 40
18.0
 40
18.0
 40
19.0
 40
19.0
 40
19.0
 40
19.0
 10
137.9412787198549
 20
139.8598523955906
 10
138.2006944098943
 20
139.8684651343037
 10
138.3812174133213
 20
140.0121256160386
 10
138.3812174133213
 20
140.286010707116
 10
138.3812174133213
 20
140.5199326905645
 10
138.2348008551982
 20
140.720437247806
 10
137.9950222094248
 20
140.720437247806
 10
137.7438747485501
 20
140.720437247806
 10
137.611238572368
 20
140.5313015056658
 10
137.611238572368
 20
140.2946234458291
 10
137.611238572368
 20
140.2436360326474
 10
137.6139946487562
 20
140.1957492054024
 10
137.6198513110811
 20
140.1506184545457
 10
137.6198513110811
 20
140.1506184545457
 10
137.4165906774514
 20
140.1506184545457
 10
137.4165906774514
 20
140.1506184545457
 10
137.4193467538396
 20
140.1702554988116
 10
137.4193467538396
 20
140.1871364666893
 10
137.4193467538396
 20
140.2043619441156
 10
137.4193467538396
 20
140.2043619441156
 10
137.4193467538396
 20
140.2550048477487
 10
137.4193467538396
 20
140.2550048477487
 10
137.4193467538396
 20
140.4579209718299
 10
137.3066921314719
 20
140.6356878988688
 10
137.0924071922894
 20
140.6356878988688
 10
136.880878329495
 20
140.6356878988688
 10
136.770635273967
 20
140.4834146784208
 10
136.770635273967
 20
140.2801540447911
 10
136.770635273967
 20
140.0207383547517
 10
136.9711398312086
 20
139.9025715796077
 10
137.2050618146571
 20
139.9025715796077
 10
137.2050618146571
 20
139.9025715796077
 10
137.2050618146571
 20
139.6627929338343
 10
137.2050618146571
 20
139.6627929338343
 10
136.8243787635369
 20
139.6765733157753
 10
136.5591064111727
 20
139.879833949405
 10
136.5591064111727
 20
140.2801540447911
 10
136.5591064111727
 20
140.6274196697042
 10
136.7255045231103
 20
140.8895914361318
 10
137.0951632686776
 20
140.8895914361318
 10
137.2729301957165
 20
140.8895914361318
 10
137.4224473397763
 20
140.7683240750509
 10
137.4927272876754
 20
140.6129502686662
 10
137.4927272876754
 20
140.6129502686662
 10
137.4985839500003
 20
140.6129502686662
 10
137.4985839500003
 20
140.6129502686662
 10
137.5519829300217
 20
140.8585855767645
 10
137.7438747485501
 20
140.9739962755204
 10
137.9836533943235
 20
140.9739962755204
 10
138.3812174133213
 20
140.9739962755204
 10
138.5927462761157
 20
140.6611816054597
 10
138.5927462761157
 20
140.286010707116
 10
138.5927462761157
 20
139.879833949405
 10
138.356068216279
 20
139.6118055206526
 10
137.9412787198549
 20
139.6200737498172
 10
137.9412787198549
 20
139.6200737498172
 10
137.9412787198549
 20
139.8598523955906
 10
137.9412787198549
 20
139.8598523955906
 97
        0
 97
        1
330
324
 75
     2
 76
     1
 98
        1
 10
0.0
 20
0.0
450
        0
451
        0
460
0.0
461
0.0
452
        0
462
0.0
453
        0
470

  0
SPLINE
  5
326
330
31B
100
AcDbEntity
  8
Sichtbar (ISO)
100
AcDbSpline
210
0.0
220
0.0
230
1.0
 70
     9
 71
     3
 72
    62
 73
    58
 74
     0
 42
0.0000000001
 43
0.0000000001
 40
0.0
 40
0.0
 40
0.0
 40
0.0
 40
1.0
 40
1.0
 40
1.0
 40
2.0
 40
2.0
 40
2.0
 40
3.0
 40
3.0
 40
3.0
 40
4.0
 40
4.0
 40
4.0
 40
5.0
 40
5.0
 40
5.0
 40
6.0
 40
6.0
 40
6.0
 40
7.0
 40
7.0
 40
7.0
 40
8.0
 40
8.0
 40
8.0
 40
9.0
 40
9.0
 40
9.0
 40
10.0
 40
10.0
 40
10.0
 40
11.0
 40
11.0
 40
11.0
 40
12.0
 40
12.0
 40
12.0
 40
13.0
 40
13.0
 40
13.0
 40
14.0
 40
14.0
 40
14.0
 40
15.0
 40
15.0
 40
15.0
 40
16.0
 40
16.0
 40
16.0
 40
17.0
 40
17.0
 40
17.0
 40
18.0
 40
18.0
 40
18.0
 40
19.0
 40
19.0
 40
19.0
 40
19.0
 10
137.9412787198549
 20
141.4294378986704
 30
0.0
 10
138.2006944098943
 20
141.437706127835
 30
0.0
 10
138.3812174133213
 20
141.5817111191184
 30
0.0
 10
138.3812174133213
 20
141.8552517006473
 30
0.0
 10
138.3812174133213
 20
142.0895181936443
 30
0.0
 10
138.2348008551982
 20
142.2896782413373
 30
0.0
 10
137.9950222094248
 20
142.2896782413373
 30
0.0
 10
137.7438747485501
 20
142.2896782413373
 30
0.0
 10
137.611238572368
 20
142.1005424991971
 30
0.0
 10
137.611238572368
 20
141.8635199298119
 30
0.0
 10
137.611238572368
 20
141.8128770261787
 30
0.0
 10
137.6139946487562
 20
141.7649901989337
 30
0.0
 10
137.6198513110811
 20
141.719859448077
 30
0.0
 10
137.6198513110811
 20
141.719859448077
 30
0.0
 10
137.4165906774514
 20
141.719859448077
 30
0.0
 10
137.4165906774514
 20
141.719859448077
 30
0.0
 10
137.4193467538396
 20
141.7394964923429
 30
0.0
 10
137.4193467538396
 20
141.7567219697691
 30
0.0
 10
137.4193467538396
 20
141.7732584280983
 30
0.0
 10
137.4193467538396
 20
141.7732584280983
 30
0.0
 10
137.4193467538396
 20
141.82424584128
 30
0.0
 10
137.4193467538396
 20
141.82424584128
 30
0.0
 10
137.4193467538396
 20
142.0275064749097
 30
0.0
 10
137.3066921314719
 20
142.2049288924001
 30
0.0
 10
137.0924071922894
 20
142.2049288924001
 30
0.0
 10
136.880878329495
 20
142.2049288924001
 30
0.0
 10
136.770635273967
 20
142.0526556719521
 30
0.0
 10
136.770635273967
 20
141.8497395478709
 30
0.0
 10
136.770635273967
 20
141.5899793482831
 30
0.0
 10
136.9711398312086
 20
141.4714680635904
 30
0.0
 10
137.2050618146571
 20
141.4714680635904
 30
0.0
 10
137.2050618146571
 20
141.4714680635904
 30
0.0
 10
137.2050618146571
 20
141.2316894178171
 30
0.0
 10
137.2050618146571
 20
141.2316894178171
 30
0.0
 10
136.8243787635369
 20
141.2461588188551
 30
0.0
 10
136.5591064111727
 20
141.4490749429363
 30
0.0
 10
136.5591064111727
 20
141.8497395478709
 30
0.0
 10
136.5591064111727
 20
142.196316153687
 30
0.0
 10
136.7255045231103
 20
142.4588324296631
 30
0.0
 10
137.0951632686776
 20
142.4588324296631
 30
0.0
 10
137.2729301957165
 20
142.4588324296631
 30
0.0
 10
137.4224473397763
 20
142.3375650685823
 30
0.0
 10
137.4927272876754
 20
142.182535771746
 30
0.0
 10
137.4927272876754
 20
142.182535771746
 30
0.0
 10
137.4985839500003
 20
142.182535771746
 30
0.0
 10
137.4985839500003
 20
142.182535771746
 30
0.0
 10
137.5519829300217
 20
142.4278265702958
 30
0.0
 10
137.7438747485501
 20
142.5435817786002
 30
0.0
 10
137.9836533943235
 20
142.5435817786002
 30
0.0
 10
138.3812174133213
 20
142.5435817786002
 30
0.0
 10
138.5927462761157
 20
142.230422598991
 30
0.0
 10
138.5927462761157
 20
141.8552517006473
 30
0.0
 10
138.5927462761157
 20
141.4490749429363
 30
0.0
 10
138.356068216279
 20
141.1810465141839
 30
0.0
 10
137.9412787198549
 20
141.189659252897
 30
0.0
 10
137.9412787198549
 20
141.189659252897
 30
0.0
 10
137.9412787198549
 20
141.4294378986704
 30
0.0
 10
137.9412787198549
 20
141.4294378986704
 30
0.0
  0
HATCH
  5
327
330
31B
100
AcDbEntity
  8
Sichtbar (ISO)
 62
    18
420
        0
440
 33554687
100
AcDbHatch
 10
0.0
 20
0.0
 30
0.0
210
0.0
220
0.0
230
1.0
  2
SOLID
 70
     1
 71
     1
 91
        1
 92
        1
 93
        1
 72
     4
 94
        3
 73
     0
 74
     0
 95
       62
 96
       58
 40
0.0
 40
0.0
 40
0.0
 40
0.0
 40
1.0
 40
1.0
 40
1.0
 40
2.0
 40
2.0
 40
2.0
 40
3.0
 40
3.0
 40
3.0
 40
4.0
 40
4.0
 40
4.0
 40
5.0
 40
5.0
 40
5.0
 40
6.0
 40
6.0
 40
6.0
 40
7.0
 40
7.0
 40
7.0
 40
8.0
 40
8.0
 40
8.0
 40
9.0
 40
9.0
 40
9.0
 40
10.0
 40
10.0
 40
10.0
 40
11.0
 40
11.0
 40
11.0
 40
12.0
 40
12.0
 40
12.0
 40
13.0
 40
13.0
 40
13.0
 40
14.0
 40
14.0
 40
14.0
 40
15.0
 40
15.0
 40
15.0
 40
16.0
 40
16.0
 40
16.0
 40
17.0
 40
17.0
 40
17.0
 40
18.0
 40
18.0
 40
18.0
 40
19.0
 40
19.0
 40
19.0
 40
19.0
 10
137.9412787198549
 20
141.4294378986704
 10
138.2006944098943
 20
141.437706127835
 10
138.3812174133213
 20
141.5817111191184
 10
138.3812174133213
 20
141.8552517006473
 10
138.3812174133213
 20
142.0895181936443
 10
138.2348008551982
 20
142.2896782413373
 10
137.9950222094248
 20
142.2896782413373
 10
137.7438747485501
 20
142.2896782413373
 10
137.611238572368
 20
142.1005424991971
 10
137.611238572368
 20
141.8635199298119
 10
137.611238572368
 20
141.8128770261787
 10
137.6139946487562
 20
141.7649901989337
 10
137.6198513110811
 20
141.719859448077
 10
137.6198513110811
 20
141.719859448077
 10
137.4165906774514
 20
141.719859448077
 10
137.4165906774514
 20
141.719859448077
 10
137.4193467538396
 20
141.7394964923429
 10
137.4193467538396
 20
141.7567219697691
 10
137.4193467538396
 20
141.7732584280983
 10
137.4193467538396
 20
141.7732584280983
 10
137.4193467538396
 20
141.82424584128
 10
137.4193467538396
 20
141.82424584128
 10
137.4193467538396
 20
142.0275064749097
 10
137.3066921314719
 20
142.2049288924001
 10
137.0924071922894
 20
142.2049288924001
 10
136.880878329495
 20
142.2049288924001
 10
136.770635273967
 20
142.0526556719521
 10
136.770635273967
 20
141.8497395478709
 10
136.770635273967
 20
141.5899793482831
 10
136.9711398312086
 20
141.4714680635904
 10
137.2050618146571
 20
141.4714680635904
 10
137.2050618146571
 20
141.4714680635904
 10
137.2050618146571
 20
141.2316894178171
 10
137.2050618146571
 20
141.2316894178171
 10
136.8243787635369
 20
141.2461588188551
 10
136.5591064111727
 20
141.4490749429363
 10
136.5591064111727
 20
141.8497395478709
 10
136.5591064111727
 20
142.196316153687
 10
136.7255045231103
 20
142.4588324296631
 10
137.0951632686776
 20
142.4588324296631
 10
137.2729301957165
 20
142.4588324296631
 10
137.4224473397763
 20
142.3375650685823
 10
137.4927272876754
 20
142.182535771746
 10
137.4927272876754
 20
142.182535771746
 10
137.4985839500003
 20
142.182535771746
 10
137.4985839500003
 20
142.182535771746
 10
137.5519829300217
 20
142.4278265702958
 10
137.7438747485501
 20
142.5435817786002
 10
137.9836533943235
 20
142.5435817786002
 10
138.3812174133213
 20
142.5435817786002
 10
138.5927462761157
 20
142.230422598991
 10
138.5927462761157
 20
141.8552517006473
 10
138.5927462761157
 20
141.4490749429363
 10
138.356068216279
 20
141.1810465141839
 10
137.9412787198549
 20
141.189659252897
 10
137.9412787198549
 20
141.189659252897
 10
137.9412787198549
 20
141.4294378986704
 10
137.9412787198549
 20
141.4294378986704
 97
        0
 97
        1
330
326
 75
     2
 76
     1
 98
        1
 10
0.0
 20
0.0
450
        0
451
        0
460
0.0
461
0.0
452
        0
462
0.0
453
        0
470

  0
ENDBLK
  5
31E
330
31B
100
AcDbEntity
  8
0
100
AcDbBlockEnd
  0
BLOCK
  5
32A
330
328
100
AcDbEntity
  8
0
100
AcDbBlockBegin
  2
Block_41
 70
     0
 10
0.0
 20
0.0
 30
0.0
  3
Block_41
  1

  0
SPLINE
  5
32C
330
328
100
AcDbEntity
  8
Sichtbar (ISO)
100
AcDbSpline
210
0.0
220
0.0
230
1.0
 70
    11
 71
     3
 72
    17
 73
    13
 74
     0
 42
0.0000000001
 43
0.0000000001
 40
0.0
 40
0.0
 40
0.0
 40
0.0
 40
1.0
 40
1.0
 40
1.0
 40
2.0
 40
2.0
 40
2.0
 40
3.0
 40
3.0
 40
3.0
 40
4.0
 40
4.0
 40
4.0
 40
4.0
 10
145.3695936051506
 20
137.0069688242552
 30
0.0
 10
145.3695936051506
 20
137.0069688242552
 30
0.0
 10
143.7083685621632
 20
137.0069688242552
 30
0.0
 10
143.7083685621632
 20
137.0069688242552
 30
0.0
 10
143.7083685621632
 20
137.0069688242552
 30
0.0
 10
143.7083685621632
 20
135.3481553481074
 30
0.0
 10
143.7083685621632
 20
135.3481553481074
 30
0.0
 10
143.7083685621632
 20
135.3481553481074
 30
0.0
 10
145.3695936051506
 20
135.3481553481074
 30
0.0
 10
145.3695936051506
 20
135.3481553481074
 30
0.0
 10
145.3695936051506
 20
135.3481553481074
 30
0.0
 10
145.3695936051506
 20
137.0069688242552
 30
0.0
 10
145.3695936051506
 20
137.0069688242552
 30
0.0
  0
SPLINE
  5
32D
330
328
100
AcDbEntity
  8
Sichtbar (ISO)
100
AcDbSpline
210
0.0
220
0.0
230
1.0
 70
    11
 71
     3
 72
    17
 73
    13
 74
     0
 42
0.0000000001
 43
0.0000000001
 40
0.0
 40
0.0
 40
0.0
 40
0.0
 40
1.0
 40
1.0
 40
1.0
 40
2.0
 40
2.0
 40
2.0
 40
3.0
 40
3.0
 40
3.0
 40
4.0
 40
4.0
 40
4.0
 40
4.0
 10
143.4827148078793
 20
135.1200900269838
 30
0.0
 10
143.4827148078793
 20
135.1200900269838
 30
0.0
 10
143.4827148078793
 20
137.232622578539
 30
0.0
 10
143.4827148078793
 20
137.232622578539
 30
0.0
 10
143.4827148078793
 20
137.232622578539
 30
0.0
 10
145.5980034358227
 20
137.232622578539
 30
0.0
 10
145.5980034358227
 20
137.232622578539
 30
0.0
 10
145.5980034358227
 20
137.232622578539
 30
0.0
 10
145.5980034358227
 20
135.1200900269838
 30
0.0
 10
145.5980034358227
 20
135.1200900269838
 30
0.0
 10
145.5980034358227
 20
135.1200900269838
 30
0.0
 10
143.4827148078793
 20
135.1200900269838
 30
0.0
 10
143.4827148078793
 20
135.1200900269838
 30
0.0
  0
HATCH
  5
32E
330
328
100
AcDbEntity
  8
Sichtbar (ISO)
 62
    18
420
        0
440
 33554687
100
AcDbHatch
 10
0.0
 20
0.0
 30
0.0
210
0.0
220
0.0
230
1.0
  2
SOLID
 70
     1
 71
     1
 91
        2
 92
        1
 93
        1
 72
     4
 94
        3
 73
     0
 74
     0
 95
       17
 96
       13
 40
0.0
 40
0.0
 40
0.0
 40
0.0
 40
1.0
 40
1.0
 40
1.0
 40
2.0
 40
2.0
 40
2.0
 40
3.0
 40
3.0
 40
3.0
 40
4.0
 40
4.0
 40
4.0
 40
4.0
 10
145.3695936051506
 20
137.0069688242552
 10
145.3695936051506
 20
137.0069688242552
 10
143.7083685621632
 20
137.0069688242552
 10
143.7083685621632
 20
137.0069688242552
 10
143.7083685621632
 20
137.0069688242552
 10
143.7083685621632
 20
135.3481553481074
 10
143.7083685621632
 20
135.3481553481074
 10
143.7083685621632
 20
135.3481553481074
 10
145.3695936051506
 20
135.3481553481074
 10
145.3695936051506
 20
135.3481553481074
 10
145.3695936051506
 20
135.3481553481074
 10
145.3695936051506
 20
137.0069688242552
 10
145.3695936051506
 20
137.0069688242552
 97
        0
 97
        1
330
32C
 92
        1
 93
        1
 72
     4
 94
        3
 73
     0
 74
     0
 95
       17
 96
       13
 40
0.0
 40
0.0
 40
0.0
 40
0.0
 40
1.0
 40
1.0
 40
1.0
 40
2.0
 40
2.0
 40
2.0
 40
3.0
 40
3.0
 40
3.0
 40
4.0
 40
4.0
 40
4.0
 40
4.0
 10
143.4827148078793
 20
135.1200900269838
 10
143.4827148078793
 20
135.1200900269838
 10
143.4827148078793
 20
137.232622578539
 10
143.4827148078793
 20
137.232622578539
 10
143.4827148078793
 20
137.232622578539
 10
145.5980034358227
 20
137.232622578539
 10
145.5980034358227
 20
137.232622578539
 10
145.5980034358227
 20
137.232622578539
 10
145.5980034358227
 20
135.1200900269838
 10
145.5980034358227
 20
135.1200900269838
 10
145.5980034358227
 20
135.1200900269838
 10
143.4827148078793
 20
135.1200900269838
 10
143.4827148078793
 20
135.1200900269838
 97
        0
 97
        1
330
32D
 75
     2
 76
     1
 98
        1
 10
0.0
 20
0.0
450
        0
451
        0
460
0.0
461
0.0
452
        0
462
0.0
453
        0
470

  0
SPLINE
  5
32F
330
328
100
AcDbEntity
  8
Sichtbar (ISO)
100
AcDbSpline
210
0.0
220
0.0
230
1.0
 70
     9
 71
     3
 72
    41
 73
    37
 74
     0
 42
0.0000000001
 43
0.0000000001
 40
0.0
 40
0.0
 40
0.0
 40
0.0
 40
1.0
 40
1.0
 40
1.0
 40
2.0
 40
2.0
 40
2.0
 40
3.0
 40
3.0
 40
3.0
 40
4.0
 40
4.0
 40
4.0
 40
5.0
 40
5.0
 40
5.0
 40
6.0
 40
6.0
 40
6.0
 40
7.0
 40
7.0
 40
7.0
 40
8.0
 40
8.0
 40
8.0
 40
9.0
 40
9.0
 40
9.0
 40
10.0
 40
10.0
 40
10.0
 40
11.0
 40
11.0
 40
11.0
 40
12.0
 40
12.0
 40
12.0
 40
12.0
 10
144.7801377676244
 20
138.6502793707194
 30
0.0
 10
144.5686089048301
 20
138.9889322569194
 30
0.0
 10
144.4500976201375
 20
139.1608425216334
 30
0.0
 10
144.1707003762837
 20
139.1608425216334
 30
0.0
 10
143.953659360713
 20
139.1608425216334
 30
0.0
 10
143.8096543694295
 20
138.9858316709827
 30
0.0
 10
143.8096543694295
 20
138.7743028081883
 30
0.0
 10
143.8096543694295
 20
138.4949055643346
 30
0.0
 10
144.0663139830806
 20
138.376394279642
 30
0.0
 10
144.306092628854
 20
138.3850070183551
 30
0.0
 10
144.306092628854
 20
138.3850070183551
 30
0.0
 10
144.306092628854
 20
138.1452283725817
 30
0.0
 10
144.306092628854
 20
138.1452283725817
 30
0.0
 10
143.8999158711431
 20
138.1228352519276
 30
0.0
 10
143.5981255066352
 20
138.3653699740892
 30
0.0
 10
143.5981255066352
 20
138.7884276996779
 30
0.0
 10
143.5981255066352
 20
139.1353488150425
 30
0.0
 10
143.8013861402649
 20
139.4147460588963
 30
0.0
 10
144.1738009622204
 20
139.4147460588963
 30
0.0
 10
144.5262342303615
 20
139.4147460588963
 30
0.0
 10
144.7012450810122
 20
139.1777234895111
 30
0.0
 10
144.8590304542366
 20
138.9296766145731
 30
0.0
 10
145.0085475982964
 20
138.6812852300866
 30
0.0
 10
145.1411837744786
 20
138.4132568013342
 30
0.0
 10
145.3864745730284
 20
138.3681260504774
 30
0.0
 10
145.3864745730284
 20
138.3681260504774
 30
0.0
 10
145.3864745730284
 20
139.3947645050818
 30
0.0
 10
145.3864745730284
 20
139.3947645050818
 30
0.0
 10
145.3864745730284
 20
139.3947645050818
 30
0.0
 10
145.5980034358227
 20
139.3947645050818
 30
0.0
 10
145.5980034358227
 20
139.3947645050818
 30
0.0
 10
145.5980034358227
 20
139.3947645050818
 30
0.0
 10
145.5980034358227
 20
138.0890733161721
 30
0.0
 10
145.5980034358227
 20
138.0890733161721
 30
0.0
 10
145.127058882989
 20
138.1255913283158
 30
0.0
 10
144.9492919559501
 20
138.3681260504774
 30
0.0
 10
144.7801377676244
 20
138.6502793707194
 30
0.0
  0
HATCH
  5
330
330
328
100
AcDbEntity
  8
Sichtbar (ISO)
 62
    18
420
        0
440
 33554687
100
AcDbHatch
 10
0.0
 20
0.0
 30
0.0
210
0.0
220
0.0
230
1.0
  2
SOLID
 70
     1
 71
     1
 91
        1
 92
        1
 93
        1
 72
     4
 94
        3
 73
     0
 74
     0
 95
       41
 96
       37
 40
0.0
 40
0.0
 40
0.0
 40
0.0
 40
1.0
 40
1.0
 40
1.0
 40
2.0
 40
2.0
 40
2.0
 40
3.0
 40
3.0
 40
3.0
 40
4.0
 40
4.0
 40
4.0
 40
5.0
 40
5.0
 40
5.0
 40
6.0
 40
6.0
 40
6.0
 40
7.0
 40
7.0
 40
7.0
 40
8.0
 40
8.0
 40
8.0
 40
9.0
 40
9.0
 40
9.0
 40
10.0
 40
10.0
 40
10.0
 40
11.0
 40
11.0
 40
11.0
 40
12.0
 40
12.0
 40
12.0
 40
12.0
 10
144.7801377676244
 20
138.6502793707194
 10
144.5686089048301
 20
138.9889322569194
 10
144.4500976201375
 20
139.1608425216334
 10
144.1707003762837
 20
139.1608425216334
 10
143.953659360713
 20
139.1608425216334
 10
143.8096543694295
 20
138.9858316709827
 10
143.8096543694295
 20
138.7743028081883
 10
143.8096543694295
 20
138.4949055643346
 10
144.0663139830806
 20
138.376394279642
 10
144.306092628854
 20
138.3850070183551
 10
144.306092628854
 20
138.3850070183551
 10
144.306092628854
 20
138.1452283725817
 10
144.306092628854
 20
138.1452283725817
 10
143.8999158711431
 20
138.1228352519276
 10
143.5981255066352
 20
138.3653699740892
 10
143.5981255066352
 20
138.7884276996779
 10
143.5981255066352
 20
139.1353488150425
 10
143.8013861402649
 20
139.4147460588963
 10
144.1738009622204
 20
139.4147460588963
 10
144.5262342303615
 20
139.4147460588963
 10
144.7012450810122
 20
139.1777234895111
 10
144.8590304542366
 20
138.9296766145731
 10
145.0085475982964
 20
138.6812852300866
 10
145.1411837744786
 20
138.4132568013342
 10
145.3864745730284
 20
138.3681260504774
 10
145.3864745730284
 20
138.3681260504774
 10
145.3864745730284
 20
139.3947645050818
 10
145.3864745730284
 20
139.3947645050818
 10
145.3864745730284
 20
139.3947645050818
 10
145.5980034358227
 20
139.3947645050818
 10
145.5980034358227
 20
139.3947645050818
 10
145.5980034358227
 20
139.3947645050818
 10
145.5980034358227
 20
138.0890733161721
 10
145.5980034358227
 20
138.0890733161721
 10
145.127058882989
 20
138.1255913283158
 10
144.9492919559501
 20
138.3681260504774
 10
144.7801377676244
 20
138.6502793707194
 97
        0
 97
        1
330
32F
 75
     2
 76
     1
 98
        1
 10
0.0
 20
0.0
450
        0
451
        0
460
0.0
461
0.0
452
        0
462
0.0
453
        0
470

  0
SPLINE
  5
331
330
328
100
AcDbEntity
  8
Sichtbar (ISO)
100
AcDbSpline
210
0.0
220
0.0
230
1.0
 70
    11
 71
     3
 72
    17
 73
    13
 74
     0
 42
0.0000000001
 43
0.0000000001
 40
0.0
 40
0.0
 40
0.0
 40
0.0
 40
1.0
 40
1.0
 40
1.0
 40
2.0
 40
2.0
 40
2.0
 40
3.0
 40
3.0
 40
3.0
 40
4.0
 40
4.0
 40
4.0
 40
4.0
 10
144.9182860965829
 20
140.5468044353494
 30
0.0
 10
144.9182860965829
 20
140.5468044353494
 30
0.0
 10
143.9395344692234
 20
140.5468044353494
 30
0.0
 10
143.9395344692234
 20
140.5468044353494
 30
0.0
 10
143.9395344692234
 20
140.5468044353494
 30
0.0
 10
143.9395344692234
 20
140.5409477730245
 30
0.0
 10
143.9395344692234
 20
140.5409477730245
 30
0.0
 10
143.9395344692234
 20
140.5409477730245
 30
0.0
 10
144.9182860965829
 20
139.8753553252742
 30
0.0
 10
144.9182860965829
 20
139.8753553252742
 30
0.0
 10
144.9182860965829
 20
139.8753553252742
 30
0.0
 10
144.9182860965829
 20
140.5468044353494
 30
0.0
 10
144.9182860965829
 20
140.5468044353494
 30
0.0
  0
SPLINE
  5
332
330
328
100
AcDbEntity
  8
Sichtbar (ISO)
100
AcDbSpline
210
0.0
220
0.0
230
1.0
 70
    11
 71
     3
 72
    38
 73
    34
 74
     0
 42
0.0000000001
 43
0.0000000001
 40
0.0
 40
0.0
 40
0.0
 40
0.0
 40
1.0
 40
1.0
 40
1.0
 40
2.0
 40
2.0
 40
2.0
 40
3.0
 40
3.0
 40
3.0
 40
4.0
 40
4.0
 40
4.0
 40
5.0
 40
5.0
 40
5.0
 40
6.0
 40
6.0
 40
6.0
 40
7.0
 40
7.0
 40
7.0
 40
8.0
 40
8.0
 40
8.0
 40
9.0
 40
9.0
 40
9.0
 40
10.0
 40
10.0
 40
10.0
 40
11.0
 40
11.0
 40
11.0
 40
11.0
 10
144.898649052317
 20
139.6693386152563
 30
0.0
 10
144.898649052317
 20
139.6693386152563
 30
0.0
 10
143.5981255066352
 20
140.5805663711048
 30
0.0
 10
143.5981255066352
 20
140.5805663711048
 30
0.0
 10
143.5981255066352
 20
140.5805663711048
 30
0.0
 10
143.5981255066352
 20
140.7721136800847
 30
0.0
 10
143.5981255066352
 20
140.7721136800847
 30
0.0
 10
143.5981255066352
 20
140.7721136800847
 30
0.0
 10
144.9182860965829
 20
140.7721136800847
 30
0.0
 10
144.9182860965829
 20
140.7721136800847
 30
0.0
 10
144.9182860965829
 20
140.7721136800847
 30
0.0
 10
144.9182860965829
 20
141.0428981852254
 30
0.0
 10
144.9182860965829
 20
141.0428981852254
 30
0.0
 10
144.9182860965829
 20
141.0428981852254
 30
0.0
 10
145.1298149593773
 20
141.0428981852254
 30
0.0
 10
145.1298149593773
 20
141.0428981852254
 30
0.0
 10
145.1298149593773
 20
141.0428981852254
 30
0.0
 10
145.1298149593773
 20
140.7721136800847
 30
0.0
 10
145.1298149593773
 20
140.7721136800847
 30
0.0
 10
145.1298149593773
 20
140.7721136800847
 30
0.0
 10
145.5980034358227
 20
140.7721136800847
 30
0.0
 10
145.5980034358227
 20
140.7721136800847
 30
0.0
 10
145.5980034358227
 20
140.7721136800847
 30
0.0
 10
145.5980034358227
 20
140.5468044353494
 30
0.0
 10
145.5980034358227
 20
140.5468044353494
 30
0.0
 10
145.5980034358227
 20
140.5468044353494
 30
0.0
 10
145.1298149593773
 20
140.5468044353494
 30
0.0
 10
145.1298149593773
 20
140.5468044353494
 30
0.0
 10
145.1298149593773
 20
140.5468044353494
 30
0.0
 10
145.1298149593773
 20
139.6693386152563
 30
0.0
 10
145.1298149593773
 20
139.6693386152563
 30
0.0
 10
145.1298149593773
 20
139.6693386152563
 30
0.0
 10
144.898649052317
 20
139.6693386152563
 30
0.0
 10
144.898649052317
 20
139.6693386152563
 30
0.0
  0
HATCH
  5
333
330
328
100
AcDbEntity
  8
Sichtbar (ISO)
 62
    18
420
        0
440
 33554687
100
AcDbHatch
 10
0.0
 20
0.0
 30
0.0
210
0.0
220
0.0
230
1.0
  2
SOLID
 70
     1
 71
     1
 91
        2
 92
        1
 93
        1
 72
     4
 94
        3
 73
     0
 74
     0
 95
       17
 96
       13
 40
0.0
 40
0.0
 40
0.0
 40
0.0
 40
1.0
 40
1.0
 40
1.0
 40
2.0
 40
2.0
 40
2.0
 40
3.0
 40
3.0
 40
3.0
 40
4.0
 40
4.0
 40
4.0
 40
4.0
 10
144.9182860965829
 20
140.5468044353494
 10
144.9182860965829
 20
140.5468044353494
 10
143.9395344692234
 20
140.5468044353494
 10
143.9395344692234
 20
140.5468044353494
 10
143.9395344692234
 20
140.5468044353494
 10
143.9395344692234
 20
140.5409477730245
 10
143.9395344692234
 20
140.5409477730245
 10
143.9395344692234
 20
140.5409477730245
 10
144.9182860965829
 20
139.8753553252742
 10
144.9182860965829
 20
139.8753553252742
 10
144.9182860965829
 20
139.8753553252742
 10
144.9182860965829
 20
140.5468044353494
 10
144.9182860965829
 20
140.5468044353494
 97
        0
 97
        1
330
331
 92
        1
 93
        1
 72
     4
 94
        3
 73
     0
 74
     0
 95
       38
 96
       34
 40
0.0
 40
0.0
 40
0.0
 40
0.0
 40
1.0
 40
1.0
 40
1.0
 40
2.0
 40
2.0
 40
2.0
 40
3.0
 40
3.0
 40
3.0
 40
4.0
 40
4.0
 40
4.0
 40
5.0
 40
5.0
 40
5.0
 40
6.0
 40
6.0
 40
6.0
 40
7.0
 40
7.0
 40
7.0
 40
8.0
 40
8.0
 40
8.0
 40
9.0
 40
9.0
 40
9.0
 40
10.0
 40
10.0
 40
10.0
 40
11.0
 40
11.0
 40
11.0
 40
11.0
 10
144.898649052317
 20
139.6693386152563
 10
144.898649052317
 20
139.6693386152563
 10
143.5981255066352
 20
140.5805663711048
 10
143.5981255066352
 20
140.5805663711048
 10
143.5981255066352
 20
140.5805663711048
 10
143.5981255066352
 20
140.7721136800847
 10
143.5981255066352
 20
140.7721136800847
 10
143.5981255066352
 20
140.7721136800847
 10
144.9182860965829
 20
140.7721136800847
 10
144.9182860965829
 20
140.7721136800847
 10
144.9182860965829
 20
140.7721136800847
 10
144.9182860965829
 20
141.0428981852254
 10
144.9182860965829
 20
141.0428981852254
 10
144.9182860965829
 20
141.0428981852254
 10
145.1298149593773
 20
141.0428981852254
 10
145.1298149593773
 20
141.0428981852254
 10
145.1298149593773
 20
141.0428981852254
 10
145.1298149593773
 20
140.7721136800847
 10
145.1298149593773
 20
140.7721136800847
 10
145.1298149593773
 20
140.7721136800847
 10
145.5980034358227
 20
140.7721136800847
 10
145.5980034358227
 20
140.7721136800847
 10
145.5980034358227
 20
140.7721136800847
 10
145.5980034358227
 20
140.5468044353494
 10
145.5980034358227
 20
140.5468044353494
 10
145.5980034358227
 20
140.5468044353494
 10
145.1298149593773
 20
140.5468044353494
 10
145.1298149593773
 20
140.5468044353494
 10
145.1298149593773
 20
140.5468044353494
 10
145.1298149593773
 20
139.6693386152563
 10
145.1298149593773
 20
139.6693386152563
 10
145.1298149593773
 20
139.6693386152563
 10
144.898649052317
 20
139.6693386152563
 10
144.898649052317
 20
139.6693386152563
 97
        0
 97
        1
330
332
 75
     2
 76
     1
 98
        1
 10
0.0
 20
0.0
450
        0
451
        0
460
0.0
461
0.0
452
        0
462
0.0
453
        0
470

  0
SPLINE
  5
334
330
328
100
AcDbEntity
  8
Sichtbar (ISO)
100
AcDbSpline
210
0.0
220
0.0
230
1.0
 70
     9
 71
     3
 72
    62
 73
    58
 74
     0
 42
0.0000000001
 43
0.0000000001
 40
0.0
 40
0.0
 40
0.0
 40
0.0
 40
1.0
 40
1.0
 40
1.0
 40
2.0
 40
2.0
 40
2.0
 40
3.0
 40
3.0
 40
3.0
 40
4.0
 40
4.0
 40
4.0
 40
5.0
 40
5.0
 40
5.0
 40
6.0
 40
6.0
 40
6.0
 40
7.0
 40
7.0
 40
7.0
 40
8.0
 40
8.0
 40
8.0
 40
9.0
 40
9.0
 40
9.0
 40
10.0
 40
10.0
 40
10.0
 40
11.0
 40
11.0
 40
11.0
 40
12.0
 40
12.0
 40
12.0
 40
13.0
 40
13.0
 40
13.0
 40
14.0
 40
14.0
 40
14.0
 40
15.0
 40
15.0
 40
15.0
 40
16.0
 40
16.0
 40
16.0
 40
17.0
 40
17.0
 40
17.0
 40
18.0
 40
18.0
 40
18.0
 40
19.0
 40
19.0
 40
19.0
 40
19.0
 10
144.9802978153174
 20
141.4838704073374
 30
0.0
 10
145.2397135053567
 20
141.4924831460505
 30
0.0
 10
145.4202365087838
 20
141.6361436277854
 30
0.0
 10
145.4202365087838
 20
141.9100287188627
 30
0.0
 10
145.4202365087838
 20
142.1439507023112
 30
0.0
 10
145.2738199506607
 20
142.3444552595527
 30
0.0
 10
145.0340413048873
 20
142.3444552595527
 30
0.0
 10
144.7828938440126
 20
142.3444552595527
 30
0.0
 10
144.6502576678305
 20
142.1553195174126
 30
0.0
 10
144.6502576678305
 20
141.9186414575759
 30
0.0
 10
144.6502576678305
 20
141.8676540443942
 30
0.0
 10
144.6530137442187
 20
141.8197672171492
 30
0.0
 10
144.6588704065436
 20
141.7746364662924
 30
0.0
 10
144.6588704065436
 20
141.7746364662924
 30
0.0
 10
144.4556097729138
 20
141.7746364662924
 30
0.0
 10
144.4556097729138
 20
141.7746364662924
 30
0.0
 10
144.4587103588506
 20
141.7942735105583
 30
0.0
 10
144.4587103588506
 20
141.8111544784361
 30
0.0
 10
144.4587103588506
 20
141.8283799558623
 30
0.0
 10
144.4587103588506
 20
141.8283799558623
 30
0.0
 10
144.4587103588506
 20
141.8790228594955
 30
0.0
 10
144.4587103588506
 20
141.8790228594955
 30
0.0
 10
144.4587103588506
 20
142.0819389835767
 30
0.0
 10
144.3457112269344
 20
142.2597059106156
 30
0.0
 10
144.1314262877519
 20
142.2597059106156
 30
0.0
 10
143.9198974249575
 20
142.2597059106156
 30
0.0
 10
143.8096543694295
 20
142.1074326901676
 30
0.0
 10
143.8096543694295
 20
141.9041720565378
 30
0.0
 10
143.8096543694295
 20
141.6447563664985
 30
0.0
 10
144.010158926671
 20
141.5265895913545
 30
0.0
 10
144.2440809101195
 20
141.5265895913545
 30
0.0
 10
144.2440809101195
 20
141.5265895913545
 30
0.0
 10
144.2440809101195
 20
141.2868109455811
 30
0.0
 10
144.2440809101195
 20
141.2868109455811
 30
0.0
 10
143.8633978589994
 20
141.3005913275221
 30
0.0
 10
143.5981255066352
 20
141.5038519611518
 30
0.0
 10
143.5981255066352
 20
141.9041720565378
 30
0.0
 10
143.5981255066352
 20
142.251437681451
 30
0.0
 10
143.7645236185727
 20
142.5136094478785
 30
0.0
 10
144.13418236414
 20
142.5136094478785
 30
0.0
 10
144.3119492911789
 20
142.5136094478785
 30
0.0
 10
144.4614664352388
 20
142.3923420867977
 30
0.0
 10
144.5317463831379
 20
142.236968280413
 30
0.0
 10
144.5317463831379
 20
142.236968280413
 30
0.0
 10
144.5376030454628
 20
142.236968280413
 30
0.0
 10
144.5376030454628
 20
142.236968280413
 30
0.0
 10
144.5910020254842
 20
142.4826035885113
 30
0.0
 10
144.7828938440126
 20
142.5980142872671
 30
0.0
 10
145.022672489786
 20
142.5980142872671
 30
0.0
 10
145.4202365087838
 20
142.5980142872671
 30
0.0
 10
145.6321098811267
 20
142.2851996172064
 30
0.0
 10
145.6321098811267
 20
141.9100287188627
 30
0.0
 10
145.6321098811267
 20
141.5038519611518
 30
0.0
 10
145.3950873117415
 20
141.2358235323994
 30
0.0
 10
144.9802978153174
 20
141.244091761564
 30
0.0
 10
144.9802978153174
 20
141.244091761564
 30
0.0
 10
144.9802978153174
 20
141.4838704073374
 30
0.0
 10
144.9802978153174
 20
141.4838704073374
 30
0.0
  0
HATCH
  5
335
330
328
100
AcDbEntity
  8
Sichtbar (ISO)
 62
    18
420
        0
440
 33554687
100
AcDbHatch
 10
0.0
 20
0.0
 30
0.0
210
0.0
220
0.0
230
1.0
  2
SOLID
 70
     1
 71
     1
 91
        1
 92
        1
 93
        1
 72
     4
 94
        3
 73
     0
 74
     0
 95
       62
 96
       58
 40
0.0
 40
0.0
 40
0.0
 40
0.0
 40
1.0
 40
1.0
 40
1.0
 40
2.0
 40
2.0
 40
2.0
 40
3.0
 40
3.0
 40
3.0
 40
4.0
 40
4.0
 40
4.0
 40
5.0
 40
5.0
 40
5.0
 40
6.0
 40
6.0
 40
6.0
 40
7.0
 40
7.0
 40
7.0
 40
8.0
 40
8.0
 40
8.0
 40
9.0
 40
9.0
 40
9.0
 40
10.0
 40
10.0
 40
10.0
 40
11.0
 40
11.0
 40
11.0
 40
12.0
 40
12.0
 40
12.0
 40
13.0
 40
13.0
 40
13.0
 40
14.0
 40
14.0
 40
14.0
 40
15.0
 40
15.0
 40
15.0
 40
16.0
 40
16.0
 40
16.0
 40
17.0
 40
17.0
 40
17.0
 40
18.0
 40
18.0
 40
18.0
 40
19.0
 40
19.0
 40
19.0
 40
19.0
 10
144.9802978153174
 20
141.4838704073374
 10
145.2397135053567
 20
141.4924831460505
 10
145.4202365087838
 20
141.6361436277854
 10
145.4202365087838
 20
141.9100287188627
 10
145.4202365087838
 20
142.1439507023112
 10
145.2738199506607
 20
142.3444552595527
 10
145.0340413048873
 20
142.3444552595527
 10
144.7828938440126
 20
142.3444552595527
 10
144.6502576678305
 20
142.1553195174126
 10
144.6502576678305
 20
141.9186414575759
 10
144.6502576678305
 20
141.8676540443942
 10
144.6530137442187
 20
141.8197672171492
 10
144.6588704065436
 20
141.7746364662924
 10
144.6588704065436
 20
141.7746364662924
 10
144.4556097729138
 20
141.7746364662924
 10
144.4556097729138
 20
141.7746364662924
 10
144.4587103588506
 20
141.7942735105583
 10
144.4587103588506
 20
141.8111544784361
 10
144.4587103588506
 20
141.8283799558623
 10
144.4587103588506
 20
141.8283799558623
 10
144.4587103588506
 20
141.8790228594955
 10
144.4587103588506
 20
141.8790228594955
 10
144.4587103588506
 20
142.0819389835767
 10
144.3457112269344
 20
142.2597059106156
 10
144.1314262877519
 20
142.2597059106156
 10
143.9198974249575
 20
142.2597059106156
 10
143.8096543694295
 20
142.1074326901676
 10
143.8096543694295
 20
141.9041720565378
 10
143.8096543694295
 20
141.6447563664985
 10
144.010158926671
 20
141.5265895913545
 10
144.2440809101195
 20
141.5265895913545
 10
144.2440809101195
 20
141.5265895913545
 10
144.2440809101195
 20
141.2868109455811
 10
144.2440809101195
 20
141.2868109455811
 10
143.8633978589994
 20
141.3005913275221
 10
143.5981255066352
 20
141.5038519611518
 10
143.5981255066352
 20
141.9041720565378
 10
143.5981255066352
 20
142.251437681451
 10
143.7645236185727
 20
142.5136094478785
 10
144.13418236414
 20
142.5136094478785
 10
144.3119492911789
 20
142.5136094478785
 10
144.4614664352388
 20
142.3923420867977
 10
144.5317463831379
 20
142.236968280413
 10
144.5317463831379
 20
142.236968280413
 10
144.5376030454628
 20
142.236968280413
 10
144.5376030454628
 20
142.236968280413
 10
144.5910020254842
 20
142.4826035885113
 10
144.7828938440126
 20
142.5980142872671
 10
145.022672489786
 20
142.5980142872671
 10
145.4202365087838
 20
142.5980142872671
 10
145.6321098811267
 20
142.2851996172064
 10
145.6321098811267
 20
141.9100287188627
 10
145.6321098811267
 20
141.5038519611518
 10
145.3950873117415
 20
141.2358235323994
 10
144.9802978153174
 20
141.244091761564
 10
144.9802978153174
 20
141.244091761564
 10
144.9802978153174
 20
141.4838704073374
 10
144.9802978153174
 20
141.4838704073374
 97
        0
 97
        1
330
334
 75
     2
 76
     1
 98
        1
 10
0.0
 20
0.0
450
        0
451
        0
460
0.0
461
0.0
452
        0
462
0.0
453
        0
470

  0
ENDBLK
  5
32B
330
328
100
AcDbEntity
  8
0
100
AcDbBlockEnd
  0
BLOCK
  5
33B
330
339
100
AcDbEntity
  8
0
100
AcDbBlockBegin
  2
Block_42
 70
     0
 10
0.0
 20
0.0
 30
0.0
  3
Block_42
  1

  0
INSERT
  5
33E
330
339
100
AcDbEntity
  8
Sichtbar (ISO)
100
AcDbBlockReference
  2
Block_43
 10
0.0
 20
0.0
 30
0.0
  0
ENDBLK
  5
33C
330
339
100
AcDbEntity
  8
0
100
AcDbBlockEnd
  0
BLOCK
  5
33F
330
33D
100
AcDbEntity
  8
0
100
AcDbBlockBegin
  2
Block_43
 70
     0
 10
0.0
 20
0.0
 30
0.0
  3
Block_43
  1

  0
LINE
  5
341
330
33D
100
AcDbEntity
  8
Sichtbar (ISO)
 62
    18
420
        0
370
     5
100
AcDbLine
 10
130.0981205085182
 20
148.8171329550103
 30
0.0
 11
130.1010811374508
 21
129.3860946331808
 31
0.0
  0
INSERT
  5
343
330
33D
100
AcDbEntity
  8
Sichtbar (ISO)
100
AcDbBlockReference
  2
Block_44
 10
0.0
 20
0.0
 30
0.0
  0
INSERT
  5
349
330
33D
100
AcDbEntity
  8
Sichtbar (ISO)
100
AcDbBlockReference
  2
Block_45
 10
0.0
 20
0.0
 30
0.0
  0
ENDBLK
  5
340
330
33D
100
AcDbEntity
  8
0
100
AcDbBlockEnd
  0
BLOCK
  5
344
330
342
100
AcDbEntity
  8
0
100
AcDbBlockBegin
  2
Block_44
 70
     0
 10
0.0
 20
0.0
 30
0.0
  3
Block_44
  1

  0
LWPOLYLINE
  5
346
330
342
100
AcDbEntity
  8
Sichtbar (ISO)
100
AcDbPolyline
 90
        3
 70
     1
 43
0.0
 10
129.876913080595
 20
148.1846349557652
 10
130.0972700005703
 20
149.8658523184905
 10
130.3195324889859
 20
148.1847103172293
  0
HATCH
  5
347
330
342
100
AcDbEntity
  8
Sichtbar (ISO)
 62
    18
420
        0
440
 33554687
100
AcDbHatch
 10
0.0
 20
0.0
 30
0.0
210
0.0
220
0.0
230
1.0
  2
SOLID
 70
     1
 71
     1
 91
        1
 92
        1
 93
        3
 72
     1
 10
129.876913080595
 20
148.1846349557652
 11
130.0972700005703
 21
149.8658523184905
 72
     1
 10
130.0972700005703
 20
149.8658523184905
 11
130.3195324889859
 21
148.1847103172293
 72
     1
 10
130.3195324889859
 20
148.1847103172293
 11
129.876913080595
 21
148.1846349557652
 97
        1
330
346
 75
     2
 76
     1
 98
        1
 10
0.0
 20
0.0
450
        0
451
        0
460
0.0
461
0.0
452
        0
462
0.0
453
        0
470

  0
ENDBLK
  5
345
330
342
100
AcDbEntity
  8
0
100
AcDbBlockEnd
  0
BLOCK
  5
34A
330
348
100
AcDbEntity
  8
0
100
AcDbBlockBegin
  2
Block_45
 70
     0
 10
0.0
 20
0.0
 30
0.0
  3
Block_45
  1

  0
LWPOLYLINE
  5
34C
330
348
100
AcDbEntity
  8
Sichtbar (ISO)
100
AcDbPolyline
 90
        3
 70
     1
 43
0.0
 10
129.8796691569832
 20
130.0185172709622
 10
130.1005536072047
 20
128.3373752697006
 10
130.3222993312974
 20
130.0185818665025
  0
HATCH
  5
34D
330
348
100
AcDbEntity
  8
Sichtbar (ISO)
 62
    18
420
        0
440
 33554687
100
AcDbHatch
 10
0.0
 20
0.0
 30
0.0
210
0.0
220
0.0
230
1.0
  2
SOLID
 70
     1
 71
     1
 91
        1
 92
        1
 93
        3
 72
     1
 10
129.8796691569832
 20
130.0185172709622
 11
130.1005536072047
 21
128.3373752697006
 72
     1
 10
130.1005536072047
 20
128.3373752697006
 11
130.3222993312974
 21
130.0185818665025
 72
     1
 10
130.3222993312974
 20
130.0185818665025
 11
129.8796691569832
 21
130.0185172709622
 97
        1
330
34C
 75
     2
 76
     1
 98
        1
 10
0.0
 20
0.0
450
        0
451
        0
460
0.0
461
0.0
452
        0
462
0.0
453
        0
470

  0
ENDBLK
  5
34B
330
348
100
AcDbEntity
  8
0
100
AcDbBlockEnd
  0
BLOCK
  5
350
330
34E
100
AcDbEntity
  8
0
100
AcDbBlockBegin
  2
Block_46
 70
     0
 10
0.0
 20
0.0
 30
0.0
  3
Block_46
  1

  0
INSERT
  5
353
330
34E
100
AcDbEntity
  8
Sichtbar (ISO)
100
AcDbBlockReference
  2
Block_47
 10
0.0
 20
0.0
 30
0.0
  0
ENDBLK
  5
351
330
34E
100
AcDbEntity
  8
0
100
AcDbBlockEnd
  0
BLOCK
  5
354
330
352
100
AcDbEntity
  8
0
100
AcDbBlockBegin
  2
Block_47
 70
     0
 10
0.0
 20
0.0
 30
0.0
  3
Block_47
  1

  0
SPLINE
  5
356
330
352
100
AcDbEntity
  8
Sichtbar (ISO)
100
AcDbSpline
210
0.0
220
0.0
230
1.0
 70
     9
 71
     3
 72
    26
 73
    22
 74
     0
 42
0.0000000001
 43
0.0000000001
 40
0.0
 40
0.0
 40
0.0
 40
0.0
 40
1.0
 40
1.0
 40
1.0
 40
2.0
 40
2.0
 40
2.0
 40
3.0
 40
3.0
 40
3.0
 40
4.0
 40
4.0
 40
4.0
 40
5.0
 40
5.0
 40
5.0
 40
6.0
 40
6.0
 40
6.0
 40
7.0
 40
7.0
 40
7.0
 40
7.0
 10
132.9390000752722
 20
136.8288573876678
 30
0.0
 10
132.957259081344
 20
136.8819118581406
 30
0.0
 10
132.9665608391542
 20
136.9356553477105
 30
0.0
 10
132.9665608391542
 20
136.9907768754745
 30
0.0
 10
132.9665608391542
 20
137.1661322356737
 30
0.0
 10
132.8845675666052
 20
137.2905001826912
 30
0.0
 10
132.7212700406044
 20
137.3642252260756
 30
0.0
 10
132.6227403097262
 20
137.4086669578353
 30
0.0
 10
132.50974117781
 20
137.4310600784894
 30
0.0
 10
132.3822726448558
 20
137.4310600784894
 30
0.0
 10
132.2995903532098
 20
137.4310600784894
 30
0.0
 10
132.2282768766651
 20
137.4241698875189
 30
0.0
 10
132.1686767247703
 20
137.4100449960294
 30
0.0
 10
132.136292827209
 20
137.4024657859619
 30
0.0
 10
132.0987412864197
 20
137.3897189326664
 30
0.0
 10
132.0556775928541
 20
137.3718044361432
 30
0.0
 10
132.0556775928541
 20
137.3718044361432
 30
0.0
 10
132.8339246629721
 20
136.6810627913505
 30
0.0
 10
132.8339246629721
 20
136.6810627913505
 30
0.0
 10
132.8859456047993
 20
136.7268825613044
 30
0.0
 10
132.9210855787489
 20
136.7758029171949
 30
0.0
 10
132.9390000752722
 20
136.8288573876678
 30
0.0
  0
SPLINE
  5
357
330
352
100
AcDbEntity
  8
Sichtbar (ISO)
100
AcDbSpline
210
0.0
220
0.0
230
1.0
 70
     9
 71
     3
 72
    26
 73
    22
 74
     0
 42
0.0000000001
 43
0.0000000001
 40
0.0
 40
0.0
 40
0.0
 40
0.0
 40
1.0
 40
1.0
 40
1.0
 40
2.0
 40
2.0
 40
2.0
 40
3.0
 40
3.0
 40
3.0
 40
4.0
 40
4.0
 40
4.0
 40
5.0
 40
5.0
 40
5.0
 40
6.0
 40
6.0
 40
6.0
 40
7.0
 40
7.0
 40
7.0
 40
7.0
 10
131.8651638125198
 20
137.1926594709101
 30
0.0
 10
131.8386365772834
 20
137.1351263763065
 30
0.0
 10
131.8255452144394
 20
137.0710476002808
 30
0.0
 10
131.8255452144394
 20
137.0004231428332
 30
0.0
 10
131.8255452144394
 20
136.8657199093599
 30
0.0
 10
131.8813557613005
 20
136.7578884206716
 30
0.0
 10
131.9933213645711
 20
136.6765841672197
 30
0.0
 10
132.1049424582932
 20
136.5952799137678
 30
0.0
 10
132.2486029400281
 20
136.5546277870419
 30
0.0
 10
132.4243028097758
 20
136.5546277870419
 30
0.0
 10
132.4907931526412
 20
136.5546277870419
 30
0.0
 10
132.5541829095698
 20
136.5615179780124
 30
0.0
 10
132.6148165901102
 20
136.5759873790504
 30
0.0
 10
132.6489230354141
 20
136.584255608215
 30
0.0
 10
132.6919867289798
 20
136.5987250092531
 30
0.0
 10
132.7446966899041
 20
136.618362053519
 30
0.0
 10
132.7446966899041
 20
136.618362053519
 30
0.0
 10
131.9626600147524
 20
137.3180609465732
 30
0.0
 10
131.9626600147524
 20
137.3180609465732
 30
0.0
 10
131.9240749453176
 20
137.2918782208853
 30
0.0
 10
131.8916910477562
 20
137.2505370750623
 30
0.0
 10
131.8651638125198
 20
137.1926594709101
 30
0.0
  0
SPLINE
  5
358
330
352
100
AcDbEntity
  8
Sichtbar (ISO)
100
AcDbSpline
210
0.0
220
0.0
230
1.0
 70
    11
 71
     3
 72
    59
 73
    55
 74
     0
 42
0.0000000001
 43
0.0000000001
 40
0.0
 40
0.0
 40
0.0
 40
0.0
 40
1.0
 40
1.0
 40
1.0
 40
2.0
 40
2.0
 40
2.0
 40
3.0
 40
3.0
 40
3.0
 40
4.0
 40
4.0
 40
4.0
 40
5.0
 40
5.0
 40
5.0
 40
6.0
 40
6.0
 40
6.0
 40
7.0
 40
7.0
 40
7.0
 40
8.0
 40
8.0
 40
8.0
 40
9.0
 40
9.0
 40
9.0
 40
10.0
 40
10.0
 40
10.0
 40
11.0
 40
11.0
 40
11.0
 40
12.0
 40
12.0
 40
12.0
 40
13.0
 40
13.0
 40
13.0
 40
14.0
 40
14.0
 40
14.0
 40
15.0
 40
15.0
 40
15.0
 40
16.0
 40
16.0
 40
16.0
 40
17.0
 40
17.0
 40
17.0
 40
18.0
 40
18.0
 40
18.0
 40
18.0
 10
133.1209011168934
 20
136.2707519190573
 30
0.0
 10
133.1209011168934
 20
136.2707519190573
 30
0.0
 10
132.9355549797869
 20
136.4478298269991
 30
0.0
 10
132.9355549797869
 20
136.4478298269991
 30
0.0
 10
132.8676865987275
 20
136.4016655474968
 30
0.0
 10
132.791205478955
 20
136.3658365544502
 30
0.0
 10
132.7068006395663
 20
136.3410318669564
 30
0.0
 10
132.6223958001777
 20
136.3162271794626
 30
0.0
 10
132.522143521557
 20
136.3038248357157
 30
0.0
 10
132.4067328228011
 20
136.3038248357157
 30
0.0
 10
132.1983045459435
 20
136.3038248357157
 30
0.0
 10
132.012958408837
 20
136.3623914589649
 30
0.0
 10
131.8506944114818
 20
136.4795247054634
 30
0.0
 10
131.688774923675
 20
136.5963134424134
 30
0.0
 10
131.6078151797716
 20
136.7668456689333
 30
0.0
 10
131.6078151797716
 20
136.9907768754745
 30
0.0
 10
131.6078151797716
 20
137.1072211028759
 30
0.0
 10
131.6284857526831
 20
137.2095404387879
 30
0.0
 10
131.6701714080547
 20
137.2973903736617
 30
0.0
 10
131.6946315859999
 20
137.3490668059405
 30
0.0
 10
131.7342501840803
 20
137.4083224482868
 30
0.0
 10
131.7893717118443
 20
137.4751573007006
 30
0.0
 10
131.7893717118443
 20
137.4751573007006
 30
0.0
 10
131.5954128360247
 20
137.6501681513513
 30
0.0
 10
131.5954128360247
 20
137.6501681513513
 30
0.0
 10
131.5954128360247
 20
137.6501681513513
 30
0.0
 10
131.6656927839239
 20
137.7218261374445
 30
0.0
 10
131.6656927839239
 20
137.7218261374445
 30
0.0
 10
131.6656927839239
 20
137.7218261374445
 30
0.0
 10
131.8630967552286
 20
137.5447482295027
 30
0.0
 10
131.8630967552286
 20
137.5447482295027
 30
0.0
 10
131.9475015946173
 20
137.6026258336549
 30
0.0
 10
132.0443087777528
 20
137.6443114890264
 30
0.0
 10
132.1538628141837
 20
137.6694606860687
 30
0.0
 10
132.2244872716314
 20
137.6849636157523
 30
0.0
 10
132.295111729079
 20
137.6928873353684
 30
0.0
 10
132.3657361865266
 20
137.6928873353684
 30
0.0
 10
132.6027587559118
 20
137.6928873353684
 30
0.0
 10
132.7980956699255
 20
137.6284640497942
 30
0.0
 10
132.9520914381161
 20
137.4996174786459
 30
0.0
 10
133.1060872063068
 20
137.3707709074976
 30
0.0
 10
133.1829128356279
 20
137.1992051523321
 30
0.0
 10
133.1829128356279
 20
136.9849202131496
 30
0.0
 10
133.1829128356279
 20
136.8829453867862
 30
0.0
 10
133.1680989250413
 20
136.7923393755241
 30
0.0
 10
133.1381265943196
 20
136.7124131602663
 30
0.0
 10
133.1084987731465
 20
136.6324869450085
 30
0.0
 10
133.0678466464205
 20
136.5684081689829
 30
0.0
 10
133.0165147236903
 20
136.5191433035438
 30
0.0
 10
133.0165147236903
 20
136.5191433035438
 30
0.0
 10
133.1925591029866
 20
136.3520561725092
 30
0.0
 10
133.1925591029866
 20
136.3520561725092
 30
0.0
 10
133.1925591029866
 20
136.3520561725092
 30
0.0
 10
133.1209011168934
 20
136.2707519190573
 30
0.0
 10
133.1209011168934
 20
136.2707519190573
 30
0.0
  0
HATCH
  5
359
330
352
100
AcDbEntity
  8
Sichtbar (ISO)
 62
   250
420
  2039067
440
 33554687
100
AcDbHatch
 10
0.0
 20
0.0
 30
0.0
210
0.0
220
0.0
230
1.0
  2
SOLID
 70
     1
 71
     1
 91
        3
 92
        1
 93
        1
 72
     4
 94
        3
 73
     0
 74
     0
 95
       26
 96
       22
 40
0.0
 40
0.0
 40
0.0
 40
0.0
 40
1.0
 40
1.0
 40
1.0
 40
2.0
 40
2.0
 40
2.0
 40
3.0
 40
3.0
 40
3.0
 40
4.0
 40
4.0
 40
4.0
 40
5.0
 40
5.0
 40
5.0
 40
6.0
 40
6.0
 40
6.0
 40
7.0
 40
7.0
 40
7.0
 40
7.0
 10
132.9390000752722
 20
136.8288573876678
 10
132.957259081344
 20
136.8819118581406
 10
132.9665608391542
 20
136.9356553477105
 10
132.9665608391542
 20
136.9907768754745
 10
132.9665608391542
 20
137.1661322356737
 10
132.8845675666052
 20
137.2905001826912
 10
132.7212700406044
 20
137.3642252260756
 10
132.6227403097262
 20
137.4086669578353
 10
132.50974117781
 20
137.4310600784894
 10
132.3822726448558
 20
137.4310600784894
 10
132.2995903532098
 20
137.4310600784894
 10
132.2282768766651
 20
137.4241698875189
 10
132.1686767247703
 20
137.4100449960294
 10
132.136292827209
 20
137.4024657859619
 10
132.0987412864197
 20
137.3897189326664
 10
132.0556775928541
 20
137.3718044361432
 10
132.0556775928541
 20
137.3718044361432
 10
132.8339246629721
 20
136.6810627913505
 10
132.8339246629721
 20
136.6810627913505
 10
132.8859456047993
 20
136.7268825613044
 10
132.9210855787489
 20
136.7758029171949
 10
132.9390000752722
 20
136.8288573876678
 97
        0
 97
        1
330
356
 92
        1
 93
        1
 72
     4
 94
        3
 73
     0
 74
     0
 95
       26
 96
       22
 40
0.0
 40
0.0
 40
0.0
 40
0.0
 40
1.0
 40
1.0
 40
1.0
 40
2.0
 40
2.0
 40
2.0
 40
3.0
 40
3.0
 40
3.0
 40
4.0
 40
4.0
 40
4.0
 40
5.0
 40
5.0
 40
5.0
 40
6.0
 40
6.0
 40
6.0
 40
7.0
 40
7.0
 40
7.0
 40
7.0
 10
131.8651638125198
 20
137.1926594709101
 10
131.8386365772834
 20
137.1351263763065
 10
131.8255452144394
 20
137.0710476002808
 10
131.8255452144394
 20
137.0004231428332
 10
131.8255452144394
 20
136.8657199093599
 10
131.8813557613005
 20
136.7578884206716
 10
131.9933213645711
 20
136.6765841672197
 10
132.1049424582932
 20
136.5952799137678
 10
132.2486029400281
 20
136.5546277870419
 10
132.4243028097758
 20
136.5546277870419
 10
132.4907931526412
 20
136.5546277870419
 10
132.5541829095698
 20
136.5615179780124
 10
132.6148165901102
 20
136.5759873790504
 10
132.6489230354141
 20
136.584255608215
 10
132.6919867289798
 20
136.5987250092531
 10
132.7446966899041
 20
136.618362053519
 10
132.7446966899041
 20
136.618362053519
 10
131.9626600147524
 20
137.3180609465732
 10
131.9626600147524
 20
137.3180609465732
 10
131.9240749453176
 20
137.2918782208853
 10
131.8916910477562
 20
137.2505370750623
 10
131.8651638125198
 20
137.1926594709101
 97
        0
 97
        1
330
357
 92
        1
 93
        1
 72
     4
 94
        3
 73
     0
 74
     0
 95
       59
 96
       55
 40
0.0
 40
0.0
 40
0.0
 40
0.0
 40
1.0
 40
1.0
 40
1.0
 40
2.0
 40
2.0
 40
2.0
 40
3.0
 40
3.0
 40
3.0
 40
4.0
 40
4.0
 40
4.0
 40
5.0
 40
5.0
 40
5.0
 40
6.0
 40
6.0
 40
6.0
 40
7.0
 40
7.0
 40
7.0
 40
8.0
 40
8.0
 40
8.0
 40
9.0
 40
9.0
 40
9.0
 40
10.0
 40
10.0
 40
10.0
 40
11.0
 40
11.0
 40
11.0
 40
12.0
 40
12.0
 40
12.0
 40
13.0
 40
13.0
 40
13.0
 40
14.0
 40
14.0
 40
14.0
 40
15.0
 40
15.0
 40
15.0
 40
16.0
 40
16.0
 40
16.0
 40
17.0
 40
17.0
 40
17.0
 40
18.0
 40
18.0
 40
18.0
 40
18.0
 10
133.1209011168934
 20
136.2707519190573
 10
133.1209011168934
 20
136.2707519190573
 10
132.9355549797869
 20
136.4478298269991
 10
132.9355549797869
 20
136.4478298269991
 10
132.8676865987275
 20
136.4016655474968
 10
132.791205478955
 20
136.3658365544502
 10
132.7068006395663
 20
136.3410318669564
 10
132.6223958001777
 20
136.3162271794626
 10
132.522143521557
 20
136.3038248357157
 10
132.4067328228011
 20
136.3038248357157
 10
132.1983045459435
 20
136.3038248357157
 10
132.012958408837
 20
136.3623914589649
 10
131.8506944114818
 20
136.4795247054634
 10
131.688774923675
 20
136.5963134424134
 10
131.6078151797716
 20
136.7668456689333
 10
131.6078151797716
 20
136.9907768754745
 10
131.6078151797716
 20
137.1072211028759
 10
131.6284857526831
 20
137.2095404387879
 10
131.6701714080547
 20
137.2973903736617
 10
131.6946315859999
 20
137.3490668059405
 10
131.7342501840803
 20
137.4083224482868
 10
131.7893717118443
 20
137.4751573007006
 10
131.7893717118443
 20
137.4751573007006
 10
131.5954128360247
 20
137.6501681513513
 10
131.5954128360247
 20
137.6501681513513
 10
131.5954128360247
 20
137.6501681513513
 10
131.6656927839239
 20
137.7218261374445
 10
131.6656927839239
 20
137.7218261374445
 10
131.6656927839239
 20
137.7218261374445
 10
131.8630967552286
 20
137.5447482295027
 10
131.8630967552286
 20
137.5447482295027
 10
131.9475015946173
 20
137.6026258336549
 10
132.0443087777528
 20
137.6443114890264
 10
132.1538628141837
 20
137.6694606860687
 10
132.2244872716314
 20
137.6849636157523
 10
132.295111729079
 20
137.6928873353684
 10
132.3657361865266
 20
137.6928873353684
 10
132.6027587559118
 20
137.6928873353684
 10
132.7980956699255
 20
137.6284640497942
 10
132.9520914381161
 20
137.4996174786459
 10
133.1060872063068
 20
137.3707709074976
 10
133.1829128356279
 20
137.1992051523321
 10
133.1829128356279
 20
136.9849202131496
 10
133.1829128356279
 20
136.8829453867862
 10
133.1680989250413
 20
136.7923393755241
 10
133.1381265943196
 20
136.7124131602663
 10
133.1084987731465
 20
136.6324869450085
 10
133.0678466464205
 20
136.5684081689829
 10
133.0165147236903
 20
136.5191433035438
 10
133.0165147236903
 20
136.5191433035438
 10
133.1925591029866
 20
136.3520561725092
 10
133.1925591029866
 20
136.3520561725092
 10
133.1925591029866
 20
136.3520561725092
 10
133.1209011168934
 20
136.2707519190573
 10
133.1209011168934
 20
136.2707519190573
 97
        0
 97
        1
330
358
 75
     2
 76
     1
 98
        1
 10
0.0
 20
0.0
450
        0
451
        0
460
0.0
461
0.0
452
        0
462
0.0
453
        0
470

  0
SPLINE
  5
35A
330
352
100
AcDbEntity
  8
Sichtbar (ISO)
100
AcDbSpline
210
0.0
220
0.0
230
1.0
 70
    11
 71
     3
 72
    26
 73
    22
 74
     0
 42
0.0000000001
 43
0.0000000001
 40
0.0
 40
0.0
 40
0.0
 40
0.0
 40
1.0
 40
1.0
 40
1.0
 40
2.0
 40
2.0
 40
2.0
 40
3.0
 40
3.0
 40
3.0
 40
4.0
 40
4.0
 40
4.0
 40
5.0
 40
5.0
 40
5.0
 40
6.0
 40
6.0
 40
6.0
 40
7.0
 40
7.0
 40
7.0
 40
7.0
 10
131.6935980573544
 20
138.6323648741961
 30
0.0
 10
131.6935980573544
 20
138.6323648741961
 30
0.0
 10
131.6935980573544
 20
138.1131889845689
 30
0.0
 10
131.6935980573544
 20
138.1131889845689
 30
0.0
 10
131.6935980573544
 20
138.1131889845689
 30
0.0
 10
131.5017062388259
 20
138.1131889845689
 30
0.0
 10
131.5017062388259
 20
138.1131889845689
 30
0.0
 10
131.5017062388259
 20
138.3867295660977
 30
0.0
 10
131.4310817813783
 20
138.6351209505843
 30
0.0
 10
131.1265353404822
 20
138.6885199306056
 30
0.0
 10
131.1265353404822
 20
138.6885199306056
 30
0.0
 10
131.1265353404822
 20
138.8721435199695
 30
0.0
 10
131.1265353404822
 20
138.8721435199695
 30
0.0
 10
131.1265353404822
 20
138.8721435199695
 30
0.0
 10
133.1264132696698
 20
138.8721435199695
 30
0.0
 10
133.1264132696698
 20
138.8721435199695
 30
0.0
 10
133.1264132696698
 20
138.8721435199695
 30
0.0
 10
133.1264132696698
 20
138.6323648741961
 30
0.0
 10
133.1264132696698
 20
138.6323648741961
 30
0.0
 10
133.1264132696698
 20
138.6323648741961
 30
0.0
 10
131.6935980573544
 20
138.6323648741961
 30
0.0
 10
131.6935980573544
 20
138.6323648741961
 30
0.0
  0
HATCH
  5
35B
330
352
100
AcDbEntity
  8
Sichtbar (ISO)
 62
    18
420
        0
440
 33554687
100
AcDbHatch
 10
0.0
 20
0.0
 30
0.0
210
0.0
220
0.0
230
1.0
  2
SOLID
 70
     1
 71
     1
 91
        1
 92
        1
 93
        1
 72
     4
 94
        3
 73
     0
 74
     0
 95
       26
 96
       22
 40
0.0
 40
0.0
 40
0.0
 40
0.0
 40
1.0
 40
1.0
 40
1.0
 40
2.0
 40
2.0
 40
2.0
 40
3.0
 40
3.0
 40
3.0
 40
4.0
 40
4.0
 40
4.0
 40
5.0
 40
5.0
 40
5.0
 40
6.0
 40
6.0
 40
6.0
 40
7.0
 40
7.0
 40
7.0
 40
7.0
 10
131.6935980573544
 20
138.6323648741961
 10
131.6935980573544
 20
138.6323648741961
 10
131.6935980573544
 20
138.1131889845689
 10
131.6935980573544
 20
138.1131889845689
 10
131.6935980573544
 20
138.1131889845689
 10
131.5017062388259
 20
138.1131889845689
 10
131.5017062388259
 20
138.1131889845689
 10
131.5017062388259
 20
138.3867295660977
 10
131.4310817813783
 20
138.6351209505843
 10
131.1265353404822
 20
138.6885199306056
 10
131.1265353404822
 20
138.6885199306056
 10
131.1265353404822
 20
138.8721435199695
 10
131.1265353404822
 20
138.8721435199695
 10
131.1265353404822
 20
138.8721435199695
 10
133.1264132696698
 20
138.8721435199695
 10
133.1264132696698
 20
138.8721435199695
 10
133.1264132696698
 20
138.8721435199695
 10
133.1264132696698
 20
138.6323648741961
 10
133.1264132696698
 20
138.6323648741961
 10
133.1264132696698
 20
138.6323648741961
 10
131.6935980573544
 20
138.6323648741961
 10
131.6935980573544
 20
138.6323648741961
 97
        0
 97
        1
330
35A
 75
     2
 76
     1
 98
        1
 10
0.0
 20
0.0
450
        0
451
        0
460
0.0
461
0.0
452
        0
462
0.0
453
        0
470

  0
SPLINE
  5
35C
330
352
100
AcDbEntity
  8
Sichtbar (ISO)
100
AcDbSpline
210
0.0
220
0.0
230
1.0
 70
    11
 71
     3
 72
    26
 73
    22
 74
     0
 42
0.0000000001
 43
0.0000000001
 40
0.0
 40
0.0
 40
0.0
 40
0.0
 40
1.0
 40
1.0
 40
1.0
 40
2.0
 40
2.0
 40
2.0
 40
3.0
 40
3.0
 40
3.0
 40
4.0
 40
4.0
 40
4.0
 40
5.0
 40
5.0
 40
5.0
 40
6.0
 40
6.0
 40
6.0
 40
7.0
 40
7.0
 40
7.0
 40
7.0
 10
131.6935980573544
 20
140.2016058677274
 30
0.0
 10
131.6935980573544
 20
140.2016058677274
 30
0.0
 10
131.6935980573544
 20
139.6827744876487
 30
0.0
 10
131.6935980573544
 20
139.6827744876487
 30
0.0
 10
131.6935980573544
 20
139.6827744876487
 30
0.0
 10
131.5017062388259
 20
139.6827744876487
 30
0.0
 10
131.5017062388259
 20
139.6827744876487
 30
0.0
 10
131.5017062388259
 20
139.9563150691776
 30
0.0
 10
131.4310817813783
 20
140.2043619441156
 30
0.0
 10
131.1265353404822
 20
140.2581054336854
 30
0.0
 10
131.1265353404822
 20
140.2581054336854
 30
0.0
 10
131.1265353404822
 20
140.4413845135007
 30
0.0
 10
131.1265353404822
 20
140.4413845135007
 30
0.0
 10
131.1265353404822
 20
140.4413845135007
 30
0.0
 10
133.1264132696698
 20
140.4413845135007
 30
0.0
 10
133.1264132696698
 20
140.4413845135007
 30
0.0
 10
133.1264132696698
 20
140.4413845135007
 30
0.0
 10
133.1264132696698
 20
140.2016058677274
 30
0.0
 10
133.1264132696698
 20
140.2016058677274
 30
0.0
 10
133.1264132696698
 20
140.2016058677274
 30
0.0
 10
131.6935980573544
 20
140.2016058677274
 30
0.0
 10
131.6935980573544
 20
140.2016058677274
 30
0.0
  0
HATCH
  5
35D
330
352
100
AcDbEntity
  8
Sichtbar (ISO)
 62
    18
420
        0
440
 33554687
100
AcDbHatch
 10
0.0
 20
0.0
 30
0.0
210
0.0
220
0.0
230
1.0
  2
SOLID
 70
     1
 71
     1
 91
        1
 92
        1
 93
        1
 72
     4
 94
        3
 73
     0
 74
     0
 95
       26
 96
       22
 40
0.0
 40
0.0
 40
0.0
 40
0.0
 40
1.0
 40
1.0
 40
1.0
 40
2.0
 40
2.0
 40
2.0
 40
3.0
 40
3.0
 40
3.0
 40
4.0
 40
4.0
 40
4.0
 40
5.0
 40
5.0
 40
5.0
 40
6.0
 40
6.0
 40
6.0
 40
7.0
 40
7.0
 40
7.0
 40
7.0
 10
131.6935980573544
 20
140.2016058677274
 10
131.6935980573544
 20
140.2016058677274
 10
131.6935980573544
 20
139.6827744876487
 10
131.6935980573544
 20
139.6827744876487
 10
131.6935980573544
 20
139.6827744876487
 10
131.5017062388259
 20
139.6827744876487
 10
131.5017062388259
 20
139.6827744876487
 10
131.5017062388259
 20
139.9563150691776
 10
131.4310817813783
 20
140.2043619441156
 10
131.1265353404822
 20
140.2581054336854
 10
131.1265353404822
 20
140.2581054336854
 10
131.1265353404822
 20
140.4413845135007
 10
131.1265353404822
 20
140.4413845135007
 10
131.1265353404822
 20
140.4413845135007
 10
133.1264132696698
 20
140.4413845135007
 10
133.1264132696698
 20
140.4413845135007
 10
133.1264132696698
 20
140.4413845135007
 10
133.1264132696698
 20
140.2016058677274
 10
133.1264132696698
 20
140.2016058677274
 10
133.1264132696698
 20
140.2016058677274
 10
131.6935980573544
 20
140.2016058677274
 10
131.6935980573544
 20
140.2016058677274
 97
        0
 97
        1
330
35C
 75
     2
 76
     1
 98
        1
 10
0.0
 20
0.0
450
        0
451
        0
460
0.0
461
0.0
452
        0
462
0.0
453
        0
470

  0
SPLINE
  5
35E
330
352
100
AcDbEntity
  8
Sichtbar (ISO)
100
AcDbSpline
210
0.0
220
0.0
230
1.0
 70
     9
 71
     3
 72
    53
 73
    49
 74
     0
 42
0.0000000001
 43
0.0000000001
 40
0.0
 40
0.0
 40
0.0
 40
0.0
 40
1.0
 40
1.0
 40
1.0
 40
2.0
 40
2.0
 40
2.0
 40
3.0
 40
3.0
 40
3.0
 40
4.0
 40
4.0
 40
4.0
 40
5.0
 40
5.0
 40
5.0
 40
6.0
 40
6.0
 40
6.0
 40
7.0
 40
7.0
 40
7.0
 40
8.0
 40
8.0
 40
8.0
 40
9.0
 40
9.0
 40
9.0
 40
10.0
 40
10.0
 40
10.0
 40
11.0
 40
11.0
 40
11.0
 40
12.0
 40
12.0
 40
12.0
 40
13.0
 40
13.0
 40
13.0
 40
14.0
 40
14.0
 40
14.0
 40
15.0
 40
15.0
 40
15.0
 40
16.0
 40
16.0
 40
16.0
 40
16.0
 10
132.5876003357767
 20
141.3446885497333
 30
0.0
 10
132.7936170457946
 20
141.3591579507713
 30
0.0
 10
132.9486463426309
 20
141.5252115531604
 30
0.0
 10
132.9486463426309
 20
141.7649901989337
 30
0.0
 10
132.9486463426309
 20
141.9937445391543
 30
0.0
 10
132.7905164598579
 20
142.1880479245224
 30
0.0
 10
132.4746012038605
 20
142.1880479245224
 30
0.0
 10
132.212429437433
 20
142.1880479245224
 30
0.0
 10
132.0205376189046
 20
142.0075249210953
 30
0.0
 10
132.0205376189046
 20
141.7367404159547
 30
0.0
 10
132.0205376189046
 20
141.5817111191184
 30
0.0
 10
132.0966742291286
 20
141.4576876816495
 30
0.0
 10
132.2096733610448
 20
141.3646701035477
 30
0.0
 10
132.2096733610448
 20
141.3646701035477
 30
0.0
 10
132.1983045459435
 20
141.1586533935298
 30
0.0
 10
132.1983045459435
 20
141.1586533935298
 30
0.0
 10
132.1983045459435
 20
141.1586533935298
 30
0.0
 10
131.1602972762377
 20
141.3446885497333
 30
0.0
 10
131.1602972762377
 20
141.3446885497333
 30
0.0
 10
131.1602972762377
 20
141.3446885497333
 30
0.0
 10
131.1602972762377
 20
142.3320529158059
 30
0.0
 10
131.1602972762377
 20
142.3320529158059
 30
0.0
 10
131.1602972762377
 20
142.3320529158059
 30
0.0
 10
131.371826139032
 20
142.3320529158059
 30
0.0
 10
131.371826139032
 20
142.3320529158059
 30
0.0
 10
131.371826139032
 20
142.3320529158059
 30
0.0
 10
131.371826139032
 20
141.5252115531604
 30
0.0
 10
131.371826139032
 20
141.5252115531604
 30
0.0
 10
131.371826139032
 20
141.5252115531604
 30
0.0
 10
131.9471570850687
 20
141.4184135931176
 30
0.0
 10
131.9471570850687
 20
141.4184135931176
 30
0.0
 10
131.9471570850687
 20
141.4184135931176
 30
0.0
 10
131.9530137473937
 20
141.423925745894
 30
0.0
 10
131.9530137473937
 20
141.423925745894
 30
0.0
 10
131.854139506967
 20
141.5114311712193
 30
0.0
 10
131.8090087561102
 20
141.6609483152792
 30
0.0
 10
131.8090087561102
 20
141.795996058301
 30
0.0
 10
131.8090087561102
 20
142.1515299123788
 30
0.0
 10
132.0346625103941
 20
142.4422959713338
 30
0.0
 10
132.494582757675
 20
142.4422959713338
 30
0.0
 10
132.8328911343265
 20
142.4422959713338
 30
0.0
 10
133.1601752054252
 20
142.2080294783369
 30
0.0
 10
133.1601752054252
 20
141.7425970782796
 30
0.0
 10
133.1601752054252
 20
141.3956759629149
 30
0.0
 10
132.9486463426309
 20
141.113522642673
 30
0.0
 10
132.5876003357767
 20
141.1049099039598
 30
0.0
 10
132.5876003357767
 20
141.1049099039598
 30
0.0
 10
132.5876003357767
 20
141.3446885497333
 30
0.0
 10
132.5876003357767
 20
141.3446885497333
 30
0.0
  0
HATCH
  5
35F
330
352
100
AcDbEntity
  8
Sichtbar (ISO)
 62
    18
420
        0
440
 33554687
100
AcDbHatch
 10
0.0
 20
0.0
 30
0.0
210
0.0
220
0.0
230
1.0
  2
SOLID
 70
     1
 71
     1
 91
        1
 92
        1
 93
        1
 72
     4
 94
        3
 73
     0
 74
     0
 95
       53
 96
       49
 40
0.0
 40
0.0
 40
0.0
 40
0.0
 40
1.0
 40
1.0
 40
1.0
 40
2.0
 40
2.0
 40
2.0
 40
3.0
 40
3.0
 40
3.0
 40
4.0
 40
4.0
 40
4.0
 40
5.0
 40
5.0
 40
5.0
 40
6.0
 40
6.0
 40
6.0
 40
7.0
 40
7.0
 40
7.0
 40
8.0
 40
8.0
 40
8.0
 40
9.0
 40
9.0
 40
9.0
 40
10.0
 40
10.0
 40
10.0
 40
11.0
 40
11.0
 40
11.0
 40
12.0
 40
12.0
 40
12.0
 40
13.0
 40
13.0
 40
13.0
 40
14.0
 40
14.0
 40
14.0
 40
15.0
 40
15.0
 40
15.0
 40
16.0
 40
16.0
 40
16.0
 40
16.0
 10
132.5876003357767
 20
141.3446885497333
 10
132.7936170457946
 20
141.3591579507713
 10
132.9486463426309
 20
141.5252115531604
 10
132.9486463426309
 20
141.7649901989337
 10
132.9486463426309
 20
141.9937445391543
 10
132.7905164598579
 20
142.1880479245224
 10
132.4746012038605
 20
142.1880479245224
 10
132.212429437433
 20
142.1880479245224
 10
132.0205376189046
 20
142.0075249210953
 10
132.0205376189046
 20
141.7367404159547
 10
132.0205376189046
 20
141.5817111191184
 10
132.0966742291286
 20
141.4576876816495
 10
132.2096733610448
 20
141.3646701035477
 10
132.2096733610448
 20
141.3646701035477
 10
132.1983045459435
 20
141.1586533935298
 10
132.1983045459435
 20
141.1586533935298
 10
132.1983045459435
 20
141.1586533935298
 10
131.1602972762377
 20
141.3446885497333
 10
131.1602972762377
 20
141.3446885497333
 10
131.1602972762377
 20
141.3446885497333
 10
131.1602972762377
 20
142.3320529158059
 10
131.1602972762377
 20
142.3320529158059
 10
131.1602972762377
 20
142.3320529158059
 10
131.371826139032
 20
142.3320529158059
 10
131.371826139032
 20
142.3320529158059
 10
131.371826139032
 20
142.3320529158059
 10
131.371826139032
 20
141.5252115531604
 10
131.371826139032
 20
141.5252115531604
 10
131.371826139032
 20
141.5252115531604
 10
131.9471570850687
 20
141.4184135931176
 10
131.9471570850687
 20
141.4184135931176
 10
131.9471570850687
 20
141.4184135931176
 10
131.9530137473937
 20
141.423925745894
 10
131.9530137473937
 20
141.423925745894
 10
131.854139506967
 20
141.5114311712193
 10
131.8090087561102
 20
141.6609483152792
 10
131.8090087561102
 20
141.795996058301
 10
131.8090087561102
 20
142.1515299123788
 10
132.0346625103941
 20
142.4422959713338
 10
132.494582757675
 20
142.4422959713338
 10
132.8328911343265
 20
142.4422959713338
 10
133.1601752054252
 20
142.2080294783369
 10
133.1601752054252
 20
141.7425970782796
 10
133.1601752054252
 20
141.3956759629149
 10
132.9486463426309
 20
141.113522642673
 10
132.5876003357767
 20
141.1049099039598
 10
132.5876003357767
 20
141.1049099039598
 10
132.5876003357767
 20
141.3446885497333
 10
132.5876003357767
 20
141.3446885497333
 97
        0
 97
        1
330
35E
 75
     2
 76
     1
 98
        1
 10
0.0
 20
0.0
450
        0
451
        0
460
0.0
461
0.0
452
        0
462
0.0
453
        0
470

  0
ENDBLK
  5
355
330
352
100
AcDbEntity
  8
0
100
AcDbBlockEnd
  0
ENDSEC
  0
SECTION
  2
ENTITIES
  0
INSERT
  5
79
330
70
100
AcDbEntity
  8
0
100
AcDbBlockReference
  2
Block_0
 10
0.0
 20
0.0
 30
0.0
  0
INSERT
  5
7D
330
70
100
AcDbEntity
  8
0
100
AcDbBlockReference
  2
Block_1
 10
0.0
 20
0.0
 30
0.0
  0
INSERT
  5
81
330
70
100
AcDbEntity
  8
0
100
AcDbBlockReference
  2
Block_2
 10
0.0
 20
0.0
 30
0.0
  0
INSERT
  5
85
330
70
100
AcDbEntity
  8
0
100
AcDbBlockReference
  2
Block_3
 10
0.0
 20
0.0
 30
0.0
  0
INSERT
  5
89
330
70
100
AcDbEntity
  8
0
100
AcDbBlockReference
  2
Block_4
 10
0.0
 20
0.0
 30
0.0
  0
INSERT
  5
8F
330
70
100
AcDbEntity
  8
Titel (ISO)
100
AcDbBlockReference
  2
Block_5
 10
0.0
 20
0.0
 30
0.0
  0
INSERT
  5
93
330
70
100
AcDbEntity
  8
Titel (ISO)
100
AcDbBlockReference
  2
Block_6
 10
0.0
 20
0.0
 30
0.0
  0
INSERT
  5
97
330
70
100
AcDbEntity
  8
Titel (ISO)
100
AcDbBlockReference
  2
Block_7
 10
0.0
 20
0.0
 30
0.0
  0
INSERT
  5
9B
330
70
100
AcDbEntity
  8
Titel (ISO)
100
AcDbBlockReference
  2
Block_8
 10
0.0
 20
0.0
 30
0.0
  0
INSERT
  5
9F
330
70
100
AcDbEntity
  8
Titel (ISO)
100
AcDbBlockReference
  2
Block_9
 10
0.0
 20
0.0
 30
0.0
  0
INSERT
  5
A3
330
70
100
AcDbEntity
  8
Titel (ISO)
100
AcDbBlockReference
  2
Block_10
 10
0.0
 20
0.0
 30
0.0
  0
INSERT
  5
A7
330
70
100
AcDbEntity
  8
Titel (ISO)
100
AcDbBlockReference
  2
Block_11
 10
0.0
 20
0.0
 30
0.0
  0
INSERT
  5
AB
330
70
100
AcDbEntity
  8
Titel (ISO)
100
AcDbBlockReference
  2
Block_12
 10
0.0
 20
0.0
 30
0.0
  0
INSERT
  5
AF
330
70
100
AcDbEntity
  8
Titel (ISO)
100
AcDbBlockReference
  2
Block_13
 10
0.0
 20
0.0
 30
0.0
  0
INSERT
  5
B5
330
70
100
AcDbEntity
  8
Sichtbar (ISO)
100
AcDbBlockReference
  2
Block_14
 10
0.0
 20
0.0
 30
0.0
  0
INSERT
  5
BB
330
70
100
AcDbEntity
  8
Sichtbar (ISO)
100
AcDbBlockReference
  2
Block_15
 10
0.0
 20
0.0
 30
0.0
  0
INSERT
  5
257
330
70
100
AcDbEntity
  8
Sichtbar (ISO)
100
AcDbBlockReference
  2
Block_16
 10
0.0
 20
0.0
 30
0.0
  0
INSERT
  5
291
330
70
100
AcDbEntity
  8
Sichtbar (ISO)
100
AcDbBlockReference
  2
Block_17
 10
0.0
 20
0.0
 30
0.0
  0
LINE
  5
2A5
330
70
100
AcDbEntity
  8
Sichtbar (ISO)
 62
    18
420
        0
370
     5
100
AcDbLine
 10
117.6274497967347
 20
117.4764067056776
 30
0.0
 11
137.6210207742147
 21
117.476406705136
 31
0.0
  0
LINE
  5
2A6
330
70
100
AcDbEntity
  8
Sichtbar (ISO)
 62
    18
420
        0
370
     5
100
AcDbLine
 10
117.6274497967347
 20
160.7224402795412
 30
0.0
 11
137.664338102058
 21
160.727039776315
 31
0.0
  0
LINE
  5
2A7
330
70
100
AcDbEntity
  8
Sichtbar (ISO)
 62
    18
420
        0
370
     5
100
AcDbLine
 10
118.7607851045722
 20
116.3525908236433
 30
0.0
 11
144.5486050730795
 21
116.3535559210657
 31
0.0
  0
INSERT
  5
2A9
330
70
100
AcDbEntity
  8
Sichtbar (ISO)
100
AcDbBlockReference
  2
Block_21
 10
0.0
 20
0.0
 30
0.0
  0
LINE
  5
2BD
330
70
100
AcDbEntity
  8
Sichtbar (ISO)
 62
    18
420
        0
370
     5
100
AcDbLine
 10
118.7440075997506
 20
161.8485151581542
 30
0.0
 11
144.5818022726904
 21
161.8485151573007
 31
0.0
  0
LWPOLYLINE
  5
2BE
330
70
100
AcDbEntity
  8
Sichtbar (ISO)
 62
    18
420
        0
370
     5
100
AcDbPolyline
 90
        1
 70
     0
 43
0.0
 10
147.704209812846
 20
171.9492077149317
  0
LINE
  5
2BF
330
70
100
AcDbEntity
  8
Sichtbar (ISO)
 62
    18
420
        0
370
     5
100
AcDbLine
 10
116.8758000066396
 20
167.3848704393171
 30
0.0
 11
144.6569053964702
 21
167.4185878502251
 31
0.0
  0
LWPOLYLINE
  5
2C0
330
70
100
AcDbEntity
  8
Sichtbar (ISO)
 62
    18
420
        0
370
     5
100
AcDbPolyline
 90
        1
 70
     0
 43
0.0
 10
128.8084909949098
 20
143.4570409923811
  0
LWPOLYLINE
  5
2C1
330
70
100
AcDbEntity
  8
Sichtbar (ISO)
 62
    18
420
        0
370
     5
100
AcDbPolyline
 90
        1
 70
     0
 43
0.0
 10
139.957706436694
 20
171.7485998976551
  0
INSERT
  5
2C3
330
70
100
AcDbEntity
  8
Sichtbar (ISO)
100
AcDbBlockReference
  2
Block_25
 10
0.0
 20
0.0
 30
0.0
  0
INSERT
  5
2CF
330
70
100
AcDbEntity
  8
Sichtbar (ISO)
100
AcDbBlockReference
  2
Block_27
 10
0.0
 20
0.0
 30
0.0
  0
LWPOLYLINE
  5
2DD
330
70
100
AcDbEntity
  8
Sichtbar (ISO)
 62
    18
420
        0
370
     5
100
AcDbPolyline
 90
        1
 70
     0
 43
0.0
 10
128.0344133385363
 20
179.4387631854312
  0
INSERT
  5
2DF
330
70
100
AcDbEntity
  8
Sichtbar (ISO)
100
AcDbBlockReference
  2
Block_30
 10
0.0
 20
0.0
 30
0.0
  0
INSERT
  5
2F4
330
70
100
AcDbEntity
  8
Sichtbar (ISO)
100
AcDbBlockReference
  2
Block_34
 10
0.0
 20
0.0
 30
0.0
  0
LINE
  5
2FF
330
70
100
AcDbEntity
  8
Sichtbar (ISO)
 62
    18
420
        0
370
     5
100
AcDbLine
 10
118.7122643050803
 20
185.0608393118022
 30
0.0
 11
144.714481132652
 21
185.0938895889437
 31
0.0
  0
INSERT
  5
301
330
70
100
AcDbEntity
  8
Sichtbar (ISO)
100
AcDbBlockReference
  2
Block_36
 10
0.0
 20
0.0
 30
0.0
  0
LWPOLYLINE
  5
30C
330
70
100
AcDbEntity
  8
Sichtbar (ISO)
 62
    18
420
        0
370
     5
100
AcDbPolyline
 90
        1
 70
     0
 43
0.0
 10
134.9199581345985
 20
180.0015194341126
  0
INSERT
  5
30E
330
70
100
AcDbEntity
  8
Sichtbar (ISO)
100
AcDbBlockReference
  2
Block_38
 10
0.0
 20
0.0
 30
0.0
  0
INSERT
  5
31C
330
70
100
AcDbEntity
  8
Sichtbar (ISO)
100
AcDbBlockReference
  2
Block_40
 10
0.0
 20
0.0
 30
0.0
  0
INSERT
  5
329
330
70
100
AcDbEntity
  8
Sichtbar (ISO)
100
AcDbBlockReference
  2
Block_41
 10
0.0
 20
0.0
 30
0.0
  0
LWPOLYLINE
  5
336
330
70
100
AcDbEntity
  8
Sichtbar (ISO)
 62
    18
420
        0
370
     5
100
AcDbPolyline
 90
        1
 70
     0
 43
0.0
 10
130.3702596761834
 20
143.4760975404286
  0
LINE
  5
337
330
70
100
AcDbEntity
  8
Sichtbar (ISO)
 62
    18
420
        0
370
     5
100
AcDbLine
 10
95.91663307815258
 20
149.8551997525788
 30
0.0
 11
132.098103236228
 21
149.8765025309287
 31
0.0
  0
LINE
  5
338
330
70
100
AcDbEntity
  8
Sichtbar (ISO)
 62
    18
420
        0
370
     5
100
AcDbLine
 10
96.30882747233824
 20
128.3329958431939
 30
0.0
 11
132.098103236228
 21
128.3375953399684
 31
0.0
  0
INSERT
  5
33A
330
70
100
AcDbEntity
  8
Sichtbar (ISO)
100
AcDbBlockReference
  2
Block_42
 10
0.0
 20
0.0
 30
0.0
  0
INSERT
  5
34F
330
70
100
AcDbEntity
  8
Sichtbar (ISO)
100
AcDbBlockReference
  2
Block_46
 10
0.0
 20
0.0
 30
0.0
  0
ENDSEC
  0
SECTION
  2
OBJECTS
  0
DICTIONARY
  5
C
330
0
100
AcDbDictionary
281
     1
  3
ACAD_COLOR
350
63
  3
ACAD_DETAILVIEWSTYLE
350
6A
  3
ACAD_GROUP
350
D
  3
ACAD_LAYOUT
350
62
  3
ACAD_MATERIAL
350
10
  3
ACAD_MLEADERSTYLE
350
66
  3
ACAD_MLINESTYLE
350
5F
  3
ACAD_PLOTSETTINGS
350
61
  3
ACAD_PLOTSTYLENAME
350
E
  3
ACAD_SCALELIST
350
42
  3
ACAD_SECTIONVIEWSTYLE
350
68
  3
ACAD_TABLESTYLE
350
64
  3
ACAD_VISUALSTYLE
350
29
  3
ACDB_RECOMPOSE_DATA
350
368
  3
AcDbVariableDictionary
350
360
  0
DICTIONARY
  5
63
102
{ACAD_REACTORS
330
C
102
}
330
C
100
AcDbDictionary
281
     1
  0
DICTIONARY
  5
6A
102
{ACAD_REACTORS
330
C
102
}
330
C
100
AcDbDictionary
281
     1
  3
Imperial24
350
6B
  0
DICTIONARY
  5
D
102
{ACAD_REACTORS
330
C
102
}
330
C
100
AcDbDictionary
281
     1
  0
DICTIONARY
  5
62
102
{ACAD_REACTORS
330
C
102
}
330
C
100
AcDbDictionary
281
     1
  3
Layout1
350
6F
  3
Layout2
350
77
  3
Model
350
73
  0
DICTIONARY
  5
10
102
{ACAD_REACTORS
330
C
102
}
330
C
100
AcDbDictionary
281
     1
  3
ByBlock
350
19
  3
ByLayer
350
11
  3
Global
350
21
  0
DICTIONARY
  5
66
102
{ACAD_REACTORS
330
C
102
}
330
C
100
AcDbDictionary
281
     1
  3
Standard
350
67
  0
DICTIONARY
  5
5F
102
{ACAD_REACTORS
330
C
102
}
330
C
100
AcDbDictionary
281
     1
  3
Standard
350
60
  0
DICTIONARY
  5
61
102
{ACAD_REACTORS
330
C
102
}
330
C
100
AcDbDictionary
281
     1
  0
ACDBDICTIONARYWDFLT
  5
E
102
{ACAD_REACTORS
330
C
102
}
330
C
100
AcDbDictionary
281
     1
  3
Normal
350
F
100
AcDbDictionaryWithDefault
340
F
  0
DICTIONARY
  5
42
102
{ACAD_REACTORS
330
C
102
}
330
C
100
AcDbDictionary
281
     1
  3
A0
350
43
  3
A1
350
44
  3
A2
350
45
  3
A3
350
46
  3
A4
350
47
  3
A5
350
48
  3
A6
350
49
  3
A7
350
4A
  3
A8
350
4B
  3
A9
350
4C
  3
B0
350
4D
  3
B1
350
4E
  3
B2
350
4F
  3
B3
350
50
  3
B4
350
51
  3
B5
350
52
  3
B6
350
53
  0
DICTIONARY
  5
68
102
{ACAD_REACTORS
330
C
102
}
330
C
100
AcDbDictionary
281
     1
  3
Imperial24
350
69
  0
DICTIONARY
  5
64
102
{ACAD_REACTORS
330
C
102
}
330
C
100
AcDbDictionary
281
     1
  3
Standard
350
65
  0
DICTIONARY
  5
29
102
{ACAD_REACTORS
330
C
102
}
330
C
100
AcDbDictionary
281
     1
  3
2dWireframe
350
2F
  3
Basic
350
2E
  3
Brighten
350
35
  3
ColorChange
350
39
  3
Conceptual
350
32
  3
Dim
350
34
  3
EdgeColorOff
350
41
  3
Facepattern
350
38
  3
Flat
350
2A
  3
FlatWithEdges
350
2B
  3
Gouraud
350
2C
  3
GouraudWithEdges
350
2D
  3
Hidden
350
31
  3
JitterOff
350
3F
  3
Linepattern
350
37
  3
OverhangOff
350
40
  3
Realistic
350
33
  3
Shaded
350
3E
  3
Shaded with edges
350
3D
  3
Shades of Gray
350
3A
  3
Sketchy
350
3B
  3
Thicken
350
36
  3
Wireframe
350
30
  3
X-Ray
350
3C
  0
XRECORD
  5
368
102
{ACAD_REACTORS
330
C
102
}
330
C
100
AcDbXrecord
280
     1
 90
        1
330
65
  0
DICTIONARY
  5
360
102
{ACAD_REACTORS
330
C
102
}
330
C
100
AcDbDictionary
281
     1
  3
CANNOSCALE
350
365
  3
CMLEADERSTYLE
350
362
  3
CTABLESTYLE
350
361
  3
CVIEWDETAILSTYLE
350
363
  3
CVIEWSECTIONSTYLE
350
364
  0
ACDBDETAILVIEWSTYLE
  5
6B
102
{ACAD_REACTORS
330
6A
102
}
330
6A
100
AcDbModelDocViewStyle
 70
     0
  3
Imperial24
290
     1
300
Imperial24
 90
        0
100
AcDbDetailViewStyle
 70
     0
 71
     0
 90
        3
 71
     1
340
55
 62
   256
 40
0.24
340
0
 62
   256
 40
0.24
300

 40
0.36
280
     3
 71
     2
340
5D
 90
       25
 62
   256
 71
     3
340
55
 62
   256
 40
0.24
 90
        1
 40
0.75
 90
        1
300
%<\AcVar ViewType \f "%tc1">% %<\AcVar ViewDetailId>%\PSCALE %<\AcVar ViewScale \f "%sn">%
 71
     4
340
5D
 90
       25
 62
   256
340
5D
 90
       25
 62
   256
280
     0
  0
LAYOUT
  5
6F
102
{ACAD_REACTORS
330
62
102
}
330
62
100
AcDbPlotSettings
  1

  2

  4

  6

 40
0.0
 41
0.0
 42
0.0
 43
0.0
 44
0.0
 45
0.0
 46
0.0
 47
0.0
 48
0.0
 49
0.0
140
0.0
141
0.0
142
1.0
143
1.0
 70
   688
 72
     0
 73
     0
 74
     5
  7

 75
    16
147
1.0
 76
     0
 77
     2
 78
   300
148
0.0
149
0.0
100
AcDbLayout
  1
Layout1
 70
     1
 71
     1
 10
0.0
 20
0.0
 11
12.0
 21
9.0
 12
0.0
 22
0.0
 32
0.0
 14
0.0
 24
0.0
 34
0.0
 15
0.0
 25
0.0
 35
0.0
146
0.0
 13
0.0
 23
0.0
 33
0.0
 16
1.0
 26
0.0
 36
0.0
 17
0.0
 27
1.0
 37
0.0
 76
     0
330
6C
  0
LAYOUT
  5
77
102
{ACAD_REACTORS
330
62
102
}
330
62
100
AcDbPlotSettings
  1

  2

  4

  6

 40
0.0
 41
0.0
 42
0.0
 43
0.0
 44
0.0
 45
0.0
 46
0.0
 47
0.0
 48
0.0
 49
0.0
140
0.0
141
0.0
142
1.0
143
1.0
 70
   688
 72
     0
 73
     0
 74
     5
  7

 75
    16
147
1.0
 76
     0
 77
     2
 78
   300
148
0.0
149
0.0
100
AcDbLayout
  1
Layout2
 70
     1
 71
     2
 10
0.0
 20
0.0
 11
12.0
 21
9.0
 12
0.0
 22
0.0
 32
0.0
 14
0.0
 24
0.0
 34
0.0
 15
0.0
 25
0.0
 35
0.0
146
0.0
 13
0.0
 23
0.0
 33
0.0
 16
1.0
 26
0.0
 36
0.0
 17
0.0
 27
1.0
 37
0.0
 76
     0
330
74
  0
LAYOUT
  5
73
102
{ACAD_REACTORS
330
62
102
}
330
62
100
AcDbPlotSettings
  1

  2

  4

  6

 40
0.0
 41
0.0
 42
0.0
 43
0.0
 44
0.0
 45
0.0
 46
0.0
 47
0.0
 48
0.0
 49
0.0
140
0.0
141
0.0
142
1.0
143
1.0
 70
  1712
 72
     0
 73
     0
 74
     0
  7

 75
     0
147
1.0
 76
     0
 77
     2
 78
   300
148
0.0
149
0.0
100
AcDbLayout
  1
Model
 70
     1
 71
     0
 10
0.0
 20
0.0
 11
12.0
 21
9.0
 12
0.0
 22
0.0
 32
0.0
 14
0.0
 24
0.0
 34
0.0
 15
0.0
 25
0.0
 35
0.0
146
0.0
 13
0.0
 23
0.0
 33
0.0
 16
1.0
 26
0.0
 36
0.0
 17
0.0
 27
1.0
 37
0.0
 76
     0
330
70
  0
MATERIAL
  5
19
102
{ACAD_XDICTIONARY
360
1A
102
}
102
{ACAD_REACTORS
330
10
102
}
330
10
100
AcDbMaterial
  1
ByBlock
 72
     0
 43
0.0208333333333333
 43
0.0
 43
0.0
 43
0.0
 43
0.0
 43
0.0208333333333333
 43
0.0
 43
0.0
 43
0.0
 43
0.0
 43
1.0
 43
0.0
 43
0.0
 43
0.0
 43
0.0
 43
1.0
 77
     0
 47
0.0208333333333333
 47
0.0
 47
0.0
 47
0.0
 47
0.0
 47
0.0208333333333333
 47
0.0
 47
0.0
 47
0.0
 47
0.0
 47
1.0
 47
0.0
 47
0.0
 47
0.0
 47
0.0
 47
1.0
171
     0
 49
0.0208333333333333
 49
0.0
 49
0.0
 49
0.0
 49
0.0
 49
0.0208333333333333
 49
0.0
 49
0.0
 49
0.0
 49
0.0
 49
1.0
 49
0.0
 49
0.0
 49
0.0
 49
0.0
 49
1.0
175
     0
142
0.0208333333333333
142
0.0
142
0.0
142
0.0
142
0.0
142
0.0208333333333333
142
0.0
142
0.0
142
0.0
142
0.0
142
1.0
142
0.0
142
0.0
142
0.0
142
0.0
142
1.0
179
     0
144
0.0208333333333333
144
0.0
144
0.0
144
0.0
144
0.0
144
0.0208333333333333
144
0.0
144
0.0
144
0.0
144
0.0
144
1.0
144
0.0
144
0.0
144
0.0
144
0.0
144
1.0
147
0.0208333333333333
147
0.0
147
0.0
147
0.0
147
0.0
147
0.0208333333333333
147
0.0
147
0.0
147
0.0
147
0.0
147
1.0
147
0.0
147
0.0
147
0.0
147
0.0
147
1.0
  0
MATERIAL
  5
11
102
{ACAD_XDICTIONARY
360
12
102
}
102
{ACAD_REACTORS
330
10
102
}
330
10
100
AcDbMaterial
  1
ByLayer
 72
     0
 43
0.0208333333333333
 43
0.0
 43
0.0
 43
0.0
 43
0.0
 43
0.0208333333333333
 43
0.0
 43
0.0
 43
0.0
 43
0.0
 43
1.0
 43
0.0
 43
0.0
 43
0.0
 43
0.0
 43
1.0
 77
     0
 47
0.0208333333333333
 47
0.0
 47
0.0
 47
0.0
 47
0.0
 47
0.0208333333333333
 47
0.0
 47
0.0
 47
0.0
 47
0.0
 47
1.0
 47
0.0
 47
0.0
 47
0.0
 47
0.0
 47
1.0
171
     0
 49
0.0208333333333333
 49
0.0
 49
0.0
 49
0.0
 49
0.0
 49
0.0208333333333333
 49
0.0
 49
0.0
 49
0.0
 49
0.0
 49
1.0
 49
0.0
 49
0.0
 49
0.0
 49
0.0
 49
1.0
175
     0
142
0.0208333333333333
142
0.0
142
0.0
142
0.0
142
0.0
142
0.0208333333333333
142
0.0
142
0.0
142
0.0
142
0.0
142
1.0
142
0.0
142
0.0
142
0.0
142
0.0
142
1.0
179
     0
144
0.0208333333333333
144
0.0
144
0.0
144
0.0
144
0.0
144
0.0208333333333333
144
0.0
144
0.0
144
0.0
144
0.0
144
1.0
144
0.0
144
0.0
144
0.0
144
0.0
144
1.0
147
0.0208333333333333
147
0.0
147
0.0
147
0.0
147
0.0
147
0.0208333333333333
147
0.0
147
0.0
147
0.0
147
0.0
147
1.0
147
0.0
147
0.0
147
0.0
147
0.0
147
1.0
  0
MATERIAL
  5
21
102
{ACAD_XDICTIONARY
360
22
102
}
102
{ACAD_REACTORS
330
10
102
}
330
10
100
AcDbMaterial
  1
Global
 72
     0
 43
0.0208333333333333
 43
0.0
 43
0.0
 43
0.0
 43
0.0
 43
0.0208333333333333
 43
0.0
 43
0.0
 43
0.0
 43
0.0
 43
1.0
 43
0.0
 43
0.0
 43
0.0
 43
0.0
 43
1.0
 77
     0
 47
0.0208333333333333
 47
0.0
 47
0.0
 47
0.0
 47
0.0
 47
0.0208333333333333
 47
0.0
 47
0.0
 47
0.0
 47
0.0
 47
1.0
 47
0.0
 47
0.0
 47
0.0
 47
0.0
 47
1.0
171
     0
 49
0.0208333333333333
 49
0.0
 49
0.0
 49
0.0
 49
0.0
 49
0.0208333333333333
 49
0.0
 49
0.0
 49
0.0
 49
0.0
 49
1.0
 49
0.0
 49
0.0
 49
0.0
 49
0.0
 49
1.0
175
     0
142
0.0208333333333333
142
0.0
142
0.0
142
0.0
142
0.0
142
0.0208333333333333
142
0.0
142
0.0
142
0.0
142
0.0
142
1.0
142
0.0
142
0.0
142
0.0
142
0.0
142
1.0
179
     0
144
0.0208333333333333
144
0.0
144
0.0
144
0.0
144
0.0
144
0.0208333333333333
144
0.0
144
0.0
144
0.0
144
0.0
144
1.0
144
0.0
144
0.0
144
0.0
144
0.0
144
1.0
147
0.0208333333333333
147
0.0
147
0.0
147
0.0
147
0.0
147
0.0208333333333333
147
0.0
147
0.0
147
0.0
147
0.0
147
1.0
147
0.0
147
0.0
147
0.0
147
0.0
147
1.0
  0
MLEADERSTYLE
  5
67
102
{ACAD_REACTORS
330
66
102
}
330
66
100
AcDbMLeaderStyle
179
     2
170
     2
171
     1
172
     0
 90
        2
 40
0.0
 41
0.0
173
     1
 91
-1056964608
340
5B
 92
       -2
290
     1
 42
0.09
291
     1
 43
0.36
  3
Standard
 44
0.18
300

342
55
174
     1
178
     6
175
     1
176
     0
 93
-1056964608
 45
0.18
292
     0
297
     0
 46
0.18
 94
-1056964608
 47
1.0
 49
1.0
140
1.0
293
     1
141
0.0
294
     1
177
     0
142
1.0
295
     1
296
     0
143
0.125
271
     0
272
     9
273
     9
298
     1
  0
MLINESTYLE
  5
60
102
{ACAD_REACTORS
330
5F
102
}
330
5F
100
AcDbMlineStyle
  2
STANDARD
 70
     0
  3

 62
   256
 51
90.0
 52
90.0
 71
     2
 49
0.5
 62
   256
  6
BYLAYER
 49
-0.5
 62
   256
  6
BYLAYER
  0
ACDBPLACEHOLDER
  5
F
102
{ACAD_REACTORS
330
E
102
}
330
E
  0
SCALE
  5
43
102
{ACAD_REACTORS
330
42
102
}
330
42
100
AcDbScale
 70
     0
300
1:1
140
1.0
141
1.0
290
     1
  0
SCALE
  5
44
102
{ACAD_REACTORS
330
42
102
}
330
42
100
AcDbScale
 70
     0
300
1/128" = 1'-0"
140
0.0078125
141
12.0
290
     0
  0
SCALE
  5
45
102
{ACAD_REACTORS
330
42
102
}
330
42
100
AcDbScale
 70
     0
300
1/64" = 1'-0"
140
0.015625
141
12.0
290
     0
  0
SCALE
  5
46
102
{ACAD_REACTORS
330
42
102
}
330
42
100
AcDbScale
 70
     0
300
1/32" = 1'-0"
140
0.03125
141
12.0
290
     0
  0
SCALE
  5
47
102
{ACAD_REACTORS
330
42
102
}
330
42
100
AcDbScale
 70
     0
300
1/16" = 1'-0"
140
0.0625
141
12.0
290
     0
  0
SCALE
  5
48
102
{ACAD_REACTORS
330
42
102
}
330
42
100
AcDbScale
 70
     0
300
3/32" = 1'-0"
140
0.09375
141
12.0
290
     0
  0
SCALE
  5
49
102
{ACAD_REACTORS
330
42
102
}
330
42
100
AcDbScale
 70
     0
300
1/8" = 1'-0"
140
0.125
141
12.0
290
     0
  0
SCALE
  5
4A
102
{ACAD_REACTORS
330
42
102
}
330
42
100
AcDbScale
 70
     0
300
3/16" = 1'-0"
140
0.1875
141
12.0
290
     0
  0
SCALE
  5
4B
102
{ACAD_REACTORS
330
42
102
}
330
42
100
AcDbScale
 70
     0
300
1/4" = 1'-0"
140
0.25
141
12.0
290
     0
  0
SCALE
  5
4C
102
{ACAD_REACTORS
330
42
102
}
330
42
100
AcDbScale
 70
     0
300
3/8" = 1'-0"
140
0.375
141
12.0
290
     0
  0
SCALE
  5
4D
102
{ACAD_REACTORS
330
42
102
}
330
42
100
AcDbScale
 70
     0
300
1/2" = 1'-0"
140
0.5
141
12.0
290
     0
  0
SCALE
  5
4E
102
{ACAD_REACTORS
330
42
102
}
330
42
100
AcDbScale
 70
     0
300
3/4" = 1'-0"
140
0.75
141
12.0
290
     0
  0
SCALE
  5
4F
102
{ACAD_REACTORS
330
42
102
}
330
42
100
AcDbScale
 70
     0
300
1" = 1'-0"
140
1.0
141
12.0
290
     0
  0
SCALE
  5
50
102
{ACAD_REACTORS
330
42
102
}
330
42
100
AcDbScale
 70
     0
300
1-1/2" = 1'-0"
140
1.5
141
12.0
290
     0
  0
SCALE
  5
51
102
{ACAD_REACTORS
330
42
102
}
330
42
100
AcDbScale
 70
     0
300
3" = 1'-0"
140
3.0
141
12.0
290
     0
  0
SCALE
  5
52
102
{ACAD_REACTORS
330
42
102
}
330
42
100
AcDbScale
 70
     0
300
6" = 1'-0"
140
6.0
141
12.0
290
     0
  0
SCALE
  5
53
102
{ACAD_REACTORS
330
42
102
}
330
42
100
AcDbScale
 70
     0
300
1'-0" = 1'-0"
140
12.0
141
12.0
290
     0
  0
ACDBSECTIONVIEWSTYLE
  5
69
102
{ACAD_REACTORS
330
68
102
}
330
68
100
AcDbModelDocViewStyle
 70
     0
  3
Imperial24
290
     1
300
Imperial24
 90
        0
100
AcDbSectionViewStyle
 70
     0
 71
     0
 90
       78
 71
     1
340
55
 62
   256
 40
0.24
340
0
340
0
 62
   256
 40
0.24
300
I, O, Q, S, X, Z
 40
0.48
 90
        3
 40
0.18
 90
        1
 71
     2
340
5D
 90
       25
 62
   256
340
5D
 90
       50
 62
   256
 40
0.24
 40
0.0
 40
0.24
 71
     3
340
55
 62
   256
 40
0.24
 90
        1
 40
0.75
 90
        1
300
%<\AcVar ViewType \f "%tc1">% %<\AcVar ViewSectionStartId>%-%<\AcVar ViewSectionEndId>%\PSCALE %<\AcVar ViewScale \f "%sn">%
 71
     4
 62
   256
 62
   257
300
ANSI31
 40
1.0
 90
        0
290
     0
290
     0
 90
        6
 40
0.0
 40
1.570796326794896
 40
0.2617993877991494
 40
1.308996938995747
 40
-0.2617993877991494
 40
1.832595714594046
  0
TABLESTYLE
  5
65
102
{ACAD_XDICTIONARY
360
366
102
}
102
{ACAD_REACTORS
330
64
102
}
330
64
100
AcDbTableStyle
280
     0
  3
Standard
 70
     0
 71
     0
 40
0.06
 41
0.06
280
     0
281
     0
  7
Standard
140
0.18
170
     2
 62
     0
 63
     7
283
     0
 90
      512
 91
        0
  1

274
    -2
284
     1
 64
     0
275
    -2
285
     1
 65
     0
276
    -2
286
     1
 66
     0
277
    -2
287
     1
 67
     0
278
    -2
288
     1
 68
     0
279
    -2
289
     1
 69
     0
  7
Standard
140
0.25
170
     5
 62
     0
 63
     7
283
     0
 90
      512
 91
        0
  1

274
    -2
284
     1
 64
     0
275
    -2
285
     1
 65
     0
276
    -2
286
     1
 66
     0
277
    -2
287
     1
 67
     0
278
    -2
288
     1
 68
     0
279
    -2
289
     1
 69
     0
  7
Standard
140
0.18
170
     5
 62
     0
 63
     7
283
     0
 90
      512
 91
        0
  1

274
    -2
284
     1
 64
     0
275
    -2
285
     1
 65
     0
276
    -2
286
     1
 66
     0
277
    -2
287
     1
 67
     0
278
    -2
288
     1
 68
     0
279
    -2
289
     1
 69
     0
  0
VISUALSTYLE
  5
2F
102
{ACAD_REACTORS
330
29
102
}
330
29
100
AcDbVisualStyle
  2
2dWireframe
 70
     4
177
     3
291
     0
 70
    58
 90
        0
176
     1
 90
        2
176
     1
 90
        0
176
     1
 90
        0
176
     1
 40
0.6
176
     1
 40
30.0
176
     1
 62
     7
420
 16777215
176
     1
 90
        1
176
     1
 90
        4
176
     1
 62
     7
176
     1
 62
   257
176
     1
 90
        1
176
     1
 90
        1
176
     1
 40
1.0
176
     1
 90
        0
176
     1
 62
   257
176
     1
 40
1.0
176
     1
 90
        1
176
     1
 90
        6
176
     1
 90
        2
176
     1
 62
     7
176
     1
 90
        5
176
     1
 90
        0
176
     1
 90
        0
176
     1
290
     0
176
     1
 90
        1
176
     1
 40
0.0
176
     1
 90
        0
176
     1
290
     1
176
     1
290
     1
176
     1
290
     0
176
     1
290
     0
176
     1
290
     0
176
     1
290
     0
176
     1
290
     0
176
     1
290
     0
176
     1
290
     0
176
     1
 90
       50
176
     1
 40
0.0
176
     1
 40
1.0
176
     1
 90
        0
176
     1
 62
    18
420
        0
176
     1
 90
       50
176
     1
 90
        3
176
     1
 62
     5
420
      255
176
     1
290
     0
176
     1
 90
       50
176
     1
 90
       50
176
     1
 90
       50
176
     1
290
     0
176
     1
 90
       50
176
     1
 62
   256
176
     0
 40
1.0
176
     0
 90
        2
176
     1
  1
strokes_ogs.tif
176
     1
290
     0
176
     1
 40
1.0
176
     1
 40
1.0
176
     1
  0
VISUALSTYLE
  5
2E
102
{ACAD_REACTORS
330
29
102
}
330
29
100
AcDbVisualStyle
  2
Basic
 70
     7
177
     3
291
     1
 70
    58
 90
        1
176
     1
 90
        0
176
     1
 90
        1
176
     1
 90
        0
176
     1
 40
0.6
176
     1
 40
30.0
176
     1
 62
     7
420
 16777215
176
     1
 90
        0
176
     1
 90
        4
176
     1
 62
     7
176
     1
 62
   257
176
     1
 90
        1
176
     1
 90
        1
176
     1
 40
1.0
176
     1
 90
        8
176
     1
 62
     7
176
     1
 40
1.0
176
     1
 90
        1
176
     1
 90
        6
176
     1
 90
        2
176
     1
 62
     7
176
     1
 90
        5
176
     1
 90
        0
176
     1
 90
        0
176
     1
290
     0
176
     1
 90
        1
176
     1
 40
0.0
176
     1
 90
        0
176
     1
290
     0
176
     1
290
     1
176
     1
290
     1
176
     1
290
     0
176
     1
290
     0
176
     1
290
     0
176
     1
290
     0
176
     1
290
     0
176
     1
290
     0
176
     1
 90
       50
176
     1
 40
0.0
176
     1
 40
1.0
176
     1
 90
        0
176
     1
 62
    18
420
        0
176
     1
 90
       50
176
     1
 90
        3
176
     1
 62
     5
420
      255
176
     1
290
     0
176
     1
 90
       50
176
     1
 90
       50
176
     1
 90
       50
176
     1
290
     0
176
     1
 90
       50
176
     1
 62
   256
176
     0
 40
1.0
176
     0
 90
        2
176
     1
  1
strokes_ogs.tif
176
     1
290
     0
176
     1
 40
1.0
176
     1
 40
1.0
176
     1
  0
VISUALSTYLE
  5
35
102
{ACAD_REACTORS
330
29
102
}
330
29
100
AcDbVisualStyle
  2
Brighten
 70
    12
177
     3
291
     1
 70
    58
 90
        2
176
     1
 90
        2
176
     1
 90
        0
176
     1
 90
        0
176
     1
 40
0.6
176
     1
 40
30.0
176
     1
 62
     7
420
 16777215
176
     1
 90
        1
176
     1
 90
        4
176
     1
 62
     7
176
     1
 62
   257
176
     1
 90
        1
176
     1
 90
        1
176
     1
 40
1.0
176
     1
 90
        8
176
     1
 62
     7
176
     1
 40
1.0
176
     1
 90
        1
176
     1
 90
        6
176
     1
 90
        2
176
     1
 62
     7
176
     1
 90
        5
176
     1
 90
        0
176
     1
 90
        0
176
     1
290
     0
176
     1
 90
        1
176
     1
 40
50.0
176
     1
 90
        0
176
     1
290
     0
176
     1
290
     1
176
     1
290
     1
176
     1
290
     0
176
     1
290
     0
176
     1
290
     0
176
     1
290
     0
176
     1
290
     0
176
     1
290
     0
176
     1
 90
       50
176
     1
 40
0.0
176
     1
 40
1.0
176
     1
 90
        0
176
     1
 62
    18
420
        0
176
     1
 90
       50
176
     1
 90
        3
176
     1
 62
     5
420
      255
176
     1
290
     0
176
     1
 90
       50
176
     1
 90
       50
176
     1
 90
       50
176
     1
290
     0
176
     1
 90
       50
176
     1
 62
   256
176
     0
 40
1.0
176
     0
 90
        2
176
     1
  1
strokes_ogs.tif
176
     1
290
     0
176
     1
 40
1.0
176
     1
 40
1.0
176
     1
  0
VISUALSTYLE
  5
39
102
{ACAD_REACTORS
330
29
102
}
330
29
100
AcDbVisualStyle
  2
ColorChange
 70
    16
177
     3
291
     1
 70
    58
 90
        2
176
     1
 90
        2
176
     1
 90
        3
176
     1
 90
        0
176
     1
 40
0.6
176
     1
 40
30.0
176
     1
 62
     8
420
  8421504
176
     1
 90
        1
176
     1
 90
        4
176
     1
 62
     7
176
     1
 62
   257
176
     1
 90
        1
176
     1
 90
        1
176
     1
 40
1.0
176
     1
 90
        8
176
     1
 62
     8
420
  8421504
176
     1
 40
1.0
176
     1
 90
        1
176
     1
 90
        6
176
     1
 90
        2
176
     1
 62
     7
176
     1
 90
        5
176
     1
 90
        0
176
     1
 90
        0
176
     1
290
     0
176
     1
 90
        1
176
     1
 40
0.0
176
     1
 90
        0
176
     1
290
     0
176
     1
290
     1
176
     1
290
     1
176
     1
290
     0
176
     1
290
     0
176
     1
290
     0
176
     1
290
     0
176
     1
290
     0
176
     1
290
     0
176
     1
 90
       50
176
     1
 40
0.0
176
     1
 40
1.0
176
     1
 90
        0
176
     1
 62
    18
420
        0
176
     1
 90
       50
176
     1
 90
        3
176
     1
 62
     5
420
      255
176
     1
290
     0
176
     1
 90
       50
176
     1
 90
       50
176
     1
 90
       50
176
     1
290
     0
176
     1
 90
       50
176
     1
 62
   256
176
     0
 40
1.0
176
     0
 90
        2
176
     1
  1
strokes_ogs.tif
176
     1
290
     0
176
     1
 40
1.0
176
     1
 40
1.0
176
     1
  0
VISUALSTYLE
  5
32
102
{ACAD_REACTORS
330
29
102
}
330
29
100
AcDbVisualStyle
  2
Conceptual
 70
     9
177
     3
291
     0
 70
    58
 90
        3
176
     1
 90
        2
176
     1
 90
        0
176
     1
 90
        0
176
     1
 40
0.6
176
     1
 40
30.0
176
     1
 62
     7
420
 16777215
176
     1
 90
        2
176
     1
 90
        2
176
     1
 62
     7
176
     1
 62
   257
176
     1
 90
        1
176
     1
 90
        1
176
     1
 40
179.0
176
     1
 90
        8
176
     1
 62
     7
176
     1
 40
1.0
176
     1
 90
        1
176
     1
 90
        6
176
     1
 90
        2
176
     1
 62
     7
176
     1
 90
        3
176
     1
 90
        0
176
     1
 90
        0
176
     1
290
     0
176
     1
 90
        1
176
     1
 40
0.0
176
     1
 90
        0
176
     1
290
     0
176
     1
290
     1
176
     1
290
     1
176
     1
290
     0
176
     1
290
     0
176
     1
290
     0
176
     1
290
     0
176
     1
290
     0
176
     1
290
     0
176
     1
 90
       50
176
     1
 40
0.0
176
     1
 40
1.0
176
     1
 90
        0
176
     1
 62
    18
420
        0
176
     1
 90
       50
176
     1
 90
        3
176
     1
 62
     5
420
      255
176
     1
290
     0
176
     1
 90
       50
176
     1
 90
       50
176
     1
 90
       50
176
     1
290
     0
176
     1
 90
       50
176
     1
 62
   256
176
     0
 40
1.0
176
     0
 90
        2
176
     1
  1
strokes_ogs.tif
176
     1
290
     0
176
     1
 40
1.0
176
     1
 40
1.0
176
     1
  0
VISUALSTYLE
  5
34
102
{ACAD_REACTORS
330
29
102
}
330
29
100
AcDbVisualStyle
  2
Dim
 70
    11
177
     3
291
     1
 70
    58
 90
        2
176
     1
 90
        2
176
     1
 90
        0
176
     1
 90
        0
176
     1
 40
0.6
176
     1
 40
30.0
176
     1
 62
     7
420
 16777215
176
     1
 90
        1
176
     1
 90
        4
176
     1
 62
     7
176
     1
 62
   257
176
     1
 90
        1
176
     1
 90
        1
176
     1
 40
1.0
176
     1
 90
        8
176
     1
 62
     7
176
     1
 40
1.0
176
     1
 90
        1
176
     1
 90
        6
176
     1
 90
        2
176
     1
 62
     7
176
     1
 90
        5
176
     1
 90
        0
176
     1
 90
        0
176
     1
290
     0
176
     1
 90
        1
176
     1
 40
-50.0
176
     1
 90
        0
176
     1
290
     0
176
     1
290
     1
176
     1
290
     1
176
     1
290
     0
176
     1
290
     0
176
     1
290
     0
176
     1
290
     0
176
     1
290
     0
176
     1
290
     0
176
     1
 90
       50
176
     1
 40
0.0
176
     1
 40
1.0
176
     1
 90
        0
176
     1
 62
    18
420
        0
176
     1
 90
       50
176
     1
 90
        3
176
     1
 62
     5
420
      255
176
     1
290
     0
176
     1
 90
       50
176
     1
 90
       50
176
     1
 90
       50
176
     1
290
     0
176
     1
 90
       50
176
     1
 62
   256
176
     0
 40
1.0
176
     0
 90
        2
176
     1
  1
strokes_ogs.tif
176
     1
290
     0
176
     1
 40
1.0
176
     1
 40
1.0
176
     1
  0
VISUALSTYLE
  5
41
102
{ACAD_REACTORS
330
29
102
}
330
29
100
AcDbVisualStyle
  2
EdgeColorOff
 70
    22
177
     3
291
     1
 70
    58
 90
        2
176
     0
 90
        2
176
     0
 90
        0
176
     0
 90
        0
176
     0
 40
0.6
176
     0
 40
30.0
176
     0
 62
     7
420
 16777215
176
     0
 90
        1
176
     0
 90
        4
176
     0
 62
     7
176
     0
 62
   257
176
     0
 90
        1
176
     0
 90
        1
176
     0
 40
1.0
176
     0
 90
        8
176
     2
 62
     7
176
     0
 40
1.0
176
     0
 90
        1
176
     0
 90
        6
176
     0
 90
        2
176
     0
 62
     7
176
     0
 90
        5
176
     0
 90
        0
176
     0
 90
        0
176
     0
290
     0
176
     0
 90
        1
176
     0
 40
0.0
176
     0
 90
        0
176
     0
290
     0
176
     0
290
     1
176
     0
290
     1
176
     0
290
     0
176
     0
290
     0
176
     0
290
     0
176
     0
290
     0
176
     0
290
     0
176
     0
290
     0
176
     0
 90
       50
176
     0
 40
0.0
176
     0
 40
1.0
176
     0
 90
        0
176
     0
 62
    18
420
        0
176
     0
 90
       50
176
     0
 90
        3
176
     0
 62
     5
420
      255
176
     0
290
     0
176
     0
 90
       50
176
     0
 90
       50
176
     0
 90
       50
176
     0
290
     0
176
     0
 90
       50
176
     0
 62
   256
176
     0
 40
1.0
176
     0
 90
        2
176
     0
  1
strokes_ogs.tif
176
     0
290
     0
176
     0
 40
1.0
176
     0
 40
1.0
176
     0
  0
VISUALSTYLE
  5
38
102
{ACAD_REACTORS
330
29
102
}
330
29
100
AcDbVisualStyle
  2
Facepattern
 70
    15
177
     3
291
     1
 70
    58
 90
        2
176
     1
 90
        2
176
     1
 90
        0
176
     1
 90
        0
176
     1
 40
0.6
176
     1
 40
30.0
176
     1
 62
     7
420
 16777215
176
     1
 90
        1
176
     1
 90
        4
176
     1
 62
     7
176
     1
 62
   257
176
     1
 90
        1
176
     1
 90
        1
176
     1
 40
1.0
176
     1
 90
        8
176
     1
 62
     7
176
     1
 40
1.0
176
     1
 90
        1
176
     1
 90
        6
176
     1
 90
        2
176
     1
 62
     7
176
     1
 90
        5
176
     1
 90
        0
176
     1
 90
        0
176
     1
290
     0
176
     1
 90
        1
176
     1
 40
0.0
176
     1
 90
        0
176
     1
290
     0
176
     1
290
     1
176
     1
290
     1
176
     1
290
     0
176
     1
290
     0
176
     1
290
     0
176
     1
290
     0
176
     1
290
     0
176
     1
290
     0
176
     1
 90
       50
176
     1
 40
0.0
176
     1
 40
1.0
176
     1
 90
        0
176
     1
 62
    18
420
        0
176
     1
 90
       50
176
     1
 90
        3
176
     1
 62
     5
420
      255
176
     1
290
     0
176
     1
 90
       50
176
     1
 90
       50
176
     1
 90
       50
176
     1
290
     0
176
     1
 90
       50
176
     1
 62
   256
176
     0
 40
1.0
176
     0
 90
        2
176
     1
  1
strokes_ogs.tif
176
     1
290
     0
176
     1
 40
1.0
176
     1
 40
1.0
176
     1
  0
VISUALSTYLE
  5
2A
102
{ACAD_REACTORS
330
29
102
}
330
29
100
AcDbVisualStyle
  2
Flat
 70
     0
177
     3
291
     1
 70
    58
 90
        2
176
     1
 90
        1
176
     1
 90
        1
176
     1
 90
        2
176
     1
 40
0.6
176
     1
 40
30.0
176
     1
 62
     7
420
 16777215
176
     1
 90
        0
176
     1
 90
        0
176
     1
 62
     7
176
     1
 62
   257
176
     1
 90
        1
176
     1
 90
        1
176
     1
 40
1.0
176
     1
 90
        8
176
     1
 62
     7
176
     1
 40
1.0
176
     1
 90
        1
176
     1
 90
        6
176
     1
 90
        2
176
     1
 62
     7
176
     1
 90
        5
176
     1
 90
        0
176
     1
 90
        0
176
     1
290
     0
176
     1
 90
       13
176
     1
 40
0.0
176
     1
 90
        0
176
     1
290
     0
176
     1
290
     1
176
     1
290
     1
176
     1
290
     0
176
     1
290
     0
176
     1
290
     0
176
     1
290
     0
176
     1
290
     0
176
     1
290
     0
176
     1
 90
       50
176
     1
 40
0.0
176
     1
 40
1.0
176
     1
 90
        0
176
     1
 62
    18
420
        0
176
     1
 90
       50
176
     1
 90
        3
176
     1
 62
     5
420
      255
176
     1
290
     0
176
     1
 90
       50
176
     1
 90
       50
176
     1
 90
       50
176
     1
290
     0
176
     1
 90
       50
176
     1
 62
   256
176
     0
 40
1.0
176
     0
 90
        2
176
     1
  1
strokes_ogs.tif
176
     1
290
     0
176
     1
 40
1.0
176
     1
 40
1.0
176
     1
  0
VISUALSTYLE
  5
2B
102
{ACAD_REACTORS
330
29
102
}
330
29
100
AcDbVisualStyle
  2
FlatWithEdges
 70
     1
177
     3
291
     1
 70
    58
 90
        2
176
     1
 90
        1
176
     1
 90
        1
176
     1
 90
        2
176
     1
 40
0.6
176
     1
 40
30.0
176
     1
 62
     7
420
 16777215
176
     1
 90
        1
176
     1
 90
        0
176
     1
 62
     7
176
     1
 62
   257
176
     1
 90
        1
176
     1
 90
        1
176
     1
 40
1.0
176
     1
 90
        0
176
     1
 62
   257
176
     1
 40
1.0
176
     1
 90
        1
176
     1
 90
        6
176
     1
 90
        2
176
     1
 62
     7
176
     1
 90
        5
176
     1
 90
        0
176
     1
 90
        0
176
     1
290
     0
176
     1
 90
       13
176
     1
 40
0.0
176
     1
 90
        0
176
     1
290
     0
176
     1
290
     1
176
     1
290
     1
176
     1
290
     0
176
     1
290
     0
176
     1
290
     0
176
     1
290
     0
176
     1
290
     0
176
     1
290
     0
176
     1
 90
       50
176
     1
 40
0.0
176
     1
 40
1.0
176
     1
 90
        0
176
     1
 62
    18
420
        0
176
     1
 90
       50
176
     1
 90
        3
176
     1
 62
     5
420
      255
176
     1
290
     0
176
     1
 90
       50
176
     1
 90
       50
176
     1
 90
       50
176
     1
290
     0
176
     1
 90
       50
176
     1
 62
   256
176
     0
 40
1.0
176
     0
 90
        2
176
     1
  1
strokes_ogs.tif
176
     1
290
     0
176
     1
 40
1.0
176
     1
 40
1.0
176
     1
  0
VISUALSTYLE
  5
2C
102
{ACAD_REACTORS
330
29
102
}
330
29
100
AcDbVisualStyle
  2
Gouraud
 70
     2
177
     3
291
     1
 70
    58
 90
        2
176
     1
 90
        2
176
     1
 90
        1
176
     1
 90
        2
176
     1
 40
0.6
176
     1
 40
30.0
176
     1
 62
     7
420
 16777215
176
     1
 90
        0
176
     1
 90
        0
176
     1
 62
     7
176
     1
 62
   257
176
     1
 90
        1
176
     1
 90
        1
176
     1
 40
1.0
176
     1
 90
        0
176
     1
 62
     7
176
     1
 40
1.0
176
     1
 90
        1
176
     1
 90
        6
176
     1
 90
        2
176
     1
 62
     7
176
     1
 90
        5
176
     1
 90
        0
176
     1
 90
        0
176
     1
290
     0
176
     1
 90
       13
176
     1
 40
0.0
176
     1
 90
        0
176
     1
290
     0
176
     1
290
     1
176
     1
290
     1
176
     1
290
     0
176
     1
290
     0
176
     1
290
     0
176
     1
290
     0
176
     1
290
     0
176
     1
290
     0
176
     1
 90
       50
176
     1
 40
0.0
176
     1
 40
1.0
176
     1
 90
        0
176
     1
 62
    18
420
        0
176
     1
 90
       50
176
     1
 90
        3
176
     1
 62
     5
420
      255
176
     1
290
     0
176
     1
 90
       50
176
     1
 90
       50
176
     1
 90
       50
176
     1
290
     0
176
     1
 90
       50
176
     1
 62
   256
176
     0
 40
1.0
176
     0
 90
        2
176
     1
  1
strokes_ogs.tif
176
     1
290
     0
176
     1
 40
1.0
176
     1
 40
1.0
176
     1
  0
VISUALSTYLE
  5
2D
102
{ACAD_REACTORS
330
29
102
}
330
29
100
AcDbVisualStyle
  2
GouraudWithEdges
 70
     3
177
     3
291
     1
 70
    58
 90
        2
176
     1
 90
        2
176
     1
 90
        1
176
     1
 90
        2
176
     1
 40
0.6
176
     1
 40
30.0
176
     1
 62
     7
420
 16777215
176
     1
 90
        1
176
     1
 90
        0
176
     1
 62
     7
176
     1
 62
   257
176
     1
 90
        1
176
     1
 90
        1
176
     1
 40
1.0
176
     1
 90
        0
176
     1
 62
   257
176
     1
 40
1.0
176
     1
 90
        1
176
     1
 90
        6
176
     1
 90
        2
176
     1
 62
     7
176
     1
 90
        5
176
     1
 90
        0
176
     1
 90
        0
176
     1
290
     0
176
     1
 90
       13
176
     1
 40
0.0
176
     1
 90
        0
176
     1
290
     0
176
     1
290
     1
176
     1
290
     1
176
     1
290
     0
176
     1
290
     0
176
     1
290
     0
176
     1
290
     0
176
     1
290
     0
176
     1
290
     0
176
     1
 90
       50
176
     1
 40
0.0
176
     1
 40
1.0
176
     1
 90
        0
176
     1
 62
    18
420
        0
176
     1
 90
       50
176
     1
 90
        3
176
     1
 62
     5
420
      255
176
     1
290
     0
176
     1
 90
       50
176
     1
 90
       50
176
     1
 90
       50
176
     1
290
     0
176
     1
 90
       50
176
     1
 62
   256
176
     0
 40
1.0
176
     0
 90
        2
176
     1
  1
strokes_ogs.tif
176
     1
290
     0
176
     1
 40
1.0
176
     1
 40
1.0
176
     1
  0
VISUALSTYLE
  5
31
102
{ACAD_REACTORS
330
29
102
}
330
29
100
AcDbVisualStyle
  2
Hidden
 70
     6
177
     3
291
     0
 70
    58
 90
        1
176
     1
 90
        2
176
     1
 90
        2
176
     1
 90
        0
176
     1
 40
0.6
176
     1
 40
30.0
176
     1
 62
     7
420
 16777215
176
     1
 90
        2
176
     1
 90
        2
176
     1
 62
     7
176
     1
 62
   257
176
     1
 90
        2
176
     1
 90
        1
176
     1
 40
40.0
176
     1
 90
        0
176
     1
 62
   257
176
     1
 40
1.0
176
     1
 90
        1
176
     1
 90
        6
176
     1
 90
        2
176
     1
 62
     7
176
     1
 90
        3
176
     1
 90
        0
176
     1
 90
        0
176
     1
290
     0
176
     1
 90
        1
176
     1
 40
0.0
176
     1
 90
        0
176
     1
290
     0
176
     1
290
     1
176
     1
290
     1
176
     1
290
     0
176
     1
290
     0
176
     1
290
     0
176
     1
290
     0
176
     1
290
     0
176
     1
290
     0
176
     1
 90
       50
176
     1
 40
0.0
176
     1
 40
1.0
176
     1
 90
        0
176
     1
 62
    18
420
        0
176
     1
 90
       50
176
     1
 90
        3
176
     1
 62
     5
420
      255
176
     1
290
     0
176
     1
 90
       50
176
     1
 90
       50
176
     1
 90
       50
176
     1
290
     0
176
     1
 90
       50
176
     1
 62
   256
176
     0
 40
1.0
176
     0
 90
        2
176
     1
  1
strokes_ogs.tif
176
     1
290
     0
176
     1
 40
1.0
176
     1
 40
1.0
176
     1
  0
VISUALSTYLE
  5
3F
102
{ACAD_REACTORS
330
29
102
}
330
29
100
AcDbVisualStyle
  2
JitterOff
 70
    20
177
     3
291
     1
 70
    58
 90
        2
176
     0
 90
        2
176
     0
 90
        0
176
     0
 90
        0
176
     0
 40
0.6
176
     0
 40
30.0
176
     0
 62
     7
420
 16777215
176
     0
 90
        1
176
     0
 90
        4
176
     0
 62
     7
176
     0
 62
   257
176
     0
 90
        1
176
     0
 90
        1
176
     0
 40
1.0
176
     0
 90
       10
176
     2
 62
     7
176
     0
 40
1.0
176
     0
 90
        1
176
     0
 90
        6
176
     0
 90
        2
176
     0
 62
     7
176
     0
 90
        5
176
     0
 90
        0
176
     0
 90
        0
176
     0
290
     0
176
     0
 90
        1
176
     0
 40
0.0
176
     0
 90
        0
176
     0
290
     0
176
     0
290
     1
176
     0
290
     1
176
     0
290
     0
176
     0
290
     0
176
     0
290
     0
176
     0
290
     0
176
     0
290
     0
176
     0
290
     0
176
     0
 90
       50
176
     0
 40
0.0
176
     0
 40
1.0
176
     0
 90
        0
176
     0
 62
    18
420
        0
176
     0
 90
       50
176
     0
 90
        3
176
     0
 62
     5
420
      255
176
     0
290
     0
176
     0
 90
       50
176
     0
 90
       50
176
     0
 90
       50
176
     0
290
     0
176
     0
 90
       50
176
     0
 62
   256
176
     0
 40
1.0
176
     0
 90
        2
176
     0
  1
strokes_ogs.tif
176
     0
290
     0
176
     0
 40
1.0
176
     0
 40
1.0
176
     0
  0
VISUALSTYLE
  5
37
102
{ACAD_REACTORS
330
29
102
}
330
29
100
AcDbVisualStyle
  2
Linepattern
 70
    14
177
     3
291
     1
 70
    58
 90
        2
176
     1
 90
        2
176
     1
 90
        0
176
     1
 90
        0
176
     1
 40
0.6
176
     1
 40
30.0
176
     1
 62
     7
420
 16777215
176
     1
 90
        1
176
     1
 90
        4
176
     1
 62
     7
176
     1
 62
   257
176
     1
 90
        7
176
     1
 90
        7
176
     1
 40
1.0
176
     1
 90
        8
176
     1
 62
     7
176
     1
 40
1.0
176
     1
 90
        1
176
     1
 90
        6
176
     1
 90
        2
176
     1
 62
     7
176
     1
 90
        5
176
     1
 90
        0
176
     1
 90
        0
176
     1
290
     0
176
     1
 90
        1
176
     1
 40
0.0
176
     1
 90
        0
176
     1
290
     0
176
     1
290
     1
176
     1
290
     1
176
     1
290
     0
176
     1
290
     0
176
     1
290
     0
176
     1
290
     0
176
     1
290
     0
176
     1
290
     0
176
     1
 90
       50
176
     1
 40
0.0
176
     1
 40
1.0
176
     1
 90
        0
176
     1
 62
    18
420
        0
176
     1
 90
       50
176
     1
 90
        3
176
     1
 62
     5
420
      255
176
     1
290
     0
176
     1
 90
       50
176
     1
 90
       50
176
     1
 90
       50
176
     1
290
     0
176
     1
 90
       50
176
     1
 62
   256
176
     0
 40
1.0
176
     0
 90
        2
176
     1
  1
strokes_ogs.tif
176
     1
290
     0
176
     1
 40
1.0
176
     1
 40
1.0
176
     1
  0
VISUALSTYLE
  5
40
102
{ACAD_REACTORS
330
29
102
}
330
29
100
AcDbVisualStyle
  2
OverhangOff
 70
    21
177
     3
291
     1
 70
    58
 90
        2
176
     0
 90
        2
176
     0
 90
        0
176
     0
 90
        0
176
     0
 40
0.6
176
     0
 40
30.0
176
     0
 62
     7
420
 16777215
176
     0
 90
        1
176
     0
 90
        4
176
     0
 62
     7
176
     0
 62
   257
176
     0
 90
        1
176
     0
 90
        1
176
     0
 40
1.0
176
     0
 90
        9
176
     2
 62
     7
176
     0
 40
1.0
176
     0
 90
        1
176
     0
 90
        6
176
     0
 90
        2
176
     0
 62
     7
176
     0
 90
        5
176
     0
 90
        0
176
     0
 90
        0
176
     0
290
     0
176
     0
 90
        1
176
     0
 40
0.0
176
     0
 90
        0
176
     0
290
     0
176
     0
290
     1
176
     0
290
     1
176
     0
290
     0
176
     0
290
     0
176
     0
290
     0
176
     0
290
     0
176
     0
290
     0
176
     0
290
     0
176
     0
 90
       50
176
     0
 40
0.0
176
     0
 40
1.0
176
     0
 90
        0
176
     0
 62
    18
420
        0
176
     0
 90
       50
176
     0
 90
        3
176
     0
 62
     5
420
      255
176
     0
290
     0
176
     0
 90
       50
176
     0
 90
       50
176
     0
 90
       50
176
     0
290
     0
176
     0
 90
       50
176
     0
 62
   256
176
     0
 40
1.0
176
     0
 90
        2
176
     0
  1
strokes_ogs.tif
176
     0
290
     0
176
     0
 40
1.0
176
     0
 40
1.0
176
     0
  0
VISUALSTYLE
  5
33
102
{ACAD_REACTORS
330
29
102
}
330
29
100
AcDbVisualStyle
  2
Realistic
 70
     8
177
     3
291
     0
 70
    58
 90
        2
176
     1
 90
        3
176
     1
 90
        0
176
     1
 90
        2
176
     1
 40
0.6
176
     1
 40
30.0
176
     1
 62
     7
420
 16777215
176
     1
 90
        0
176
     1
 90
        0
176
     1
 62
     7
176
     1
 62
   257
176
     1
 90
        1
176
     1
 90
        1
176
     1
 40
1.0
176
     1
 90
        8
176
     1
 62
   257
176
     1
 40
1.0
176
     1
 90
        1
176
     1
 90
        6
176
     1
 90
        2
176
     1
 62
     7
176
     1
 90
        3
176
     1
 90
        0
176
     1
 90
        0
176
     1
290
     0
176
     1
 90
       13
176
     1
 40
0.0
176
     1
 90
        0
176
     1
290
     0
176
     1
290
     1
176
     1
290
     1
176
     1
290
     0
176
     1
290
     0
176
     1
290
     0
176
     1
290
     0
176
     1
290
     0
176
     1
290
     0
176
     1
 90
       50
176
     1
 40
0.0
176
     1
 40
1.0
176
     1
 90
        0
176
     1
 62
    18
420
        0
176
     1
 90
       50
176
     1
 90
        3
176
     1
 62
     5
420
      255
176
     1
290
     0
176
     1
 90
       50
176
     1
 90
       50
176
     1
 90
       50
176
     1
290
     0
176
     1
 90
       50
176
     1
 62
   256
176
     0
 40
1.0
176
     0
 90
        2
176
     1
  1
strokes_ogs.tif
176
     1
290
     0
176
     1
 40
1.0
176
     1
 40
1.0
176
     1
  0
VISUALSTYLE
  5
3E
102
{ACAD_REACTORS
330
29
102
}
330
29
100
AcDbVisualStyle
  2
Shaded
 70
    27
177
     3
291
     0
 70
    58
 90
        2
176
     1
 90
        2
176
     1
 90
        1
176
     1
 90
        2
176
     1
 40
0.6
176
     1
 40
30.0
176
     1
 62
     7
420
 16777215
176
     1
 90
        0
176
     1
 90
        4
176
     1
 62
     7
176
     1
 62
   257
176
     1
 90
        1
176
     1
 90
        1
176
     1
 40
1.0
176
     1
 90
        8
176
     1
 62
   257
176
     1
 40
1.0
176
     1
 90
        1
176
     1
 90
        6
176
     1
 90
        2
176
     1
 62
     8
420
  7895160
176
     1
 90
        3
176
     1
 90
        0
176
     1
 90
        0
176
     1
290
     0
176
     1
 90
        5
176
     1
 40
0.0
176
     1
 90
        0
176
     1
290
     0
176
     1
290
     1
176
     1
290
     1
176
     1
290
     0
176
     1
290
     0
176
     1
290
     0
176
     1
290
     0
176
     1
290
     0
176
     1
290
     0
176
     1
 90
       50
176
     1
 40
0.0
176
     1
 40
1.0
176
     1
 90
        0
176
     1
 62
    18
420
        0
176
     1
 90
       50
176
     1
 90
        3
176
     1
 62
     5
420
      255
176
     1
290
     0
176
     1
 90
       50
176
     1
 90
       50
176
     1
 90
       50
176
     1
290
     0
176
     1
 90
       50
176
     1
 62
   256
176
     0
 40
1.0
176
     0
 90
        2
176
     1
  1
strokes_ogs.tif
176
     1
290
     0
176
     1
 40
1.0
176
     1
 40
1.0
176
     1
  0
VISUALSTYLE
  5
3D
102
{ACAD_REACTORS
330
29
102
}
330
29
100
AcDbVisualStyle
  2
Shaded with edges
 70
    26
177
     3
291
     0
 70
    58
 90
        2
176
     1
 90
        2
176
     1
 90
        1
176
     1
 90
        2
176
     1
 40
0.6
176
     1
 40
30.0
176
     1
 62
     7
420
 16777215
176
     1
 90
        1
176
     1
 90
        2
176
     1
 62
     7
176
     1
 62
   257
176
     1
 90
        2
176
     1
 90
        1
176
     1
 40
1.0
176
     1
 90
        8
176
     1
 62
   257
176
     1
 40
1.0
176
     1
 90
        1
176
     1
 90
        6
176
     1
 90
        2
176
     1
 62
     7
176
     1
 90
        3
176
     1
 90
        0
176
     1
 90
        0
176
     1
290
     0
176
     1
 90
        5
176
     1
 40
0.0
176
     1
 90
        0
176
     1
290
     0
176
     1
290
     1
176
     1
290
     1
176
     1
290
     0
176
     1
290
     0
176
     1
290
     0
176
     1
290
     0
176
     1
290
     0
176
     1
290
     0
176
     1
 90
       50
176
     1
 40
0.0
176
     1
 40
1.0
176
     1
 90
        0
176
     1
 62
    18
420
        0
176
     1
 90
       50
176
     1
 90
        3
176
     1
 62
     5
420
      255
176
     1
290
     0
176
     1
 90
       50
176
     1
 90
       50
176
     1
 90
       50
176
     1
290
     0
176
     1
 90
       50
176
     1
 62
   256
176
     0
 40
1.0
176
     0
 90
        2
176
     1
  1
strokes_ogs.tif
176
     1
290
     0
176
     1
 40
1.0
176
     1
 40
1.0
176
     1
  0
VISUALSTYLE
  5
3A
102
{ACAD_REACTORS
330
29
102
}
330
29
100
AcDbVisualStyle
  2
Shades of Gray
 70
    23
177
     3
291
     0
 70
    58
 90
        2
176
     1
 90
        2
176
     1
 90
        3
176
     1
 90
        0
176
     1
 40
0.6
176
     1
 40
30.0
176
     1
 62
     7
420
 16777215
176
     1
 90
        2
176
     1
 90
        2
176
     1
 62
     7
176
     1
 62
     7
176
     1
 90
        1
176
     1
 90
        1
176
     1
 40
40.0
176
     1
 90
        8
176
     1
 62
     7
176
     1
 40
1.0
176
     1
 90
        1
176
     1
 90
        6
176
     1
 90
        2
176
     1
 62
     7
176
     1
 90
        3
176
     1
 90
        0
176
     1
 90
        0
176
     1
290
     0
176
     1
 90
        1
176
     1
 40
0.0
176
     1
 90
        0
176
     1
290
     0
176
     1
290
     1
176
     1
290
     1
176
     1
290
     0
176
     1
290
     0
176
     1
290
     0
176
     1
290
     0
176
     1
290
     0
176
     1
290
     0
176
     1
 90
       50
176
     1
 40
0.0
176
     1
 40
1.0
176
     1
 90
        0
176
     1
 62
    18
420
        0
176
     1
 90
       50
176
     1
 90
        3
176
     1
 62
     5
420
      255
176
     1
290
     0
176
     1
 90
       50
176
     1
 90
       50
176
     1
 90
       50
176
     1
290
     0
176
     1
 90
       50
176
     1
 62
   256
176
     0
 40
1.0
176
     0
 90
        2
176
     1
  1
strokes_ogs.tif
176
     1
290
     0
176
     1
 40
1.0
176
     1
 40
1.0
176
     1
  0
VISUALSTYLE
  5
3B
102
{ACAD_REACTORS
330
29
102
}
330
29
100
AcDbVisualStyle
  2
Sketchy
 70
    24
177
     3
291
     0
 70
    58
 90
        1
176
     1
 90
        2
176
     1
 90
        2
176
     1
 90
        0
176
     1
 40
0.6
176
     1
 40
30.0
176
     1
 62
     7
420
 16777215
176
     1
 90
        2
176
     1
 90
        2
176
     1
 62
     7
176
     1
 62
     7
176
     1
 90
        1
176
     1
 90
        1
176
     1
 40
40.0
176
     1
 90
       11
176
     1
 62
     7
176
     1
 40
1.0
176
     1
 90
        1
176
     1
 90
        6
176
     1
 90
        2
176
     1
 62
     7
176
     1
 90
        6
176
     1
 90
        0
176
     1
 90
        0
176
     1
290
     0
176
     1
 90
        1
176
     1
 40
0.0
176
     1
 90
        0
176
     1
290
     0
176
     1
290
     1
176
     1
290
     1
176
     1
290
     0
176
     1
290
     0
176
     1
290
     0
176
     1
290
     0
176
     1
290
     0
176
     1
290
     0
176
     1
 90
       50
176
     1
 40
0.0
176
     1
 40
1.0
176
     1
 90
        0
176
     1
 62
    18
420
        0
176
     1
 90
       50
176
     1
 90
        3
176
     1
 62
     5
420
      255
176
     1
290
     0
176
     1
 90
       50
176
     1
 90
       50
176
     1
 90
       50
176
     1
290
     0
176
     1
 90
       50
176
     1
 62
   256
176
     0
 40
1.0
176
     0
 90
        2
176
     1
  1
strokes_ogs.tif
176
     1
290
     0
176
     1
 40
1.0
176
     1
 40
1.0
176
     1
  0
VISUALSTYLE
  5
36
102
{ACAD_REACTORS
330
29
102
}
330
29
100
AcDbVisualStyle
  2
Thicken
 70
    13
177
     3
291
     1
 70
    58
 90
        2
176
     1
 90
        2
176
     1
 90
        0
176
     1
 90
        0
176
     1
 40
0.6
176
     1
 40
30.0
176
     1
 62
     7
420
 16777215
176
     1
 90
        1
176
     1
 90
        4
176
     1
 62
     7
176
     1
 62
   257
176
     1
 90
        1
176
     1
 90
        1
176
     1
 40
1.0
176
     1
 90
       12
176
     1
 62
     7
176
     1
 40
1.0
176
     1
 90
        1
176
     1
 90
        6
176
     1
 90
        2
176
     1
 62
     7
176
     1
 90
        5
176
     1
 90
        0
176
     1
 90
        0
176
     1
290
     0
176
     1
 90
        1
176
     1
 40
0.0
176
     1
 90
        0
176
     1
290
     0
176
     1
290
     1
176
     1
290
     1
176
     1
290
     0
176
     1
290
     0
176
     1
290
     0
176
     1
290
     0
176
     1
290
     0
176
     1
290
     0
176
     1
 90
       50
176
     1
 40
0.0
176
     1
 40
1.0
176
     1
 90
        0
176
     1
 62
    18
420
        0
176
     1
 90
       50
176
     1
 90
        3
176
     1
 62
     5
420
      255
176
     1
290
     0
176
     1
 90
       50
176
     1
 90
       50
176
     1
 90
       50
176
     1
290
     0
176
     1
 90
       50
176
     1
 62
   256
176
     0
 40
1.0
176
     0
 90
        2
176
     1
  1
strokes_ogs.tif
176
     1
290
     0
176
     1
 40
1.0
176
     1
 40
1.0
176
     1
  0
VISUALSTYLE
  5
30
102
{ACAD_REACTORS
330
29
102
}
330
29
100
AcDbVisualStyle
  2
Wireframe
 70
     5
177
     3
291
     0
 70
    58
 90
        0
176
     1
 90
        2
176
     1
 90
        0
176
     1
 90
        0
176
     1
 40
0.6
176
     1
 40
30.0
176
     1
 62
     7
420
 16777215
176
     1
 90
        1
176
     1
 90
        4
176
     1
 62
     7
176
     1
 62
   257
176
     1
 90
        1
176
     1
 90
        1
176
     1
 40
1.0
176
     1
 90
        0
176
     1
 62
   257
176
     1
 40
1.0
176
     1
 90
        1
176
     1
 90
        6
176
     1
 90
        2
176
     1
 62
     7
176
     1
 90
        3
176
     1
 90
        0
176
     1
 90
        0
176
     1
290
     0
176
     1
 90
        1
176
     1
 40
0.0
176
     1
 90
        0
176
     1
290
     0
176
     1
290
     1
176
     1
290
     1
176
     1
290
     0
176
     1
290
     0
176
     1
290
     0
176
     1
290
     0
176
     1
290
     0
176
     1
290
     0
176
     1
 90
       50
176
     1
 40
0.0
176
     1
 40
1.0
176
     1
 90
        0
176
     1
 62
    18
420
        0
176
     1
 90
       50
176
     1
 90
        3
176
     1
 62
     5
420
      255
176
     1
290
     0
176
     1
 90
       50
176
     1
 90
       50
176
     1
 90
       50
176
     1
290
     0
176
     1
 90
       50
176
     1
 62
   256
176
     0
 40
1.0
176
     0
 90
        2
176
     1
  1
strokes_ogs.tif
176
     1
290
     0
176
     1
 40
1.0
176
     1
 40
1.0
176
     1
  0
VISUALSTYLE
  5
3C
102
{ACAD_REACTORS
330
29
102
}
330
29
100
AcDbVisualStyle
  2
X-Ray
 70
    25
177
     3
291
     0
 70
    58
 90
        2
176
     1
 90
        2
176
     1
 90
        1
176
     1
 90
        1
176
     1
 40
0.5
176
     1
 40
30.0
176
     1
 62
     7
420
 16777215
176
     1
 90
        1
176
     1
 90
        0
176
     1
 62
     7
176
     1
 62
   257
176
     1
 90
        1
176
     1
 90
        1
176
     1
 40
1.0
176
     1
 90
        8
176
     1
 62
     7
176
     1
 40
1.0
176
     1
 90
        1
176
     1
 90
        6
176
     1
 90
        2
176
     1
 62
     7
176
     1
 90
        3
176
     1
 90
        0
176
     1
 90
        0
176
     1
290
     0
176
     1
 90
       13
176
     1
 40
0.0
176
     1
 90
        0
176
     1
290
     0
176
     1
290
     1
176
     1
290
     1
176
     1
290
     0
176
     1
290
     0
176
     1
290
     0
176
     1
290
     0
176
     1
290
     0
176
     1
290
     0
176
     1
 90
       50
176
     1
 40
0.0
176
     1
 40
1.0
176
     1
 90
        0
176
     1
 62
    18
420
        0
176
     1
 90
       50
176
     1
 90
        3
176
     1
 62
     5
420
      255
176
     1
290
     0
176
     1
 90
       50
176
     1
 90
       50
176
     1
 90
       50
176
     1
290
     0
176
     1
 90
       50
176
     1
 62
   256
176
     0
 40
1.0
176
     0
 90
        2
176
     1
  1
strokes_ogs.tif
176
     1
290
     0
176
     1
 40
1.0
176
     1
 40
1.0
176
     1
  0
DICTIONARYVAR
  5
365
102
{ACAD_REACTORS
330
360
102
}
330
360
100
DictionaryVariables
280
     0
  1
1:1
  0
DICTIONARYVAR
  5
362
102
{ACAD_REACTORS
330
360
102
}
330
360
100
DictionaryVariables
280
     0
  1
STANDARD
  0
DICTIONARYVAR
  5
361
102
{ACAD_REACTORS
330
360
102
}
330
360
100
DictionaryVariables
280
     0
  1
STANDARD
  0
DICTIONARYVAR
  5
363
102
{ACAD_REACTORS
330
360
102
}
330
360
100
DictionaryVariables
280
     0
  1
Imperial24
  0
DICTIONARYVAR
  5
364
102
{ACAD_REACTORS
330
360
102
}
330
360
100
DictionaryVariables
280
     0
  1
Imperial24
  0
DICTIONARY
  5
1A
330
19
100
AcDbDictionary
280
     1
281
     1
  3
BUMPTILE
360
1C
  3
DIFFUSETILE
360
1B
  3
OPACITYTILE
360
1F
  3
REFLECTIONTILE
360
1E
  3
REFRACTIONTILE
360
20
  3
SPECULARTILE
360
1D
  0
DICTIONARY
  5
12
330
11
100
AcDbDictionary
280
     1
281
     1
  3
BUMPTILE
360
14
  3
DIFFUSETILE
360
13
  3
OPACITYTILE
360
17
  3
REFLECTIONTILE
360
16
  3
REFRACTIONTILE
360
18
  3
SPECULARTILE
360
15
  0
DICTIONARY
  5
22
330
21
100
AcDbDictionary
280
     1
281
     1
  3
BUMPTILE
360
24
  3
DIFFUSETILE
360
23
  3
OPACITYTILE
360
27
  3
REFLECTIONTILE
360
26
  3
REFRACTIONTILE
360
28
  3
SPECULARTILE
360
25
  0
DICTIONARY
  5
366
330
65
100
AcDbDictionary
280
     1
281
     1
  3
ACAD_ROUNDTRIP_2008_TABLESTYLE_CELLSTYLEMAP
360
367
  0
XRECORD
  5
1C
102
{ACAD_REACTORS
330
1A
102
}
330
1A
100
AcDbXrecord
280
     1
270
     1
271
     1
  0
XRECORD
  5
1B
102
{ACAD_REACTORS
330
1A
102
}
330
1A
100
AcDbXrecord
280
     1
270
     1
271
     1
  0
XRECORD
  5
1F
102
{ACAD_REACTORS
330
1A
102
}
330
1A
100
AcDbXrecord
280
     1
270
     1
271
     1
  0
XRECORD
  5
1E
102
{ACAD_REACTORS
330
1A
102
}
330
1A
100
AcDbXrecord
280
     1
270
     1
271
     1
  0
XRECORD
  5
20
102
{ACAD_REACTORS
330
1A
102
}
330
1A
100
AcDbXrecord
280
     1
270
     1
271
     1
  0
XRECORD
  5
1D
102
{ACAD_REACTORS
330
1A
102
}
330
1A
100
AcDbXrecord
280
     1
270
     1
271
     1
  0
XRECORD
  5
14
102
{ACAD_REACTORS
330
12
102
}
330
12
100
AcDbXrecord
280
     1
270
     1
271
     1
  0
XRECORD
  5
13
102
{ACAD_REACTORS
330
12
102
}
330
12
100
AcDbXrecord
280
     1
270
     1
271
     1
  0
XRECORD
  5
17
102
{ACAD_REACTORS
330
12
102
}
330
12
100
AcDbXrecord
280
     1
270
     1
271
     1
  0
XRECORD
  5
16
102
{ACAD_REACTORS
330
12
102
}
330
12
100
AcDbXrecord
280
     1
270
     1
271
     1
  0
XRECORD
  5
18
102
{ACAD_REACTORS
330
12
102
}
330
12
100
AcDbXrecord
280
     1
270
     1
271
     1
  0
XRECORD
  5
15
102
{ACAD_REACTORS
330
12
102
}
330
12
100
AcDbXrecord
280
     1
270
     1
271
     1
  0
XRECORD
  5
24
102
{ACAD_REACTORS
330
22
102
}
330
22
100
AcDbXrecord
280
     1
270
     1
271
     1
  0
XRECORD
  5
23
102
{ACAD_REACTORS
330
22
102
}
330
22
100
AcDbXrecord
280
     1
270
     1
271
     1
  0
XRECORD
  5
27
102
{ACAD_REACTORS
330
22
102
}
330
22
100
AcDbXrecord
280
     1
270
     1
271
     1
  0
XRECORD
  5
26
102
{ACAD_REACTORS
330
22
102
}
330
22
100
AcDbXrecord
280
     1
270
     1
271
     1
  0
XRECORD
  5
28
102
{ACAD_REACTORS
330
22
102
}
330
22
100
AcDbXrecord
280
     1
270
     1
271
     1
  0
XRECORD
  5
25
102
{ACAD_REACTORS
330
22
102
}
330
22
100
AcDbXrecord
280
     1
270
     1
271
     1
  0
CELLSTYLEMAP
  5
367
102
{ACAD_REACTORS
330
366
102
}
330
366
100
AcDbCellStyleMap
 90
        3
300
CELLSTYLE
  1
TABLEFORMAT_BEGIN
 90
        5
170
     1
 91
        0
 92
    32768
 62
   257
 93
        1
300
CONTENTFORMAT
  1
CONTENTFORMAT_BEGIN
 90
        0
 91
        0
 92
      512
 93
        0
300

 40
0.0
140
1.0
 94
        5
 62
     0
340
55
144
0.25
309
CONTENTFORMAT_END
171
     0
 94
        0
309
TABLEFORMAT_END
  1
CELLSTYLE_BEGIN
 90
        1
 91
        1
300
_TITLE
309
CELLSTYLE_END
300
CELLSTYLE
  1
TABLEFORMAT_BEGIN
 90
        5
170
     1
 91
        0
 92
        0
 62
   257
 93
        1
300
CONTENTFORMAT
  1
CONTENTFORMAT_BEGIN
 90
        0
 91
        0
 92
      512
 93
        0
300

 40
0.0
140
1.0
 94
        5
 62
     0
340
55
144
0.18
309
CONTENTFORMAT_END
171
     0
 94
        0
309
TABLEFORMAT_END
  1
CELLSTYLE_BEGIN
 90
        2
 91
        1
300
_HEADER
309
CELLSTYLE_END
300
CELLSTYLE
  1
TABLEFORMAT_BEGIN
 90
        5
170
     1
 91
        0
 92
        0
 62
   257
 93
        1
300
CONTENTFORMAT
  1
CONTENTFORMAT_BEGIN
 90
        0
 91
        0
 92
      512
 93
        0
300

 40
0.0
140
1.0
 94
        2
 62
     0
340
55
144
0.18
309
CONTENTFORMAT_END
171
     0
 94
        0
309
TABLEFORMAT_END
  1
CELLSTYLE_BEGIN
 90
        3
 91
        2
300
_DATA
309
CELLSTYLE_END
  0
ENDSEC
  0
EOF
