  0
SECTION
  2
HEADER
  9
$ACADVER
  1
AC1032
  9
$ACADMAINTVER
 90
      251
  9
$DWGCODEPAGE
  3
ANSI_1252
  9
$REQUIREDVERSIONS
160
                 0
  9
$INSBASE
 10
0.0
 20
0.0
 30
0.0
  9
$EXTMIN
 10
1.000000000000000E+20
 20
1.000000000000000E+20
 30
1.000000000000000E+20
  9
$EXTMAX
 10
-1.000000000000000E+20
 20
-1.000000000000000E+20
 30
-1.000000000000000E+20
  9
$LIMMIN
 10
0.0
 20
0.0
  9
$LIMMAX
 10
12.0
 20
9.0
  9
$ORTHOMODE
 70
     0
  9
$REGENMODE
 70
     1
  9
$FILLMODE
 70
     1
  9
$QTEXTMODE
 70
     0
  9
$MIRRTEXT
 70
     0
  9
$LTSCALE
 40
1.0
  9
$ATTMODE
 70
     1
  9
$TEXTSIZE
 40
0.2
  9
$TRACEWID
 40
0.05
  9
$TEXTSTYLE
  7
Standard
  9
$CLAYER
  8
0
  9
$CELTYPE
  6
ByLayer
  9
$CECOLOR
 62
   256
  9
$CELTSCALE
 40
1.0
  9
$DISPSILH
 70
     0
  9
$DIMSCALE
 40
1.0
  9
$DIMASZ
 40
0.18
  9
$DIMEXO
 40
0.0625
  9
$DIMDLI
 40
0.38
  9
$DIMRND
 40
0.0
  9
$DIMDLE
 40
0.0
  9
$DIMEXE
 40
0.18
  9
$DIMTP
 40
0.0
  9
$DIMTM
 40
0.0
  9
$DIMTXT
 40
0.18
  9
$DIMCEN
 40
0.09
  9
$DIMTSZ
 40
0.0
  9
$DIMTOL
 70
     0
  9
$DIMLIM
 70
     0
  9
$DIMTIH
 70
     1
  9
$DIMTOH
 70
     1
  9
$DIMSE1
 70
     0
  9
$DIMSE2
 70
     0
  9
$DIMTAD
 70
     0
  9
$DIMZIN
 70
     0
  9
$DIMBLK
  1

  9
$DIMASO
 70
     1
  9
$DIMSHO
 70
     1
  9
$DIMPOST
  1

  9
$DIMAPOST
  1

  9
$DIMALT
 70
     0
  9
$DIMALTD
 70
     2
  9
$DIMALTF
 40
25.4
  9
$DIMLFAC
 40
1.0
  9
$DIMTOFL
 70
     0
  9
$DIMTVP
 40
0.0
  9
$DIMTIX
 70
     0
  9
$DIMSOXD
 70
     0
  9
$DIMSAH
 70
     0
  9
$DIMBLK1
  1

  9
$DIMBLK2
  1

  9
$DIMSTYLE
  2
Standard
  9
$DIMCLRD
 70
     0
  9
$DIMCLRE
 70
     0
  9
$DIMCLRT
 70
     0
  9
$DIMTFAC
 40
1.0
  9
$DIMGAP
 40
0.09
  9
$DIMJUST
 70
     0
  9
$DIMSD1
 70
     0
  9
$DIMSD2
 70
     0
  9
$DIMTOLJ
 70
     1
  9
$DIMTZIN
 70
     0
  9
$DIMALTZ
 70
     0
  9
$DIMALTTZ
 70
     0
  9
$DIMUPT
 70
     0
  9
$DIMDEC
 70
     4
  9
$DIMTDEC
 70
     4
  9
$DIMALTU
 70
     2
  9
$DIMALTTD
 70
     2
  9
$DIMTXSTY
  7
Standard
  9
$DIMAUNIT
 70
     0
  9
$DIMADEC
 70
     0
  9
$DIMALTRND
 40
0.0
  9
$DIMAZIN
 70
     0
  9
$DIMDSEP
 70
    46
  9
$DIMATFIT
 70
     3
  9
$DIMFRAC
 70
     0
  9
$DIMLDRBLK
  1

  9
$DIMLUNIT
 70
     2
  9
$DIMLWD
 70
    -2
  9
$DIMLWE
 70
    -2
  9
$DIMTMOVE
 70
     0
  9
$DIMFXL
 40
1.0
  9
$DIMFXLON
 70
     0
  9
$DIMJOGANG
 40
0.7853981633974483
  9
$DIMTFILL
 70
     0
  9
$DIMTFILLCLR
 70
     0
  9
$DIMARCSYM
 70
     0
  9
$DIMLTYPE
  6

  9
$DIMLTEX1
  6

  9
$DIMLTEX2
  6

  9
$DIMTXTDIRECTION
 70
     0
  9
$LUNITS
 70
     2
  9
$LUPREC
 70
     4
  9
$SKETCHINC
 40
0.1
  9
$FILLETRAD
 40
0.0
  9
$AUNITS
 70
     0
  9
$AUPREC
 70
     0
  9
$MENU
  1
.
  9
$ELEVATION
 40
0.0
  9
$PELEVATION
 40
0.0
  9
$THICKNESS
 40
0.0
  9
$LIMCHECK
 70
     0
  9
$CHAMFERA
 40
0.0
  9
$CHAMFERB
 40
0.0
  9
$CHAMFERC
 40
0.0
  9
$CHAMFERD
 40
0.0
  9
$SKPOLY
 70
     0
  9
$TDCREATE
 40
2459963.396724537
  9
$TDUCREATE
 40
2459963.355057871
  9
$TDUPDATE
 40
2459963.396724537
  9
$TDUUPDATE
 40
2459963.355057871
  9
$TDINDWG
 40
0.0000000000
  9
$TDUSRTIMER
 40
0.0000000000
  9
$USRTIMER
 70
     1
  9
$ANGBASE
 50
0.0
  9
$ANGDIR
 70
     0
  9
$PDMODE
 70
     0
  9
$PDSIZE
 40
0.0
  9
$PLINEWID
 40
0.0
  9
$SPLFRAME
 70
     0
  9
$SPLINETYPE
 70
     6
  9
$SPLINESEGS
 70
     8
  9
$HANDSEED
  5
35E
  9
$SURFTAB1
 70
     6
  9
$SURFTAB2
 70
     6
  9
$SURFTYPE
 70
     6
  9
$SURFU
 70
     6
  9
$SURFV
 70
     6
  9
$UCSBASE
  2

  9
$UCSNAME
  2

  9
$UCSORG
 10
0.0
 20
0.0
 30
0.0
  9
$UCSXDIR
 10
1.0
 20
0.0
 30
0.0
  9
$UCSYDIR
 10
0.0
 20
1.0
 30
0.0
  9
$UCSORTHOREF
  2

  9
$UCSORTHOVIEW
 70
     0
  9
$UCSORGTOP
 10
0.0
 20
0.0
 30
0.0
  9
$UCSORGBOTTOM
 10
0.0
 20
0.0
 30
0.0
  9
$UCSORGLEFT
 10
0.0
 20
0.0
 30
0.0
  9
$UCSORGRIGHT
 10
0.0
 20
0.0
 30
0.0
  9
$UCSORGFRONT
 10
0.0
 20
0.0
 30
0.0
  9
$UCSORGBACK
 10
0.0
 20
0.0
 30
0.0
  9
$PUCSBASE
  2

  9
$PUCSNAME
  2

  9
$PUCSORG
 10
0.0
 20
0.0
 30
0.0
  9
$PUCSXDIR
 10
1.0
 20
0.0
 30
0.0
  9
$PUCSYDIR
 10
0.0
 20
1.0
 30
0.0
  9
$PUCSORTHOREF
  2

  9
$PUCSORTHOVIEW
 70
     0
  9
$PUCSORGTOP
 10
0.0
 20
0.0
 30
0.0
  9
$PUCSORGBOTTOM
 10
0.0
 20
0.0
 30
0.0
  9
$PUCSORGLEFT
 10
0.0
 20
0.0
 30
0.0
  9
$PUCSORGRIGHT
 10
0.0
 20
0.0
 30
0.0
  9
$PUCSORGFRONT
 10
0.0
 20
0.0
 30
0.0
  9
$PUCSORGBACK
 10
0.0
 20
0.0
 30
0.0
  9
$USERI1
 70
     0
  9
$USERI2
 70
     0
  9
$USERI3
 70
     0
  9
$USERI4
 70
     0
  9
$USERI5
 70
     0
  9
$USERR1
 40
0.0
  9
$USERR2
 40
0.0
  9
$USERR3
 40
0.0
  9
$USERR4
 40
0.0
  9
$USERR5
 40
0.0
  9
$WORLDVIEW
 70
     1
  9
$SHADEDGE
 70
     3
  9
$SHADEDIF
 70
    70
  9
$TILEMODE
 70
     1
  9
$MAXACTVP
 70
    64
  9
$PINSBASE
 10
0.0
 20
0.0
 30
0.0
  9
$PLIMCHECK
 70
     0
  9
$PEXTMIN
 10
1.000000000000000E+20
 20
1.000000000000000E+20
 30
1.000000000000000E+20
  9
$PEXTMAX
 10
-1.000000000000000E+20
 20
-1.000000000000000E+20
 30
-1.000000000000000E+20
  9
$PLIMMIN
 10
0.0
 20
0.0
  9
$PLIMMAX
 10
12.0
 20
9.0
  9
$UNITMODE
 70
     0
  9
$VISRETAIN
 70
     1
  9
$PLINEGEN
 70
     0
  9
$PSLTSCALE
 70
     1
  9
$TREEDEPTH
 70
  3020
  9
$CMLSTYLE
  2
Standard
  9
$CMLJUST
 70
     0
  9
$CMLSCALE
 40
1.0
  9
$PROXYGRAPHICS
 70
     1
  9
$MEASUREMENT
 70
     0
  9
$CELWEIGHT
370
    -1
  9
$ENDCAPS
280
     0
  9
$JOINSTYLE
280
     0
  9
$LWDISPLAY
290
     1
  9
$INSUNITS
 70
     4
  9
$HYPERLINKBASE
  1

  9
$STYLESHEET
  1

  9
$XEDIT
290
     1
  9
$CEPSNTYPE
380
     0
  9
$PSTYLEMODE
290
     1
  9
$FINGERPRINTGUID
  2
{13F8BE6B-781F-5047-8545-8EAB0CD80F12}
  9
$VERSIONGUID
  2
{2C65268E-614F-0448-BC9E-70106F552B9B}
  9
$EXTNAMES
290
     1
  9
$PSVPSCALE
 40
0.0
  9
$OLESTARTUP
290
     0
  9
$SORTENTS
280
   127
  9
$INDEXCTL
280
     0
  9
$HIDETEXT
280
     1
  9
$XCLIPFRAME
280
     2
  9
$HALOGAP
280
     0
  9
$OBSCOLOR
 70
   257
  9
$OBSLTYPE
280
     0
  9
$INTERSECTIONDISPLAY
280
     0
  9
$INTERSECTIONCOLOR
 70
   257
  9
$DIMASSOC
280
     2
  9
$PROJECTNAME
  1

  9
$CAMERADISPLAY
290
     0
  9
$LENSLENGTH
 40
50.0
  9
$CAMERAHEIGHT
 40
0.0
  9
$STEPSPERSEC
 40
2.0
  9
$STEPSIZE
 40
6.0
  9
$3DDWFPREC
 40
2.0
  9
$PSOLWIDTH
 40
0.25
  9
$PSOLHEIGHT
 40
4.0
  9
$LOFTANG1
 40
1.570796326794896
  9
$LOFTANG2
 40
1.570796326794896
  9
$LOFTMAG1
 40
0.0
  9
$LOFTMAG2
 40
0.0
  9
$LOFTPARAM
 70
     7
  9
$LOFTNORMALS
280
     1
  9
$LATITUDE
 40
37.795
  9
$LONGITUDE
 40
-122.394
  9
$NORTHDIRECTION
 40
0.0
  9
$TIMEZONE
 70
 -8000
  9
$LIGHTGLYPHDISPLAY
280
     1
  9
$TILEMODELIGHTSYNCH
280
     1
  9
$CMATERIAL
347
11
  9
$SOLIDHIST
280
     0
  9
$SHOWHIST
280
     1
  9
$DWFFRAME
280
     2
  9
$DGNFRAME
280
     0
  9
$REALWORLDSCALE
290
     1
  9
$INTERFERECOLOR
 62
     1
  9
$INTERFEREOBJVS
345
33
  9
$INTERFEREVPVS
346
30
  9
$CSHADOW
280
     0
  9
$SHADOWPLANELOCATION
 40
0.0
  0
ENDSEC
  0
SECTION
  2
CLASSES
  0
CLASS
  1
ACDBDICTIONARYWDFLT
  2
AcDbDictionaryWithDefault
  3
ObjectDBX Classes
 90
        0
 91
        1
280
     0
281
     0
  0
CLASS
  1
MATERIAL
  2
AcDbMaterial
  3
ObjectDBX Classes
 90
     1153
 91
        3
280
     0
281
     0
  0
CLASS
  1
VISUALSTYLE
  2
AcDbVisualStyle
  3
ObjectDBX Classes
 90
     4095
 91
       24
280
     0
281
     0
  0
CLASS
  1
SCALE
  2
AcDbScale
  3
ObjectDBX Classes
 90
     1153
 91
       17
280
     0
281
     0
  0
CLASS
  1
TABLESTYLE
  2
AcDbTableStyle
  3
ObjectDBX Classes
 90
     4095
 91
        1
280
     0
281
     0
  0
CLASS
  1
MLEADERSTYLE
  2
AcDbMLeaderStyle
  3
ACDB_MLEADERSTYLE_CLASS
 90
     4095
 91
        1
280
     0
281
     0
  0
CLASS
  1
ACDBSECTIONVIEWSTYLE
  2
AcDbSectionViewStyle
  3
ObjectDBX Classes
 90
     1025
 91
        1
280
     0
281
     0
  0
CLASS
  1
ACDBDETAILVIEWSTYLE
  2
AcDbDetailViewStyle
  3
ObjectDBX Classes
 90
     1025
 91
        1
280
     0
281
     0
  0
CLASS
  1
DICTIONARYVAR
  2
AcDbDictionaryVar
  3
ObjectDBX Classes
 90
        0
 91
        5
280
     0
281
     0
  0
CLASS
  1
CELLSTYLEMAP
  2
AcDbCellStyleMap
  3
ObjectDBX Classes
 90
     1152
 91
        1
280
     0
281
     0
  0
ENDSEC
  0
SECTION
  2
TABLES
  0
TABLE
  2
VPORT
  5
8
330
0
100
AcDbSymbolTable
 70
     1
  0
VPORT
  5
57
330
8
100
AcDbSymbolTableRecord
100
AcDbViewportTableRecord
  2
*Active
 70
     0
 10
0.0
 20
0.0
 11
1.0
 21
1.0
 12
0.0
 22
0.0
 13
0.0
 23
0.0
 14
1.0
 24
1.0
 15
0.0
 25
0.0
 16
0.0
 26
0.0
 36
1.0
 17
105.0000721959721
 27
148.5000416295418
 37
0.0
 40
89.75999997755987
 41
1.0
 42
50.0
 43
0.0
 44
0.0
 50
0.0
 51
0.0
 71
     0
 72
   100
 73
     1
 74
     1
 75
     0
 76
     0
 77
     0
 78
     0
281
     0
 65
     1
110
0.0
120
0.0
130
0.0
111
1.0
121
0.0
131
0.0
112
0.0
122
1.0
132
0.0
 79
     0
146
0.0
 60
     3
 61
     5
292
     1
282
     1
141
0.0
142
0.0
 63
   250
421
  3355443
  0
ENDTAB
  0
TABLE
  2
LTYPE
  5
5
330
0
100
AcDbSymbolTable
 70
     2
  0
LTYPE
  5
5B
330
5
100
AcDbSymbolTableRecord
100
AcDbLinetypeTableRecord
  2
ByBlock
 70
     0
  3

 72
    65
 73
     0
 40
0.0
  0
LTYPE
  5
5C
330
5
100
AcDbSymbolTableRecord
100
AcDbLinetypeTableRecord
  2
ByLayer
 70
     0
  3

 72
    65
 73
     0
 40
0.0
  0
LTYPE
  5
5D
330
5
100
AcDbSymbolTableRecord
100
AcDbLinetypeTableRecord
  2
Continuous
 70
     0
  3
Solid line
 72
    65
 73
     0
 40
0.0
  0
LTYPE
  5
2C8
330
5
100
AcDbSymbolTableRecord
100
AcDbLinetypeTableRecord
  2
AI-Linetype-0
 70
     0
  3
Adobe Illustrator Linetype No. 0
 72
    65
 73
     2
 40
1.381063250355367
 49
0.6905316251776835
 74
     0
 49
-0.6905316251776835
 74
     0
  0
ENDTAB
  0
TABLE
  2
LAYER
  5
2
330
0
100
AcDbSymbolTable
 70
     5
  0
LAYER
  5
54
330
2
100
AcDbSymbolTableRecord
100
AcDbLayerTableRecord
  2
0
 70
     0
 62
     7
  6
Continuous
370
     0
390
F
347
21
348
0
  0
LAYER
  5
8C
330
2
100
AcDbSymbolTableRecord
100
AcDbLayerTableRecord
  2
Rahmen (ISO)
 70
     0
 62
     7
  6
Continuous
370
     0
390
F
347
21
348
0
  0
LAYER
  5
8D
330
2
100
AcDbSymbolTableRecord
100
AcDbLayerTableRecord
  2
Titel (ISO)
 70
     0
 62
     7
  6
Continuous
370
     0
390
F
347
21
348
0
  0
LAYER
  5
B2
330
2
100
AcDbSymbolTableRecord
100
AcDbLayerTableRecord
  2
Sichtbar schmal (ISO)
 70
     0
 62
     7
  6
Continuous
370
     0
390
F
347
21
348
0
  0
LAYER
  5
B3
330
2
100
AcDbSymbolTableRecord
100
AcDbLayerTableRecord
  2
Sichtbar (ISO)
 70
     0
 62
     7
  6
Continuous
370
     0
390
F
347
21
348
0
  0
ENDTAB
  0
TABLE
  2
STYLE
  5
3
330
0
100
AcDbSymbolTable
 70
     2
  0
STYLE
  5
55
330
3
100
AcDbSymbolTableRecord
100
AcDbTextStyleTableRecord
  2
Standard
 70
     0
 40
0.0
 41
1.0
 50
0.0
 71
     0
 42
0.2
  3
txt
  4

  0
STYLE
  5
5A
330
3
100
AcDbSymbolTableRecord
100
AcDbTextStyleTableRecord
  2
Annotative
 70
     0
 40
0.0
 41
1.0
 50
0.0
 71
     0
 42
0.2
  3
txt
  4

1001
AcadAnnotative
1000
AnnotativeData
1002
{
1070
     1
1070
     1
1002
}
  0
ENDTAB
  0
TABLE
  2
VIEW
  5
6
330
0
100
AcDbSymbolTable
 70
     0
  0
ENDTAB
  0
TABLE
  2
UCS
  5
7
330
0
100
AcDbSymbolTable
 70
     0
  0
ENDTAB
  0
TABLE
  2
APPID
  5
9
330
0
100
AcDbSymbolTable
 70
     2
  0
APPID
  5
56
330
9
100
AcDbSymbolTableRecord
100
AcDbRegAppTableRecord
  2
ACAD
 70
     0
  0
APPID
  5
5E
330
9
100
AcDbSymbolTableRecord
100
AcDbRegAppTableRecord
  2
AcadAnnotative
 70
     0
  0
ENDTAB
  0
TABLE
  2
DIMSTYLE
  5
A
330
0
100
AcDbSymbolTable
 70
     2
100
AcDbDimStyleTable
 71
     0
  0
DIMSTYLE
105
58
330
A
100
AcDbSymbolTableRecord
100
AcDbDimStyleTableRecord
  2
Standard
 70
     0
340
55
  0
DIMSTYLE
105
59
330
A
100
AcDbSymbolTableRecord
100
AcDbDimStyleTableRecord
  2
Annotative
 70
     0
340
55
1001
AcadAnnotative
1000
AnnotativeData
1002
{
1070
     1
1070
     1
1002
}
  0
ENDTAB
  0
TABLE
  2
BLOCK_RECORD
  5
1
330
0
100
AcDbSymbolTable
 70
    48
  0
BLOCK_RECORD
  5
70
330
1
100
AcDbSymbolTableRecord
100
AcDbBlockTableRecord
  2
*Model_Space
340
73
 70
     0
280
     1
281
     0
  0
BLOCK_RECORD
  5
6C
330
1
100
AcDbSymbolTableRecord
100
AcDbBlockTableRecord
  2
*Paper_Space
340
6F
 70
     0
280
     1
281
     0
  0
BLOCK_RECORD
  5
74
330
1
100
AcDbSymbolTableRecord
100
AcDbBlockTableRecord
  2
*Paper_Space0
340
77
 70
     0
280
     1
281
     0
  0
BLOCK_RECORD
  5
78
330
1
100
AcDbSymbolTableRecord
100
AcDbBlockTableRecord
  2
Block_0
340
0
102
{BLKREFS
331
79
102
}
 70
     0
280
     1
281
     0
  0
BLOCK_RECORD
  5
7C
330
1
100
AcDbSymbolTableRecord
100
AcDbBlockTableRecord
  2
Block_1
340
0
102
{BLKREFS
331
7D
102
}
 70
     0
280
     1
281
     0
  0
BLOCK_RECORD
  5
80
330
1
100
AcDbSymbolTableRecord
100
AcDbBlockTableRecord
  2
Block_2
340
0
102
{BLKREFS
331
81
102
}
 70
     0
280
     1
281
     0
  0
BLOCK_RECORD
  5
84
330
1
100
AcDbSymbolTableRecord
100
AcDbBlockTableRecord
  2
Block_3
340
0
102
{BLKREFS
331
85
102
}
 70
     0
280
     1
281
     0
  0
BLOCK_RECORD
  5
88
330
1
100
AcDbSymbolTableRecord
100
AcDbBlockTableRecord
  2
Block_4
340
0
102
{BLKREFS
331
89
102
}
 70
     0
280
     1
281
     0
  0
BLOCK_RECORD
  5
8E
330
1
100
AcDbSymbolTableRecord
100
AcDbBlockTableRecord
  2
Block_5
340
0
102
{BLKREFS
331
8F
102
}
 70
     0
280
     1
281
     0
  0
BLOCK_RECORD
  5
92
330
1
100
AcDbSymbolTableRecord
100
AcDbBlockTableRecord
  2
Block_6
340
0
102
{BLKREFS
331
93
102
}
 70
     0
280
     1
281
     0
  0
BLOCK_RECORD
  5
96
330
1
100
AcDbSymbolTableRecord
100
AcDbBlockTableRecord
  2
Block_7
340
0
102
{BLKREFS
331
97
102
}
 70
     0
280
     1
281
     0
  0
BLOCK_RECORD
  5
9A
330
1
100
AcDbSymbolTableRecord
100
AcDbBlockTableRecord
  2
Block_8
340
0
102
{BLKREFS
331
9B
102
}
 70
     0
280
     1
281
     0
  0
BLOCK_RECORD
  5
9E
330
1
100
AcDbSymbolTableRecord
100
AcDbBlockTableRecord
  2
Block_9
340
0
102
{BLKREFS
331
9F
102
}
 70
     0
280
     1
281
     0
  0
BLOCK_RECORD
  5
A2
330
1
100
AcDbSymbolTableRecord
100
AcDbBlockTableRecord
  2
Block_10
340
0
102
{BLKREFS
331
A3
102
}
 70
     0
280
     1
281
     0
  0
BLOCK_RECORD
  5
A6
330
1
100
AcDbSymbolTableRecord
100
AcDbBlockTableRecord
  2
Block_11
340
0
102
{BLKREFS
331
A7
102
}
 70
     0
280
     1
281
     0
  0
BLOCK_RECORD
  5
AA
330
1
100
AcDbSymbolTableRecord
100
AcDbBlockTableRecord
  2
Block_12
340
0
102
{BLKREFS
331
AB
102
}
 70
     0
280
     1
281
     0
  0
BLOCK_RECORD
  5
AE
330
1
100
AcDbSymbolTableRecord
100
AcDbBlockTableRecord
  2
Block_13
340
0
102
{BLKREFS
331
AF
102
}
 70
     0
280
     1
281
     0
  0
BLOCK_RECORD
  5
B4
330
1
100
AcDbSymbolTableRecord
100
AcDbBlockTableRecord
  2
Block_14
340
0
102
{BLKREFS
331
B5
102
}
 70
     0
280
     1
281
     0
  0
BLOCK_RECORD
  5
BA
330
1
100
AcDbSymbolTableRecord
100
AcDbBlockTableRecord
  2
Block_15
340
0
102
{BLKREFS
331
BB
102
}
 70
     0
280
     1
281
     0
  0
BLOCK_RECORD
  5
256
330
1
100
AcDbSymbolTableRecord
100
AcDbBlockTableRecord
  2
Block_16
340
0
102
{BLKREFS
331
257
102
}
 70
     0
280
     1
281
     0
  0
BLOCK_RECORD
  5
28E
330
1
100
AcDbSymbolTableRecord
100
AcDbBlockTableRecord
  2
Block_17
340
0
102
{BLKREFS
331
28F
102
}
 70
     0
280
     1
281
     0
  0
BLOCK_RECORD
  5
292
330
1
100
AcDbSymbolTableRecord
100
AcDbBlockTableRecord
  2
Block_18
340
0
102
{BLKREFS
331
293
102
}
 70
     0
280
     1
281
     0
  0
BLOCK_RECORD
  5
297
330
1
100
AcDbSymbolTableRecord
100
AcDbBlockTableRecord
  2
Block_19
340
0
102
{BLKREFS
331
298
102
}
 70
     0
280
     1
281
     0
  0
BLOCK_RECORD
  5
29D
330
1
100
AcDbSymbolTableRecord
100
AcDbBlockTableRecord
  2
Block_20
340
0
102
{BLKREFS
331
29E
102
}
 70
     0
280
     1
281
     0
  0
BLOCK_RECORD
  5
2A6
330
1
100
AcDbSymbolTableRecord
100
AcDbBlockTableRecord
  2
Block_21
340
0
102
{BLKREFS
331
2A7
102
}
 70
     0
280
     1
281
     0
  0
BLOCK_RECORD
  5
2AA
330
1
100
AcDbSymbolTableRecord
100
AcDbBlockTableRecord
  2
Block_22
340
0
102
{BLKREFS
331
2AB
102
}
 70
     0
280
     1
281
     0
  0
BLOCK_RECORD
  5
2AF
330
1
100
AcDbSymbolTableRecord
100
AcDbBlockTableRecord
  2
Block_23
340
0
102
{BLKREFS
331
2B0
102
}
 70
     0
280
     1
281
     0
  0
BLOCK_RECORD
  5
2B5
330
1
100
AcDbSymbolTableRecord
100
AcDbBlockTableRecord
  2
Block_24
340
0
102
{BLKREFS
331
2B6
102
}
 70
     0
280
     1
281
     0
  0
BLOCK_RECORD
  5
2BE
330
1
100
AcDbSymbolTableRecord
100
AcDbBlockTableRecord
  2
Block_25
340
0
102
{BLKREFS
331
2BF
102
}
 70
     0
280
     1
281
     0
  0
BLOCK_RECORD
  5
2C2
330
1
100
AcDbSymbolTableRecord
100
AcDbBlockTableRecord
  2
Block_26
340
0
102
{BLKREFS
331
2C3
102
}
 70
     0
280
     1
281
     0
  0
BLOCK_RECORD
  5
2CB
330
1
100
AcDbSymbolTableRecord
100
AcDbBlockTableRecord
  2
Block_27
340
0
102
{BLKREFS
331
2CC
102
}
 70
     0
280
     1
281
     0
  0
BLOCK_RECORD
  5
2CF
330
1
100
AcDbSymbolTableRecord
100
AcDbBlockTableRecord
  2
Block_28
340
0
102
{BLKREFS
331
2D0
102
}
 70
     0
280
     1
281
     0
  0
BLOCK_RECORD
  5
2D4
330
1
100
AcDbSymbolTableRecord
100
AcDbBlockTableRecord
  2
Block_29
340
0
102
{BLKREFS
331
2D5
102
}
 70
     0
280
     1
281
     0
  0
BLOCK_RECORD
  5
2DA
330
1
100
AcDbSymbolTableRecord
100
AcDbBlockTableRecord
  2
Block_30
340
0
102
{BLKREFS
331
2DB
102
}
 70
     0
280
     1
281
     0
  0
BLOCK_RECORD
  5
2E0
330
1
100
AcDbSymbolTableRecord
100
AcDbBlockTableRecord
  2
Block_31
340
0
102
{BLKREFS
331
2E1
102
}
 70
     0
280
     1
281
     0
  0
BLOCK_RECORD
  5
2E4
330
1
100
AcDbSymbolTableRecord
100
AcDbBlockTableRecord
  2
Block_32
340
0
102
{BLKREFS
331
2E5
102
}
 70
     0
280
     1
281
     0
  0
BLOCK_RECORD
  5
2ED
330
1
100
AcDbSymbolTableRecord
100
AcDbBlockTableRecord
  2
Block_33
340
0
102
{BLKREFS
331
2EE
102
}
 70
     0
280
     1
281
     0
  0
BLOCK_RECORD
  5
2F1
330
1
100
AcDbSymbolTableRecord
100
AcDbBlockTableRecord
  2
Block_34
340
0
102
{BLKREFS
331
2F2
102
}
 70
     0
280
     1
281
     0
  0
BLOCK_RECORD
  5
2F6
330
1
100
AcDbSymbolTableRecord
100
AcDbBlockTableRecord
  2
Block_35
340
0
102
{BLKREFS
331
2F7
102
}
 70
     0
280
     1
281
     0
  0
BLOCK_RECORD
  5
2FC
330
1
100
AcDbSymbolTableRecord
100
AcDbBlockTableRecord
  2
Block_36
340
0
102
{BLKREFS
331
2FD
102
}
 70
     0
280
     1
281
     0
  0
BLOCK_RECORD
  5
303
330
1
100
AcDbSymbolTableRecord
100
AcDbBlockTableRecord
  2
Block_37
340
0
102
{BLKREFS
331
304
102
}
 70
     0
280
     1
281
     0
  0
BLOCK_RECORD
  5
307
330
1
100
AcDbSymbolTableRecord
100
AcDbBlockTableRecord
  2
Block_38
340
0
102
{BLKREFS
331
308
102
}
 70
     0
280
     1
281
     0
  0
BLOCK_RECORD
  5
310
330
1
100
AcDbSymbolTableRecord
100
AcDbBlockTableRecord
  2
Block_39
340
0
102
{BLKREFS
331
311
102
}
 70
     0
280
     1
281
     0
  0
BLOCK_RECORD
  5
31D
330
1
100
AcDbSymbolTableRecord
100
AcDbBlockTableRecord
  2
Block_40
340
0
102
{BLKREFS
331
31E
102
}
 70
     0
280
     1
281
     0
  0
BLOCK_RECORD
  5
32E
330
1
100
AcDbSymbolTableRecord
100
AcDbBlockTableRecord
  2
Block_41
340
0
102
{BLKREFS
331
32F
102
}
 70
     0
280
     1
281
     0
  0
BLOCK_RECORD
  5
332
330
1
100
AcDbSymbolTableRecord
100
AcDbBlockTableRecord
  2
Block_42
340
0
102
{BLKREFS
331
333
102
}
 70
     0
280
     1
281
     0
  0
BLOCK_RECORD
  5
337
330
1
100
AcDbSymbolTableRecord
100
AcDbBlockTableRecord
  2
Block_43
340
0
102
{BLKREFS
331
338
102
}
 70
     0
280
     1
281
     0
  0
BLOCK_RECORD
  5
33D
330
1
100
AcDbSymbolTableRecord
100
AcDbBlockTableRecord
  2
Block_44
340
0
102
{BLKREFS
331
33E
102
}
 70
     0
280
     1
281
     0
  0
BLOCK_RECORD
  5
343
330
1
100
AcDbSymbolTableRecord
100
AcDbBlockTableRecord
  2
Block_45
340
0
102
{BLKREFS
331
344
102
}
 70
     0
280
     1
281
     0
  0
BLOCK_RECORD
  5
347
330
1
100
AcDbSymbolTableRecord
100
AcDbBlockTableRecord
  2
Block_46
340
0
102
{BLKREFS
331
348
102
}
 70
     0
280
     1
281
     0
  0
ENDTAB
  0
ENDSEC
  0
SECTION
  2
BLOCKS
  0
BLOCK
  5
71
330
70
100
AcDbEntity
  8
0
100
AcDbBlockBegin
  2
*Model_Space
 70
     0
 10
0.0
 20
0.0
 30
0.0
  3
*Model_Space
  1

  0
ENDBLK
  5
72
330
70
100
AcDbEntity
  8
0
100
AcDbBlockEnd
  0
BLOCK
  5
6D
330
6C
100
AcDbEntity
 67
     1
  8
0
100
AcDbBlockBegin
  2
*Paper_Space
 70
     0
 10
0.0
 20
0.0
 30
0.0
  3
*Paper_Space
  1

  0
ENDBLK
  5
6E
330
6C
100
AcDbEntity
 67
     1
  8
0
100
AcDbBlockEnd
  0
BLOCK
  5
75
330
74
100
AcDbEntity
 67
     1
  8
0
100
AcDbBlockBegin
  2
*Paper_Space0
 70
     0
 10
0.0
 20
0.0
 30
0.0
  3
*Paper_Space0
  1

  0
ENDBLK
  5
76
330
74
100
AcDbEntity
 67
     1
  8
0
100
AcDbBlockEnd
  0
BLOCK
  5
7A
330
78
100
AcDbEntity
  8
0
100
AcDbBlockBegin
  2
Block_0
 70
     0
 10
0.0
 20
0.0
 30
0.0
  3
Block_0
  1

  0
ENDBLK
  5
7B
330
78
100
AcDbEntity
  8
0
100
AcDbBlockEnd
  0
BLOCK
  5
7E
330
7C
100
AcDbEntity
  8
0
100
AcDbBlockBegin
  2
Block_1
 70
     0
 10
0.0
 20
0.0
 30
0.0
  3
Block_1
  1

  0
ENDBLK
  5
7F
330
7C
100
AcDbEntity
  8
0
100
AcDbBlockEnd
  0
BLOCK
  5
82
330
80
100
AcDbEntity
  8
0
100
AcDbBlockBegin
  2
Block_2
 70
     0
 10
0.0
 20
0.0
 30
0.0
  3
Block_2
  1

  0
ENDBLK
  5
83
330
80
100
AcDbEntity
  8
0
100
AcDbBlockEnd
  0
BLOCK
  5
86
330
84
100
AcDbEntity
  8
0
100
AcDbBlockBegin
  2
Block_3
 70
     0
 10
0.0
 20
0.0
 30
0.0
  3
Block_3
  1

  0
ENDBLK
  5
87
330
84
100
AcDbEntity
  8
0
100
AcDbBlockEnd
  0
BLOCK
  5
8A
330
88
100
AcDbEntity
  8
0
100
AcDbBlockBegin
  2
Block_4
 70
     0
 10
0.0
 20
0.0
 30
0.0
  3
Block_4
  1

  0
ENDBLK
  5
8B
330
88
100
AcDbEntity
  8
0
100
AcDbBlockEnd
  0
BLOCK
  5
90
330
8E
100
AcDbEntity
  8
0
100
AcDbBlockBegin
  2
Block_5
 70
     0
 10
0.0
 20
0.0
 30
0.0
  3
Block_5
  1

  0
ENDBLK
  5
91
330
8E
100
AcDbEntity
  8
0
100
AcDbBlockEnd
  0
BLOCK
  5
94
330
92
100
AcDbEntity
  8
0
100
AcDbBlockBegin
  2
Block_6
 70
     0
 10
0.0
 20
0.0
 30
0.0
  3
Block_6
  1

  0
ENDBLK
  5
95
330
92
100
AcDbEntity
  8
0
100
AcDbBlockEnd
  0
BLOCK
  5
98
330
96
100
AcDbEntity
  8
0
100
AcDbBlockBegin
  2
Block_7
 70
     0
 10
0.0
 20
0.0
 30
0.0
  3
Block_7
  1

  0
ENDBLK
  5
99
330
96
100
AcDbEntity
  8
0
100
AcDbBlockEnd
  0
BLOCK
  5
9C
330
9A
100
AcDbEntity
  8
0
100
AcDbBlockBegin
  2
Block_8
 70
     0
 10
0.0
 20
0.0
 30
0.0
  3
Block_8
  1

  0
ENDBLK
  5
9D
330
9A
100
AcDbEntity
  8
0
100
AcDbBlockEnd
  0
BLOCK
  5
A0
330
9E
100
AcDbEntity
  8
0
100
AcDbBlockBegin
  2
Block_9
 70
     0
 10
0.0
 20
0.0
 30
0.0
  3
Block_9
  1

  0
ENDBLK
  5
A1
330
9E
100
AcDbEntity
  8
0
100
AcDbBlockEnd
  0
BLOCK
  5
A4
330
A2
100
AcDbEntity
  8
0
100
AcDbBlockBegin
  2
Block_10
 70
     0
 10
0.0
 20
0.0
 30
0.0
  3
Block_10
  1

  0
ENDBLK
  5
A5
330
A2
100
AcDbEntity
  8
0
100
AcDbBlockEnd
  0
BLOCK
  5
A8
330
A6
100
AcDbEntity
  8
0
100
AcDbBlockBegin
  2
Block_11
 70
     0
 10
0.0
 20
0.0
 30
0.0
  3
Block_11
  1

  0
ENDBLK
  5
A9
330
A6
100
AcDbEntity
  8
0
100
AcDbBlockEnd
  0
BLOCK
  5
AC
330
AA
100
AcDbEntity
  8
0
100
AcDbBlockBegin
  2
Block_12
 70
     0
 10
0.0
 20
0.0
 30
0.0
  3
Block_12
  1

  0
ENDBLK
  5
AD
330
AA
100
AcDbEntity
  8
0
100
AcDbBlockEnd
  0
BLOCK
  5
B0
330
AE
100
AcDbEntity
  8
0
100
AcDbBlockBegin
  2
Block_13
 70
     0
 10
0.0
 20
0.0
 30
0.0
  3
Block_13
  1

  0
ENDBLK
  5
B1
330
AE
100
AcDbEntity
  8
0
100
AcDbBlockEnd
  0
BLOCK
  5
B6
330
B4
100
AcDbEntity
  8
0
100
AcDbBlockBegin
  2
Block_14
 70
     0
 10
0.0
 20
0.0
 30
0.0
  3
Block_14
  1

  0
SPLINE
  5
B8
330
B4
100
AcDbEntity
  8
Sichtbar (ISO)
100
AcDbSpline
210
0.0
220
0.0
230
1.0
 70
     8
 71
     3
 72
    38
 73
    34
 74
     0
 42
0.0000000001
 43
0.0000000001
 40
0.0
 40
0.0
 40
0.0
 40
0.0
 40
1.0
 40
1.0
 40
1.0
 40
2.0
 40
2.0
 40
2.0
 40
3.0
 40
3.0
 40
3.0
 40
4.0
 40
4.0
 40
4.0
 40
5.0
 40
5.0
 40
5.0
 40
6.0
 40
6.0
 40
6.0
 40
7.0
 40
7.0
 40
7.0
 40
8.0
 40
8.0
 40
8.0
 40
9.0
 40
9.0
 40
9.0
 40
10.0
 40
10.0
 40
10.0
 40
11.0
 40
11.0
 40
11.0
 40
11.0
 10
107.9288155922326
 20
184.4498925967353
 30
0.0
 10
107.9288155922326
 20
184.4498925967353
 30
0.0
 10
108.363470094143
 20
184.4498925967353
 30
0.0
 10
108.363470094143
 20
184.4498925967353
 30
0.0
 10
108.363470094143
 20
184.4498925967353
 30
0.0
 10
108.363470094143
 20
180.5253586903456
 30
0.0
 10
108.363470094143
 20
180.5253586903456
 30
0.0
 10
108.363470094143
 20
180.5253586903456
 30
0.0
 10
108.363470094143
 20
180.1317107796339
 30
0.0
 10
108.363470094143
 20
180.1317107796339
 30
0.0
 10
108.363470094143
 20
179.7551529957518
 30
0.0
 10
108.0715679205547
 20
179.4498925979858
 30
0.0
 10
107.7114883412784
 20
179.4498925979858
 30
0.0
 10
107.7114883412784
 20
179.4498925979858
 30
0.0
 10
65.76732890703368
 20
179.4498925979858
 30
0.0
 10
65.76732890703368
 20
179.4498925979858
 30
0.0
 10
65.40724932775993
 20
179.4498925979858
 30
0.0
 10
65.11534715417004
 20
179.7551529957518
 30
0.0
 10
65.11534715417004
 20
180.1317107796339
 30
0.0
 10
65.11534715417004
 20
180.1317107796339
 30
0.0
 10
65.11534715417004
 20
180.5253586903456
 30
0.0
 10
65.11534715417004
 20
180.5253586903456
 30
0.0
 10
65.11534715417004
 20
180.5253586903456
 30
0.0
 10
65.11534715417004
 20
184.4498925967353
 30
0.0
 10
65.11534715417004
 20
184.4498925967353
 30
0.0
 10
65.11534715417004
 20
184.4498925967353
 30
0.0
 10
65.55000165607978
 20
184.4498925967353
 30
0.0
 10
65.55000165607978
 20
184.4498925967353
 30
0.0
 10
65.55000165607978
 20
184.4498925967353
 30
0.0
 10
65.57173438117533
 20
184.4498925967353
 30
0.0
 10
65.57173438117533
 20
184.4498925967353
 30
0.0
 10
65.57173438117533
 20
184.4498925967353
 30
0.0
 10
107.9070828671367
 20
184.4498925967353
 30
0.0
 10
107.9070828671367
 20
184.4498925967353
 30
0.0
  0
HATCH
  5
B9
330
B4
100
AcDbEntity
  8
Sichtbar (ISO)
 62
   254
420
 14606046
440
 33554687
100
AcDbHatch
 10
0.0
 20
0.0
 30
0.0
210
0.0
220
0.0
230
1.0
  2
SOLID
 70
     1
 71
     1
 91
        1
 92
        1
 93
        2
 72
     4
 94
        3
 73
     0
 74
     0
 95
       38
 96
       34
 40
0.0
 40
0.0
 40
0.0
 40
0.0
 40
1.0
 40
1.0
 40
1.0
 40
2.0
 40
2.0
 40
2.0
 40
3.0
 40
3.0
 40
3.0
 40
4.0
 40
4.0
 40
4.0
 40
5.0
 40
5.0
 40
5.0
 40
6.0
 40
6.0
 40
6.0
 40
7.0
 40
7.0
 40
7.0
 40
8.0
 40
8.0
 40
8.0
 40
9.0
 40
9.0
 40
9.0
 40
10.0
 40
10.0
 40
10.0
 40
11.0
 40
11.0
 40
11.0
 40
11.0
 10
107.9288155922326
 20
184.4498925967353
 10
107.9288155922326
 20
184.4498925967353
 10
108.363470094143
 20
184.4498925967353
 10
108.363470094143
 20
184.4498925967353
 10
108.363470094143
 20
184.4498925967353
 10
108.363470094143
 20
180.5253586903456
 10
108.363470094143
 20
180.5253586903456
 10
108.363470094143
 20
180.5253586903456
 10
108.363470094143
 20
180.1317107796339
 10
108.363470094143
 20
180.1317107796339
 10
108.363470094143
 20
179.7551529957518
 10
108.0715679205547
 20
179.4498925979858
 10
107.7114883412784
 20
179.4498925979858
 10
107.7114883412784
 20
179.4498925979858
 10
65.76732890703368
 20
179.4498925979858
 10
65.76732890703368
 20
179.4498925979858
 10
65.40724932775993
 20
179.4498925979858
 10
65.11534715417004
 20
179.7551529957518
 10
65.11534715417004
 20
180.1317107796339
 10
65.11534715417004
 20
180.1317107796339
 10
65.11534715417004
 20
180.5253586903456
 10
65.11534715417004
 20
180.5253586903456
 10
65.11534715417004
 20
180.5253586903456
 10
65.11534715417004
 20
184.4498925967353
 10
65.11534715417004
 20
184.4498925967353
 10
65.11534715417004
 20
184.4498925967353
 10
65.55000165607978
 20
184.4498925967353
 10
65.55000165607978
 20
184.4498925967353
 10
65.55000165607978
 20
184.4498925967353
 10
65.57173438117533
 20
184.4498925967353
 10
65.57173438117533
 20
184.4498925967353
 10
65.57173438117533
 20
184.4498925967353
 10
107.9070828671367
 20
184.4498925967353
 10
107.9070828671367
 20
184.4498925967353
 97
        0
 72
     1
 10
107.9070828671367
 20
184.4498925967353
 11
107.9288155922326
 21
184.4498925967353
 97
        0
 75
     2
 76
     1
 98
        1
 10
0.0
 20
0.0
450
        0
451
        0
460
0.0
461
0.0
452
        0
462
0.0
453
        0
470

  0
ENDBLK
  5
B7
330
B4
100
AcDbEntity
  8
0
100
AcDbBlockEnd
  0
BLOCK
  5
BC
330
BA
100
AcDbEntity
  8
0
100
AcDbBlockBegin
  2
Block_15
 70
     0
 10
0.0
 20
0.0
 30
0.0
  3
Block_15
  1

  0
LINE
  5
BE
330
BA
100
AcDbEntity
  8
Sichtbar (ISO)
 62
    18
420
        0
370
     5
100
AcDbLine
 10
109.0187781763482
 20
184.4733960336706
 30
0.0
 11
64.31032900723335
 21
184.4733960336706
 31
0.0
  0
SPLINE
  5
BF
330
BA
100
AcDbEntity
  8
Sichtbar (ISO)
 62
    18
420
        0
370
     5
100
AcDbSpline
210
0.0
220
0.0
230
1.0
 70
     8
 71
     3
 72
     8
 73
     4
 74
     0
 42
0.0000000001
 43
0.0000000001
 40
0.0
 40
0.0
 40
0.0
 40
0.0
 40
1.0
 40
1.0
 40
1.0
 40
1.0
 10
108.850278996063
 20
176.8198702623883
 30
0.0
 10
109.1604774214985
 20
176.8198702623883
 30
0.0
 10
109.4119429303479
 20
177.0646274199145
 30
0.0
 10
109.4119429303479
 20
177.3665506746227
 30
0.0
  0
LINE
  5
C0
330
BA
100
AcDbEntity
  8
Sichtbar (ISO)
 62
    18
420
        0
370
     5
100
AcDbLine
 10
109.4119429303479
 20
184.4733960336706
 30
0.0
 11
109.4119429303479
 21
177.6821767577868
 31
0.0
  0
LINE
  5
C1
330
BA
100
AcDbEntity
  8
Sichtbar (ISO)
 62
    18
420
        0
370
     5
100
AcDbLine
 10
109.4119429303479
 20
177.6821767577868
 30
0.0
 11
109.4119429303479
 21
177.3665506746227
 31
0.0
  0
LINE
  5
C2
330
BA
100
AcDbEntity
  8
Sichtbar (ISO)
 62
    18
420
        0
370
     5
100
AcDbLine
 10
109.4119429303479
 20
184.4733960336706
 30
0.0
 11
109.037500307491
 21
184.4733960336706
 31
0.0
  0
SPLINE
  5
C3
330
BA
100
AcDbEntity
  8
Sichtbar (ISO)
 62
    18
420
        0
370
     5
100
AcDbSpline
210
0.0
220
0.0
230
1.0
 70
     8
 71
     3
 72
     8
 73
     4
 74
     0
 42
0.0000000001
 43
0.0000000001
 40
0.0
 40
0.0
 40
0.0
 40
0.0
 40
1.0
 40
1.0
 40
1.0
 40
1.0
 10
63.91716425323341
 20
177.3665506746227
 30
0.0
 10
63.91716425323341
 20
177.0646274199145
 30
0.0
 10
64.1686297620831
 20
176.8198702623883
 30
0.0
 10
64.47882818751927
 20
176.8198702623883
 30
0.0
  0
LINE
  5
C4
330
BA
100
AcDbEntity
  8
Sichtbar (ISO)
 62
    18
420
        0
370
     5
100
AcDbLine
 10
63.91716425323341
 20
177.6821767577868
 30
0.0
 11
63.91716425323341
 21
177.3665506746227
 31
0.0
  0
LINE
  5
C5
330
BA
100
AcDbEntity
  8
Sichtbar (ISO)
 62
    18
420
        0
370
     5
100
AcDbLine
 10
63.91716425323341
 20
184.4733960336706
 30
0.0
 11
63.91716425323341
 21
177.6821767577868
 31
0.0
  0
LINE
  5
C6
330
BA
100
AcDbEntity
  8
Sichtbar (ISO)
 62
    18
420
        0
370
     5
100
AcDbLine
 10
63.91716425323341
 20
184.4733960336706
 30
0.0
 11
64.39889225011322
 21
184.4733960336706
 31
0.0
  0
LINE
  5
C7
330
BA
100
AcDbEntity
  8
Sichtbar (ISO)
 62
    18
420
        0
370
     5
100
AcDbLine
 10
108.4758363732055
 20
176.4554166542317
 30
0.0
 11
109.4119429303479
 21
176.4554166542317
 31
0.0
  0
LINE
  5
C8
330
BA
100
AcDbEntity
  8
Sichtbar (ISO)
 62
    18
420
        0
370
     5
100
AcDbLine
 10
108.4758363732055
 20
176.4554166542317
 30
0.0
 11
64.85327081037574
 21
176.4554166542317
 31
0.0
  0
LINE
  5
C9
330
BA
100
AcDbEntity
  8
Sichtbar (ISO)
 62
    18
420
        0
370
     5
100
AcDbLine
 10
64.85327081037574
 20
176.4554166542317
 30
0.0
 11
63.91716425323341
 21
176.4554166542317
 31
0.0
  0
LINE
  5
CA
330
BA
100
AcDbEntity
  8
Sichtbar (ISO)
 62
    18
420
        0
370
     5
100
AcDbLine
 10
63.91716425323341
 20
176.8198702623883
 30
0.0
 11
64.85327081037574
 21
176.8198702623883
 31
0.0
  0
LINE
  5
CB
330
BA
100
AcDbEntity
  8
Sichtbar (ISO)
 62
    18
420
        0
370
     5
100
AcDbLine
 10
64.85327081037574
 20
176.8198702623883
 30
0.0
 11
108.4758363732055
 21
176.8198702623883
 31
0.0
  0
LINE
  5
CC
330
BA
100
AcDbEntity
  8
Sichtbar (ISO)
 62
    18
420
        0
370
     5
100
AcDbLine
 10
109.4119429303479
 20
176.8198702623883
 30
0.0
 11
108.4758363732055
 21
176.8198702623883
 31
0.0
  0
SPLINE
  5
CD
330
BA
100
AcDbEntity
  8
Sichtbar (ISO)
 62
    18
420
        0
370
     5
100
AcDbSpline
210
0.0
220
0.0
230
1.0
 70
     8
 71
     3
 72
     8
 73
     4
 74
     0
 42
0.0000000001
 43
0.0000000001
 40
0.0
 40
0.0
 40
0.0
 40
0.0
 40
1.0
 40
1.0
 40
1.0
 40
1.0
 10
109.037500307491
 20
176.2731898501535
 30
0.0
 10
109.037500307491
 20
176.3738309350561
 30
0.0
 10
108.9536784712079
 20
176.4554166542317
 30
0.0
 10
108.850278996063
 20
176.4554166542317
 30
0.0
  0
SPLINE
  5
CE
330
BA
100
AcDbEntity
  8
Sichtbar (ISO)
 62
    18
420
        0
370
     5
100
AcDbSpline
210
0.0
220
0.0
230
1.0
 70
     8
 71
     3
 72
     8
 73
     4
 74
     0
 42
0.0000000001
 43
0.0000000001
 40
0.0
 40
0.0
 40
0.0
 40
0.0
 40
1.0
 40
1.0
 40
1.0
 40
1.0
 10
109.4119429303479
 20
176.2731898501535
 30
0.0
 10
109.4119429303479
 20
176.3352666742864
 30
0.0
 10
109.4010802441996
 20
176.3968900631666
 30
0.0
 10
109.3798208316372
 20
176.4554166542317
 30
0.0
  0
LINE
  5
CF
330
BA
100
AcDbEntity
  8
Sichtbar (ISO)
 62
    18
420
        0
370
     5
100
AcDbLine
 10
109.4119429303479
 20
176.8198702623883
 30
0.0
 11
109.4119429303479
 21
176.4554166542317
 31
0.0
  0
LINE
  5
D0
330
BA
100
AcDbEntity
  8
Sichtbar (ISO)
 62
    18
420
        0
370
     5
100
AcDbLine
 10
63.91716425323341
 20
176.8198702623883
 30
0.0
 11
63.91716425323341
 21
176.4554166542317
 31
0.0
  0
LINE
  5
D1
330
BA
100
AcDbEntity
  8
Sichtbar (ISO)
 62
    18
420
        0
370
     5
100
AcDbLine
 10
109.037500307491
 20
174.6331486134504
 30
0.0
 11
109.037500307491
 21
174.4509218093718
 31
0.0
  0
LINE
  5
D2
330
BA
100
AcDbEntity
  8
Sichtbar (ISO)
 62
    18
420
        0
370
     5
100
AcDbLine
 10
109.037500307491
 20
176.2731898501535
 30
0.0
 11
109.037500307491
 21
174.6331486134504
 31
0.0
  0
LINE
  5
D3
330
BA
100
AcDbEntity
  8
Sichtbar (ISO)
 62
    18
420
        0
370
     5
100
AcDbLine
 10
109.4119429303479
 20
176.2731898501535
 30
0.0
 11
109.4119429303479
 21
174.6331486134504
 31
0.0
  0
LINE
  5
D4
330
BA
100
AcDbEntity
  8
Sichtbar (ISO)
 62
    18
420
        0
370
     5
100
AcDbLine
 10
109.4119429303479
 20
174.4509218093718
 30
0.0
 11
109.4119429303479
 21
174.6331486134504
 31
0.0
  0
LINE
  5
D5
330
BA
100
AcDbEntity
  8
Sichtbar (ISO)
 62
    18
420
        0
370
     5
100
AcDbLine
 10
109.037500307491
 20
174.4509218093718
 30
0.0
 11
109.4119429303479
 21
174.4509218093718
 31
0.0
  0
LINE
  5
D6
330
BA
100
AcDbEntity
  8
Sichtbar (ISO)
 62
    18
420
        0
370
     5
100
AcDbLine
 10
106.4164019474928
 20
166.7973960380897
 30
0.0
 11
108.6630576846342
 21
166.7973960380897
 31
0.0
  0
LINE
  5
D7
330
BA
100
AcDbEntity
  8
Sichtbar (ISO)
 62
    18
420
        0
370
     5
100
AcDbLine
 10
108.6630576846342
 20
176.4554166542317
 30
0.0
 11
108.6630576846342
 21
166.7973960380897
 31
0.0
  0
LINE
  5
D8
330
BA
100
AcDbEntity
  8
Sichtbar (ISO)
 62
    18
420
        0
370
     5
100
AcDbLine
 10
106.4164019474928
 20
176.4554166542317
 30
0.0
 11
106.4164019474928
 21
166.7973960380897
 31
0.0
  0
LINE
  5
D9
330
BA
100
AcDbEntity
  8
Sichtbar (ISO)
 62
    18
420
        0
370
     5
100
AcDbLine
 10
64.66604949894734
 20
166.7973960380897
 30
0.0
 11
66.91270523608915
 21
166.7973960380897
 31
0.0
  0
LINE
  5
DA
330
BA
100
AcDbEntity
  8
Sichtbar (ISO)
 62
    18
420
        0
370
     5
100
AcDbLine
 10
66.91270523608915
 20
176.4554166542317
 30
0.0
 11
66.91270523608915
 21
166.7973960380897
 31
0.0
  0
LINE
  5
DB
330
BA
100
AcDbEntity
  8
Sichtbar (ISO)
 62
    18
420
        0
370
     5
100
AcDbLine
 10
64.66604949894734
 20
176.4554166542317
 30
0.0
 11
64.66604949894734
 21
166.7973960380897
 31
0.0
  0
LINE
  5
DC
330
BA
100
AcDbEntity
  8
Sichtbar (ISO)
 62
    18
420
        0
370
     5
100
AcDbLine
 10
108.6630576846342
 20
168.9841176870276
 30
0.0
 11
108.850278996063
 21
168.9841176870276
 31
0.0
  0
LINE
  5
DD
330
BA
100
AcDbEntity
  8
Sichtbar (ISO)
 62
    18
420
        0
370
     5
100
AcDbLine
 10
108.850278996063
 20
174.6331486134504
 30
0.0
 11
108.850278996063
 21
168.9841176870276
 31
0.0
  0
LINE
  5
DE
330
BA
100
AcDbEntity
  8
Sichtbar (ISO)
 62
    18
420
        0
370
     5
100
AcDbLine
 10
108.850278996063
 20
176.4554166542317
 30
0.0
 11
108.850278996063
 21
174.6331486134504
 31
0.0
  0
LINE
  5
DF
330
BA
100
AcDbEntity
  8
Sichtbar (ISO)
 62
    18
420
        0
370
     5
100
AcDbLine
 10
92.56202490178711
 20
168.9841176870276
 30
0.0
 11
80.76708228179418
 21
168.9841176870276
 31
0.0
  0
LINE
  5
E0
330
BA
100
AcDbEntity
  8
Sichtbar (ISO)
 62
    18
420
        0
370
     5
100
AcDbLine
 10
80.7670822817958
 20
168.9841176870276
 30
0.0
 11
80.20541834750769
 21
168.9841176870276
 31
0.0
  0
LINE
  5
E1
330
BA
100
AcDbEntity
  8
Sichtbar (ISO)
 62
    18
420
        0
370
     5
100
AcDbLine
 10
80.20541834750897
 20
168.9841176870276
 30
0.0
 11
80.01819703608056
 21
168.9841176870276
 31
0.0
  0
LINE
  5
E2
330
BA
100
AcDbEntity
  8
Sichtbar (ISO)
 62
    18
420
        0
370
     5
100
AcDbLine
 10
79.26931179036664
 20
168.9841176870276
 30
0.0
 11
80.01819703608056
 21
168.9841176870276
 31
0.0
  0
LINE
  5
E3
330
BA
100
AcDbEntity
  8
Sichtbar (ISO)
 62
    18
420
        0
370
     5
100
AcDbLine
 10
79.26931179036664
 20
168.9841176870276
 30
0.0
 11
78.33320523322431
 21
168.9841176870276
 31
0.0
  0
LINE
  5
E4
330
BA
100
AcDbEntity
  8
Sichtbar (ISO)
 62
    18
420
        0
370
     5
100
AcDbLine
 10
77.5843199875107
 20
168.9841176870276
 30
0.0
 11
78.33320523322431
 21
168.9841176870276
 31
0.0
  0
LINE
  5
E5
330
BA
100
AcDbEntity
  8
Sichtbar (ISO)
 62
    18
420
        0
370
     5
100
AcDbLine
 10
77.5843199875107
 20
168.9841176870276
 30
0.0
 11
69.53380359608711
 21
168.9841176870276
 31
0.0
  0
LINE
  5
E6
330
BA
100
AcDbEntity
  8
Sichtbar (ISO)
 62
    18
420
        0
370
     5
100
AcDbLine
 10
69.53380359608839
 20
168.9841176870276
 30
0.0
 11
68.97213966179997
 21
168.9841176870276
 31
0.0
  0
LINE
  5
E7
330
BA
100
AcDbEntity
  8
Sichtbar (ISO)
 62
    18
420
        0
370
     5
100
AcDbLine
 10
68.97213966180157
 20
168.9841176870276
 30
0.0
 11
68.02122122614647
 21
168.9841176870276
 31
0.0
  0
LINE
  5
E8
330
BA
100
AcDbEntity
  8
Sichtbar (ISO)
 62
    18
420
        0
370
     5
100
AcDbLine
 10
66.97262169478335
 20
168.9841176870276
 30
0.0
 11
68.02122122614679
 21
168.9841176870276
 31
0.0
  0
LINE
  5
E9
330
BA
100
AcDbEntity
  8
Sichtbar (ISO)
 62
    18
420
        0
370
     5
100
AcDbLine
 10
66.91270523608915
 20
168.9841176870276
 30
0.0
 11
66.97262169478078
 21
168.9841176870276
 31
0.0
  0
LINE
  5
EA
330
BA
100
AcDbEntity
  8
Sichtbar (ISO)
 62
    18
420
        0
370
     5
100
AcDbLine
 10
64.47882818751927
 20
168.9841176870276
 30
0.0
 11
64.66604949894734
 21
168.9841176870276
 31
0.0
  0
LINE
  5
EB
330
BA
100
AcDbEntity
  8
Sichtbar (ISO)
 62
    18
420
        0
370
     5
100
AcDbLine
 10
106.4164019474928
 20
168.9841176870276
 30
0.0
 11
106.3564854888011
 21
168.9841176870276
 31
0.0
  0
LINE
  5
EC
330
BA
100
AcDbEntity
  8
Sichtbar (ISO)
 62
    18
420
        0
370
     5
100
AcDbLine
 10
106.3564854887979
 20
168.9841176870276
 30
0.0
 11
105.3078859574348
 21
168.9841176870276
 31
0.0
  0
LINE
  5
ED
330
BA
100
AcDbEntity
  8
Sichtbar (ISO)
 62
    18
420
        0
370
     5
100
AcDbLine
 10
104.35696752178
 20
168.9841176870276
 30
0.0
 11
105.3078859574348
 21
168.9841176870276
 31
0.0
  0
LINE
  5
EE
330
BA
100
AcDbEntity
  8
Sichtbar (ISO)
 62
    18
420
        0
370
     5
100
AcDbLine
 10
103.7953035874932
 20
168.9841176870276
 30
0.0
 11
104.3569675217813
 21
168.9841176870276
 31
0.0
  0
LINE
  5
EF
330
BA
100
AcDbEntity
  8
Sichtbar (ISO)
 62
    18
420
        0
370
     5
100
AcDbLine
 10
95.74478719607091
 20
168.9841176870276
 30
0.0
 11
103.7953035874945
 21
168.9841176870276
 31
0.0
  0
LINE
  5
F0
330
BA
100
AcDbEntity
  8
Sichtbar (ISO)
 62
    18
420
        0
370
     5
100
AcDbLine
 10
95.74478719607091
 20
168.9841176870276
 30
0.0
 11
94.99590195035667
 21
168.9841176870276
 31
0.0
  0
LINE
  5
F1
330
BA
100
AcDbEntity
  8
Sichtbar (ISO)
 62
    18
420
        0
370
     5
100
AcDbLine
 10
94.05979539321497
 20
168.9841176870276
 30
0.0
 11
94.99590195035667
 21
168.9841176870276
 31
0.0
  0
LINE
  5
F2
330
BA
100
AcDbEntity
  8
Sichtbar (ISO)
 62
    18
420
        0
370
     5
100
AcDbLine
 10
94.05979539321497
 20
168.9841176870276
 30
0.0
 11
93.31091014750072
 21
168.9841176870276
 31
0.0
  0
LINE
  5
F3
330
BA
100
AcDbEntity
  8
Sichtbar (ISO)
 62
    18
420
        0
370
     5
100
AcDbLine
 10
93.12368883607199
 20
168.9841176870276
 30
0.0
 11
93.31091014750072
 21
168.9841176870276
 31
0.0
  0
LINE
  5
F4
330
BA
100
AcDbEntity
  8
Sichtbar (ISO)
 62
    18
420
        0
370
     5
100
AcDbLine
 10
92.56202490178518
 20
168.9841176870276
 30
0.0
 11
93.12368883607392
 21
168.9841176870276
 31
0.0
  0
LINE
  5
F5
330
BA
100
AcDbEntity
  8
Sichtbar (ISO)
 62
    18
420
        0
370
     5
100
AcDbLine
 10
80.76708228179418
 20
172.5010950057355
 30
0.0
 11
80.76708228179418
 21
168.9841176870276
 31
0.0
  0
LINE
  5
F6
330
BA
100
AcDbEntity
  8
Sichtbar (ISO)
 62
    18
420
        0
370
     5
100
AcDbLine
 10
92.56202490178711
 20
172.5010950057355
 30
0.0
 11
92.56202490178711
 21
168.9841176870276
 31
0.0
  0
LINE
  5
F7
330
BA
100
AcDbEntity
  8
Sichtbar (ISO)
 62
    18
420
        0
370
     5
100
AcDbLine
 10
87.2355785916479
 20
169.8314723259909
 30
0.0
 11
86.09352859193403
 21
169.8314723259909
 31
0.0
  0
LINE
  5
F8
330
BA
100
AcDbEntity
  8
Sichtbar (ISO)
 62
    18
420
        0
370
     5
100
AcDbLine
 10
86.09352859193403
 20
169.6492455219126
 30
0.0
 11
86.09352859193403
 21
169.8314723259909
 31
0.0
  0
LINE
  5
F9
330
BA
100
AcDbEntity
  8
Sichtbar (ISO)
 62
    18
420
        0
370
     5
100
AcDbLine
 10
84.04345523179236
 20
169.6492455219126
 30
0.0
 11
86.09352859193403
 21
169.6492455219126
 31
0.0
  0
SPLINE
  5
FA
330
BA
100
AcDbEntity
  8
Sichtbar (ISO)
 62
    18
420
        0
370
     5
100
AcDbSpline
210
0.0
220
0.0
230
1.0
 70
     8
 71
     3
 72
     8
 73
     4
 74
     0
 42
0.0000000001
 43
0.0000000001
 40
0.0
 40
0.0
 40
0.0
 40
0.0
 40
1.0
 40
1.0
 40
1.0
 40
1.0
 10
83.85623392036396
 20
169.8314723259909
 30
0.0
 10
83.85623392036396
 20
169.7308312410879
 30
0.0
 10
83.94005575664706
 20
169.6492455219126
 30
0.0
 10
84.04345523179236
 20
169.6492455219126
 30
0.0
  0
LINE
  5
FB
330
BA
100
AcDbEntity
  8
Sichtbar (ISO)
 62
    18
420
        0
370
     5
100
AcDbLine
 10
83.85623392036396
 20
169.9863651094573
 30
0.0
 11
83.85623392036396
 21
169.8314723259909
 31
0.0
  0
SPLINE
  5
FC
330
BA
100
AcDbEntity
  8
Sichtbar (ISO)
 62
    18
420
        0
370
     5
100
AcDbSpline
210
0.0
220
0.0
230
1.0
 70
     8
 71
     3
 72
     8
 73
     4
 74
     0
 42
0.0000000001
 43
0.0000000001
 40
0.0
 40
0.0
 40
0.0
 40
0.0
 40
1.0
 40
1.0
 40
1.0
 40
1.0
 10
84.04345523179236
 20
170.1685919135352
 30
0.0
 10
83.94005575664706
 20
170.1685919135352
 30
0.0
 10
83.85623392036396
 20
170.0870061943606
 30
0.0
 10
83.85623392036396
 20
169.9863651094573
 30
0.0
  0
LINE
  5
FD
330
BA
100
AcDbEntity
  8
Sichtbar (ISO)
 62
    18
420
        0
370
     5
100
AcDbLine
 10
86.10288965750543
 20
170.1685919135352
 30
0.0
 11
84.04345523179236
 21
170.1685919135352
 31
0.0
  0
LINE
  5
FE
330
BA
100
AcDbEntity
  8
Sichtbar (ISO)
 62
    18
420
        0
370
     5
100
AcDbLine
 10
86.10288965750543
 20
170.3508187176138
 30
0.0
 11
86.10288965750543
 21
170.1685919135352
 31
0.0
  0
LINE
  5
FF
330
BA
100
AcDbEntity
  8
Sichtbar (ISO)
 62
    18
420
        0
370
     5
100
AcDbLine
 10
86.10288965750543
 20
170.3508187176138
 30
0.0
 11
87.22621752607617
 21
170.3508187176138
 31
0.0
  0
LINE
  5
100
330
BA
100
AcDbEntity
  8
Sichtbar (ISO)
 62
    18
420
        0
370
     5
100
AcDbLine
 10
87.22621752607617
 20
170.3508187176138
 30
0.0
 11
87.22621752607617
 21
170.1685919135352
 31
0.0
  0
LINE
  5
101
330
BA
100
AcDbEntity
  8
Sichtbar (ISO)
 62
    18
420
        0
370
     5
100
AcDbLine
 10
87.22621752607617
 20
170.1685919135352
 30
0.0
 11
89.28565195178924
 21
170.1685919135352
 31
0.0
  0
SPLINE
  5
102
330
BA
100
AcDbEntity
  8
Sichtbar (ISO)
 62
    18
420
        0
370
     5
100
AcDbSpline
210
0.0
220
0.0
230
1.0
 70
     8
 71
     3
 72
     8
 73
     4
 74
     0
 42
0.0000000001
 43
0.0000000001
 40
0.0
 40
0.0
 40
0.0
 40
0.0
 40
1.0
 40
1.0
 40
1.0
 40
1.0
 10
89.47287326321733
 20
169.9863651094573
 30
0.0
 10
89.47287326321733
 20
170.0870061943606
 30
0.0
 10
89.38905142693421
 20
170.1685919135352
 30
0.0
 10
89.28565195178924
 20
170.1685919135352
 30
0.0
  0
LINE
  5
103
330
BA
100
AcDbEntity
  8
Sichtbar (ISO)
 62
    18
420
        0
370
     5
100
AcDbLine
 10
89.47287326321733
 20
169.9863651094573
 30
0.0
 11
89.47287326321733
 21
169.8314723259909
 31
0.0
  0
SPLINE
  5
104
330
BA
100
AcDbEntity
  8
Sichtbar (ISO)
 62
    18
420
        0
370
     5
100
AcDbSpline
210
0.0
220
0.0
230
1.0
 70
     8
 71
     3
 72
     8
 73
     4
 74
     0
 42
0.0000000001
 43
0.0000000001
 40
0.0
 40
0.0
 40
0.0
 40
0.0
 40
1.0
 40
1.0
 40
1.0
 40
1.0
 10
89.28565195178924
 20
169.6492455219126
 30
0.0
 10
89.38905142693421
 20
169.6492455219126
 30
0.0
 10
89.47287326321733
 20
169.7308312410879
 30
0.0
 10
89.47287326321733
 20
169.8314723259909
 30
0.0
  0
LINE
  5
105
330
BA
100
AcDbEntity
  8
Sichtbar (ISO)
 62
    18
420
        0
370
     5
100
AcDbLine
 10
89.28565195178924
 20
169.6492455219126
 30
0.0
 11
87.2355785916479
 21
169.6492455219126
 31
0.0
  0
LINE
  5
106
330
BA
100
AcDbEntity
  8
Sichtbar (ISO)
 62
    18
420
        0
370
     5
100
AcDbLine
 10
87.2355785916479
 20
169.6492455219126
 30
0.0
 11
87.2355785916479
 21
169.8314723259909
 31
0.0
  0
LINE
  5
107
330
BA
100
AcDbEntity
  8
Sichtbar (ISO)
 62
    18
420
        0
370
     5
100
AcDbLine
 10
87.2355785916479
 20
174.2049156238667
 30
0.0
 11
86.09352859193403
 21
174.2049156238667
 31
0.0
  0
LINE
  5
108
330
BA
100
AcDbEntity
  8
Sichtbar (ISO)
 62
    18
420
        0
370
     5
100
AcDbLine
 10
86.09352859193403
 20
174.0226888197881
 30
0.0
 11
86.09352859193403
 21
174.2049156238667
 31
0.0
  0
LINE
  5
109
330
BA
100
AcDbEntity
  8
Sichtbar (ISO)
 62
    18
420
        0
370
     5
100
AcDbLine
 10
84.04345523179236
 20
174.0226888197881
 30
0.0
 11
86.09352859193403
 21
174.0226888197881
 31
0.0
  0
SPLINE
  5
10A
330
BA
100
AcDbEntity
  8
Sichtbar (ISO)
 62
    18
420
        0
370
     5
100
AcDbSpline
210
0.0
220
0.0
230
1.0
 70
     8
 71
     3
 72
     8
 73
     4
 74
     0
 42
0.0000000001
 43
0.0000000001
 40
0.0
 40
0.0
 40
0.0
 40
0.0
 40
1.0
 40
1.0
 40
1.0
 40
1.0
 10
83.85623392036396
 20
174.2049156238667
 30
0.0
 10
83.85623392036396
 20
174.1042745389637
 30
0.0
 10
83.94005575664706
 20
174.0226888197881
 30
0.0
 10
84.04345523179236
 20
174.0226888197881
 30
0.0
  0
LINE
  5
10B
330
BA
100
AcDbEntity
  8
Sichtbar (ISO)
 62
    18
420
        0
370
     5
100
AcDbLine
 10
83.85623392036396
 20
174.3598084073328
 30
0.0
 11
83.85623392036396
 21
174.2049156238667
 31
0.0
  0
SPLINE
  5
10C
330
BA
100
AcDbEntity
  8
Sichtbar (ISO)
 62
    18
420
        0
370
     5
100
AcDbSpline
210
0.0
220
0.0
230
1.0
 70
     8
 71
     3
 72
     8
 73
     4
 74
     0
 42
0.0000000001
 43
0.0000000001
 40
0.0
 40
0.0
 40
0.0
 40
0.0
 40
1.0
 40
1.0
 40
1.0
 40
1.0
 10
84.04345523179236
 20
174.542035211411
 30
0.0
 10
83.94005575664706
 20
174.542035211411
 30
0.0
 10
83.85623392036396
 20
174.4604494922354
 30
0.0
 10
83.85623392036396
 20
174.3598084073328
 30
0.0
  0
LINE
  5
10D
330
BA
100
AcDbEntity
  8
Sichtbar (ISO)
 62
    18
420
        0
370
     5
100
AcDbLine
 10
86.10288965750543
 20
174.542035211411
 30
0.0
 11
84.04345523179236
 21
174.542035211411
 31
0.0
  0
LINE
  5
10E
330
BA
100
AcDbEntity
  8
Sichtbar (ISO)
 62
    18
420
        0
370
     5
100
AcDbLine
 10
86.10288965750543
 20
174.7242620154887
 30
0.0
 11
86.10288965750543
 21
174.542035211411
 31
0.0
  0
LINE
  5
10F
330
BA
100
AcDbEntity
  8
Sichtbar (ISO)
 62
    18
420
        0
370
     5
100
AcDbLine
 10
86.10288965750543
 20
174.7242620154887
 30
0.0
 11
87.22621752607617
 21
174.7242620154887
 31
0.0
  0
LINE
  5
110
330
BA
100
AcDbEntity
  8
Sichtbar (ISO)
 62
    18
420
        0
370
     5
100
AcDbLine
 10
87.22621752607617
 20
174.7242620154887
 30
0.0
 11
87.22621752607617
 21
174.542035211411
 31
0.0
  0
LINE
  5
111
330
BA
100
AcDbEntity
  8
Sichtbar (ISO)
 62
    18
420
        0
370
     5
100
AcDbLine
 10
87.22621752607617
 20
174.542035211411
 30
0.0
 11
89.28565195178924
 21
174.542035211411
 31
0.0
  0
SPLINE
  5
112
330
BA
100
AcDbEntity
  8
Sichtbar (ISO)
 62
    18
420
        0
370
     5
100
AcDbSpline
210
0.0
220
0.0
230
1.0
 70
     8
 71
     3
 72
     8
 73
     4
 74
     0
 42
0.0000000001
 43
0.0000000001
 40
0.0
 40
0.0
 40
0.0
 40
0.0
 40
1.0
 40
1.0
 40
1.0
 40
1.0
 10
89.47287326321733
 20
174.3598084073328
 30
0.0
 10
89.47287326321733
 20
174.4604494922354
 30
0.0
 10
89.38905142693421
 20
174.542035211411
 30
0.0
 10
89.28565195178924
 20
174.542035211411
 30
0.0
  0
LINE
  5
113
330
BA
100
AcDbEntity
  8
Sichtbar (ISO)
 62
    18
420
        0
370
     5
100
AcDbLine
 10
89.47287326321733
 20
174.3598084073328
 30
0.0
 11
89.47287326321733
 21
174.2049156238667
 31
0.0
  0
SPLINE
  5
114
330
BA
100
AcDbEntity
  8
Sichtbar (ISO)
 62
    18
420
        0
370
     5
100
AcDbSpline
210
0.0
220
0.0
230
1.0
 70
     8
 71
     3
 72
     8
 73
     4
 74
     0
 42
0.0000000001
 43
0.0000000001
 40
0.0
 40
0.0
 40
0.0
 40
0.0
 40
1.0
 40
1.0
 40
1.0
 40
1.0
 10
89.28565195178924
 20
174.0226888197881
 30
0.0
 10
89.38905142693421
 20
174.0226888197881
 30
0.0
 10
89.47287326321733
 20
174.1042745389637
 30
0.0
 10
89.47287326321733
 20
174.2049156238667
 30
0.0
  0
LINE
  5
115
330
BA
100
AcDbEntity
  8
Sichtbar (ISO)
 62
    18
420
        0
370
     5
100
AcDbLine
 10
89.28565195178924
 20
174.0226888197881
 30
0.0
 11
87.2355785916479
 21
174.0226888197881
 31
0.0
  0
LINE
  5
116
330
BA
100
AcDbEntity
  8
Sichtbar (ISO)
 62
    18
420
        0
370
     5
100
AcDbLine
 10
87.2355785916479
 20
174.0226888197881
 30
0.0
 11
87.2355785916479
 21
174.2049156238667
 31
0.0
  0
LINE
  5
117
330
BA
100
AcDbEntity
  8
Sichtbar (ISO)
 62
    18
420
        0
370
     5
100
AcDbLine
 10
87.2355785916479
 20
173.1115547993977
 30
0.0
 11
86.09352859193403
 21
173.1115547993977
 31
0.0
  0
LINE
  5
118
330
BA
100
AcDbEntity
  8
Sichtbar (ISO)
 62
    18
420
        0
370
     5
100
AcDbLine
 10
86.09352859193403
 20
172.9293279953192
 30
0.0
 11
86.09352859193403
 21
173.1115547993977
 31
0.0
  0
LINE
  5
119
330
BA
100
AcDbEntity
  8
Sichtbar (ISO)
 62
    18
420
        0
370
     5
100
AcDbLine
 10
84.04345523179236
 20
172.9293279953192
 30
0.0
 11
86.09352859193403
 21
172.9293279953192
 31
0.0
  0
SPLINE
  5
11A
330
BA
100
AcDbEntity
  8
Sichtbar (ISO)
 62
    18
420
        0
370
     5
100
AcDbSpline
210
0.0
220
0.0
230
1.0
 70
     8
 71
     3
 72
     8
 73
     4
 74
     0
 42
0.0000000001
 43
0.0000000001
 40
0.0
 40
0.0
 40
0.0
 40
0.0
 40
1.0
 40
1.0
 40
1.0
 40
1.0
 10
83.85623392036396
 20
173.1115547993977
 30
0.0
 10
83.85623392036396
 20
173.0109137144948
 30
0.0
 10
83.94005575664706
 20
172.9293279953192
 30
0.0
 10
84.04345523179236
 20
172.9293279953192
 30
0.0
  0
LINE
  5
11B
330
BA
100
AcDbEntity
  8
Sichtbar (ISO)
 62
    18
420
        0
370
     5
100
AcDbLine
 10
83.85623392036396
 20
173.2664475828642
 30
0.0
 11
83.85623392036396
 21
173.1115547993977
 31
0.0
  0
SPLINE
  5
11C
330
BA
100
AcDbEntity
  8
Sichtbar (ISO)
 62
    18
420
        0
370
     5
100
AcDbSpline
210
0.0
220
0.0
230
1.0
 70
     8
 71
     3
 72
     8
 73
     4
 74
     0
 42
0.0000000001
 43
0.0000000001
 40
0.0
 40
0.0
 40
0.0
 40
0.0
 40
1.0
 40
1.0
 40
1.0
 40
1.0
 10
84.04345523179236
 20
173.4486743869421
 30
0.0
 10
83.94005575664706
 20
173.4486743869421
 30
0.0
 10
83.85623392036396
 20
173.3670886677671
 30
0.0
 10
83.85623392036396
 20
173.2664475828642
 30
0.0
  0
LINE
  5
11D
330
BA
100
AcDbEntity
  8
Sichtbar (ISO)
 62
    18
420
        0
370
     5
100
AcDbLine
 10
86.10288965750543
 20
173.4486743869421
 30
0.0
 11
84.04345523179236
 21
173.4486743869421
 31
0.0
  0
LINE
  5
11E
330
BA
100
AcDbEntity
  8
Sichtbar (ISO)
 62
    18
420
        0
370
     5
100
AcDbLine
 10
86.10288965750543
 20
173.6309011910201
 30
0.0
 11
86.10288965750543
 21
173.4486743869421
 31
0.0
  0
LINE
  5
11F
330
BA
100
AcDbEntity
  8
Sichtbar (ISO)
 62
    18
420
        0
370
     5
100
AcDbLine
 10
86.10288965750543
 20
173.6309011910201
 30
0.0
 11
87.22621752607617
 21
173.6309011910201
 31
0.0
  0
LINE
  5
120
330
BA
100
AcDbEntity
  8
Sichtbar (ISO)
 62
    18
420
        0
370
     5
100
AcDbLine
 10
87.22621752607617
 20
173.6309011910201
 30
0.0
 11
87.22621752607617
 21
173.4486743869421
 31
0.0
  0
LINE
  5
121
330
BA
100
AcDbEntity
  8
Sichtbar (ISO)
 62
    18
420
        0
370
     5
100
AcDbLine
 10
87.22621752607617
 20
173.4486743869421
 30
0.0
 11
89.28565195178924
 21
173.4486743869421
 31
0.0
  0
SPLINE
  5
122
330
BA
100
AcDbEntity
  8
Sichtbar (ISO)
 62
    18
420
        0
370
     5
100
AcDbSpline
210
0.0
220
0.0
230
1.0
 70
     8
 71
     3
 72
     8
 73
     4
 74
     0
 42
0.0000000001
 43
0.0000000001
 40
0.0
 40
0.0
 40
0.0
 40
0.0
 40
1.0
 40
1.0
 40
1.0
 40
1.0
 10
89.47287326321733
 20
173.2664475828642
 30
0.0
 10
89.47287326321733
 20
173.3670886677671
 30
0.0
 10
89.38905142693421
 20
173.4486743869421
 30
0.0
 10
89.28565195178924
 20
173.4486743869421
 30
0.0
  0
LINE
  5
123
330
BA
100
AcDbEntity
  8
Sichtbar (ISO)
 62
    18
420
        0
370
     5
100
AcDbLine
 10
89.47287326321733
 20
173.2664475828642
 30
0.0
 11
89.47287326321733
 21
173.1115547993977
 31
0.0
  0
SPLINE
  5
124
330
BA
100
AcDbEntity
  8
Sichtbar (ISO)
 62
    18
420
        0
370
     5
100
AcDbSpline
210
0.0
220
0.0
230
1.0
 70
     8
 71
     3
 72
     8
 73
     4
 74
     0
 42
0.0000000001
 43
0.0000000001
 40
0.0
 40
0.0
 40
0.0
 40
0.0
 40
1.0
 40
1.0
 40
1.0
 40
1.0
 10
89.28565195178924
 20
172.9293279953192
 30
0.0
 10
89.38905142693421
 20
172.9293279953192
 30
0.0
 10
89.47287326321733
 20
173.0109137144948
 30
0.0
 10
89.47287326321733
 20
173.1115547993977
 30
0.0
  0
LINE
  5
125
330
BA
100
AcDbEntity
  8
Sichtbar (ISO)
 62
    18
420
        0
370
     5
100
AcDbLine
 10
89.28565195178924
 20
172.9293279953192
 30
0.0
 11
87.2355785916479
 21
172.9293279953192
 31
0.0
  0
LINE
  5
126
330
BA
100
AcDbEntity
  8
Sichtbar (ISO)
 62
    18
420
        0
370
     5
100
AcDbLine
 10
87.2355785916479
 20
172.9293279953192
 30
0.0
 11
87.2355785916479
 21
173.1115547993977
 31
0.0
  0
LINE
  5
127
330
BA
100
AcDbEntity
  8
Sichtbar (ISO)
 62
    18
420
        0
370
     5
100
AcDbLine
 10
87.2355785916479
 20
172.0181939749288
 30
0.0
 11
86.09352859193403
 21
172.0181939749288
 31
0.0
  0
LINE
  5
128
330
BA
100
AcDbEntity
  8
Sichtbar (ISO)
 62
    18
420
        0
370
     5
100
AcDbLine
 10
86.09352859193403
 20
171.8359671708502
 30
0.0
 11
86.09352859193403
 21
172.0181939749288
 31
0.0
  0
LINE
  5
129
330
BA
100
AcDbEntity
  8
Sichtbar (ISO)
 62
    18
420
        0
370
     5
100
AcDbLine
 10
84.04345523179236
 20
171.8359671708502
 30
0.0
 11
86.09352859193403
 21
171.8359671708502
 31
0.0
  0
SPLINE
  5
12A
330
BA
100
AcDbEntity
  8
Sichtbar (ISO)
 62
    18
420
        0
370
     5
100
AcDbSpline
210
0.0
220
0.0
230
1.0
 70
     8
 71
     3
 72
     8
 73
     4
 74
     0
 42
0.0000000001
 43
0.0000000001
 40
0.0
 40
0.0
 40
0.0
 40
0.0
 40
1.0
 40
1.0
 40
1.0
 40
1.0
 10
83.85623392036396
 20
172.0181939749288
 30
0.0
 10
83.85623392036396
 20
171.9175528900258
 30
0.0
 10
83.94005575664706
 20
171.8359671708502
 30
0.0
 10
84.04345523179236
 20
171.8359671708502
 30
0.0
  0
LINE
  5
12B
330
BA
100
AcDbEntity
  8
Sichtbar (ISO)
 62
    18
420
        0
370
     5
100
AcDbLine
 10
83.85623392036396
 20
172.1730867583952
 30
0.0
 11
83.85623392036396
 21
172.0181939749288
 31
0.0
  0
SPLINE
  5
12C
330
BA
100
AcDbEntity
  8
Sichtbar (ISO)
 62
    18
420
        0
370
     5
100
AcDbSpline
210
0.0
220
0.0
230
1.0
 70
     8
 71
     3
 72
     8
 73
     4
 74
     0
 42
0.0000000001
 43
0.0000000001
 40
0.0
 40
0.0
 40
0.0
 40
0.0
 40
1.0
 40
1.0
 40
1.0
 40
1.0
 10
84.04345523179236
 20
172.3553135624731
 30
0.0
 10
83.94005575664706
 20
172.3553135624731
 30
0.0
 10
83.85623392036396
 20
172.2737278432982
 30
0.0
 10
83.85623392036396
 20
172.1730867583952
 30
0.0
  0
LINE
  5
12D
330
BA
100
AcDbEntity
  8
Sichtbar (ISO)
 62
    18
420
        0
370
     5
100
AcDbLine
 10
86.10288965750543
 20
172.3553135624731
 30
0.0
 11
84.04345523179236
 21
172.3553135624731
 31
0.0
  0
LINE
  5
12E
330
BA
100
AcDbEntity
  8
Sichtbar (ISO)
 62
    18
420
        0
370
     5
100
AcDbLine
 10
86.10288965750543
 20
172.5375403665511
 30
0.0
 11
86.10288965750543
 21
172.3553135624731
 31
0.0
  0
LINE
  5
12F
330
BA
100
AcDbEntity
  8
Sichtbar (ISO)
 62
    18
420
        0
370
     5
100
AcDbLine
 10
86.10288965750543
 20
172.5375403665511
 30
0.0
 11
87.22621752607617
 21
172.5375403665511
 31
0.0
  0
LINE
  5
130
330
BA
100
AcDbEntity
  8
Sichtbar (ISO)
 62
    18
420
        0
370
     5
100
AcDbLine
 10
87.22621752607617
 20
172.5375403665511
 30
0.0
 11
87.22621752607617
 21
172.3553135624731
 31
0.0
  0
LINE
  5
131
330
BA
100
AcDbEntity
  8
Sichtbar (ISO)
 62
    18
420
        0
370
     5
100
AcDbLine
 10
87.22621752607617
 20
172.3553135624731
 30
0.0
 11
89.28565195178924
 21
172.3553135624731
 31
0.0
  0
SPLINE
  5
132
330
BA
100
AcDbEntity
  8
Sichtbar (ISO)
 62
    18
420
        0
370
     5
100
AcDbSpline
210
0.0
220
0.0
230
1.0
 70
     8
 71
     3
 72
     8
 73
     4
 74
     0
 42
0.0000000001
 43
0.0000000001
 40
0.0
 40
0.0
 40
0.0
 40
0.0
 40
1.0
 40
1.0
 40
1.0
 40
1.0
 10
89.47287326321733
 20
172.1730867583952
 30
0.0
 10
89.47287326321733
 20
172.2737278432982
 30
0.0
 10
89.38905142693421
 20
172.3553135624731
 30
0.0
 10
89.28565195178924
 20
172.3553135624731
 30
0.0
  0
LINE
  5
133
330
BA
100
AcDbEntity
  8
Sichtbar (ISO)
 62
    18
420
        0
370
     5
100
AcDbLine
 10
89.47287326321733
 20
172.1730867583952
 30
0.0
 11
89.47287326321733
 21
172.0181939749288
 31
0.0
  0
SPLINE
  5
134
330
BA
100
AcDbEntity
  8
Sichtbar (ISO)
 62
    18
420
        0
370
     5
100
AcDbSpline
210
0.0
220
0.0
230
1.0
 70
     8
 71
     3
 72
     8
 73
     4
 74
     0
 42
0.0000000001
 43
0.0000000001
 40
0.0
 40
0.0
 40
0.0
 40
0.0
 40
1.0
 40
1.0
 40
1.0
 40
1.0
 10
89.28565195178924
 20
171.8359671708502
 30
0.0
 10
89.38905142693421
 20
171.8359671708502
 30
0.0
 10
89.47287326321733
 20
171.9175528900258
 30
0.0
 10
89.47287326321733
 20
172.0181939749288
 30
0.0
  0
LINE
  5
135
330
BA
100
AcDbEntity
  8
Sichtbar (ISO)
 62
    18
420
        0
370
     5
100
AcDbLine
 10
89.28565195178924
 20
171.8359671708502
 30
0.0
 11
87.2355785916479
 21
171.8359671708502
 31
0.0
  0
LINE
  5
136
330
BA
100
AcDbEntity
  8
Sichtbar (ISO)
 62
    18
420
        0
370
     5
100
AcDbLine
 10
87.2355785916479
 20
171.8359671708502
 30
0.0
 11
87.2355785916479
 21
172.0181939749288
 31
0.0
  0
LINE
  5
137
330
BA
100
AcDbEntity
  8
Sichtbar (ISO)
 62
    18
420
        0
370
     5
100
AcDbLine
 10
87.2355785916479
 20
170.9248331504602
 30
0.0
 11
86.09352859193403
 21
170.9248331504602
 31
0.0
  0
LINE
  5
138
330
BA
100
AcDbEntity
  8
Sichtbar (ISO)
 62
    18
420
        0
370
     5
100
AcDbLine
 10
86.09352859193403
 20
170.7426063463819
 30
0.0
 11
86.09352859193403
 21
170.9248331504602
 31
0.0
  0
LINE
  5
139
330
BA
100
AcDbEntity
  8
Sichtbar (ISO)
 62
    18
420
        0
370
     5
100
AcDbLine
 10
84.04345523179236
 20
170.7426063463819
 30
0.0
 11
86.09352859193403
 21
170.7426063463819
 31
0.0
  0
SPLINE
  5
13A
330
BA
100
AcDbEntity
  8
Sichtbar (ISO)
 62
    18
420
        0
370
     5
100
AcDbSpline
210
0.0
220
0.0
230
1.0
 70
     8
 71
     3
 72
     8
 73
     4
 74
     0
 42
0.0000000001
 43
0.0000000001
 40
0.0
 40
0.0
 40
0.0
 40
0.0
 40
1.0
 40
1.0
 40
1.0
 40
1.0
 10
83.85623392036396
 20
170.9248331504602
 30
0.0
 10
83.85623392036396
 20
170.8241920655569
 30
0.0
 10
83.94005575664706
 20
170.7426063463819
 30
0.0
 10
84.04345523179236
 20
170.7426063463819
 30
0.0
  0
LINE
  5
13B
330
BA
100
AcDbEntity
  8
Sichtbar (ISO)
 62
    18
420
        0
370
     5
100
AcDbLine
 10
83.85623392036396
 20
171.0797259339263
 30
0.0
 11
83.85623392036396
 21
170.9248331504602
 31
0.0
  0
SPLINE
  5
13C
330
BA
100
AcDbEntity
  8
Sichtbar (ISO)
 62
    18
420
        0
370
     5
100
AcDbSpline
210
0.0
220
0.0
230
1.0
 70
     8
 71
     3
 72
     8
 73
     4
 74
     0
 42
0.0000000001
 43
0.0000000001
 40
0.0
 40
0.0
 40
0.0
 40
0.0
 40
1.0
 40
1.0
 40
1.0
 40
1.0
 10
84.04345523179236
 20
171.2619527380042
 30
0.0
 10
83.94005575664706
 20
171.2619527380042
 30
0.0
 10
83.85623392036396
 20
171.1803670188292
 30
0.0
 10
83.85623392036396
 20
171.0797259339263
 30
0.0
  0
LINE
  5
13D
330
BA
100
AcDbEntity
  8
Sichtbar (ISO)
 62
    18
420
        0
370
     5
100
AcDbLine
 10
86.10288965750543
 20
171.2619527380042
 30
0.0
 11
84.04345523179236
 21
171.2619527380042
 31
0.0
  0
LINE
  5
13E
330
BA
100
AcDbEntity
  8
Sichtbar (ISO)
 62
    18
420
        0
370
     5
100
AcDbLine
 10
86.10288965750543
 20
171.4441795420821
 30
0.0
 11
86.10288965750543
 21
171.2619527380042
 31
0.0
  0
LINE
  5
13F
330
BA
100
AcDbEntity
  8
Sichtbar (ISO)
 62
    18
420
        0
370
     5
100
AcDbLine
 10
86.10288965750543
 20
171.4441795420821
 30
0.0
 11
87.22621752607617
 21
171.4441795420821
 31
0.0
  0
LINE
  5
140
330
BA
100
AcDbEntity
  8
Sichtbar (ISO)
 62
    18
420
        0
370
     5
100
AcDbLine
 10
87.22621752607617
 20
171.4441795420821
 30
0.0
 11
87.22621752607617
 21
171.2619527380042
 31
0.0
  0
LINE
  5
141
330
BA
100
AcDbEntity
  8
Sichtbar (ISO)
 62
    18
420
        0
370
     5
100
AcDbLine
 10
87.22621752607617
 20
171.2619527380042
 30
0.0
 11
89.28565195178924
 21
171.2619527380042
 31
0.0
  0
SPLINE
  5
142
330
BA
100
AcDbEntity
  8
Sichtbar (ISO)
 62
    18
420
        0
370
     5
100
AcDbSpline
210
0.0
220
0.0
230
1.0
 70
     8
 71
     3
 72
     8
 73
     4
 74
     0
 42
0.0000000001
 43
0.0000000001
 40
0.0
 40
0.0
 40
0.0
 40
0.0
 40
1.0
 40
1.0
 40
1.0
 40
1.0
 10
89.47287326321733
 20
171.0797259339263
 30
0.0
 10
89.47287326321733
 20
171.1803670188292
 30
0.0
 10
89.38905142693421
 20
171.2619527380042
 30
0.0
 10
89.28565195178924
 20
171.2619527380042
 30
0.0
  0
LINE
  5
143
330
BA
100
AcDbEntity
  8
Sichtbar (ISO)
 62
    18
420
        0
370
     5
100
AcDbLine
 10
89.47287326321733
 20
171.0797259339263
 30
0.0
 11
89.47287326321733
 21
170.9248331504602
 31
0.0
  0
SPLINE
  5
144
330
BA
100
AcDbEntity
  8
Sichtbar (ISO)
 62
    18
420
        0
370
     5
100
AcDbSpline
210
0.0
220
0.0
230
1.0
 70
     8
 71
     3
 72
     8
 73
     4
 74
     0
 42
0.0000000001
 43
0.0000000001
 40
0.0
 40
0.0
 40
0.0
 40
0.0
 40
1.0
 40
1.0
 40
1.0
 40
1.0
 10
89.28565195178924
 20
170.7426063463819
 30
0.0
 10
89.38905142693421
 20
170.7426063463819
 30
0.0
 10
89.47287326321733
 20
170.8241920655569
 30
0.0
 10
89.47287326321733
 20
170.9248331504602
 30
0.0
  0
LINE
  5
145
330
BA
100
AcDbEntity
  8
Sichtbar (ISO)
 62
    18
420
        0
370
     5
100
AcDbLine
 10
89.28565195178924
 20
170.7426063463819
 30
0.0
 11
87.2355785916479
 21
170.7426063463819
 31
0.0
  0
LINE
  5
146
330
BA
100
AcDbEntity
  8
Sichtbar (ISO)
 62
    18
420
        0
370
     5
100
AcDbLine
 10
87.2355785916479
 20
170.7426063463819
 30
0.0
 11
87.2355785916479
 21
170.9248331504602
 31
0.0
  0
LINE
  5
147
330
BA
100
AcDbEntity
  8
Sichtbar (ISO)
 62
    18
420
        0
370
     5
100
AcDbLine
 10
104.482757031719
 20
175.1798290256848
 30
0.0
 11
104.482757031719
 21
175.5442826338407
 31
0.0
  0
LINE
  5
148
330
BA
100
AcDbEntity
  8
Sichtbar (ISO)
 62
    18
420
        0
370
     5
100
AcDbLine
 10
104.35696752178
 20
175.1798290256848
 30
0.0
 11
104.35696752178
 21
168.9841176870276
 31
0.0
  0
LINE
  5
149
330
BA
100
AcDbEntity
  8
Sichtbar (ISO)
 62
    18
420
        0
370
     5
100
AcDbLine
 10
105.3078859574348
 20
175.1798290256848
 30
0.0
 11
105.3078859574348
 21
168.9841176870276
 31
0.0
  0
LINE
  5
14A
330
BA
100
AcDbEntity
  8
Sichtbar (ISO)
 62
    18
420
        0
370
     5
100
AcDbLine
 10
105.3078859574348
 20
175.1798290256848
 30
0.0
 11
105.3651793769146
 21
175.1798290256848
 31
0.0
  0
LINE
  5
14B
330
BA
100
AcDbEntity
  8
Sichtbar (ISO)
 62
    18
420
        0
370
     5
100
AcDbLine
 10
105.3651793769146
 20
176.2731898501535
 30
0.0
 11
105.3651793769146
 21
175.1798290256848
 31
0.0
  0
LINE
  5
14C
330
BA
100
AcDbEntity
  8
Sichtbar (ISO)
 62
    18
420
        0
370
     5
100
AcDbLine
 10
104.5535082613384
 20
176.2731898501535
 30
0.0
 11
105.3651793769146
 21
176.2731898501535
 31
0.0
  0
LINE
  5
14D
330
BA
100
AcDbEntity
  8
Sichtbar (ISO)
 62
    18
420
        0
370
     5
100
AcDbLine
 10
104.5535082613384
 20
176.2731898501535
 30
0.0
 11
104.5535082613384
 21
176.4554166542317
 31
0.0
  0
LINE
  5
14E
330
BA
100
AcDbEntity
  8
Sichtbar (ISO)
 62
    18
420
        0
370
     5
100
AcDbLine
 10
103.7953035874945
 20
175.1798290256848
 30
0.0
 11
103.7953035874945
 21
168.9841176870276
 31
0.0
  0
LINE
  5
14F
330
BA
100
AcDbEntity
  8
Sichtbar (ISO)
 62
    18
420
        0
370
     5
100
AcDbLine
 10
100.1351269490684
 20
169.8314723259909
 30
0.0
 11
100.1351269490684
 21
169.6492455219126
 31
0.0
  0
LINE
  5
150
330
BA
100
AcDbEntity
  8
Sichtbar (ISO)
 62
    18
420
        0
370
     5
100
AcDbLine
 10
100.1351269490684
 20
169.6492455219126
 30
0.0
 11
98.08505358892645
 21
169.6492455219126
 31
0.0
  0
SPLINE
  5
151
330
BA
100
AcDbEntity
  8
Sichtbar (ISO)
 62
    18
420
        0
370
     5
100
AcDbSpline
210
0.0
220
0.0
230
1.0
 70
     8
 71
     3
 72
     8
 73
     4
 74
     0
 42
0.0000000001
 43
0.0000000001
 40
0.0
 40
0.0
 40
0.0
 40
0.0
 40
1.0
 40
1.0
 40
1.0
 40
1.0
 10
97.89783227749836
 20
169.8314723259909
 30
0.0
 10
97.89783227749836
 20
169.7308312410879
 30
0.0
 10
97.98165411378148
 20
169.6492455219126
 30
0.0
 10
98.08505358892645
 20
169.6492455219126
 30
0.0
  0
LINE
  5
152
330
BA
100
AcDbEntity
  8
Sichtbar (ISO)
 62
    18
420
        0
370
     5
100
AcDbLine
 10
97.89783227749836
 20
169.8314723259909
 30
0.0
 11
97.89783227749836
 21
169.9863651094573
 31
0.0
  0
SPLINE
  5
153
330
BA
100
AcDbEntity
  8
Sichtbar (ISO)
 62
    18
420
        0
370
     5
100
AcDbSpline
210
0.0
220
0.0
230
1.0
 70
     8
 71
     3
 72
     8
 73
     4
 74
     0
 42
0.0000000001
 43
0.0000000001
 40
0.0
 40
0.0
 40
0.0
 40
0.0
 40
1.0
 40
1.0
 40
1.0
 40
1.0
 10
98.08505358892645
 20
170.1685919135352
 30
0.0
 10
97.98165411378148
 20
170.1685919135352
 30
0.0
 10
97.89783227749836
 20
170.0870061943606
 30
0.0
 10
97.89783227749836
 20
169.9863651094573
 30
0.0
  0
LINE
  5
154
330
BA
100
AcDbEntity
  8
Sichtbar (ISO)
 62
    18
420
        0
370
     5
100
AcDbLine
 10
98.08505358892645
 20
170.1685919135352
 30
0.0
 11
100.1444880146392
 21
170.1685919135352
 31
0.0
  0
LINE
  5
155
330
BA
100
AcDbEntity
  8
Sichtbar (ISO)
 62
    18
420
        0
370
     5
100
AcDbLine
 10
100.1444880146392
 20
170.1685919135352
 30
0.0
 11
100.1444880146392
 21
170.3508187176138
 31
0.0
  0
LINE
  5
156
330
BA
100
AcDbEntity
  8
Sichtbar (ISO)
 62
    18
420
        0
370
     5
100
AcDbLine
 10
100.1444880146392
 20
170.3508187176138
 30
0.0
 11
101.2678158832102
 21
170.3508187176138
 31
0.0
  0
LINE
  5
157
330
BA
100
AcDbEntity
  8
Sichtbar (ISO)
 62
    18
420
        0
370
     5
100
AcDbLine
 10
101.2678158832102
 20
170.3508187176138
 30
0.0
 11
101.2678158832102
 21
170.1685919135352
 31
0.0
  0
LINE
  5
158
330
BA
100
AcDbEntity
  8
Sichtbar (ISO)
 62
    18
420
        0
370
     5
100
AcDbLine
 10
101.2678158832102
 20
170.1685919135352
 30
0.0
 11
103.327250308923
 21
170.1685919135352
 31
0.0
  0
SPLINE
  5
159
330
BA
100
AcDbEntity
  8
Sichtbar (ISO)
 62
    18
420
        0
370
     5
100
AcDbSpline
210
0.0
220
0.0
230
1.0
 70
     8
 71
     3
 72
     8
 73
     4
 74
     0
 42
0.0000000001
 43
0.0000000001
 40
0.0
 40
0.0
 40
0.0
 40
0.0
 40
1.0
 40
1.0
 40
1.0
 40
1.0
 10
103.5144716203517
 20
169.9863651094573
 30
0.0
 10
103.5144716203517
 20
170.0870061943606
 30
0.0
 10
103.4306497840679
 20
170.1685919135352
 30
0.0
 10
103.327250308923
 20
170.1685919135352
 30
0.0
  0
LINE
  5
15A
330
BA
100
AcDbEntity
  8
Sichtbar (ISO)
 62
    18
420
        0
370
     5
100
AcDbLine
 10
103.5144716203517
 20
169.9863651094573
 30
0.0
 11
103.5144716203517
 21
169.8314723259909
 31
0.0
  0
SPLINE
  5
15B
330
BA
100
AcDbEntity
  8
Sichtbar (ISO)
 62
    18
420
        0
370
     5
100
AcDbSpline
210
0.0
220
0.0
230
1.0
 70
     8
 71
     3
 72
     8
 73
     4
 74
     0
 42
0.0000000001
 43
0.0000000001
 40
0.0
 40
0.0
 40
0.0
 40
0.0
 40
1.0
 40
1.0
 40
1.0
 40
1.0
 10
103.327250308923
 20
169.6492455219126
 30
0.0
 10
103.4306497840679
 20
169.6492455219126
 30
0.0
 10
103.5144716203517
 20
169.7308312410879
 30
0.0
 10
103.5144716203517
 20
169.8314723259909
 30
0.0
  0
LINE
  5
15C
330
BA
100
AcDbEntity
  8
Sichtbar (ISO)
 62
    18
420
        0
370
     5
100
AcDbLine
 10
103.327250308923
 20
169.6492455219126
 30
0.0
 11
101.2771769487816
 21
169.6492455219126
 31
0.0
  0
LINE
  5
15D
330
BA
100
AcDbEntity
  8
Sichtbar (ISO)
 62
    18
420
        0
370
     5
100
AcDbLine
 10
101.2771769487816
 20
169.6492455219126
 30
0.0
 11
101.2771769487816
 21
169.8314723259909
 31
0.0
  0
LINE
  5
15E
330
BA
100
AcDbEntity
  8
Sichtbar (ISO)
 62
    18
420
        0
370
     5
100
AcDbLine
 10
101.2771769487816
 20
169.8314723259909
 30
0.0
 11
100.1351269490684
 21
169.8314723259909
 31
0.0
  0
LINE
  5
15F
330
BA
100
AcDbEntity
  8
Sichtbar (ISO)
 62
    18
420
        0
370
     5
100
AcDbLine
 10
100.1351269490684
 20
170.9248331504602
 30
0.0
 11
100.1351269490684
 21
170.7426063463819
 31
0.0
  0
LINE
  5
160
330
BA
100
AcDbEntity
  8
Sichtbar (ISO)
 62
    18
420
        0
370
     5
100
AcDbLine
 10
100.1351269490684
 20
170.7426063463819
 30
0.0
 11
98.08505358892645
 21
170.7426063463819
 31
0.0
  0
SPLINE
  5
161
330
BA
100
AcDbEntity
  8
Sichtbar (ISO)
 62
    18
420
        0
370
     5
100
AcDbSpline
210
0.0
220
0.0
230
1.0
 70
     8
 71
     3
 72
     8
 73
     4
 74
     0
 42
0.0000000001
 43
0.0000000001
 40
0.0
 40
0.0
 40
0.0
 40
0.0
 40
1.0
 40
1.0
 40
1.0
 40
1.0
 10
97.89783227749836
 20
170.9248331504602
 30
0.0
 10
97.89783227749836
 20
170.8241920655569
 30
0.0
 10
97.98165411378148
 20
170.7426063463819
 30
0.0
 10
98.08505358892645
 20
170.7426063463819
 30
0.0
  0
LINE
  5
162
330
BA
100
AcDbEntity
  8
Sichtbar (ISO)
 62
    18
420
        0
370
     5
100
AcDbLine
 10
97.89783227749836
 20
170.9248331504602
 30
0.0
 11
97.89783227749836
 21
171.0797259339263
 31
0.0
  0
SPLINE
  5
163
330
BA
100
AcDbEntity
  8
Sichtbar (ISO)
 62
    18
420
        0
370
     5
100
AcDbSpline
210
0.0
220
0.0
230
1.0
 70
     8
 71
     3
 72
     8
 73
     4
 74
     0
 42
0.0000000001
 43
0.0000000001
 40
0.0
 40
0.0
 40
0.0
 40
0.0
 40
1.0
 40
1.0
 40
1.0
 40
1.0
 10
98.08505358892645
 20
171.2619527380042
 30
0.0
 10
97.98165411378148
 20
171.2619527380042
 30
0.0
 10
97.89783227749836
 20
171.1803670188292
 30
0.0
 10
97.89783227749836
 20
171.0797259339263
 30
0.0
  0
LINE
  5
164
330
BA
100
AcDbEntity
  8
Sichtbar (ISO)
 62
    18
420
        0
370
     5
100
AcDbLine
 10
98.08505358892645
 20
171.2619527380042
 30
0.0
 11
100.1444880146392
 21
171.2619527380042
 31
0.0
  0
LINE
  5
165
330
BA
100
AcDbEntity
  8
Sichtbar (ISO)
 62
    18
420
        0
370
     5
100
AcDbLine
 10
100.1444880146392
 20
171.2619527380042
 30
0.0
 11
100.1444880146392
 21
171.4441795420821
 31
0.0
  0
LINE
  5
166
330
BA
100
AcDbEntity
  8
Sichtbar (ISO)
 62
    18
420
        0
370
     5
100
AcDbLine
 10
100.1444880146392
 20
171.4441795420821
 30
0.0
 11
101.2678158832102
 21
171.4441795420821
 31
0.0
  0
LINE
  5
167
330
BA
100
AcDbEntity
  8
Sichtbar (ISO)
 62
    18
420
        0
370
     5
100
AcDbLine
 10
101.2678158832102
 20
171.4441795420821
 30
0.0
 11
101.2678158832102
 21
171.2619527380042
 31
0.0
  0
LINE
  5
168
330
BA
100
AcDbEntity
  8
Sichtbar (ISO)
 62
    18
420
        0
370
     5
100
AcDbLine
 10
101.2678158832102
 20
171.2619527380042
 30
0.0
 11
103.327250308923
 21
171.2619527380042
 31
0.0
  0
SPLINE
  5
169
330
BA
100
AcDbEntity
  8
Sichtbar (ISO)
 62
    18
420
        0
370
     5
100
AcDbSpline
210
0.0
220
0.0
230
1.0
 70
     8
 71
     3
 72
     8
 73
     4
 74
     0
 42
0.0000000001
 43
0.0000000001
 40
0.0
 40
0.0
 40
0.0
 40
0.0
 40
1.0
 40
1.0
 40
1.0
 40
1.0
 10
103.5144716203517
 20
171.0797259339263
 30
0.0
 10
103.5144716203517
 20
171.1803670188292
 30
0.0
 10
103.4306497840679
 20
171.2619527380042
 30
0.0
 10
103.327250308923
 20
171.2619527380042
 30
0.0
  0
LINE
  5
16A
330
BA
100
AcDbEntity
  8
Sichtbar (ISO)
 62
    18
420
        0
370
     5
100
AcDbLine
 10
103.5144716203517
 20
171.0797259339263
 30
0.0
 11
103.5144716203517
 21
170.9248331504602
 31
0.0
  0
SPLINE
  5
16B
330
BA
100
AcDbEntity
  8
Sichtbar (ISO)
 62
    18
420
        0
370
     5
100
AcDbSpline
210
0.0
220
0.0
230
1.0
 70
     8
 71
     3
 72
     8
 73
     4
 74
     0
 42
0.0000000001
 43
0.0000000001
 40
0.0
 40
0.0
 40
0.0
 40
0.0
 40
1.0
 40
1.0
 40
1.0
 40
1.0
 10
103.327250308923
 20
170.7426063463819
 30
0.0
 10
103.4306497840679
 20
170.7426063463819
 30
0.0
 10
103.5144716203517
 20
170.8241920655569
 30
0.0
 10
103.5144716203517
 20
170.9248331504602
 30
0.0
  0
LINE
  5
16C
330
BA
100
AcDbEntity
  8
Sichtbar (ISO)
 62
    18
420
        0
370
     5
100
AcDbLine
 10
103.327250308923
 20
170.7426063463819
 30
0.0
 11
101.2771769487816
 21
170.7426063463819
 31
0.0
  0
LINE
  5
16D
330
BA
100
AcDbEntity
  8
Sichtbar (ISO)
 62
    18
420
        0
370
     5
100
AcDbLine
 10
101.2771769487816
 20
170.7426063463819
 30
0.0
 11
101.2771769487816
 21
170.9248331504602
 31
0.0
  0
LINE
  5
16E
330
BA
100
AcDbEntity
  8
Sichtbar (ISO)
 62
    18
420
        0
370
     5
100
AcDbLine
 10
101.2771769487816
 20
170.9248331504602
 30
0.0
 11
100.1351269490684
 21
170.9248331504602
 31
0.0
  0
LINE
  5
16F
330
BA
100
AcDbEntity
  8
Sichtbar (ISO)
 62
    18
420
        0
370
     5
100
AcDbLine
 10
100.1351269490684
 20
172.0181939749288
 30
0.0
 11
100.1351269490684
 21
171.8359671708502
 31
0.0
  0
LINE
  5
170
330
BA
100
AcDbEntity
  8
Sichtbar (ISO)
 62
    18
420
        0
370
     5
100
AcDbLine
 10
100.1351269490684
 20
171.8359671708502
 30
0.0
 11
98.08505358892645
 21
171.8359671708502
 31
0.0
  0
SPLINE
  5
171
330
BA
100
AcDbEntity
  8
Sichtbar (ISO)
 62
    18
420
        0
370
     5
100
AcDbSpline
210
0.0
220
0.0
230
1.0
 70
     8
 71
     3
 72
     8
 73
     4
 74
     0
 42
0.0000000001
 43
0.0000000001
 40
0.0
 40
0.0
 40
0.0
 40
0.0
 40
1.0
 40
1.0
 40
1.0
 40
1.0
 10
97.89783227749836
 20
172.0181939749288
 30
0.0
 10
97.89783227749836
 20
171.9175528900258
 30
0.0
 10
97.98165411378148
 20
171.8359671708502
 30
0.0
 10
98.08505358892645
 20
171.8359671708502
 30
0.0
  0
LINE
  5
172
330
BA
100
AcDbEntity
  8
Sichtbar (ISO)
 62
    18
420
        0
370
     5
100
AcDbLine
 10
97.89783227749836
 20
172.0181939749288
 30
0.0
 11
97.89783227749836
 21
172.1730867583952
 31
0.0
  0
SPLINE
  5
173
330
BA
100
AcDbEntity
  8
Sichtbar (ISO)
 62
    18
420
        0
370
     5
100
AcDbSpline
210
0.0
220
0.0
230
1.0
 70
     8
 71
     3
 72
     8
 73
     4
 74
     0
 42
0.0000000001
 43
0.0000000001
 40
0.0
 40
0.0
 40
0.0
 40
0.0
 40
1.0
 40
1.0
 40
1.0
 40
1.0
 10
98.08505358892645
 20
172.3553135624731
 30
0.0
 10
97.98165411378148
 20
172.3553135624731
 30
0.0
 10
97.89783227749836
 20
172.2737278432982
 30
0.0
 10
97.89783227749836
 20
172.1730867583952
 30
0.0
  0
LINE
  5
174
330
BA
100
AcDbEntity
  8
Sichtbar (ISO)
 62
    18
420
        0
370
     5
100
AcDbLine
 10
98.08505358892645
 20
172.3553135624731
 30
0.0
 11
100.1444880146392
 21
172.3553135624731
 31
0.0
  0
LINE
  5
175
330
BA
100
AcDbEntity
  8
Sichtbar (ISO)
 62
    18
420
        0
370
     5
100
AcDbLine
 10
100.1444880146392
 20
172.3553135624731
 30
0.0
 11
100.1444880146392
 21
172.5375403665511
 31
0.0
  0
LINE
  5
176
330
BA
100
AcDbEntity
  8
Sichtbar (ISO)
 62
    18
420
        0
370
     5
100
AcDbLine
 10
100.1444880146392
 20
172.5375403665511
 30
0.0
 11
101.2678158832102
 21
172.5375403665511
 31
0.0
  0
LINE
  5
177
330
BA
100
AcDbEntity
  8
Sichtbar (ISO)
 62
    18
420
        0
370
     5
100
AcDbLine
 10
101.2678158832102
 20
172.5375403665511
 30
0.0
 11
101.2678158832102
 21
172.3553135624731
 31
0.0
  0
LINE
  5
178
330
BA
100
AcDbEntity
  8
Sichtbar (ISO)
 62
    18
420
        0
370
     5
100
AcDbLine
 10
101.2678158832102
 20
172.3553135624731
 30
0.0
 11
103.327250308923
 21
172.3553135624731
 31
0.0
  0
SPLINE
  5
179
330
BA
100
AcDbEntity
  8
Sichtbar (ISO)
 62
    18
420
        0
370
     5
100
AcDbSpline
210
0.0
220
0.0
230
1.0
 70
     8
 71
     3
 72
     8
 73
     4
 74
     0
 42
0.0000000001
 43
0.0000000001
 40
0.0
 40
0.0
 40
0.0
 40
0.0
 40
1.0
 40
1.0
 40
1.0
 40
1.0
 10
103.5144716203517
 20
172.1730867583952
 30
0.0
 10
103.5144716203517
 20
172.2737278432982
 30
0.0
 10
103.4306497840679
 20
172.3553135624731
 30
0.0
 10
103.327250308923
 20
172.3553135624731
 30
0.0
  0
LINE
  5
17A
330
BA
100
AcDbEntity
  8
Sichtbar (ISO)
 62
    18
420
        0
370
     5
100
AcDbLine
 10
103.5144716203517
 20
172.1730867583952
 30
0.0
 11
103.5144716203517
 21
172.0181939749288
 31
0.0
  0
SPLINE
  5
17B
330
BA
100
AcDbEntity
  8
Sichtbar (ISO)
 62
    18
420
        0
370
     5
100
AcDbSpline
210
0.0
220
0.0
230
1.0
 70
     8
 71
     3
 72
     8
 73
     4
 74
     0
 42
0.0000000001
 43
0.0000000001
 40
0.0
 40
0.0
 40
0.0
 40
0.0
 40
1.0
 40
1.0
 40
1.0
 40
1.0
 10
103.327250308923
 20
171.8359671708502
 30
0.0
 10
103.4306497840679
 20
171.8359671708502
 30
0.0
 10
103.5144716203517
 20
171.9175528900258
 30
0.0
 10
103.5144716203517
 20
172.0181939749288
 30
0.0
  0
LINE
  5
17C
330
BA
100
AcDbEntity
  8
Sichtbar (ISO)
 62
    18
420
        0
370
     5
100
AcDbLine
 10
103.327250308923
 20
171.8359671708502
 30
0.0
 11
101.2771769487816
 21
171.8359671708502
 31
0.0
  0
LINE
  5
17D
330
BA
100
AcDbEntity
  8
Sichtbar (ISO)
 62
    18
420
        0
370
     5
100
AcDbLine
 10
101.2771769487816
 20
171.8359671708502
 30
0.0
 11
101.2771769487816
 21
172.0181939749288
 31
0.0
  0
LINE
  5
17E
330
BA
100
AcDbEntity
  8
Sichtbar (ISO)
 62
    18
420
        0
370
     5
100
AcDbLine
 10
101.2771769487816
 20
172.0181939749288
 30
0.0
 11
100.1351269490684
 21
172.0181939749288
 31
0.0
  0
LINE
  5
17F
330
BA
100
AcDbEntity
  8
Sichtbar (ISO)
 62
    18
420
        0
370
     5
100
AcDbLine
 10
100.1351269490684
 20
173.1115547993977
 30
0.0
 11
100.1351269490684
 21
172.9293279953192
 31
0.0
  0
LINE
  5
180
330
BA
100
AcDbEntity
  8
Sichtbar (ISO)
 62
    18
420
        0
370
     5
100
AcDbLine
 10
100.1351269490684
 20
172.9293279953192
 30
0.0
 11
98.08505358892645
 21
172.9293279953192
 31
0.0
  0
SPLINE
  5
181
330
BA
100
AcDbEntity
  8
Sichtbar (ISO)
 62
    18
420
        0
370
     5
100
AcDbSpline
210
0.0
220
0.0
230
1.0
 70
     8
 71
     3
 72
     8
 73
     4
 74
     0
 42
0.0000000001
 43
0.0000000001
 40
0.0
 40
0.0
 40
0.0
 40
0.0
 40
1.0
 40
1.0
 40
1.0
 40
1.0
 10
97.89783227749836
 20
173.1115547993977
 30
0.0
 10
97.89783227749836
 20
173.0109137144948
 30
0.0
 10
97.98165411378148
 20
172.9293279953192
 30
0.0
 10
98.08505358892645
 20
172.9293279953192
 30
0.0
  0
LINE
  5
182
330
BA
100
AcDbEntity
  8
Sichtbar (ISO)
 62
    18
420
        0
370
     5
100
AcDbLine
 10
97.89783227749836
 20
173.1115547993977
 30
0.0
 11
97.89783227749836
 21
173.2664475828642
 31
0.0
  0
SPLINE
  5
183
330
BA
100
AcDbEntity
  8
Sichtbar (ISO)
 62
    18
420
        0
370
     5
100
AcDbSpline
210
0.0
220
0.0
230
1.0
 70
     8
 71
     3
 72
     8
 73
     4
 74
     0
 42
0.0000000001
 43
0.0000000001
 40
0.0
 40
0.0
 40
0.0
 40
0.0
 40
1.0
 40
1.0
 40
1.0
 40
1.0
 10
98.08505358892645
 20
173.4486743869421
 30
0.0
 10
97.98165411378148
 20
173.4486743869421
 30
0.0
 10
97.89783227749836
 20
173.3670886677671
 30
0.0
 10
97.89783227749836
 20
173.2664475828642
 30
0.0
  0
LINE
  5
184
330
BA
100
AcDbEntity
  8
Sichtbar (ISO)
 62
    18
420
        0
370
     5
100
AcDbLine
 10
98.08505358892645
 20
173.4486743869421
 30
0.0
 11
100.1444880146392
 21
173.4486743869421
 31
0.0
  0
LINE
  5
185
330
BA
100
AcDbEntity
  8
Sichtbar (ISO)
 62
    18
420
        0
370
     5
100
AcDbLine
 10
100.1444880146392
 20
173.4486743869421
 30
0.0
 11
100.1444880146392
 21
173.6309011910201
 31
0.0
  0
LINE
  5
186
330
BA
100
AcDbEntity
  8
Sichtbar (ISO)
 62
    18
420
        0
370
     5
100
AcDbLine
 10
100.1444880146392
 20
173.6309011910201
 30
0.0
 11
101.2678158832102
 21
173.6309011910201
 31
0.0
  0
LINE
  5
187
330
BA
100
AcDbEntity
  8
Sichtbar (ISO)
 62
    18
420
        0
370
     5
100
AcDbLine
 10
101.2678158832102
 20
173.6309011910201
 30
0.0
 11
101.2678158832102
 21
173.4486743869421
 31
0.0
  0
LINE
  5
188
330
BA
100
AcDbEntity
  8
Sichtbar (ISO)
 62
    18
420
        0
370
     5
100
AcDbLine
 10
101.2678158832102
 20
173.4486743869421
 30
0.0
 11
103.327250308923
 21
173.4486743869421
 31
0.0
  0
SPLINE
  5
189
330
BA
100
AcDbEntity
  8
Sichtbar (ISO)
 62
    18
420
        0
370
     5
100
AcDbSpline
210
0.0
220
0.0
230
1.0
 70
     8
 71
     3
 72
     8
 73
     4
 74
     0
 42
0.0000000001
 43
0.0000000001
 40
0.0
 40
0.0
 40
0.0
 40
0.0
 40
1.0
 40
1.0
 40
1.0
 40
1.0
 10
103.5144716203517
 20
173.2664475828642
 30
0.0
 10
103.5144716203517
 20
173.3670886677671
 30
0.0
 10
103.4306497840679
 20
173.4486743869421
 30
0.0
 10
103.327250308923
 20
173.4486743869421
 30
0.0
  0
LINE
  5
18A
330
BA
100
AcDbEntity
  8
Sichtbar (ISO)
 62
    18
420
        0
370
     5
100
AcDbLine
 10
103.5144716203517
 20
173.2664475828642
 30
0.0
 11
103.5144716203517
 21
173.1115547993977
 31
0.0
  0
SPLINE
  5
18B
330
BA
100
AcDbEntity
  8
Sichtbar (ISO)
 62
    18
420
        0
370
     5
100
AcDbSpline
210
0.0
220
0.0
230
1.0
 70
     8
 71
     3
 72
     8
 73
     4
 74
     0
 42
0.0000000001
 43
0.0000000001
 40
0.0
 40
0.0
 40
0.0
 40
0.0
 40
1.0
 40
1.0
 40
1.0
 40
1.0
 10
103.327250308923
 20
172.9293279953192
 30
0.0
 10
103.4306497840679
 20
172.9293279953192
 30
0.0
 10
103.5144716203517
 20
173.0109137144948
 30
0.0
 10
103.5144716203517
 20
173.1115547993977
 30
0.0
  0
LINE
  5
18C
330
BA
100
AcDbEntity
  8
Sichtbar (ISO)
 62
    18
420
        0
370
     5
100
AcDbLine
 10
103.327250308923
 20
172.9293279953192
 30
0.0
 11
101.2771769487816
 21
172.9293279953192
 31
0.0
  0
LINE
  5
18D
330
BA
100
AcDbEntity
  8
Sichtbar (ISO)
 62
    18
420
        0
370
     5
100
AcDbLine
 10
101.2771769487816
 20
172.9293279953192
 30
0.0
 11
101.2771769487816
 21
173.1115547993977
 31
0.0
  0
LINE
  5
18E
330
BA
100
AcDbEntity
  8
Sichtbar (ISO)
 62
    18
420
        0
370
     5
100
AcDbLine
 10
101.2771769487816
 20
173.1115547993977
 30
0.0
 11
100.1351269490684
 21
173.1115547993977
 31
0.0
  0
LINE
  5
18F
330
BA
100
AcDbEntity
  8
Sichtbar (ISO)
 62
    18
420
        0
370
     5
100
AcDbLine
 10
100.1351269490684
 20
174.0226888197881
 30
0.0
 11
98.08505358892645
 21
174.0226888197881
 31
0.0
  0
SPLINE
  5
190
330
BA
100
AcDbEntity
  8
Sichtbar (ISO)
 62
    18
420
        0
370
     5
100
AcDbSpline
210
0.0
220
0.0
230
1.0
 70
     8
 71
     3
 72
     8
 73
     4
 74
     0
 42
0.0000000001
 43
0.0000000001
 40
0.0
 40
0.0
 40
0.0
 40
0.0
 40
1.0
 40
1.0
 40
1.0
 40
1.0
 10
97.89783227749836
 20
174.2049156238667
 30
0.0
 10
97.89783227749836
 20
174.1042745389637
 30
0.0
 10
97.98165411378148
 20
174.0226888197881
 30
0.0
 10
98.08505358892645
 20
174.0226888197881
 30
0.0
  0
LINE
  5
191
330
BA
100
AcDbEntity
  8
Sichtbar (ISO)
 62
    18
420
        0
370
     5
100
AcDbLine
 10
97.89783227749836
 20
174.2049156238667
 30
0.0
 11
97.89783227749836
 21
174.3598084073328
 31
0.0
  0
SPLINE
  5
192
330
BA
100
AcDbEntity
  8
Sichtbar (ISO)
 62
    18
420
        0
370
     5
100
AcDbSpline
210
0.0
220
0.0
230
1.0
 70
     8
 71
     3
 72
     8
 73
     4
 74
     0
 42
0.0000000001
 43
0.0000000001
 40
0.0
 40
0.0
 40
0.0
 40
0.0
 40
1.0
 40
1.0
 40
1.0
 40
1.0
 10
98.08505358892645
 20
174.542035211411
 30
0.0
 10
97.98165411378148
 20
174.542035211411
 30
0.0
 10
97.89783227749836
 20
174.4604494922354
 30
0.0
 10
97.89783227749836
 20
174.3598084073328
 30
0.0
  0
LINE
  5
193
330
BA
100
AcDbEntity
  8
Sichtbar (ISO)
 62
    18
420
        0
370
     5
100
AcDbLine
 10
98.08505358892645
 20
174.542035211411
 30
0.0
 11
100.1444880146392
 21
174.542035211411
 31
0.0
  0
LINE
  5
194
330
BA
100
AcDbEntity
  8
Sichtbar (ISO)
 62
    18
420
        0
370
     5
100
AcDbLine
 10
100.1444880146392
 20
174.542035211411
 30
0.0
 11
100.1444880146392
 21
174.7242620154887
 31
0.0
  0
LINE
  5
195
330
BA
100
AcDbEntity
  8
Sichtbar (ISO)
 62
    18
420
        0
370
     5
100
AcDbLine
 10
100.1444880146392
 20
174.7242620154887
 30
0.0
 11
101.2678158832102
 21
174.7242620154887
 31
0.0
  0
LINE
  5
196
330
BA
100
AcDbEntity
  8
Sichtbar (ISO)
 62
    18
420
        0
370
     5
100
AcDbLine
 10
101.2678158832102
 20
174.7242620154887
 30
0.0
 11
101.2678158832102
 21
174.542035211411
 31
0.0
  0
LINE
  5
197
330
BA
100
AcDbEntity
  8
Sichtbar (ISO)
 62
    18
420
        0
370
     5
100
AcDbLine
 10
101.2678158832102
 20
174.542035211411
 30
0.0
 11
103.327250308923
 21
174.542035211411
 31
0.0
  0
SPLINE
  5
198
330
BA
100
AcDbEntity
  8
Sichtbar (ISO)
 62
    18
420
        0
370
     5
100
AcDbSpline
210
0.0
220
0.0
230
1.0
 70
     8
 71
     3
 72
     8
 73
     4
 74
     0
 42
0.0000000001
 43
0.0000000001
 40
0.0
 40
0.0
 40
0.0
 40
0.0
 40
1.0
 40
1.0
 40
1.0
 40
1.0
 10
103.5144716203517
 20
174.3598084073328
 30
0.0
 10
103.5144716203517
 20
174.4604494922354
 30
0.0
 10
103.4306497840679
 20
174.542035211411
 30
0.0
 10
103.327250308923
 20
174.542035211411
 30
0.0
  0
LINE
  5
199
330
BA
100
AcDbEntity
  8
Sichtbar (ISO)
 62
    18
420
        0
370
     5
100
AcDbLine
 10
103.5144716203517
 20
174.3598084073328
 30
0.0
 11
103.5144716203517
 21
174.2049156238667
 31
0.0
  0
SPLINE
  5
19A
330
BA
100
AcDbEntity
  8
Sichtbar (ISO)
 62
    18
420
        0
370
     5
100
AcDbSpline
210
0.0
220
0.0
230
1.0
 70
     8
 71
     3
 72
     8
 73
     4
 74
     0
 42
0.0000000001
 43
0.0000000001
 40
0.0
 40
0.0
 40
0.0
 40
0.0
 40
1.0
 40
1.0
 40
1.0
 40
1.0
 10
103.327250308923
 20
174.0226888197881
 30
0.0
 10
103.4306497840679
 20
174.0226888197881
 30
0.0
 10
103.5144716203517
 20
174.1042745389637
 30
0.0
 10
103.5144716203517
 20
174.2049156238667
 30
0.0
  0
LINE
  5
19B
330
BA
100
AcDbEntity
  8
Sichtbar (ISO)
 62
    18
420
        0
370
     5
100
AcDbLine
 10
103.327250308923
 20
174.0226888197881
 30
0.0
 11
101.2771769487816
 21
174.0226888197881
 31
0.0
  0
LINE
  5
19C
330
BA
100
AcDbEntity
  8
Sichtbar (ISO)
 62
    18
420
        0
370
     5
100
AcDbLine
 10
101.2771769487816
 20
174.0226888197881
 30
0.0
 11
101.2771769487816
 21
174.2049156238667
 31
0.0
  0
LINE
  5
19D
330
BA
100
AcDbEntity
  8
Sichtbar (ISO)
 62
    18
420
        0
370
     5
100
AcDbLine
 10
101.2771769487816
 20
174.2049156238667
 30
0.0
 11
100.1351269490684
 21
174.2049156238667
 31
0.0
  0
LINE
  5
19E
330
BA
100
AcDbEntity
  8
Sichtbar (ISO)
 62
    18
420
        0
370
     5
100
AcDbLine
 10
100.1351269490684
 20
174.2049156238667
 30
0.0
 11
100.1351269490684
 21
174.0226888197881
 31
0.0
  0
LINE
  5
19F
330
BA
100
AcDbEntity
  8
Sichtbar (ISO)
 62
    18
420
        0
370
     5
100
AcDbLine
 10
94.05979539321497
 20
171.3166207792276
 30
0.0
 11
94.99590195035667
 21
171.3166207792276
 31
0.0
  0
LINE
  5
1A0
330
BA
100
AcDbEntity
  8
Sichtbar (ISO)
 62
    18
420
        0
370
     5
100
AcDbLine
 10
94.99590195035667
 20
169.8588063466024
 30
0.0
 11
94.05979539321497
 21
169.8588063466024
 31
0.0
  0
LINE
  5
1A1
330
BA
100
AcDbEntity
  8
Sichtbar (ISO)
 62
    18
420
        0
370
     5
100
AcDbLine
 10
78.33320523322431
 20
169.8588063466024
 30
0.0
 11
79.26931179036664
 21
169.8588063466024
 31
0.0
  0
LINE
  5
1A2
330
BA
100
AcDbEntity
  8
Sichtbar (ISO)
 62
    18
420
        0
370
     5
100
AcDbLine
 10
79.26931179036664
 20
171.3166207792276
 30
0.0
 11
78.33320523322431
 21
171.3166207792276
 31
0.0
  0
LINE
  5
1A3
330
BA
100
AcDbEntity
  8
Sichtbar (ISO)
 62
    18
420
        0
370
     5
100
AcDbLine
 10
69.53380359608711
 20
175.1798290256848
 30
0.0
 11
69.53380359608711
 21
168.9841176870276
 31
0.0
  0
LINE
  5
1A4
330
BA
100
AcDbEntity
  8
Sichtbar (ISO)
 62
    18
420
        0
370
     5
100
AcDbLine
 10
73.1939802345135
 20
174.0226888197881
 30
0.0
 11
75.24405359465484
 21
174.0226888197881
 31
0.0
  0
LINE
  5
1A5
330
BA
100
AcDbEntity
  8
Sichtbar (ISO)
 62
    18
420
        0
370
     5
100
AcDbLine
 10
73.1939802345135
 20
174.2049156238667
 30
0.0
 11
73.1939802345135
 21
174.0226888197881
 31
0.0
  0
LINE
  5
1A6
330
BA
100
AcDbEntity
  8
Sichtbar (ISO)
 62
    18
420
        0
370
     5
100
AcDbLine
 10
72.05193023479963
 20
174.2049156238667
 30
0.0
 11
73.1939802345135
 21
174.2049156238667
 31
0.0
  0
LINE
  5
1A7
330
BA
100
AcDbEntity
  8
Sichtbar (ISO)
 62
    18
420
        0
370
     5
100
AcDbLine
 10
72.05193023479963
 20
174.0226888197881
 30
0.0
 11
72.05193023479963
 21
174.2049156238667
 31
0.0
  0
LINE
  5
1A8
330
BA
100
AcDbEntity
  8
Sichtbar (ISO)
 62
    18
420
        0
370
     5
100
AcDbLine
 10
70.00185687465827
 20
174.0226888197881
 30
0.0
 11
72.05193023479963
 21
174.0226888197881
 31
0.0
  0
SPLINE
  5
1A9
330
BA
100
AcDbEntity
  8
Sichtbar (ISO)
 62
    18
420
        0
370
     5
100
AcDbSpline
210
0.0
220
0.0
230
1.0
 70
     8
 71
     3
 72
     8
 73
     4
 74
     0
 42
0.0000000001
 43
0.0000000001
 40
0.0
 40
0.0
 40
0.0
 40
0.0
 40
1.0
 40
1.0
 40
1.0
 40
1.0
 10
69.81463556322987
 20
174.2049156238667
 30
0.0
 10
69.81463556322987
 20
174.1042745389637
 30
0.0
 10
69.89845739951299
 20
174.0226888197881
 30
0.0
 10
70.00185687465827
 20
174.0226888197881
 30
0.0
  0
LINE
  5
1AA
330
BA
100
AcDbEntity
  8
Sichtbar (ISO)
 62
    18
420
        0
370
     5
100
AcDbLine
 10
69.81463556322987
 20
174.3598084073328
 30
0.0
 11
69.81463556322987
 21
174.2049156238667
 31
0.0
  0
SPLINE
  5
1AB
330
BA
100
AcDbEntity
  8
Sichtbar (ISO)
 62
    18
420
        0
370
     5
100
AcDbSpline
210
0.0
220
0.0
230
1.0
 70
     8
 71
     3
 72
     8
 73
     4
 74
     0
 42
0.0000000001
 43
0.0000000001
 40
0.0
 40
0.0
 40
0.0
 40
0.0
 40
1.0
 40
1.0
 40
1.0
 40
1.0
 10
70.00185687465827
 20
174.542035211411
 30
0.0
 10
69.89845739951299
 20
174.542035211411
 30
0.0
 10
69.81463556322987
 20
174.4604494922354
 30
0.0
 10
69.81463556322987
 20
174.3598084073328
 30
0.0
  0
LINE
  5
1AC
330
BA
100
AcDbEntity
  8
Sichtbar (ISO)
 62
    18
420
        0
370
     5
100
AcDbLine
 10
72.06129130037135
 20
174.542035211411
 30
0.0
 11
70.00185687465827
 21
174.542035211411
 31
0.0
  0
LINE
  5
1AD
330
BA
100
AcDbEntity
  8
Sichtbar (ISO)
 62
    18
420
        0
370
     5
100
AcDbLine
 10
72.06129130037135
 20
174.7242620154887
 30
0.0
 11
72.06129130037135
 21
174.542035211411
 31
0.0
  0
LINE
  5
1AE
330
BA
100
AcDbEntity
  8
Sichtbar (ISO)
 62
    18
420
        0
370
     5
100
AcDbLine
 10
73.18461916894209
 20
174.7242620154887
 30
0.0
 11
72.06129130037135
 21
174.7242620154887
 31
0.0
  0
LINE
  5
1AF
330
BA
100
AcDbEntity
  8
Sichtbar (ISO)
 62
    18
420
        0
370
     5
100
AcDbLine
 10
73.18461916894209
 20
174.542035211411
 30
0.0
 11
73.18461916894209
 21
174.7242620154887
 31
0.0
  0
LINE
  5
1B0
330
BA
100
AcDbEntity
  8
Sichtbar (ISO)
 62
    18
420
        0
370
     5
100
AcDbLine
 10
75.24405359465484
 20
174.542035211411
 30
0.0
 11
73.18461916894209
 21
174.542035211411
 31
0.0
  0
SPLINE
  5
1B1
330
BA
100
AcDbEntity
  8
Sichtbar (ISO)
 62
    18
420
        0
370
     5
100
AcDbSpline
210
0.0
220
0.0
230
1.0
 70
     8
 71
     3
 72
     8
 73
     4
 74
     0
 42
0.0000000001
 43
0.0000000001
 40
0.0
 40
0.0
 40
0.0
 40
0.0
 40
1.0
 40
1.0
 40
1.0
 40
1.0
 10
75.43127490608357
 20
174.3598084073328
 30
0.0
 10
75.43127490608357
 20
174.4604494922354
 30
0.0
 10
75.34745306980013
 20
174.542035211411
 30
0.0
 10
75.24405359465484
 20
174.542035211411
 30
0.0
  0
LINE
  5
1B2
330
BA
100
AcDbEntity
  8
Sichtbar (ISO)
 62
    18
420
        0
370
     5
100
AcDbLine
 10
75.43127490608357
 20
174.2049156238667
 30
0.0
 11
75.43127490608357
 21
174.3598084073328
 31
0.0
  0
SPLINE
  5
1B3
330
BA
100
AcDbEntity
  8
Sichtbar (ISO)
 62
    18
420
        0
370
     5
100
AcDbSpline
210
0.0
220
0.0
230
1.0
 70
     8
 71
     3
 72
     8
 73
     4
 74
     0
 42
0.0000000001
 43
0.0000000001
 40
0.0
 40
0.0
 40
0.0
 40
0.0
 40
1.0
 40
1.0
 40
1.0
 40
1.0
 10
75.24405359465484
 20
174.0226888197881
 30
0.0
 10
75.34745306980013
 20
174.0226888197881
 30
0.0
 10
75.43127490608357
 20
174.1042745389637
 30
0.0
 10
75.43127490608357
 20
174.2049156238667
 30
0.0
  0
LINE
  5
1B4
330
BA
100
AcDbEntity
  8
Sichtbar (ISO)
 62
    18
420
        0
370
     5
100
AcDbLine
 10
73.1939802345135
 20
173.1115547993977
 30
0.0
 11
73.1939802345135
 21
172.9293279953192
 31
0.0
  0
LINE
  5
1B5
330
BA
100
AcDbEntity
  8
Sichtbar (ISO)
 62
    18
420
        0
370
     5
100
AcDbLine
 10
72.05193023479963
 20
173.1115547993977
 30
0.0
 11
73.1939802345135
 21
173.1115547993977
 31
0.0
  0
LINE
  5
1B6
330
BA
100
AcDbEntity
  8
Sichtbar (ISO)
 62
    18
420
        0
370
     5
100
AcDbLine
 10
72.05193023479963
 20
172.9293279953192
 30
0.0
 11
72.05193023479963
 21
173.1115547993977
 31
0.0
  0
LINE
  5
1B7
330
BA
100
AcDbEntity
  8
Sichtbar (ISO)
 62
    18
420
        0
370
     5
100
AcDbLine
 10
70.00185687465827
 20
172.9293279953192
 30
0.0
 11
72.05193023479963
 21
172.9293279953192
 31
0.0
  0
SPLINE
  5
1B8
330
BA
100
AcDbEntity
  8
Sichtbar (ISO)
 62
    18
420
        0
370
     5
100
AcDbSpline
210
0.0
220
0.0
230
1.0
 70
     8
 71
     3
 72
     8
 73
     4
 74
     0
 42
0.0000000001
 43
0.0000000001
 40
0.0
 40
0.0
 40
0.0
 40
0.0
 40
1.0
 40
1.0
 40
1.0
 40
1.0
 10
69.81463556322987
 20
173.1115547993977
 30
0.0
 10
69.81463556322987
 20
173.0109137144948
 30
0.0
 10
69.89845739951299
 20
172.9293279953192
 30
0.0
 10
70.00185687465827
 20
172.9293279953192
 30
0.0
  0
LINE
  5
1B9
330
BA
100
AcDbEntity
  8
Sichtbar (ISO)
 62
    18
420
        0
370
     5
100
AcDbLine
 10
69.81463556322987
 20
173.2664475828642
 30
0.0
 11
69.81463556322987
 21
173.1115547993977
 31
0.0
  0
SPLINE
  5
1BA
330
BA
100
AcDbEntity
  8
Sichtbar (ISO)
 62
    18
420
        0
370
     5
100
AcDbSpline
210
0.0
220
0.0
230
1.0
 70
     8
 71
     3
 72
     8
 73
     4
 74
     0
 42
0.0000000001
 43
0.0000000001
 40
0.0
 40
0.0
 40
0.0
 40
0.0
 40
1.0
 40
1.0
 40
1.0
 40
1.0
 10
70.00185687465827
 20
173.4486743869421
 30
0.0
 10
69.89845739951299
 20
173.4486743869421
 30
0.0
 10
69.81463556322987
 20
173.3670886677671
 30
0.0
 10
69.81463556322987
 20
173.2664475828642
 30
0.0
  0
LINE
  5
1BB
330
BA
100
AcDbEntity
  8
Sichtbar (ISO)
 62
    18
420
        0
370
     5
100
AcDbLine
 10
72.06129130037135
 20
173.4486743869421
 30
0.0
 11
70.00185687465827
 21
173.4486743869421
 31
0.0
  0
LINE
  5
1BC
330
BA
100
AcDbEntity
  8
Sichtbar (ISO)
 62
    18
420
        0
370
     5
100
AcDbLine
 10
72.06129130037135
 20
173.6309011910201
 30
0.0
 11
72.06129130037135
 21
173.4486743869421
 31
0.0
  0
LINE
  5
1BD
330
BA
100
AcDbEntity
  8
Sichtbar (ISO)
 62
    18
420
        0
370
     5
100
AcDbLine
 10
73.18461916894209
 20
173.6309011910201
 30
0.0
 11
72.06129130037135
 21
173.6309011910201
 31
0.0
  0
LINE
  5
1BE
330
BA
100
AcDbEntity
  8
Sichtbar (ISO)
 62
    18
420
        0
370
     5
100
AcDbLine
 10
73.18461916894209
 20
173.4486743869421
 30
0.0
 11
73.18461916894209
 21
173.6309011910201
 31
0.0
  0
LINE
  5
1BF
330
BA
100
AcDbEntity
  8
Sichtbar (ISO)
 62
    18
420
        0
370
     5
100
AcDbLine
 10
75.24405359465484
 20
173.4486743869421
 30
0.0
 11
73.18461916894209
 21
173.4486743869421
 31
0.0
  0
SPLINE
  5
1C0
330
BA
100
AcDbEntity
  8
Sichtbar (ISO)
 62
    18
420
        0
370
     5
100
AcDbSpline
210
0.0
220
0.0
230
1.0
 70
     8
 71
     3
 72
     8
 73
     4
 74
     0
 42
0.0000000001
 43
0.0000000001
 40
0.0
 40
0.0
 40
0.0
 40
0.0
 40
1.0
 40
1.0
 40
1.0
 40
1.0
 10
75.43127490608357
 20
173.2664475828642
 30
0.0
 10
75.43127490608357
 20
173.3670886677671
 30
0.0
 10
75.34745306980013
 20
173.4486743869421
 30
0.0
 10
75.24405359465484
 20
173.4486743869421
 30
0.0
  0
LINE
  5
1C1
330
BA
100
AcDbEntity
  8
Sichtbar (ISO)
 62
    18
420
        0
370
     5
100
AcDbLine
 10
75.43127490608357
 20
173.1115547993977
 30
0.0
 11
75.43127490608357
 21
173.2664475828642
 31
0.0
  0
SPLINE
  5
1C2
330
BA
100
AcDbEntity
  8
Sichtbar (ISO)
 62
    18
420
        0
370
     5
100
AcDbSpline
210
0.0
220
0.0
230
1.0
 70
     8
 71
     3
 72
     8
 73
     4
 74
     0
 42
0.0000000001
 43
0.0000000001
 40
0.0
 40
0.0
 40
0.0
 40
0.0
 40
1.0
 40
1.0
 40
1.0
 40
1.0
 10
75.24405359465484
 20
172.9293279953192
 30
0.0
 10
75.34745306980013
 20
172.9293279953192
 30
0.0
 10
75.43127490608357
 20
173.0109137144948
 30
0.0
 10
75.43127490608357
 20
173.1115547993977
 30
0.0
  0
LINE
  5
1C3
330
BA
100
AcDbEntity
  8
Sichtbar (ISO)
 62
    18
420
        0
370
     5
100
AcDbLine
 10
73.1939802345135
 20
172.9293279953192
 30
0.0
 11
75.24405359465484
 21
172.9293279953192
 31
0.0
  0
LINE
  5
1C4
330
BA
100
AcDbEntity
  8
Sichtbar (ISO)
 62
    18
420
        0
370
     5
100
AcDbLine
 10
73.1939802345135
 20
172.0181939749288
 30
0.0
 11
73.1939802345135
 21
171.8359671708502
 31
0.0
  0
LINE
  5
1C5
330
BA
100
AcDbEntity
  8
Sichtbar (ISO)
 62
    18
420
        0
370
     5
100
AcDbLine
 10
72.05193023479963
 20
172.0181939749288
 30
0.0
 11
73.1939802345135
 21
172.0181939749288
 31
0.0
  0
LINE
  5
1C6
330
BA
100
AcDbEntity
  8
Sichtbar (ISO)
 62
    18
420
        0
370
     5
100
AcDbLine
 10
72.05193023479963
 20
171.8359671708502
 30
0.0
 11
72.05193023479963
 21
172.0181939749288
 31
0.0
  0
LINE
  5
1C7
330
BA
100
AcDbEntity
  8
Sichtbar (ISO)
 62
    18
420
        0
370
     5
100
AcDbLine
 10
70.00185687465827
 20
171.8359671708502
 30
0.0
 11
72.05193023479963
 21
171.8359671708502
 31
0.0
  0
SPLINE
  5
1C8
330
BA
100
AcDbEntity
  8
Sichtbar (ISO)
 62
    18
420
        0
370
     5
100
AcDbSpline
210
0.0
220
0.0
230
1.0
 70
     8
 71
     3
 72
     8
 73
     4
 74
     0
 42
0.0000000001
 43
0.0000000001
 40
0.0
 40
0.0
 40
0.0
 40
0.0
 40
1.0
 40
1.0
 40
1.0
 40
1.0
 10
69.81463556322987
 20
172.0181939749288
 30
0.0
 10
69.81463556322987
 20
171.9175528900258
 30
0.0
 10
69.89845739951299
 20
171.8359671708502
 30
0.0
 10
70.00185687465827
 20
171.8359671708502
 30
0.0
  0
LINE
  5
1C9
330
BA
100
AcDbEntity
  8
Sichtbar (ISO)
 62
    18
420
        0
370
     5
100
AcDbLine
 10
69.81463556322987
 20
172.1730867583952
 30
0.0
 11
69.81463556322987
 21
172.0181939749288
 31
0.0
  0
SPLINE
  5
1CA
330
BA
100
AcDbEntity
  8
Sichtbar (ISO)
 62
    18
420
        0
370
     5
100
AcDbSpline
210
0.0
220
0.0
230
1.0
 70
     8
 71
     3
 72
     8
 73
     4
 74
     0
 42
0.0000000001
 43
0.0000000001
 40
0.0
 40
0.0
 40
0.0
 40
0.0
 40
1.0
 40
1.0
 40
1.0
 40
1.0
 10
70.00185687465827
 20
172.3553135624731
 30
0.0
 10
69.89845739951299
 20
172.3553135624731
 30
0.0
 10
69.81463556322987
 20
172.2737278432982
 30
0.0
 10
69.81463556322987
 20
172.1730867583952
 30
0.0
  0
LINE
  5
1CB
330
BA
100
AcDbEntity
  8
Sichtbar (ISO)
 62
    18
420
        0
370
     5
100
AcDbLine
 10
72.06129130037135
 20
172.3553135624731
 30
0.0
 11
70.00185687465827
 21
172.3553135624731
 31
0.0
  0
LINE
  5
1CC
330
BA
100
AcDbEntity
  8
Sichtbar (ISO)
 62
    18
420
        0
370
     5
100
AcDbLine
 10
72.06129130037135
 20
172.5375403665511
 30
0.0
 11
72.06129130037135
 21
172.3553135624731
 31
0.0
  0
LINE
  5
1CD
330
BA
100
AcDbEntity
  8
Sichtbar (ISO)
 62
    18
420
        0
370
     5
100
AcDbLine
 10
73.18461916894209
 20
172.5375403665511
 30
0.0
 11
72.06129130037135
 21
172.5375403665511
 31
0.0
  0
LINE
  5
1CE
330
BA
100
AcDbEntity
  8
Sichtbar (ISO)
 62
    18
420
        0
370
     5
100
AcDbLine
 10
73.18461916894209
 20
172.3553135624731
 30
0.0
 11
73.18461916894209
 21
172.5375403665511
 31
0.0
  0
LINE
  5
1CF
330
BA
100
AcDbEntity
  8
Sichtbar (ISO)
 62
    18
420
        0
370
     5
100
AcDbLine
 10
75.24405359465484
 20
172.3553135624731
 30
0.0
 11
73.18461916894209
 21
172.3553135624731
 31
0.0
  0
SPLINE
  5
1D0
330
BA
100
AcDbEntity
  8
Sichtbar (ISO)
 62
    18
420
        0
370
     5
100
AcDbSpline
210
0.0
220
0.0
230
1.0
 70
     8
 71
     3
 72
     8
 73
     4
 74
     0
 42
0.0000000001
 43
0.0000000001
 40
0.0
 40
0.0
 40
0.0
 40
0.0
 40
1.0
 40
1.0
 40
1.0
 40
1.0
 10
75.43127490608357
 20
172.1730867583952
 30
0.0
 10
75.43127490608357
 20
172.2737278432982
 30
0.0
 10
75.34745306980013
 20
172.3553135624731
 30
0.0
 10
75.24405359465484
 20
172.3553135624731
 30
0.0
  0
LINE
  5
1D1
330
BA
100
AcDbEntity
  8
Sichtbar (ISO)
 62
    18
420
        0
370
     5
100
AcDbLine
 10
75.43127490608357
 20
172.0181939749288
 30
0.0
 11
75.43127490608357
 21
172.1730867583952
 31
0.0
  0
SPLINE
  5
1D2
330
BA
100
AcDbEntity
  8
Sichtbar (ISO)
 62
    18
420
        0
370
     5
100
AcDbSpline
210
0.0
220
0.0
230
1.0
 70
     8
 71
     3
 72
     8
 73
     4
 74
     0
 42
0.0000000001
 43
0.0000000001
 40
0.0
 40
0.0
 40
0.0
 40
0.0
 40
1.0
 40
1.0
 40
1.0
 40
1.0
 10
75.24405359465484
 20
171.8359671708502
 30
0.0
 10
75.34745306980013
 20
171.8359671708502
 30
0.0
 10
75.43127490608357
 20
171.9175528900258
 30
0.0
 10
75.43127490608357
 20
172.0181939749288
 30
0.0
  0
LINE
  5
1D3
330
BA
100
AcDbEntity
  8
Sichtbar (ISO)
 62
    18
420
        0
370
     5
100
AcDbLine
 10
73.1939802345135
 20
171.8359671708502
 30
0.0
 11
75.24405359465484
 21
171.8359671708502
 31
0.0
  0
LINE
  5
1D4
330
BA
100
AcDbEntity
  8
Sichtbar (ISO)
 62
    18
420
        0
370
     5
100
AcDbLine
 10
73.1939802345135
 20
170.9248331504602
 30
0.0
 11
73.1939802345135
 21
170.7426063463819
 31
0.0
  0
LINE
  5
1D5
330
BA
100
AcDbEntity
  8
Sichtbar (ISO)
 62
    18
420
        0
370
     5
100
AcDbLine
 10
72.05193023479963
 20
170.9248331504602
 30
0.0
 11
73.1939802345135
 21
170.9248331504602
 31
0.0
  0
LINE
  5
1D6
330
BA
100
AcDbEntity
  8
Sichtbar (ISO)
 62
    18
420
        0
370
     5
100
AcDbLine
 10
72.05193023479963
 20
170.7426063463819
 30
0.0
 11
72.05193023479963
 21
170.9248331504602
 31
0.0
  0
LINE
  5
1D7
330
BA
100
AcDbEntity
  8
Sichtbar (ISO)
 62
    18
420
        0
370
     5
100
AcDbLine
 10
70.00185687465827
 20
170.7426063463819
 30
0.0
 11
72.05193023479963
 21
170.7426063463819
 31
0.0
  0
SPLINE
  5
1D8
330
BA
100
AcDbEntity
  8
Sichtbar (ISO)
 62
    18
420
        0
370
     5
100
AcDbSpline
210
0.0
220
0.0
230
1.0
 70
     8
 71
     3
 72
     8
 73
     4
 74
     0
 42
0.0000000001
 43
0.0000000001
 40
0.0
 40
0.0
 40
0.0
 40
0.0
 40
1.0
 40
1.0
 40
1.0
 40
1.0
 10
69.81463556322987
 20
170.9248331504602
 30
0.0
 10
69.81463556322987
 20
170.8241920655569
 30
0.0
 10
69.89845739951299
 20
170.7426063463819
 30
0.0
 10
70.00185687465827
 20
170.7426063463819
 30
0.0
  0
LINE
  5
1D9
330
BA
100
AcDbEntity
  8
Sichtbar (ISO)
 62
    18
420
        0
370
     5
100
AcDbLine
 10
69.81463556322987
 20
171.0797259339263
 30
0.0
 11
69.81463556322987
 21
170.9248331504602
 31
0.0
  0
SPLINE
  5
1DA
330
BA
100
AcDbEntity
  8
Sichtbar (ISO)
 62
    18
420
        0
370
     5
100
AcDbSpline
210
0.0
220
0.0
230
1.0
 70
     8
 71
     3
 72
     8
 73
     4
 74
     0
 42
0.0000000001
 43
0.0000000001
 40
0.0
 40
0.0
 40
0.0
 40
0.0
 40
1.0
 40
1.0
 40
1.0
 40
1.0
 10
70.00185687465827
 20
171.2619527380042
 30
0.0
 10
69.89845739951299
 20
171.2619527380042
 30
0.0
 10
69.81463556322987
 20
171.1803670188292
 30
0.0
 10
69.81463556322987
 20
171.0797259339263
 30
0.0
  0
LINE
  5
1DB
330
BA
100
AcDbEntity
  8
Sichtbar (ISO)
 62
    18
420
        0
370
     5
100
AcDbLine
 10
72.06129130037135
 20
171.2619527380042
 30
0.0
 11
70.00185687465827
 21
171.2619527380042
 31
0.0
  0
LINE
  5
1DC
330
BA
100
AcDbEntity
  8
Sichtbar (ISO)
 62
    18
420
        0
370
     5
100
AcDbLine
 10
72.06129130037135
 20
171.4441795420821
 30
0.0
 11
72.06129130037135
 21
171.2619527380042
 31
0.0
  0
LINE
  5
1DD
330
BA
100
AcDbEntity
  8
Sichtbar (ISO)
 62
    18
420
        0
370
     5
100
AcDbLine
 10
73.18461916894209
 20
171.4441795420821
 30
0.0
 11
72.06129130037135
 21
171.4441795420821
 31
0.0
  0
LINE
  5
1DE
330
BA
100
AcDbEntity
  8
Sichtbar (ISO)
 62
    18
420
        0
370
     5
100
AcDbLine
 10
73.18461916894209
 20
171.2619527380042
 30
0.0
 11
73.18461916894209
 21
171.4441795420821
 31
0.0
  0
LINE
  5
1DF
330
BA
100
AcDbEntity
  8
Sichtbar (ISO)
 62
    18
420
        0
370
     5
100
AcDbLine
 10
75.24405359465484
 20
171.2619527380042
 30
0.0
 11
73.18461916894209
 21
171.2619527380042
 31
0.0
  0
SPLINE
  5
1E0
330
BA
100
AcDbEntity
  8
Sichtbar (ISO)
 62
    18
420
        0
370
     5
100
AcDbSpline
210
0.0
220
0.0
230
1.0
 70
     8
 71
     3
 72
     8
 73
     4
 74
     0
 42
0.0000000001
 43
0.0000000001
 40
0.0
 40
0.0
 40
0.0
 40
0.0
 40
1.0
 40
1.0
 40
1.0
 40
1.0
 10
75.43127490608357
 20
171.0797259339263
 30
0.0
 10
75.43127490608357
 20
171.1803670188292
 30
0.0
 10
75.34745306980013
 20
171.2619527380042
 30
0.0
 10
75.24405359465484
 20
171.2619527380042
 30
0.0
  0
LINE
  5
1E1
330
BA
100
AcDbEntity
  8
Sichtbar (ISO)
 62
    18
420
        0
370
     5
100
AcDbLine
 10
75.43127490608357
 20
170.9248331504602
 30
0.0
 11
75.43127490608357
 21
171.0797259339263
 31
0.0
  0
SPLINE
  5
1E2
330
BA
100
AcDbEntity
  8
Sichtbar (ISO)
 62
    18
420
        0
370
     5
100
AcDbSpline
210
0.0
220
0.0
230
1.0
 70
     8
 71
     3
 72
     8
 73
     4
 74
     0
 42
0.0000000001
 43
0.0000000001
 40
0.0
 40
0.0
 40
0.0
 40
0.0
 40
1.0
 40
1.0
 40
1.0
 40
1.0
 10
75.24405359465484
 20
170.7426063463819
 30
0.0
 10
75.34745306980013
 20
170.7426063463819
 30
0.0
 10
75.43127490608357
 20
170.8241920655569
 30
0.0
 10
75.43127490608357
 20
170.9248331504602
 30
0.0
  0
LINE
  5
1E3
330
BA
100
AcDbEntity
  8
Sichtbar (ISO)
 62
    18
420
        0
370
     5
100
AcDbLine
 10
73.1939802345135
 20
170.7426063463819
 30
0.0
 11
75.24405359465484
 21
170.7426063463819
 31
0.0
  0
LINE
  5
1E4
330
BA
100
AcDbEntity
  8
Sichtbar (ISO)
 62
    18
420
        0
370
     5
100
AcDbLine
 10
73.1939802345135
 20
169.8314723259909
 30
0.0
 11
73.1939802345135
 21
169.6492455219126
 31
0.0
  0
LINE
  5
1E5
330
BA
100
AcDbEntity
  8
Sichtbar (ISO)
 62
    18
420
        0
370
     5
100
AcDbLine
 10
72.05193023479963
 20
169.8314723259909
 30
0.0
 11
73.1939802345135
 21
169.8314723259909
 31
0.0
  0
LINE
  5
1E6
330
BA
100
AcDbEntity
  8
Sichtbar (ISO)
 62
    18
420
        0
370
     5
100
AcDbLine
 10
72.05193023479963
 20
169.6492455219126
 30
0.0
 11
72.05193023479963
 21
169.8314723259909
 31
0.0
  0
LINE
  5
1E7
330
BA
100
AcDbEntity
  8
Sichtbar (ISO)
 62
    18
420
        0
370
     5
100
AcDbLine
 10
70.00185687465827
 20
169.6492455219126
 30
0.0
 11
72.05193023479963
 21
169.6492455219126
 31
0.0
  0
SPLINE
  5
1E8
330
BA
100
AcDbEntity
  8
Sichtbar (ISO)
 62
    18
420
        0
370
     5
100
AcDbSpline
210
0.0
220
0.0
230
1.0
 70
     8
 71
     3
 72
     8
 73
     4
 74
     0
 42
0.0000000001
 43
0.0000000001
 40
0.0
 40
0.0
 40
0.0
 40
0.0
 40
1.0
 40
1.0
 40
1.0
 40
1.0
 10
69.81463556322987
 20
169.8314723259909
 30
0.0
 10
69.81463556322987
 20
169.7308312410879
 30
0.0
 10
69.89845739951299
 20
169.6492455219126
 30
0.0
 10
70.00185687465827
 20
169.6492455219126
 30
0.0
  0
LINE
  5
1E9
330
BA
100
AcDbEntity
  8
Sichtbar (ISO)
 62
    18
420
        0
370
     5
100
AcDbLine
 10
69.81463556322987
 20
169.9863651094573
 30
0.0
 11
69.81463556322987
 21
169.8314723259909
 31
0.0
  0
SPLINE
  5
1EA
330
BA
100
AcDbEntity
  8
Sichtbar (ISO)
 62
    18
420
        0
370
     5
100
AcDbSpline
210
0.0
220
0.0
230
1.0
 70
     8
 71
     3
 72
     8
 73
     4
 74
     0
 42
0.0000000001
 43
0.0000000001
 40
0.0
 40
0.0
 40
0.0
 40
0.0
 40
1.0
 40
1.0
 40
1.0
 40
1.0
 10
70.00185687465827
 20
170.1685919135352
 30
0.0
 10
69.89845739951299
 20
170.1685919135352
 30
0.0
 10
69.81463556322987
 20
170.0870061943606
 30
0.0
 10
69.81463556322987
 20
169.9863651094573
 30
0.0
  0
LINE
  5
1EB
330
BA
100
AcDbEntity
  8
Sichtbar (ISO)
 62
    18
420
        0
370
     5
100
AcDbLine
 10
72.06129130037135
 20
170.1685919135352
 30
0.0
 11
70.00185687465827
 21
170.1685919135352
 31
0.0
  0
LINE
  5
1EC
330
BA
100
AcDbEntity
  8
Sichtbar (ISO)
 62
    18
420
        0
370
     5
100
AcDbLine
 10
72.06129130037135
 20
170.3508187176138
 30
0.0
 11
72.06129130037135
 21
170.1685919135352
 31
0.0
  0
LINE
  5
1ED
330
BA
100
AcDbEntity
  8
Sichtbar (ISO)
 62
    18
420
        0
370
     5
100
AcDbLine
 10
73.18461916894209
 20
170.3508187176138
 30
0.0
 11
72.06129130037135
 21
170.3508187176138
 31
0.0
  0
LINE
  5
1EE
330
BA
100
AcDbEntity
  8
Sichtbar (ISO)
 62
    18
420
        0
370
     5
100
AcDbLine
 10
73.18461916894209
 20
170.1685919135352
 30
0.0
 11
73.18461916894209
 21
170.3508187176138
 31
0.0
  0
LINE
  5
1EF
330
BA
100
AcDbEntity
  8
Sichtbar (ISO)
 62
    18
420
        0
370
     5
100
AcDbLine
 10
75.24405359465484
 20
170.1685919135352
 30
0.0
 11
73.18461916894209
 21
170.1685919135352
 31
0.0
  0
SPLINE
  5
1F0
330
BA
100
AcDbEntity
  8
Sichtbar (ISO)
 62
    18
420
        0
370
     5
100
AcDbSpline
210
0.0
220
0.0
230
1.0
 70
     8
 71
     3
 72
     8
 73
     4
 74
     0
 42
0.0000000001
 43
0.0000000001
 40
0.0
 40
0.0
 40
0.0
 40
0.0
 40
1.0
 40
1.0
 40
1.0
 40
1.0
 10
75.43127490608357
 20
169.9863651094573
 30
0.0
 10
75.43127490608357
 20
170.0870061943606
 30
0.0
 10
75.34745306980013
 20
170.1685919135352
 30
0.0
 10
75.24405359465484
 20
170.1685919135352
 30
0.0
  0
LINE
  5
1F1
330
BA
100
AcDbEntity
  8
Sichtbar (ISO)
 62
    18
420
        0
370
     5
100
AcDbLine
 10
75.43127490608357
 20
169.8314723259909
 30
0.0
 11
75.43127490608357
 21
169.9863651094573
 31
0.0
  0
SPLINE
  5
1F2
330
BA
100
AcDbEntity
  8
Sichtbar (ISO)
 62
    18
420
        0
370
     5
100
AcDbSpline
210
0.0
220
0.0
230
1.0
 70
     8
 71
     3
 72
     8
 73
     4
 74
     0
 42
0.0000000001
 43
0.0000000001
 40
0.0
 40
0.0
 40
0.0
 40
0.0
 40
1.0
 40
1.0
 40
1.0
 40
1.0
 10
75.24405359465484
 20
169.6492455219126
 30
0.0
 10
75.34745306980013
 20
169.6492455219126
 30
0.0
 10
75.43127490608357
 20
169.7308312410879
 30
0.0
 10
75.43127490608357
 20
169.8314723259909
 30
0.0
  0
LINE
  5
1F3
330
BA
100
AcDbEntity
  8
Sichtbar (ISO)
 62
    18
420
        0
370
     5
100
AcDbLine
 10
73.1939802345135
 20
169.6492455219126
 30
0.0
 11
75.24405359465484
 21
169.6492455219126
 31
0.0
  0
LINE
  5
1F4
330
BA
100
AcDbEntity
  8
Sichtbar (ISO)
 62
    18
420
        0
370
     5
100
AcDbLine
 10
68.77559892224287
 20
176.2731898501535
 30
0.0
 11
68.77559892224287
 21
176.4554166542317
 31
0.0
  0
LINE
  5
1F5
330
BA
100
AcDbEntity
  8
Sichtbar (ISO)
 62
    18
420
        0
370
     5
100
AcDbLine
 10
68.77559892224287
 20
176.2731898501535
 30
0.0
 11
67.96392780666696
 21
176.2731898501535
 31
0.0
  0
LINE
  5
1F6
330
BA
100
AcDbEntity
  8
Sichtbar (ISO)
 62
    18
420
        0
370
     5
100
AcDbLine
 10
67.96392780666696
 20
176.2731898501535
 30
0.0
 11
67.96392780666696
 21
175.1798290256848
 31
0.0
  0
LINE
  5
1F7
330
BA
100
AcDbEntity
  8
Sichtbar (ISO)
 62
    18
420
        0
370
     5
100
AcDbLine
 10
68.02122122614647
 20
175.1798290256848
 30
0.0
 11
67.96392780666696
 21
175.1798290256848
 31
0.0
  0
LINE
  5
1F8
330
BA
100
AcDbEntity
  8
Sichtbar (ISO)
 62
    18
420
        0
370
     5
100
AcDbLine
 10
68.02122122614647
 20
175.1798290256848
 30
0.0
 11
68.02122122614647
 21
168.9841176870276
 31
0.0
  0
LINE
  5
1F9
330
BA
100
AcDbEntity
  8
Sichtbar (ISO)
 62
    18
420
        0
370
     5
100
AcDbLine
 10
68.97213966180157
 20
175.1798290256848
 30
0.0
 11
68.97213966180157
 21
168.9841176870276
 31
0.0
  0
LINE
  5
1FA
330
BA
100
AcDbEntity
  8
Sichtbar (ISO)
 62
    18
420
        0
370
     5
100
AcDbLine
 10
68.84635015186226
 20
175.1798290256848
 30
0.0
 11
68.84635015186226
 21
175.5442826338407
 31
0.0
  0
SPLINE
  5
1FB
330
BA
100
AcDbEntity
  8
Sichtbar (ISO)
 62
    18
420
        0
370
     5
100
AcDbSpline
210
0.0
220
0.0
230
1.0
 70
     8
 71
     3
 72
     8
 73
     4
 74
     0
 42
0.0000000001
 43
0.0000000001
 40
0.0
 40
0.0
 40
0.0
 40
0.0
 40
1.0
 40
1.0
 40
1.0
 40
1.0
 10
92.2507323874384
 20
174.2481805965589
 30
0.0
 10
92.25073238743808
 20
174.2683037240779
 30
0.0
 10
92.23398560126058
 20
174.2846037558449
 30
0.0
 10
92.21331093518609
 20
174.2846037558455
 30
0.0
  0
LINE
  5
1FC
330
BA
100
AcDbEntity
  8
Sichtbar (ISO)
 62
    18
420
        0
370
     5
100
AcDbLine
 10
91.77329523326156
 20
174.2846037558449
 30
0.0
 11
92.21331093518609
 21
174.2846037558449
 31
0.0
  0
SPLINE
  5
1FD
330
BA
100
AcDbEntity
  8
Sichtbar (ISO)
 62
    18
420
        0
370
     5
100
AcDbSpline
210
0.0
220
0.0
230
1.0
 70
     8
 71
     3
 72
     8
 73
     4
 74
     0
 42
0.0000000001
 43
0.0000000001
 40
0.0
 40
0.0
 40
0.0
 40
0.0
 40
1.0
 40
1.0
 40
1.0
 40
1.0
 10
91.73587378100926
 20
174.3210269151308
 30
0.0
 10
91.73587378100958
 20
174.3009037876122
 30
0.0
 10
91.75262056718741
 20
174.2846037558449
 30
0.0
 10
91.77329523326156
 20
174.2846037558449
 30
0.0
  0
LINE
  5
1FE
330
BA
100
AcDbEntity
  8
Sichtbar (ISO)
 62
    18
420
        0
370
     5
100
AcDbLine
 10
91.7358737810099
 20
175.0363837138079
 30
0.0
 11
91.7358737810099
 21
174.3210269151308
 31
0.0
  0
SPLINE
  5
1FF
330
BA
100
AcDbEntity
  8
Sichtbar (ISO)
 62
    18
420
        0
370
     5
100
AcDbSpline
210
0.0
220
0.0
230
1.0
 70
     8
 71
     3
 72
     8
 73
     4
 74
     0
 42
0.0000000001
 43
0.0000000001
 40
0.0
 40
0.0
 40
0.0
 40
0.0
 40
1.0
 40
1.0
 40
1.0
 40
1.0
 10
91.77329523326156
 20
175.0728068730948
 30
0.0
 10
91.75262056718676
 20
175.0728068730948
 30
0.0
 10
91.7358737810086
 20
175.0565068413279
 30
0.0
 10
91.73587378100926
 20
175.0363837138079
 30
0.0
  0
LINE
  5
200
330
BA
100
AcDbEntity
  8
Sichtbar (ISO)
 62
    18
420
        0
370
     5
100
AcDbLine
 10
93.91241850459755
 20
175.0728068730945
 30
0.0
 11
91.77329523326156
 21
175.0728068730945
 31
0.0
  0
SPLINE
  5
201
330
BA
100
AcDbEntity
  8
Sichtbar (ISO)
 62
    18
420
        0
370
     5
100
AcDbSpline
210
0.0
220
0.0
230
1.0
 70
     8
 71
     3
 72
     8
 73
     4
 74
     0
 42
0.0000000001
 43
0.0000000001
 40
0.0
 40
0.0
 40
0.0
 40
0.0
 40
1.0
 40
1.0
 40
1.0
 40
1.0
 10
93.94983995685016
 20
175.0363837138079
 30
0.0
 10
93.9498399568508
 20
175.0565068413279
 30
0.0
 10
93.93309317067233
 20
175.0728068730948
 30
0.0
 10
93.91241850459755
 20
175.0728068730948
 30
0.0
  0
LINE
  5
202
330
BA
100
AcDbEntity
  8
Sichtbar (ISO)
 62
    18
420
        0
370
     5
100
AcDbLine
 10
93.94983995684921
 20
174.3210269151308
 30
0.0
 11
93.94983995684921
 21
175.0363837138079
 31
0.0
  0
SPLINE
  5
203
330
BA
100
AcDbEntity
  8
Sichtbar (ISO)
 62
    18
420
        0
370
     5
100
AcDbSpline
210
0.0
220
0.0
230
1.0
 70
     8
 71
     3
 72
     8
 73
     4
 74
     0
 42
0.0000000001
 43
0.0000000001
 40
0.0
 40
0.0
 40
0.0
 40
0.0
 40
1.0
 40
1.0
 40
1.0
 40
1.0
 10
93.91241850459755
 20
174.2846037558449
 30
0.0
 10
93.93309317067233
 20
174.2846037558449
 30
0.0
 10
93.94983995685016
 20
174.3009037876122
 30
0.0
 10
93.94983995685016
 20
174.3210269151308
 30
0.0
  0
LINE
  5
204
330
BA
100
AcDbEntity
  8
Sichtbar (ISO)
 62
    18
420
        0
370
     5
100
AcDbLine
 10
93.47240280267365
 20
174.2846037558449
 30
0.0
 11
93.91241850459755
 21
174.2846037558449
 31
0.0
  0
SPLINE
  5
205
330
BA
100
AcDbEntity
  8
Sichtbar (ISO)
 62
    18
420
        0
370
     5
100
AcDbSpline
210
0.0
220
0.0
230
1.0
 70
     8
 71
     3
 72
     8
 73
     4
 74
     0
 42
0.0000000001
 43
0.0000000001
 40
0.0
 40
0.0
 40
0.0
 40
0.0
 40
1.0
 40
1.0
 40
1.0
 40
1.0
 10
93.47240280267365
 20
174.2846037558455
 30
0.0
 10
93.45172813659884
 20
174.2846037558455
 30
0.0
 10
93.43498135042102
 20
174.2683037240785
 30
0.0
 10
93.43498135042102
 20
174.2481805965589
 30
0.0
  0
LINE
  5
206
330
BA
100
AcDbEntity
  8
Sichtbar (ISO)
 62
    18
420
        0
370
     5
100
AcDbLine
 10
93.43498135042102
 20
173.5010062967794
 30
0.0
 11
93.43498135042102
 21
174.2481805965589
 31
0.0
  0
SPLINE
  5
207
330
BA
100
AcDbEntity
  8
Sichtbar (ISO)
 62
    18
420
        0
370
     5
100
AcDbSpline
210
0.0
220
0.0
230
1.0
 70
     8
 71
     3
 72
     8
 73
     4
 74
     0
 42
0.0000000001
 43
0.0000000001
 40
0.0
 40
0.0
 40
0.0
 40
0.0
 40
1.0
 40
1.0
 40
1.0
 40
1.0
 10
93.39755989816902
 20
173.4645831374925
 30
0.0
 10
93.41823456424448
 20
173.4645831374925
 30
0.0
 10
93.4349813504223
 20
173.4808831692595
 30
0.0
 10
93.4349813504223
 20
173.5010062967794
 30
0.0
  0
LINE
  5
208
330
BA
100
AcDbEntity
  8
Sichtbar (ISO)
 62
    18
420
        0
370
     5
100
AcDbLine
 10
92.2881538396904
 20
173.4645831374932
 30
0.0
 11
93.39755989816902
 21
173.4645831374932
 31
0.0
  0
SPLINE
  5
209
330
BA
100
AcDbEntity
  8
Sichtbar (ISO)
 62
    18
420
        0
370
     5
100
AcDbSpline
210
0.0
220
0.0
230
1.0
 70
     8
 71
     3
 72
     8
 73
     4
 74
     0
 42
0.0000000001
 43
0.0000000001
 40
0.0
 40
0.0
 40
0.0
 40
0.0
 40
1.0
 40
1.0
 40
1.0
 40
1.0
 10
92.25073238743744
 20
173.5010062967794
 30
0.0
 10
92.25073238743712
 20
173.4808831692595
 30
0.0
 10
92.26747917361526
 20
173.4645831374925
 30
0.0
 10
92.2881538396904
 20
173.4645831374925
 30
0.0
  0
LINE
  5
20A
330
BA
100
AcDbEntity
  8
Sichtbar (ISO)
 62
    18
420
        0
370
     5
100
AcDbLine
 10
92.25073238743808
 20
174.2481805965589
 30
0.0
 11
92.25073238743808
 21
173.5010062967794
 31
0.0
  0
SPLINE
  5
20B
330
BA
100
AcDbEntity
  8
Sichtbar (ISO)
 62
    18
420
        0
370
     5
100
AcDbSpline
210
0.0
220
0.0
230
1.0
 70
     8
 71
     3
 72
     8
 73
     4
 74
     0
 42
0.0000000001
 43
0.0000000001
 40
0.0
 40
0.0
 40
0.0
 40
0.0
 40
1.0
 40
1.0
 40
1.0
 40
1.0
 10
81.11579624839519
 20
174.2846037558455
 30
0.0
 10
81.09512158232071
 20
174.2846037558449
 30
0.0
 10
81.07837479614321
 20
174.2683037240785
 30
0.0
 10
81.07837479614321
 20
174.2481805965589
 30
0.0
  0
LINE
  5
20C
330
BA
100
AcDbEntity
  8
Sichtbar (ISO)
 62
    18
420
        0
370
     5
100
AcDbLine
 10
81.07837479614321
 20
174.2481805965589
 30
0.0
 11
81.07837479614321
 21
173.5010062967794
 31
0.0
  0
SPLINE
  5
20D
330
BA
100
AcDbEntity
  8
Sichtbar (ISO)
 62
    18
420
        0
370
     5
100
AcDbSpline
210
0.0
220
0.0
230
1.0
 70
     8
 71
     3
 72
     8
 73
     4
 74
     0
 42
0.0000000001
 43
0.0000000001
 40
0.0
 40
0.0
 40
0.0
 40
0.0
 40
1.0
 40
1.0
 40
1.0
 40
1.0
 10
81.04095334389121
 20
173.4645831374925
 30
0.0
 10
81.06162800996603
 20
173.4645831374925
 30
0.0
 10
81.07837479614417
 20
173.4808831692595
 30
0.0
 10
81.07837479614417
 20
173.5010062967794
 30
0.0
  0
LINE
  5
20E
330
BA
100
AcDbEntity
  8
Sichtbar (ISO)
 62
    18
420
        0
370
     5
100
AcDbLine
 10
81.04095334389121
 20
173.4645831374932
 30
0.0
 11
79.93154728541226
 21
173.4645831374932
 31
0.0
  0
SPLINE
  5
20F
330
BA
100
AcDbEntity
  8
Sichtbar (ISO)
 62
    18
420
        0
370
     5
100
AcDbSpline
210
0.0
220
0.0
230
1.0
 70
     8
 71
     3
 72
     8
 73
     4
 74
     0
 42
0.0000000001
 43
0.0000000001
 40
0.0
 40
0.0
 40
0.0
 40
0.0
 40
1.0
 40
1.0
 40
1.0
 40
1.0
 10
79.89412583315931
 20
173.5010062967794
 30
0.0
 10
79.89412583315931
 20
173.4808831692595
 30
0.0
 10
79.91087261933746
 20
173.4645831374925
 30
0.0
 10
79.93154728541226
 20
173.4645831374925
 30
0.0
  0
LINE
  5
210
330
BA
100
AcDbEntity
  8
Sichtbar (ISO)
 62
    18
420
        0
370
     5
100
AcDbLine
 10
79.89412583316028
 20
173.5010062967794
 30
0.0
 11
79.89412583316028
 21
174.2481805965589
 31
0.0
  0
SPLINE
  5
211
330
BA
100
AcDbEntity
  8
Sichtbar (ISO)
 62
    18
420
        0
370
     5
100
AcDbSpline
210
0.0
220
0.0
230
1.0
 70
     8
 71
     3
 72
     8
 73
     4
 74
     0
 42
0.0000000001
 43
0.0000000001
 40
0.0
 40
0.0
 40
0.0
 40
0.0
 40
1.0
 40
1.0
 40
1.0
 40
1.0
 10
79.8941258331606
 20
174.2481805965589
 30
0.0
 10
79.89412583316028
 20
174.2683037240785
 30
0.0
 10
79.87737904698277
 20
174.2846037558455
 30
0.0
 10
79.85670438090796
 20
174.2846037558455
 30
0.0
  0
LINE
  5
212
330
BA
100
AcDbEntity
  8
Sichtbar (ISO)
 62
    18
420
        0
370
     5
100
AcDbLine
 10
79.85670438090796
 20
174.2846037558449
 30
0.0
 11
79.41668867898407
 21
174.2846037558449
 31
0.0
  0
SPLINE
  5
213
330
BA
100
AcDbEntity
  8
Sichtbar (ISO)
 62
    18
420
        0
370
     5
100
AcDbSpline
210
0.0
220
0.0
230
1.0
 70
     8
 71
     3
 72
     8
 73
     4
 74
     0
 42
0.0000000001
 43
0.0000000001
 40
0.0
 40
0.0
 40
0.0
 40
0.0
 40
1.0
 40
1.0
 40
1.0
 40
1.0
 10
79.37926722673111
 20
174.3210269151308
 30
0.0
 10
79.37926722673144
 20
174.3009037876122
 30
0.0
 10
79.39601401290926
 20
174.2846037558449
 30
0.0
 10
79.41668867898407
 20
174.2846037558449
 30
0.0
  0
LINE
  5
214
330
BA
100
AcDbEntity
  8
Sichtbar (ISO)
 62
    18
420
        0
370
     5
100
AcDbLine
 10
79.37926722673177
 20
174.3210269151308
 30
0.0
 11
79.37926722673177
 21
175.0363837138079
 31
0.0
  0
SPLINE
  5
215
330
BA
100
AcDbEntity
  8
Sichtbar (ISO)
 62
    18
420
        0
370
     5
100
AcDbSpline
210
0.0
220
0.0
230
1.0
 70
     8
 71
     3
 72
     8
 73
     4
 74
     0
 42
0.0000000001
 43
0.0000000001
 40
0.0
 40
0.0
 40
0.0
 40
0.0
 40
1.0
 40
1.0
 40
1.0
 40
1.0
 10
79.41668867898407
 20
175.0728068730948
 30
0.0
 10
79.39601401290862
 20
175.0728068730948
 30
0.0
 10
79.3792672267308
 20
175.0565068413279
 30
0.0
 10
79.37926722673111
 20
175.0363837138079
 30
0.0
  0
LINE
  5
216
330
BA
100
AcDbEntity
  8
Sichtbar (ISO)
 62
    18
420
        0
370
     5
100
AcDbLine
 10
79.41668867898407
 20
175.0728068730945
 30
0.0
 11
81.5558119503194
 21
175.0728068730945
 31
0.0
  0
SPLINE
  5
217
330
BA
100
AcDbEntity
  8
Sichtbar (ISO)
 62
    18
420
        0
370
     5
100
AcDbSpline
210
0.0
220
0.0
230
1.0
 70
     8
 71
     3
 72
     8
 73
     4
 74
     0
 42
0.0000000001
 43
0.0000000001
 40
0.0
 40
0.0
 40
0.0
 40
0.0
 40
1.0
 40
1.0
 40
1.0
 40
1.0
 10
81.59323340257236
 20
175.0363837138079
 30
0.0
 10
81.59323340257268
 20
175.0565068413279
 30
0.0
 10
81.57648661639454
 20
175.0728068730948
 30
0.0
 10
81.5558119503194
 20
175.0728068730948
 30
0.0
  0
LINE
  5
218
330
BA
100
AcDbEntity
  8
Sichtbar (ISO)
 62
    18
420
        0
370
     5
100
AcDbLine
 10
81.5932334025714
 20
175.0363837138079
 30
0.0
 11
81.5932334025714
 21
174.3210269151308
 31
0.0
  0
SPLINE
  5
219
330
BA
100
AcDbEntity
  8
Sichtbar (ISO)
 62
    18
420
        0
370
     5
100
AcDbSpline
210
0.0
220
0.0
230
1.0
 70
     8
 71
     3
 72
     8
 73
     4
 74
     0
 42
0.0000000001
 43
0.0000000001
 40
0.0
 40
0.0
 40
0.0
 40
0.0
 40
1.0
 40
1.0
 40
1.0
 40
1.0
 10
81.5558119503194
 20
174.2846037558449
 30
0.0
 10
81.5764866163942
 20
174.2846037558449
 30
0.0
 10
81.59323340257204
 20
174.3009037876122
 30
0.0
 10
81.59323340257236
 20
174.3210269151308
 30
0.0
  0
LINE
  5
21A
330
BA
100
AcDbEntity
  8
Sichtbar (ISO)
 62
    18
420
        0
370
     5
100
AcDbLine
 10
81.5558119503194
 20
174.2846037558449
 30
0.0
 11
81.11579624839519
 21
174.2846037558449
 31
0.0
  0
LINE
  5
21B
330
BA
100
AcDbEntity
  8
Sichtbar (ISO)
 62
    18
420
        0
370
     5
100
AcDbLine
 10
106.4164019474928
 20
176.2731898501535
 30
0.0
 11
106.3433344241433
 21
176.2731898501535
 31
0.0
  0
LINE
  5
21C
330
BA
100
AcDbEntity
  8
Sichtbar (ISO)
 62
    18
420
        0
370
     5
100
AcDbLine
 10
106.3433344241375
 20
176.2731898501535
 30
0.0
 11
105.3651793769146
 21
176.2731898501535
 31
0.0
  0
LINE
  5
21D
330
BA
100
AcDbEntity
  8
Sichtbar (ISO)
 62
    18
420
        0
370
     5
100
AcDbLine
 10
106.3564854888011
 20
175.1798290256848
 30
0.0
 11
106.3433344241433
 21
175.1798290256848
 31
0.0
  0
LINE
  5
21E
330
BA
100
AcDbEntity
  8
Sichtbar (ISO)
 62
    18
420
        0
370
     5
100
AcDbLine
 10
106.4164019474928
 20
175.1798290256848
 30
0.0
 11
105.3651793769146
 21
175.1798290256848
 31
0.0
  0
LINE
  5
21F
330
BA
100
AcDbEntity
  8
Sichtbar (ISO)
 62
    18
420
        0
370
     5
100
AcDbLine
 10
64.47882818751927
 20
176.4554166542317
 30
0.0
 11
64.47882818751927
 21
168.9841176870276
 31
0.0
  0
LINE
  5
220
330
BA
100
AcDbEntity
  8
Sichtbar (ISO)
 62
    18
420
        0
370
     5
100
AcDbLine
 10
66.91270523608915
 20
176.2731898501535
 30
0.0
 11
66.98577275943794
 21
176.2731898501535
 31
0.0
  0
LINE
  5
221
330
BA
100
AcDbEntity
  8
Sichtbar (ISO)
 62
    18
420
        0
370
     5
100
AcDbLine
 10
66.98577275944339
 20
176.2731898501535
 30
0.0
 11
67.96392780666663
 21
176.2731898501535
 31
0.0
  0
LINE
  5
222
330
BA
100
AcDbEntity
  8
Sichtbar (ISO)
 62
    18
420
        0
370
     5
100
AcDbLine
 10
66.97262169478078
 20
175.1798290256848
 30
0.0
 11
66.98577275943794
 21
175.1798290256848
 31
0.0
  0
LINE
  5
223
330
BA
100
AcDbEntity
  8
Sichtbar (ISO)
 62
    18
420
        0
370
     5
100
AcDbLine
 10
66.91270523608915
 20
175.1798290256848
 30
0.0
 11
67.96392780666663
 21
175.1798290256848
 31
0.0
  0
LINE
  5
224
330
BA
100
AcDbEntity
  8
Sichtbar (ISO)
 62
    18
420
        0
370
     5
100
AcDbLine
 10
94.05979539321497
 20
168.9841176870276
 30
0.0
 11
94.05979539321497
 21
172.4464269645128
 31
0.0
  0
LINE
  5
225
330
BA
100
AcDbEntity
  8
Sichtbar (ISO)
 62
    18
420
        0
370
     5
100
AcDbLine
 10
91.5323076889304
 20
175.5442826338407
 30
0.0
 11
81.79679949465088
 21
175.5442826338407
 31
0.0
  0
LINE
  5
226
330
BA
100
AcDbEntity
  8
Sichtbar (ISO)
 62
    18
420
        0
370
     5
100
AcDbLine
 10
81.79679949465088
 20
175.5442826338407
 30
0.0
 11
81.78238912209573
 21
172.865548613892
 31
0.0
  0
LINE
  5
227
330
BA
100
AcDbEntity
  8
Sichtbar (ISO)
 62
    18
420
        0
370
     5
100
AcDbLine
 10
81.78238912209573
 20
172.865548613892
 30
0.0
 11
77.97317298292265
 21
172.865548613892
 31
0.0
  0
LINE
  5
228
330
BA
100
AcDbEntity
  8
Sichtbar (ISO)
 62
    18
420
        0
370
     5
100
AcDbLine
 10
77.9587626103675
 20
175.5442826338407
 30
0.0
 11
77.97317298292265
 21
172.865548613892
 31
0.0
  0
LINE
  5
229
330
BA
100
AcDbEntity
  8
Sichtbar (ISO)
 62
    18
420
        0
370
     5
100
AcDbLine
 10
77.9587626103675
 20
175.5442826338407
 30
0.0
 11
70.00185687465827
 21
175.5442826338407
 31
0.0
  0
LINE
  5
22A
330
BA
100
AcDbEntity
  8
Sichtbar (ISO)
 62
    18
420
        0
370
     5
100
AcDbLine
 10
77.5843199875107
 20
175.1798290256848
 30
0.0
 11
70.00185687465827
 21
175.1798290256848
 31
0.0
  0
LINE
  5
22B
330
BA
100
AcDbEntity
  8
Sichtbar (ISO)
 62
    18
420
        0
370
     5
100
AcDbLine
 10
77.5843199875107
 20
175.1798290256848
 30
0.0
 11
77.5843199875107
 21
168.9841176870276
 31
0.0
  0
LINE
  5
22C
330
BA
100
AcDbEntity
  8
Sichtbar (ISO)
 62
    18
420
        0
370
     5
100
AcDbLine
 10
78.33320523322431
 20
168.9841176870276
 30
0.0
 11
78.33320523322431
 21
172.4464269645128
 31
0.0
  0
LINE
  5
22D
330
BA
100
AcDbEntity
  8
Sichtbar (ISO)
 62
    18
420
        0
370
     5
100
AcDbLine
 10
79.26931179036664
 20
172.4464269645128
 30
0.0
 11
78.33320523322431
 21
172.4464269645128
 31
0.0
  0
LINE
  5
22E
330
BA
100
AcDbEntity
  8
Sichtbar (ISO)
 62
    18
420
        0
370
     5
100
AcDbLine
 10
79.26931179036664
 20
168.9841176870276
 30
0.0
 11
79.26931179036664
 21
172.4464269645128
 31
0.0
  0
LINE
  5
22F
330
BA
100
AcDbEntity
  8
Sichtbar (ISO)
 62
    18
420
        0
370
     5
100
AcDbLine
 10
80.01819703608056
 20
172.5010950057355
 30
0.0
 11
80.01819703608056
 21
168.9841176870276
 31
0.0
  0
LINE
  5
230
330
BA
100
AcDbEntity
  8
Sichtbar (ISO)
 62
    18
420
        0
370
     5
100
AcDbLine
 10
82.17124211750769
 20
172.5010950057355
 30
0.0
 11
80.01819703608056
 21
172.5010950057355
 31
0.0
  0
LINE
  5
231
330
BA
100
AcDbEntity
  8
Sichtbar (ISO)
 62
    18
420
        0
370
     5
100
AcDbLine
 10
82.17124211750769
 20
175.1798290256848
 30
0.0
 11
82.17124211750769
 21
172.5010950057355
 31
0.0
  0
LINE
  5
232
330
BA
100
AcDbEntity
  8
Sichtbar (ISO)
 62
    18
420
        0
370
     5
100
AcDbLine
 10
82.17124211750769
 20
175.1798290256848
 30
0.0
 11
91.1578650660736
 21
175.1798290256848
 31
0.0
  0
LINE
  5
233
330
BA
100
AcDbEntity
  8
Sichtbar (ISO)
 62
    18
420
        0
370
     5
100
AcDbLine
 10
91.1578650660736
 20
175.1798290256848
 30
0.0
 11
91.1578650660736
 21
172.5010950057355
 31
0.0
  0
LINE
  5
234
330
BA
100
AcDbEntity
  8
Sichtbar (ISO)
 62
    18
420
        0
370
     5
100
AcDbLine
 10
91.1578650660736
 20
172.5010950057355
 30
0.0
 11
93.31091014750072
 21
172.5010950057355
 31
0.0
  0
LINE
  5
235
330
BA
100
AcDbEntity
  8
Sichtbar (ISO)
 62
    18
420
        0
370
     5
100
AcDbLine
 10
93.31091014750072
 20
172.5010950057355
 30
0.0
 11
93.31091014750072
 21
168.9841176870276
 31
0.0
  0
LINE
  5
236
330
BA
100
AcDbEntity
  8
Sichtbar (ISO)
 62
    18
420
        0
370
     5
100
AcDbLine
 10
94.05979539321497
 20
172.4464269645128
 30
0.0
 11
94.99590195035667
 21
172.4464269645128
 31
0.0
  0
LINE
  5
237
330
BA
100
AcDbEntity
  8
Sichtbar (ISO)
 62
    18
420
        0
370
     5
100
AcDbLine
 10
94.99590195035667
 20
168.9841176870276
 30
0.0
 11
94.99590195035667
 21
172.4464269645128
 31
0.0
  0
LINE
  5
238
330
BA
100
AcDbEntity
  8
Sichtbar (ISO)
 62
    18
420
        0
370
     5
100
AcDbLine
 10
95.74478719607091
 20
175.1798290256848
 30
0.0
 11
95.74478719607091
 21
168.9841176870276
 31
0.0
  0
LINE
  5
239
330
BA
100
AcDbEntity
  8
Sichtbar (ISO)
 62
    18
420
        0
370
     5
100
AcDbLine
 10
95.74478719607091
 20
175.1798290256848
 30
0.0
 11
103.327250308923
 21
175.1798290256848
 31
0.0
  0
LINE
  5
23A
330
BA
100
AcDbEntity
  8
Sichtbar (ISO)
 62
    18
420
        0
370
     5
100
AcDbLine
 10
95.37034457321411
 20
175.5442826338407
 30
0.0
 11
103.327250308923
 21
175.5442826338407
 31
0.0
  0
LINE
  5
23B
330
BA
100
AcDbEntity
  8
Sichtbar (ISO)
 62
    18
420
        0
370
     5
100
AcDbLine
 10
95.37034457321411
 20
175.5442826338407
 30
0.0
 11
95.35593420065897
 21
172.865548613892
 31
0.0
  0
LINE
  5
23C
330
BA
100
AcDbEntity
  8
Sichtbar (ISO)
 62
    18
420
        0
370
     5
100
AcDbLine
 10
91.54671806148588
 20
172.865548613892
 30
0.0
 11
95.35593420065897
 21
172.865548613892
 31
0.0
  0
LINE
  5
23D
330
BA
100
AcDbEntity
  8
Sichtbar (ISO)
 62
    18
420
        0
370
     5
100
AcDbLine
 10
91.5323076889304
 20
175.5442826338407
 30
0.0
 11
91.54671806148588
 21
172.865548613892
 31
0.0
  0
LINE
  5
23E
330
BA
100
AcDbEntity
  8
Sichtbar (ISO)
 62
    18
420
        0
370
     5
100
AcDbLine
 10
104.0037144215207
 20
175.5442826338407
 30
0.0
 11
103.327250308923
 21
175.5442826338407
 31
0.0
  0
LINE
  5
23F
330
BA
100
AcDbEntity
  8
Sichtbar (ISO)
 62
    18
420
        0
370
     5
100
AcDbLine
 10
104.4827570317203
 20
175.5442826338407
 30
0.0
 11
104.00371442152
 21
175.5442826338407
 31
0.0
  0
LINE
  5
240
330
BA
100
AcDbEntity
  8
Sichtbar (ISO)
 62
    18
420
        0
370
     5
100
AcDbLine
 10
68.84635015186098
 20
175.5442826338407
 30
0.0
 11
69.32539276206123
 21
175.5442826338407
 31
0.0
  0
LINE
  5
241
330
BA
100
AcDbEntity
  8
Sichtbar (ISO)
 62
    18
420
        0
370
     5
100
AcDbLine
 10
69.32539276206059
 20
175.5442826338407
 30
0.0
 11
70.00185687465827
 21
175.5442826338407
 31
0.0
  0
LINE
  5
242
330
BA
100
AcDbEntity
  8
Sichtbar (ISO)
 62
    18
420
        0
370
     5
100
AcDbLine
 10
104.4827570317203
 20
175.1798290256848
 30
0.0
 11
104.00371442152
 21
175.1798290256848
 31
0.0
  0
LINE
  5
243
330
BA
100
AcDbEntity
  8
Sichtbar (ISO)
 62
    18
420
        0
370
     5
100
AcDbLine
 10
104.0037144215207
 20
175.1798290256848
 30
0.0
 11
103.327250308923
 21
175.1798290256848
 31
0.0
  0
LINE
  5
244
330
BA
100
AcDbEntity
  8
Sichtbar (ISO)
 62
    18
420
        0
370
     5
100
AcDbLine
 10
69.32539276206059
 20
175.1798290256848
 30
0.0
 11
70.00185687465827
 21
175.1798290256848
 31
0.0
  0
LINE
  5
245
330
BA
100
AcDbEntity
  8
Sichtbar (ISO)
 62
    18
420
        0
370
     5
100
AcDbLine
 10
68.84635015186098
 20
175.1798290256848
 30
0.0
 11
69.32539276206123
 21
175.1798290256848
 31
0.0
  0
LINE
  5
246
330
BA
100
AcDbEntity
  8
Sichtbar (ISO)
 62
    18
420
        0
370
     5
100
AcDbLine
 10
97.33616834321283
 20
176.4554166542317
 30
0.0
 11
97.33616834321283
 21
175.5442826338407
 31
0.0
  0
LINE
  5
247
330
BA
100
AcDbEntity
  8
Sichtbar (ISO)
 62
    18
420
        0
370
     5
100
AcDbLine
 10
97.33616834321283
 20
175.1798290256848
 30
0.0
 11
97.33616834321283
 21
172.810880572668
 31
0.0
  0
LINE
  5
248
330
BA
100
AcDbEntity
  8
Sichtbar (ISO)
 62
    18
420
        0
370
     5
100
AcDbLine
 10
96.21284047464177
 20
176.4554166542317
 30
0.0
 11
96.21284047464177
 21
175.5442826338407
 31
0.0
  0
LINE
  5
249
330
BA
100
AcDbEntity
  8
Sichtbar (ISO)
 62
    18
420
        0
370
     5
100
AcDbLine
 10
96.21284047464177
 20
175.1798290256848
 30
0.0
 11
96.21284047464177
 21
172.810880572668
 31
0.0
  0
LINE
  5
24A
330
BA
100
AcDbEntity
  8
Sichtbar (ISO)
 62
    18
420
        0
370
     5
100
AcDbLine
 10
96.21284047464177
 20
172.810880572668
 30
0.0
 11
97.33616834321283
 21
172.810880572668
 31
0.0
  0
LINE
  5
24B
330
BA
100
AcDbEntity
  8
Sichtbar (ISO)
 62
    18
420
        0
370
     5
100
AcDbLine
 10
77.11626670893952
 20
176.4554166542317
 30
0.0
 11
77.11626670893952
 21
175.5442826338407
 31
0.0
  0
LINE
  5
24C
330
BA
100
AcDbEntity
  8
Sichtbar (ISO)
 62
    18
420
        0
370
     5
100
AcDbLine
 10
77.11626670893952
 20
175.1798290256848
 30
0.0
 11
77.11626670893952
 21
172.810880572668
 31
0.0
  0
LINE
  5
24D
330
BA
100
AcDbEntity
  8
Sichtbar (ISO)
 62
    18
420
        0
370
     5
100
AcDbLine
 10
75.99293884036878
 20
176.4554166542317
 30
0.0
 11
75.99293884036878
 21
175.5442826338407
 31
0.0
  0
LINE
  5
24E
330
BA
100
AcDbEntity
  8
Sichtbar (ISO)
 62
    18
420
        0
370
     5
100
AcDbLine
 10
75.99293884036878
 20
175.1798290256848
 30
0.0
 11
75.99293884036878
 21
172.810880572668
 31
0.0
  0
LINE
  5
24F
330
BA
100
AcDbEntity
  8
Sichtbar (ISO)
 62
    18
420
        0
370
     5
100
AcDbLine
 10
77.11626670893952
 20
172.810880572668
 30
0.0
 11
75.99293884036878
 21
172.810880572668
 31
0.0
  0
LINE
  5
250
330
BA
100
AcDbEntity
  8
Sichtbar (ISO)
 62
    18
420
        0
370
     5
100
AcDbLine
 10
109.5991642418125
 20
174.7971527370464
 30
0.0
 11
109.5991642418125
 21
175.9269589224795
 31
0.0
  0
LINE
  5
251
330
BA
100
AcDbEntity
  8
Sichtbar (ISO)
 62
    18
420
        0
370
     5
100
AcDbLine
 10
109.4306650614907
 20
174.6331486134504
 30
0.0
 11
109.4119429303479
 21
174.6331486134504
 31
0.0
  0
LINE
  5
252
330
BA
100
AcDbEntity
  8
Sichtbar (ISO)
 62
    18
420
        0
370
     5
100
AcDbLine
 10
109.4306650614907
 20
176.0909630460752
 30
0.0
 11
109.4119429303479
 21
176.0909630460752
 31
0.0
  0
SPLINE
  5
253
330
BA
100
AcDbEntity
  8
Sichtbar (ISO)
 62
    18
420
        0
370
     5
100
AcDbSpline
210
0.0
220
0.0
230
1.0
 70
     8
 71
     3
 72
     8
 73
     4
 74
     0
 42
0.0000000001
 43
0.0000000001
 40
0.0
 40
0.0
 40
0.0
 40
0.0
 40
1.0
 40
1.0
 40
1.0
 40
1.0
 10
109.5991642418125
 20
175.9269589223085
 30
0.0
 10
109.5991642418125
 20
176.0175358987566
 30
0.0
 10
109.5237245891572
 20
176.0909630460579
 30
0.0
 10
109.4306650614907
 20
176.0909630461112
 30
0.0
  0
SPLINE
  5
254
330
BA
100
AcDbEntity
  8
Sichtbar (ISO)
 62
    18
420
        0
370
     5
100
AcDbSpline
210
0.0
220
0.0
230
1.0
 70
     8
 71
     3
 72
     8
 73
     4
 74
     0
 42
0.0000000001
 43
0.0000000001
 40
0.0
 40
0.0
 40
0.0
 40
0.0
 40
1.0
 40
1.0
 40
1.0
 40
1.0
 10
109.4306650614907
 20
174.6331486134144
 30
0.0
 10
109.5237245891572
 20
174.6331486134677
 30
0.0
 10
109.5991642418125
 20
174.706575760769
 30
0.0
 10
109.5991642418125
 20
174.7971527372171
 30
0.0
  0
LINE
  5
255
330
BA
100
AcDbEntity
  8
Sichtbar (ISO)
 62
    18
420
        0
370
     5
100
AcDbLine
 10
108.850278996063
 20
174.6413954721272
 30
0.0
 11
109.037500307491
 21
174.6413954721272
 31
0.0
  0
ENDBLK
  5
BD
330
BA
100
AcDbEntity
  8
0
100
AcDbBlockEnd
  0
BLOCK
  5
258
330
256
100
AcDbEntity
  8
0
100
AcDbBlockBegin
  2
Block_16
 70
     0
 10
0.0
 20
0.0
 30
0.0
  3
Block_16
  1

  0
LINE
  5
25A
330
256
100
AcDbEntity
  8
Sichtbar (ISO)
 62
    18
420
        0
370
     5
100
AcDbLine
 10
64.55368321988451
 20
160.3195874201114
 30
0.0
 11
64.55368321988451
 21
160.3101878316365
 31
0.0
  0
LINE
  5
25B
330
256
100
AcDbEntity
  8
Sichtbar (ISO)
 62
    18
420
        0
370
     5
100
AcDbLine
 10
64.55368321988451
 20
116.5269047150107
 30
0.0
 11
64.55368321988451
 21
116.5175051265358
 31
0.0
  0
LINE
  5
25C
330
256
100
AcDbEntity
  8
Sichtbar (ISO)
 62
    18
420
        0
370
     5
100
AcDbLine
 10
108.9251340284285
 20
160.3195874201114
 30
0.0
 11
108.9251340284285
 21
160.3101878316365
 31
0.0
  0
LINE
  5
25D
330
256
100
AcDbEntity
  8
Sichtbar (ISO)
 62
    18
420
        0
370
     5
100
AcDbLine
 10
108.9251340284285
 20
116.5269047150107
 30
0.0
 11
108.9251340284285
 21
116.5175051265358
 31
0.0
  0
LINE
  5
25E
330
256
100
AcDbEntity
  8
Sichtbar (ISO)
 62
    18
420
        0
370
     5
100
AcDbLine
 10
65.11534715417004
 20
116.7054968960358
 30
0.0
 11
108.363470094143
 21
116.7054968960358
 31
0.0
  0
LINE
  5
25F
330
256
100
AcDbEntity
  8
Sichtbar (ISO)
 62
    18
420
        0
370
     5
100
AcDbLine
 10
108.363470094143
 20
160.1315956506114
 30
0.0
 11
65.11534715417004
 21
160.1315956506114
 31
0.0
  0
LINE
  5
260
330
256
100
AcDbEntity
  8
Sichtbar (ISO)
 62
    18
420
        0
370
     5
100
AcDbLine
 10
65.11534715417004
 20
160.1315956506114
 30
0.0
 11
65.11534715417004
 21
116.7054968960358
 31
0.0
  0
LINE
  5
261
330
256
100
AcDbEntity
  8
Sichtbar (ISO)
 62
    18
420
        0
370
     5
100
AcDbLine
 10
108.363470094143
 20
160.1315956506114
 30
0.0
 11
108.363470094143
 21
116.7054968960358
 31
0.0
  0
LINE
  5
262
330
256
100
AcDbEntity
  8
Sichtbar (ISO)
 62
    18
420
        0
370
     5
100
AcDbLine
 10
95.8097568509183
 20
133.1384815450142
 30
0.0
 11
95.80919648799447
 21
133.1388066553808
 31
0.0
  0
LINE
  5
263
330
256
100
AcDbEntity
  8
Sichtbar (ISO)
 62
    18
420
        0
370
     5
100
AcDbLine
 10
95.8229916814883
 20
133.161471252141
 30
0.0
 11
95.82367371904869
 21
133.1630972260712
 31
0.0
  0
LINE
  5
264
330
256
100
AcDbEntity
  8
Sichtbar (ISO)
 62
    18
420
        0
370
     5
100
AcDbLine
 10
77.66351543213208
 20
133.1480972030489
 30
0.0
 11
77.66457677703725
 21
133.1466911235231
 31
0.0
  0
LINE
  5
265
330
256
100
AcDbEntity
  8
Sichtbar (ISO)
 62
    18
420
        0
370
     5
100
AcDbLine
 10
77.65030477402864
 20
133.1711009235891
 30
0.0
 11
77.65086535541891
 21
133.1714256540058
 31
0.0
  0
ELLIPSE
  5
266
330
256
100
AcDbEntity
  8
Sichtbar (ISO)
 62
    18
420
        0
370
     5
100
AcDbEllipse
 10
86.73940862415646
 20
138.4185462733235
 30
0.0
 11
0.0000000000000006
 21
10.48402847545769
 31
0.0
210
0.0
220
0.0
230
1.0
 40
0.995901639343449
 41
0.0
 42
6.283185307179586
  0
SPLINE
  5
267
330
256
100
AcDbEntity
  8
Sichtbar (ISO)
 62
    18
420
        0
370
     5
100
AcDbSpline
210
0.0
220
0.0
230
1.0
 70
     8
 71
     3
 72
     8
 73
     4
 74
     0
 42
0.0000000001
 43
0.0000000001
 40
0.0
 40
0.0
 40
0.0
 40
0.0
 40
1.0
 40
1.0
 40
1.0
 40
1.0
 10
89.00470911941583
 20
138.6722241897743
 30
0.0
 10
89.00469828906777
 20
138.7032668918183
 30
0.0
 10
88.97761006367494
 20
138.7282489320913
 30
0.0
 10
88.94396554996772
 20
138.7282447771799
 30
0.0
  0
LINE
  5
268
330
256
100
AcDbEntity
  8
Sichtbar (ISO)
 62
    18
420
        0
370
     5
100
AcDbLine
 10
89.00470911941583
 20
138.6722241898243
 30
0.0
 11
89.00470912510192
 21
138.1648683569067
 31
0.0
  0
SPLINE
  5
269
330
256
100
AcDbEntity
  8
Sichtbar (ISO)
 62
    18
420
        0
370
     5
100
AcDbSpline
210
0.0
220
0.0
230
1.0
 70
     8
 71
     3
 72
     8
 73
     4
 74
     0
 42
0.0000000001
 43
0.0000000001
 40
0.0
 40
0.0
 40
0.0
 40
0.0
 40
1.0
 40
1.0
 40
1.0
 40
1.0
 10
88.9439655841061
 20
138.1088477694664
 30
0.0
 10
88.97760738083265
 20
138.1088411765452
 30
0.0
 10
89.00470244445921
 20
138.1338295350833
 30
0.0
 10
89.00470912510192
 20
138.1648683569156
 30
0.0
  0
LINE
  5
26A
330
256
100
AcDbEntity
  8
Sichtbar (ISO)
 62
    18
420
        0
370
     5
100
AcDbLine
 10
88.9439655841061
 20
138.1088477694664
 30
0.0
 11
84.5348516983447
 21
138.1088477694664
 31
0.0
  0
SPLINE
  5
26B
330
256
100
AcDbEntity
  8
Sichtbar (ISO)
 62
    18
420
        0
370
     5
100
AcDbSpline
210
0.0
220
0.0
230
1.0
 70
     8
 71
     3
 72
     8
 73
     4
 74
     0
 42
0.0000000001
 43
0.0000000001
 40
0.0
 40
0.0
 40
0.0
 40
0.0
 40
1.0
 40
1.0
 40
1.0
 40
1.0
 10
84.47410812889724
 20
138.1648683568733
 30
0.0
 10
84.47411895924593
 20
138.1338256548293
 30
0.0
 10
84.50120718463876
 20
138.1088436145549
 30
0.0
 10
84.5348516983447
 20
138.1088477694664
 30
0.0
  0
LINE
  5
26C
330
256
100
AcDbEntity
  8
Sichtbar (ISO)
 62
    18
420
        0
370
     5
100
AcDbLine
 10
84.47410812889724
 20
138.164868356822
 30
0.0
 11
84.47410812321114
 21
138.6722241897409
 31
0.0
  0
SPLINE
  5
26D
330
256
100
AcDbEntity
  8
Sichtbar (ISO)
 62
    18
420
        0
370
     5
100
AcDbSpline
210
0.0
220
0.0
230
1.0
 70
     8
 71
     3
 72
     8
 73
     4
 74
     0
 42
0.0000000001
 43
0.0000000001
 40
0.0
 40
0.0
 40
0.0
 40
0.0
 40
1.0
 40
1.0
 40
1.0
 40
1.0
 10
84.5348516642076
 20
138.7282447771799
 30
0.0
 10
84.50120986748299
 20
138.7282513701049
 30
0.0
 10
84.47411480385321
 20
138.703263011563
 30
0.0
 10
84.47410812321114
 20
138.6722241897319
 30
0.0
  0
LINE
  5
26E
330
256
100
AcDbEntity
  8
Sichtbar (ISO)
 62
    18
420
        0
370
     5
100
AcDbLine
 10
84.5348516642076
 20
138.7282447771799
 30
0.0
 11
88.94396554996772
 21
138.7282447771799
 31
0.0
  0
LINE
  5
26F
330
256
100
AcDbEntity
  8
Sichtbar (ISO)
 62
    18
420
        0
370
     5
100
AcDbLine
 10
109.1123553398566
 20
115.5775462790336
 30
0.0
 11
64.36646190845611
 21
115.5775462790336
 31
0.0
  0
LINE
  5
270
330
256
100
AcDbEntity
  8
Sichtbar (ISO)
 62
    18
420
        0
370
     5
100
AcDbLine
 10
64.36646190845611
 20
161.259546267613
 30
0.0
 11
109.1734996419486
 21
161.259546267613
 31
0.0
  0
LINE
  5
271
330
256
100
AcDbEntity
  8
Sichtbar (ISO)
 62
    18
420
        0
370
     5
100
AcDbLine
 10
109.486797962714
 20
115.5775462790336
 30
0.0
 11
109.486797962714
 21
161.259546267613
 31
0.0
  0
LINE
  5
272
330
256
100
AcDbEntity
  8
Sichtbar (ISO)
 62
    18
420
        0
370
     5
100
AcDbLine
 10
109.486797962714
 20
115.5775462790336
 30
0.0
 11
109.1123553398566
 21
115.5775462790336
 31
0.0
  0
LINE
  5
273
330
256
100
AcDbEntity
  8
Sichtbar (ISO)
 62
    18
420
        0
370
     5
100
AcDbLine
 10
109.486797962714
 20
161.259546267613
 30
0.0
 11
109.1123553398566
 21
161.259546267613
 31
0.0
  0
LINE
  5
274
330
256
100
AcDbEntity
  8
Sichtbar (ISO)
 62
    18
420
        0
370
     5
100
AcDbLine
 10
63.99201928559962
 20
115.5775462790336
 30
0.0
 11
63.99201928559962
 21
161.259546267613
 31
0.0
  0
LINE
  5
275
330
256
100
AcDbEntity
  8
Sichtbar (ISO)
 62
    18
420
        0
370
     5
100
AcDbLine
 10
63.99201928559962
 20
161.259546267613
 30
0.0
 11
64.36646190845611
 21
161.259546267613
 31
0.0
  0
LINE
  5
276
330
256
100
AcDbEntity
  8
Sichtbar (ISO)
 62
    18
420
        0
370
     5
100
AcDbLine
 10
63.99201928559962
 20
115.5775462790336
 30
0.0
 11
64.36646190845611
 21
115.5775462790336
 31
0.0
  0
SPLINE
  5
277
330
256
100
AcDbEntity
  8
Sichtbar (ISO)
 62
    18
420
        0
370
     5
100
AcDbSpline
210
0.0
220
0.0
230
1.0
 70
     8
 71
     3
 72
     8
 73
     4
 74
     0
 42
0.0000000001
 43
0.0000000001
 40
0.0
 40
0.0
 40
0.0
 40
0.0
 40
1.0
 40
1.0
 40
1.0
 40
1.0
 10
66.58933742110126
 20
160.6955709591119
 30
0.0
 10
66.13816096345505
 20
160.9462266517794
 30
0.0
 10
65.5903038363129
 20
160.9462266517794
 30
0.0
 10
65.13912737866636
 20
160.6955709591119
 30
0.0
  0
SPLINE
  5
278
330
256
100
AcDbEntity
  8
Sichtbar (ISO)
 62
    18
420
        0
370
     5
100
AcDbSpline
210
0.0
220
0.0
230
1.0
 70
     8
 71
     3
 72
     8
 73
     4
 74
     0
 42
0.0000000001
 43
0.0000000001
 40
0.0
 40
0.0
 40
0.0
 40
0.0
 40
1.0
 40
1.0
 40
1.0
 40
1.0
 10
64.55368321988451
 20
160.107717565109
 30
0.0
 10
64.30405480464685
 20
159.6546844142204
 30
0.0
 10
64.30405480464685
 20
159.1045727309991
 30
0.0
 10
64.55368321988451
 20
158.6515395801112
 30
0.0
  0
SPLINE
  5
279
330
256
100
AcDbEntity
  8
Sichtbar (ISO)
 62
    18
420
        0
370
     5
100
AcDbSpline
210
0.0
220
0.0
230
1.0
 70
     8
 71
     3
 72
     8
 73
     4
 74
     0
 42
0.0000000001
 43
0.0000000001
 40
0.0
 40
0.0
 40
0.0
 40
0.0
 40
1.0
 40
1.0
 40
1.0
 40
1.0
 10
65.13912737866636
 20
116.1415215875347
 30
0.0
 10
65.5903038363129
 20
115.8908658948672
 30
0.0
 10
66.13816096345473
 20
115.8908658948672
 30
0.0
 10
66.58933742110126
 20
116.1415215875347
 30
0.0
  0
SPLINE
  5
27A
330
256
100
AcDbEntity
  8
Sichtbar (ISO)
 62
    18
420
        0
370
     5
100
AcDbSpline
210
0.0
220
0.0
230
1.0
 70
     8
 71
     3
 72
     8
 73
     4
 74
     0
 42
0.0000000001
 43
0.0000000001
 40
0.0
 40
0.0
 40
0.0
 40
0.0
 40
1.0
 40
1.0
 40
1.0
 40
1.0
 10
64.55368321988451
 20
118.1855529665361
 30
0.0
 10
64.30405480464685
 20
117.7325198156475
 30
0.0
 10
64.30405480464685
 20
117.1824081324262
 30
0.0
 10
64.55368321988451
 20
116.7293749815376
 30
0.0
  0
SPLINE
  5
27B
330
256
100
AcDbEntity
  8
Sichtbar (ISO)
 62
    18
420
        0
370
     5
100
AcDbSpline
210
0.0
220
0.0
230
1.0
 70
     8
 71
     3
 72
     8
 73
     4
 74
     0
 42
0.0000000001
 43
0.0000000001
 40
0.0
 40
0.0
 40
0.0
 40
0.0
 40
1.0
 40
1.0
 40
1.0
 40
1.0
 10
106.8894798272121
 20
116.1415215875347
 30
0.0
 10
107.3406562848577
 20
115.8908658948672
 30
0.0
 10
107.8885134119998
 20
115.8908658948672
 30
0.0
 10
108.3396898696467
 20
116.1415215875347
 30
0.0
  0
SPLINE
  5
27C
330
256
100
AcDbEntity
  8
Sichtbar (ISO)
 62
    18
420
        0
370
     5
100
AcDbSpline
210
0.0
220
0.0
230
1.0
 70
     8
 71
     3
 72
     8
 73
     4
 74
     0
 42
0.0000000001
 43
0.0000000001
 40
0.0
 40
0.0
 40
0.0
 40
0.0
 40
1.0
 40
1.0
 40
1.0
 40
1.0
 10
108.9251340284285
 20
116.7293749815376
 30
0.0
 10
109.1747624436668
 20
117.1824081324262
 30
0.0
 10
109.1747624436668
 20
117.7325198156475
 30
0.0
 10
108.9251340284285
 20
118.1855529665361
 30
0.0
  0
SPLINE
  5
27D
330
256
100
AcDbEntity
  8
Sichtbar (ISO)
 62
    18
420
        0
370
     5
100
AcDbSpline
210
0.0
220
0.0
230
1.0
 70
     8
 71
     3
 72
     8
 73
     4
 74
     0
 42
0.0000000001
 43
0.0000000001
 40
0.0
 40
0.0
 40
0.0
 40
0.0
 40
1.0
 40
1.0
 40
1.0
 40
1.0
 10
108.3396898696467
 20
160.6955709591119
 30
0.0
 10
107.8885134119998
 20
160.9462266517794
 30
0.0
 10
107.3406562848577
 20
160.9462266517794
 30
0.0
 10
106.8894798272121
 20
160.6955709591119
 30
0.0
  0
SPLINE
  5
27E
330
256
100
AcDbEntity
  8
Sichtbar (ISO)
 62
    18
420
        0
370
     5
100
AcDbSpline
210
0.0
220
0.0
230
1.0
 70
     8
 71
     3
 72
     8
 73
     4
 74
     0
 42
0.0000000001
 43
0.0000000001
 40
0.0
 40
0.0
 40
0.0
 40
0.0
 40
1.0
 40
1.0
 40
1.0
 40
1.0
 10
108.9251340284285
 20
158.6515395801112
 30
0.0
 10
109.1747624436668
 20
159.1045727309991
 30
0.0
 10
109.1747624436668
 20
159.6546844142204
 30
0.0
 10
108.9251340284285
 20
160.107717565109
 30
0.0
  0
LINE
  5
27F
330
256
100
AcDbEntity
  8
Sichtbar (ISO)
 62
    18
420
        0
370
     5
100
AcDbLine
 10
64.55368321988451
 20
160.6955709591119
 30
0.0
 11
108.9251340284285
 21
160.6955709591119
 31
0.0
  0
LINE
  5
280
330
256
100
AcDbEntity
  8
Sichtbar (ISO)
 62
    18
420
        0
370
     5
100
AcDbLine
 10
108.9251340284285
 20
116.1415215875347
 30
0.0
 11
64.55368321988451
 21
116.1415215875347
 31
0.0
  0
LINE
  5
281
330
256
100
AcDbEntity
  8
Sichtbar (ISO)
 62
    18
420
        0
370
     5
100
AcDbLine
 10
64.55368321988451
 20
116.1415215875347
 30
0.0
 11
64.55368321988451
 21
116.5175051265358
 31
0.0
  0
LINE
  5
282
330
256
100
AcDbEntity
  8
Sichtbar (ISO)
 62
    18
420
        0
370
     5
100
AcDbLine
 10
108.9251340284285
 20
116.1415215875347
 30
0.0
 11
108.9251340284285
 21
116.5175051265358
 31
0.0
  0
LINE
  5
283
330
256
100
AcDbEntity
  8
Sichtbar (ISO)
 62
    18
420
        0
370
     5
100
AcDbLine
 10
64.55368321988451
 20
160.6955709591119
 30
0.0
 11
64.55368321988451
 21
160.3195874201114
 31
0.0
  0
LINE
  5
284
330
256
100
AcDbEntity
  8
Sichtbar (ISO)
 62
    18
420
        0
370
     5
100
AcDbLine
 10
108.9251340284285
 20
160.6955709591119
 30
0.0
 11
108.9251340284285
 21
160.3195874201114
 31
0.0
  0
LINE
  5
285
330
256
100
AcDbEntity
  8
Sichtbar (ISO)
 62
    18
420
        0
370
     5
100
AcDbLine
 10
108.9251340284285
 20
116.5269047150107
 30
0.0
 11
108.9251340284285
 21
160.3101878316365
 31
0.0
  0
LINE
  5
286
330
256
100
AcDbEntity
  8
Sichtbar (ISO)
 62
    18
420
        0
370
     5
100
AcDbLine
 10
64.55368321988451
 20
116.5269047150107
 30
0.0
 11
64.55368321988451
 21
160.3101878316365
 31
0.0
  0
SPLINE
  5
287
330
256
100
AcDbEntity
  8
Sichtbar (ISO)
 62
    18
420
        0
370
     5
100
AcDbSpline
210
0.0
220
0.0
230
1.0
 70
     8
 71
     3
 72
     8
 73
     4
 74
     0
 42
0.0000000001
 43
0.0000000001
 40
0.0
 40
0.0
 40
0.0
 40
0.0
 40
1.0
 40
1.0
 40
1.0
 40
1.0
 10
95.8097568509183
 20
133.1384815450142
 30
0.0
 10
95.81058416296677
 20
133.1399144624549
 30
0.0
 10
95.81121925567607
 20
133.1414508797352
 30
0.0
 10
95.81164563462515
 20
133.1430508935242
 30
0.0
  0
SPLINE
  5
288
330
256
100
AcDbEntity
  8
Sichtbar (ISO)
 62
    18
420
        0
370
     5
100
AcDbSpline
210
0.0
220
0.0
230
1.0
 70
     8
 71
     3
 72
     8
 73
     4
 74
     0
 42
0.0000000001
 43
0.0000000001
 40
0.0
 40
0.0
 40
0.0
 40
0.0
 40
1.0
 40
1.0
 40
1.0
 40
1.0
 10
77.65030477402928
 20
133.1711009235891
 30
0.0
 10
77.65112697507806
 20
133.1696650431698
 30
0.0
 10
77.65213455193729
 20
133.1683445647083
 30
0.0
 10
77.65330133614614
 20
133.1671737832438
 30
0.0
  0
ELLIPSE
  5
289
330
256
100
AcDbEntity
  8
Sichtbar (ISO)
 62
    18
420
        0
370
     5
100
AcDbEllipse
 10
86.73940862415637
 20
138.4185462733235
 30
0.0
 11
0.0000000000000007
 21
10.80952674626869
 31
0.0
210
0.0
220
0.0
230
1.0
 40
0.9959016393434689
 41
0.0
 42
6.283185307179586
  0
ELLIPSE
  5
28A
330
256
100
AcDbEntity
  8
Sichtbar (ISO)
 62
    18
420
        0
370
     5
100
AcDbEllipse
 10
95.16436763843691
 20
146.8781759008381
 30
0.0
 11
0.0
 21
0.3759835390008426
 31
0.0
210
0.0
220
0.0
230
1.0
 40
0.9959016393418384
 41
0.0
 42
6.283185307179586
  0
ELLIPSE
  5
28B
330
256
100
AcDbEntity
  8
Sichtbar (ISO)
 62
    18
420
        0
370
     5
100
AcDbEllipse
 10
78.31444960987615
 20
146.8781759008381
 30
0.0
 11
0.0
 21
0.3759835390008426
 31
0.0
210
0.0
220
0.0
230
1.0
 40
0.9959016393426919
 41
0.0
 42
6.283185307179586
  0
ELLIPSE
  5
28C
330
256
100
AcDbEntity
  8
Sichtbar (ISO)
 62
    18
420
        0
370
     5
100
AcDbEllipse
 10
78.31444960987615
 20
129.9589166458088
 30
0.0
 11
0.0
 21
0.3759835390008426
 31
0.0
210
0.0
220
0.0
230
1.0
 40
0.9959016393426919
 41
0.0
 42
6.283185307179586
  0
ELLIPSE
  5
28D
330
256
100
AcDbEntity
  8
Sichtbar (ISO)
 62
    18
420
        0
370
     5
100
AcDbEllipse
 10
95.16436763843691
 20
129.9589166458088
 30
0.0
 11
0.0
 21
0.3759835390008426
 31
0.0
210
0.0
220
0.0
230
1.0
 40
0.9959016393418384
 41
0.0
 42
6.283185307179586
  0
ENDBLK
  5
259
330
256
100
AcDbEntity
  8
0
100
AcDbBlockEnd
  0
BLOCK
  5
290
330
28E
100
AcDbEntity
  8
0
100
AcDbBlockBegin
  2
Block_17
 70
     0
 10
0.0
 20
0.0
 30
0.0
  3
Block_17
  1

  0
INSERT
  5
293
330
28E
100
AcDbEntity
  8
Sichtbar (ISO)
100
AcDbBlockReference
  2
Block_18
 10
0.0
 20
0.0
 30
0.0
  0
ENDBLK
  5
291
330
28E
100
AcDbEntity
  8
0
100
AcDbBlockEnd
  0
BLOCK
  5
294
330
292
100
AcDbEntity
  8
0
100
AcDbBlockBegin
  2
Block_18
 70
     0
 10
0.0
 20
0.0
 30
0.0
  3
Block_18
  1

  0
LINE
  5
296
330
292
100
AcDbEntity
  8
Sichtbar (ISO)
 62
    18
420
        0
370
     5
100
AcDbLine
 10
126.2830325340759
 20
159.6468444425102
 30
0.0
 11
126.2587230790581
 21
117.7780930118695
 31
0.0
  0
INSERT
  5
298
330
292
100
AcDbEntity
  8
Sichtbar (ISO)
100
AcDbBlockReference
  2
Block_19
 10
0.0
 20
0.0
 30
0.0
  0
INSERT
  5
29E
330
292
100
AcDbEntity
  8
Sichtbar (ISO)
100
AcDbBlockReference
  2
Block_20
 10
0.0
 20
0.0
 30
0.0
  0
ENDBLK
  5
295
330
292
100
AcDbEntity
  8
0
100
AcDbBlockEnd
  0
BLOCK
  5
299
330
297
100
AcDbEntity
  8
0
100
AcDbBlockBegin
  2
Block_19
 70
     0
 10
0.0
 20
0.0
 30
0.0
  3
Block_19
  1

  0
LWPOLYLINE
  5
29B
330
297
100
AcDbEntity
  8
Sichtbar (ISO)
100
AcDbPolyline
 90
        3
 70
     1
 43
0.0
 10
126.0613621714469
 20
159.0145186980393
 10
126.2829571726122
 20
160.6955745719141
 10
126.5039815798377
 20
159.0142603158779
  0
HATCH
  5
29C
330
297
100
AcDbEntity
  8
Sichtbar (ISO)
 62
    18
420
        0
440
 33554687
100
AcDbHatch
 10
0.0
 20
0.0
 30
0.0
210
0.0
220
0.0
230
1.0
  2
SOLID
 70
     1
 71
     1
 91
        1
 92
        1
 93
        3
 72
     1
 10
126.0613621714469
 20
159.0145186980393
 11
126.2829571726122
 21
160.6955745719141
 72
     1
 10
126.2829571726122
 20
160.6955745719141
 11
126.5039815798377
 21
159.0142603158779
 72
     1
 10
126.5039815798377
 20
159.0142603158779
 11
126.0613621714469
 21
159.0145186980393
 97
        1
330
29B
 75
     2
 76
     1
 98
        1
 10
0.0
 20
0.0
450
        0
451
        0
460
0.0
461
0.0
452
        0
462
0.0
453
        0
470

  0
ENDBLK
  5
29A
330
297
100
AcDbEntity
  8
0
100
AcDbBlockEnd
  0
BLOCK
  5
29F
330
29D
100
AcDbEntity
  8
0
100
AcDbBlockBegin
  2
Block_20
 70
     0
 10
0.0
 20
0.0
 30
0.0
  3
Block_20
  1

  0
LWPOLYLINE
  5
2A1
330
29D
100
AcDbEntity
  8
Sichtbar (ISO)
100
AcDbPolyline
 90
        3
 70
     1
 43
0.0
 10
126.0377847992197
 20
118.4106771385017
 10
126.2574311682512
 20
116.7293736483892
 10
126.4804042076106
 20
118.4104187563403
  0
HATCH
  5
2A2
330
29D
100
AcDbEntity
  8
Sichtbar (ISO)
 62
    18
420
        0
440
 33554687
100
AcDbHatch
 10
0.0
 20
0.0
 30
0.0
210
0.0
220
0.0
230
1.0
  2
SOLID
 70
     1
 71
     1
 91
        1
 92
        1
 93
        3
 72
     1
 10
126.0377847992197
 20
118.4106771385017
 11
126.2574311682512
 21
116.7293736483892
 72
     1
 10
126.2574311682512
 20
116.7293736483892
 11
126.4804042076106
 21
118.4104187563403
 72
     1
 10
126.4804042076106
 20
118.4104187563403
 11
126.0377847992197
 21
118.4106771385017
 97
        1
330
2A1
 75
     2
 76
     1
 98
        1
 10
0.0
 20
0.0
450
        0
451
        0
460
0.0
461
0.0
452
        0
462
0.0
453
        0
470

  0
ENDBLK
  5
2A0
330
29D
100
AcDbEntity
  8
0
100
AcDbBlockEnd
  0
BLOCK
  5
2A8
330
2A6
100
AcDbEntity
  8
0
100
AcDbBlockBegin
  2
Block_21
 70
     0
 10
0.0
 20
0.0
 30
0.0
  3
Block_21
  1

  0
INSERT
  5
2AB
330
2A6
100
AcDbEntity
  8
Sichtbar (ISO)
100
AcDbBlockReference
  2
Block_22
 10
0.0
 20
0.0
 30
0.0
  0
ENDBLK
  5
2A9
330
2A6
100
AcDbEntity
  8
0
100
AcDbBlockEnd
  0
BLOCK
  5
2AC
330
2AA
100
AcDbEntity
  8
0
100
AcDbBlockBegin
  2
Block_22
 70
     0
 10
0.0
 20
0.0
 30
0.0
  3
Block_22
  1

  0
LINE
  5
2AE
330
2AA
100
AcDbEntity
  8
Sichtbar (ISO)
 62
    18
420
        0
370
     5
100
AcDbLine
 10
133.3331835943251
 20
160.2645608289388
 30
0.0
 11
133.3041586648619
 21
116.6269574191668
 31
0.0
  0
INSERT
  5
2B0
330
2AA
100
AcDbEntity
  8
Sichtbar (ISO)
100
AcDbBlockReference
  2
Block_23
 10
0.0
 20
0.0
 30
0.0
  0
INSERT
  5
2B6
330
2AA
100
AcDbEntity
  8
Sichtbar (ISO)
100
AcDbBlockReference
  2
Block_24
 10
0.0
 20
0.0
 30
0.0
  0
ENDBLK
  5
2AD
330
2AA
100
AcDbEntity
  8
0
100
AcDbBlockEnd
  0
BLOCK
  5
2B1
330
2AF
100
AcDbEntity
  8
0
100
AcDbBlockBegin
  2
Block_23
 70
     0
 10
0.0
 20
0.0
 30
0.0
  3
Block_23
  1

  0
LWPOLYLINE
  5
2B3
330
2AF
100
AcDbEntity
  8
Sichtbar (ISO)
100
AcDbPolyline
 90
        3
 70
     1
 43
0.0
 10
133.1114486361557
 20
159.6322458503917
 10
133.3331835943251
 20
161.3132801924194
 10
133.5540680445466
 20
159.6319551704598
  0
HATCH
  5
2B4
330
2AF
100
AcDbEntity
  8
Sichtbar (ISO)
 62
    18
420
        0
440
 33554687
100
AcDbHatch
 10
0.0
 20
0.0
 30
0.0
210
0.0
220
0.0
230
1.0
  2
SOLID
 70
     1
 71
     1
 91
        1
 92
        1
 93
        3
 72
     1
 10
133.1114486361557
 20
159.6322458503917
 11
133.3331835943251
 21
161.3132801924194
 72
     1
 10
133.3331835943251
 20
161.3132801924194
 11
133.5540680445466
 21
159.6319551704598
 72
     1
 10
133.5540680445466
 20
159.6319551704598
 11
133.1114486361557
 21
159.6322458503917
 97
        1
330
2B3
 75
     2
 76
     1
 98
        1
 10
0.0
 20
0.0
450
        0
451
        0
460
0.0
461
0.0
452
        0
462
0.0
453
        0
470

  0
ENDBLK
  5
2B2
330
2AF
100
AcDbEntity
  8
0
100
AcDbBlockEnd
  0
BLOCK
  5
2B7
330
2B5
100
AcDbEntity
  8
0
100
AcDbBlockBegin
  2
Block_24
 70
     0
 10
0.0
 20
0.0
 30
0.0
  3
Block_24
  1

  0
LWPOLYLINE
  5
2B9
330
2B5
100
AcDbEntity
  8
Sichtbar (ISO)
100
AcDbPolyline
 90
        3
 70
     1
 43
0.0
 10
133.0832742146404
 20
117.2595630776458
 10
133.3027806266678
 20
115.5782380556866
 10
133.5258936230313
 20
117.2592616317909
  0
HATCH
  5
2BA
330
2B5
100
AcDbEntity
  8
Sichtbar (ISO)
 62
    18
420
        0
440
 33554687
100
AcDbHatch
 10
0.0
 20
0.0
 30
0.0
210
0.0
220
0.0
230
1.0
  2
SOLID
 70
     1
 71
     1
 91
        1
 92
        1
 93
        3
 72
     1
 10
133.0832742146404
 20
117.2595630776458
 11
133.3027806266678
 21
115.5782380556866
 72
     1
 10
133.3027806266678
 20
115.5782380556866
 11
133.5258936230313
 21
117.2592616317909
 72
     1
 10
133.5258936230313
 20
117.2592616317909
 11
133.0832742146404
 21
117.2595630776458
 97
        1
330
2B9
 75
     2
 76
     1
 98
        1
 10
0.0
 20
0.0
450
        0
451
        0
460
0.0
461
0.0
452
        0
462
0.0
453
        0
470

  0
ENDBLK
  5
2B8
330
2B5
100
AcDbEntity
  8
0
100
AcDbBlockEnd
  0
BLOCK
  5
2C0
330
2BE
100
AcDbEntity
  8
0
100
AcDbBlockBegin
  2
Block_25
 70
     0
 10
0.0
 20
0.0
 30
0.0
  3
Block_25
  1

  0
INSERT
  5
2C3
330
2BE
100
AcDbEntity
  8
Sichtbar (ISO)
100
AcDbBlockReference
  2
Block_26
 10
0.0
 20
0.0
 30
0.0
  0
ENDBLK
  5
2C1
330
2BE
100
AcDbEntity
  8
0
100
AcDbBlockEnd
  0
BLOCK
  5
2C4
330
2C2
100
AcDbEntity
  8
0
100
AcDbBlockBegin
  2
Block_26
 70
     0
 10
0.0
 20
0.0
 30
0.0
  3
Block_26
  1

  0
LINE
  5
2C6
330
2C2
100
AcDbEntity
  8
Sichtbar (ISO)
 62
    18
420
        0
370
     5
100
AcDbLine
 10
121.2682223546656
 20
179.4666510239267
 30
0.0
 11
120.915444576976
 21
179.4658758774425
 31
0.0
  0
LINE
  5
2C7
330
2C2
100
AcDbEntity
  8
Sichtbar (ISO)
  6
AI-Linetype-0
 62
    18
420
        0
370
     5
100
AcDbLine
 10
120.2249182506512
 20
179.464347116321
 30
0.0
 11
106.7595795258546
 21
179.4346762314542
 31
0.0
  0
LINE
  5
2C9
330
2C2
100
AcDbEntity
  8
Sichtbar (ISO)
 62
    18
420
        0
370
     5
100
AcDbLine
 10
106.4143163626922
 20
179.4339118508935
 30
0.0
 11
106.0615385850026
 21
179.4331367044093
 31
0.0
  0
ENDBLK
  5
2C5
330
2C2
100
AcDbEntity
  8
0
100
AcDbBlockEnd
  0
BLOCK
  5
2CD
330
2CB
100
AcDbEntity
  8
0
100
AcDbBlockBegin
  2
Block_27
 70
     0
 10
0.0
 20
0.0
 30
0.0
  3
Block_27
  1

  0
INSERT
  5
2D0
330
2CB
100
AcDbEntity
  8
Sichtbar (ISO)
100
AcDbBlockReference
  2
Block_28
 10
0.0
 20
0.0
 30
0.0
  0
ENDBLK
  5
2CE
330
2CB
100
AcDbEntity
  8
0
100
AcDbBlockEnd
  0
BLOCK
  5
2D1
330
2CF
100
AcDbEntity
  8
0
100
AcDbBlockBegin
  2
Block_28
 70
     0
 10
0.0
 20
0.0
 30
0.0
  3
Block_28
  1

  0
LINE
  5
2D3
330
2CF
100
AcDbEntity
  8
Sichtbar (ISO)
 62
    18
420
        0
370
     5
100
AcDbLine
 10
133.3123622984861
 20
167.8794384006842
 30
0.0
 11
133.2945662271201
 21
183.4572989111127
 31
0.0
  0
INSERT
  5
2D5
330
2CF
100
AcDbEntity
  8
Sichtbar (ISO)
100
AcDbBlockReference
  2
Block_29
 10
0.0
 20
0.0
 30
0.0
  0
INSERT
  5
2DB
330
2CF
100
AcDbEntity
  8
Sichtbar (ISO)
100
AcDbBlockReference
  2
Block_30
 10
0.0
 20
0.0
 30
0.0
  0
ENDBLK
  5
2D2
330
2CF
100
AcDbEntity
  8
0
100
AcDbBlockEnd
  0
BLOCK
  5
2D6
330
2D4
100
AcDbEntity
  8
0
100
AcDbBlockBegin
  2
Block_29
 70
     0
 10
0.0
 20
0.0
 30
0.0
  3
Block_29
  1

  0
LWPOLYLINE
  5
2D8
330
2D4
100
AcDbEntity
  8
Sichtbar (ISO)
100
AcDbPolyline
 90
        3
 70
     1
 43
0.0
 10
133.532956068776
 20
168.5121409524737
 10
133.3142463350796
 20
166.8307082712806
 10
133.0903258944618
 20
168.5116349540747
  0
HATCH
  5
2D9
330
2D4
100
AcDbEntity
  8
Sichtbar (ISO)
 62
    18
420
        0
440
 33554687
100
AcDbHatch
 10
0.0
 20
0.0
 30
0.0
210
0.0
220
0.0
230
1.0
  2
SOLID
 70
     1
 71
     1
 91
        1
 92
        1
 93
        3
 72
     1
 10
133.532956068776
 20
168.5121409524737
 11
133.3142463350796
 21
166.8307082712806
 72
     1
 10
133.3142463350796
 20
166.8307082712806
 11
133.0903258944618
 21
168.5116349540747
 72
     1
 10
133.0903258944618
 20
168.5116349540747
 11
133.532956068776
 21
168.5121409524737
 97
        1
330
2D8
 75
     2
 76
     1
 98
        1
 10
0.0
 20
0.0
450
        0
451
        0
460
0.0
461
0.0
452
        0
462
0.0
453
        0
470

  0
ENDBLK
  5
2D7
330
2D4
100
AcDbEntity
  8
0
100
AcDbBlockEnd
  0
BLOCK
  5
2DC
330
2DA
100
AcDbEntity
  8
0
100
AcDbBlockBegin
  2
Block_30
 70
     0
 10
0.0
 20
0.0
 30
0.0
  3
Block_30
  1

  0
LWPOLYLINE
  5
2DE
330
2DA
100
AcDbEntity
  8
Sichtbar (ISO)
100
AcDbPolyline
 90
        3
 70
     1
 43
0.0
 10
133.5166026311445
 20
182.8250808258758
 10
133.2940602287207
 20
184.5060075086695
 10
133.0739832227536
 20
182.8245855933998
  0
HATCH
  5
2DF
330
2DA
100
AcDbEntity
  8
Sichtbar (ISO)
 62
    18
420
        0
440
 33554687
100
AcDbHatch
 10
0.0
 20
0.0
 30
0.0
210
0.0
220
0.0
230
1.0
  2
SOLID
 70
     1
 71
     1
 91
        1
 92
        1
 93
        3
 72
     1
 10
133.5166026311445
 20
182.8250808258758
 11
133.2940602287207
 21
184.5060075086695
 72
     1
 10
133.2940602287207
 20
184.5060075086695
 11
133.0739832227536
 21
182.8245855933998
 72
     1
 10
133.0739832227536
 20
182.8245855933998
 11
133.5166026311445
 21
182.8250808258758
 97
        1
330
2DE
 75
     2
 76
     1
 98
        1
 10
0.0
 20
0.0
450
        0
451
        0
460
0.0
461
0.0
452
        0
462
0.0
453
        0
470

  0
ENDBLK
  5
2DD
330
2DA
100
AcDbEntity
  8
0
100
AcDbBlockEnd
  0
BLOCK
  5
2E2
330
2E0
100
AcDbEntity
  8
0
100
AcDbBlockBegin
  2
Block_31
 70
     0
 10
0.0
 20
0.0
 30
0.0
  3
Block_31
  1

  0
INSERT
  5
2E5
330
2E0
100
AcDbEntity
  8
Sichtbar (ISO)
100
AcDbBlockReference
  2
Block_32
 10
0.0
 20
0.0
 30
0.0
  0
ENDBLK
  5
2E3
330
2E0
100
AcDbEntity
  8
0
100
AcDbBlockEnd
  0
BLOCK
  5
2E6
330
2E4
100
AcDbEntity
  8
0
100
AcDbBlockBegin
  2
Block_32
 70
     0
 10
0.0
 20
0.0
 30
0.0
  3
Block_32
  1

  0
SPLINE
  5
2E8
330
2E4
100
AcDbEntity
  8
Sichtbar (ISO)
100
AcDbSpline
210
0.0
220
0.0
230
1.0
 70
     9
 71
     3
 72
    41
 73
    37
 74
     0
 42
0.0000000001
 43
0.0000000001
 40
0.0
 40
0.0
 40
0.0
 40
0.0
 40
1.0
 40
1.0
 40
1.0
 40
2.0
 40
2.0
 40
2.0
 40
3.0
 40
3.0
 40
3.0
 40
4.0
 40
4.0
 40
4.0
 40
5.0
 40
5.0
 40
5.0
 40
6.0
 40
6.0
 40
6.0
 40
7.0
 40
7.0
 40
7.0
 40
8.0
 40
8.0
 40
8.0
 40
9.0
 40
9.0
 40
9.0
 40
10.0
 40
10.0
 40
10.0
 40
11.0
 40
11.0
 40
11.0
 40
12.0
 40
12.0
 40
12.0
 40
12.0
 10
121.2807969531867
 20
180.9527790888764
 30
0.0
 10
121.0692680903924
 20
181.2912597203022
 30
0.0
 10
120.9507568056998
 20
181.4631699850161
 30
0.0
 10
120.671359561846
 20
181.4631699850161
 30
0.0
 10
120.4543185462753
 20
181.4631699850161
 30
0.0
 10
120.3103135549918
 20
181.2883313891397
 30
0.0
 10
120.3103135549918
 20
181.0768025263454
 30
0.0
 10
120.3103135549918
 20
180.7975775372659
 30
0.0
 10
120.566973168643
 20
180.6790662525733
 30
0.0
 10
120.8067518144164
 20
180.6875067365121
 30
0.0
 10
120.8067518144164
 20
180.6875067365121
 30
0.0
 10
120.8067518144164
 20
180.447900345513
 30
0.0
 10
120.8067518144164
 20
180.447900345513
 30
0.0
 10
120.4005750567054
 20
180.4251627153104
 30
0.0
 10
120.0987846921975
 20
180.6678696922462
 30
0.0
 10
120.0987846921975
 20
181.0909274178349
 30
0.0
 10
120.0987846921975
 20
181.4378485331996
 30
0.0
 10
120.3020453258272
 20
181.717073522279
 30
0.0
 10
120.6744601477828
 20
181.717073522279
 30
0.0
 10
121.0268934159238
 20
181.717073522279
 30
0.0
 10
121.2019042665745
 20
181.4802232076681
 30
0.0
 10
121.3596896397989
 20
181.2320040779559
 30
0.0
 10
121.5092067838588
 20
180.9837849482436
 30
0.0
 10
121.6418429600409
 20
180.7157565194912
 30
0.0
 10
121.8871337585907
 20
180.6706257686344
 30
0.0
 10
121.8871337585907
 20
180.6706257686344
 30
0.0
 10
121.8871337585907
 20
181.6974364780131
 30
0.0
 10
121.8871337585907
 20
181.6974364780131
 30
0.0
 10
121.8871337585907
 20
181.6974364780131
 30
0.0
 10
122.098662621385
 20
181.6974364780131
 30
0.0
 10
122.098662621385
 20
181.6974364780131
 30
0.0
 10
122.098662621385
 20
181.6974364780131
 30
0.0
 10
122.098662621385
 20
180.3914007795549
 30
0.0
 10
122.098662621385
 20
180.3914007795549
 30
0.0
 10
121.6277180685514
 20
180.4280910464728
 30
0.0
 10
121.4499511415125
 20
180.6706257686344
 30
0.0
 10
121.2807969531867
 20
180.9527790888764
 30
0.0
  0
HATCH
  5
2E9
330
2E4
100
AcDbEntity
  8
Sichtbar (ISO)
 62
    18
420
        0
440
 33554687
100
AcDbHatch
 10
0.0
 20
0.0
 30
0.0
210
0.0
220
0.0
230
1.0
  2
SOLID
 70
     1
 71
     1
 91
        1
 92
        1
 93
        1
 72
     4
 94
        3
 73
     0
 74
     0
 95
       41
 96
       37
 40
0.0
 40
0.0
 40
0.0
 40
0.0
 40
1.0
 40
1.0
 40
1.0
 40
2.0
 40
2.0
 40
2.0
 40
3.0
 40
3.0
 40
3.0
 40
4.0
 40
4.0
 40
4.0
 40
5.0
 40
5.0
 40
5.0
 40
6.0
 40
6.0
 40
6.0
 40
7.0
 40
7.0
 40
7.0
 40
8.0
 40
8.0
 40
8.0
 40
9.0
 40
9.0
 40
9.0
 40
10.0
 40
10.0
 40
10.0
 40
11.0
 40
11.0
 40
11.0
 40
12.0
 40
12.0
 40
12.0
 40
12.0
 10
121.2807969531867
 20
180.9527790888764
 10
121.0692680903924
 20
181.2912597203022
 10
120.9507568056998
 20
181.4631699850161
 10
120.671359561846
 20
181.4631699850161
 10
120.4543185462753
 20
181.4631699850161
 10
120.3103135549918
 20
181.2883313891397
 10
120.3103135549918
 20
181.0768025263454
 10
120.3103135549918
 20
180.7975775372659
 10
120.566973168643
 20
180.6790662525733
 10
120.8067518144164
 20
180.6875067365121
 10
120.8067518144164
 20
180.6875067365121
 10
120.8067518144164
 20
180.447900345513
 10
120.8067518144164
 20
180.447900345513
 10
120.4005750567054
 20
180.4251627153104
 10
120.0987846921975
 20
180.6678696922462
 10
120.0987846921975
 20
181.0909274178349
 10
120.0987846921975
 20
181.4378485331996
 10
120.3020453258272
 20
181.717073522279
 10
120.6744601477828
 20
181.717073522279
 10
121.0268934159238
 20
181.717073522279
 10
121.2019042665745
 20
181.4802232076681
 10
121.3596896397989
 20
181.2320040779559
 10
121.5092067838588
 20
180.9837849482436
 10
121.6418429600409
 20
180.7157565194912
 10
121.8871337585907
 20
180.6706257686344
 10
121.8871337585907
 20
180.6706257686344
 10
121.8871337585907
 20
181.6974364780131
 10
121.8871337585907
 20
181.6974364780131
 10
121.8871337585907
 20
181.6974364780131
 10
122.098662621385
 20
181.6974364780131
 10
122.098662621385
 20
181.6974364780131
 10
122.098662621385
 20
181.6974364780131
 10
122.098662621385
 20
180.3914007795549
 10
122.098662621385
 20
180.3914007795549
 10
121.6277180685514
 20
180.4280910464728
 10
121.4499511415125
 20
180.6706257686344
 10
121.2807969531867
 20
180.9527790888764
 97
        0
 97
        1
330
2E8
 75
     2
 76
     1
 98
        1
 10
0.0
 20
0.0
450
        0
451
        0
460
0.0
461
0.0
452
        0
462
0.0
453
        0
470

  0
SPLINE
  5
2EA
330
2E4
100
AcDbEntity
  8
Sichtbar (ISO)
100
AcDbSpline
210
0.0
220
0.0
230
1.0
 70
     9
 71
     3
 72
    53
 73
    49
 74
     0
 42
0.0000000001
 43
0.0000000001
 40
0.0
 40
0.0
 40
0.0
 40
0.0
 40
1.0
 40
1.0
 40
1.0
 40
2.0
 40
2.0
 40
2.0
 40
3.0
 40
3.0
 40
3.0
 40
4.0
 40
4.0
 40
4.0
 40
5.0
 40
5.0
 40
5.0
 40
6.0
 40
6.0
 40
6.0
 40
7.0
 40
7.0
 40
7.0
 40
8.0
 40
8.0
 40
8.0
 40
9.0
 40
9.0
 40
9.0
 40
10.0
 40
10.0
 40
10.0
 40
11.0
 40
11.0
 40
11.0
 40
12.0
 40
12.0
 40
12.0
 40
13.0
 40
13.0
 40
13.0
 40
14.0
 40
14.0
 40
14.0
 40
15.0
 40
15.0
 40
15.0
 40
16.0
 40
16.0
 40
16.0
 40
16.0
 10
121.559849687492
 20
182.2312540234526
 30
0.0
 10
121.7658663975099
 20
182.2453789149421
 30
0.0
 10
121.9208956943461
 20
182.4117770268797
 30
0.0
 10
121.9208956943461
 20
182.6515556726531
 30
0.0
 10
121.9208956943461
 20
182.8799655033251
 30
0.0
 10
121.7631103211217
 20
183.0746133982417
 30
0.0
 10
121.4471950651243
 20
183.0746133982417
 30
0.0
 10
121.1846787891483
 20
183.0746133982417
 30
0.0
 10
120.9931314801684
 20
182.8940903948146
 30
0.0
 10
120.9931314801684
 20
182.623305889674
 30
0.0
 10
120.9931314801684
 20
182.4681043380635
 30
0.0
 10
121.0692680903924
 20
182.3440809005945
 30
0.0
 10
121.1819227127601
 20
182.2510633224928
 30
0.0
 10
121.1819227127601
 20
182.2510633224928
 30
0.0
 10
121.1708984072072
 20
182.0450466124748
 30
0.0
 10
121.1708984072072
 20
182.0450466124748
 30
0.0
 10
121.1708984072072
 20
182.0450466124748
 30
0.0
 10
120.1328911375015
 20
182.2312540234526
 30
0.0
 10
120.1328911375015
 20
182.2312540234526
 30
0.0
 10
120.1328911375015
 20
182.2312540234526
 30
0.0
 10
120.1328911375015
 20
183.2184461347509
 30
0.0
 10
120.1328911375015
 20
183.2184461347509
 30
0.0
 10
120.1328911375015
 20
183.2184461347509
 30
0.0
 10
120.3444200002958
 20
183.2184461347509
 30
0.0
 10
120.3444200002958
 20
183.2184461347509
 30
0.0
 10
120.3444200002958
 20
183.2184461347509
 30
0.0
 10
120.3444200002958
 20
182.4117770268797
 30
0.0
 10
120.3444200002958
 20
182.4117770268797
 30
0.0
 10
120.3444200002958
 20
182.4117770268797
 30
0.0
 10
120.9197509463326
 20
182.3046345572884
 30
0.0
 10
120.9197509463326
 20
182.3046345572884
 30
0.0
 10
120.9197509463326
 20
182.3046345572884
 30
0.0
 10
120.925263099109
 20
182.3103189648391
 30
0.0
 10
120.925263099109
 20
182.3103189648391
 30
0.0
 10
120.8267333682308
 20
182.3976521353902
 30
0.0
 10
120.781602617374
 20
182.54716927945
 30
0.0
 10
120.781602617374
 20
182.6825615320203
 30
0.0
 10
120.781602617374
 20
183.0379231313238
 30
0.0
 10
121.0072563716579
 20
183.3285169355047
 30
0.0
 10
121.4668321093902
 20
183.3285169355047
 30
0.0
 10
121.8054849955903
 20
183.3285169355047
 30
0.0
 10
122.1324245571405
 20
183.0944226972819
 30
0.0
 10
122.1324245571405
 20
182.6289902972247
 30
0.0
 10
122.1324245571405
 20
182.28206918186
 30
0.0
 10
121.9208956943461
 20
181.9999158616181
 30
0.0
 10
121.559849687492
 20
181.9914753776792
 30
0.0
 10
121.559849687492
 20
181.9914753776792
 30
0.0
 10
121.559849687492
 20
182.2312540234526
 30
0.0
 10
121.559849687492
 20
182.2312540234526
 30
0.0
  0
HATCH
  5
2EB
330
2E4
100
AcDbEntity
  8
Sichtbar (ISO)
 62
    18
420
        0
440
 33554687
100
AcDbHatch
 10
0.0
 20
0.0
 30
0.0
210
0.0
220
0.0
230
1.0
  2
SOLID
 70
     1
 71
     1
 91
        1
 92
        1
 93
        1
 72
     4
 94
        3
 73
     0
 74
     0
 95
       53
 96
       49
 40
0.0
 40
0.0
 40
0.0
 40
0.0
 40
1.0
 40
1.0
 40
1.0
 40
2.0
 40
2.0
 40
2.0
 40
3.0
 40
3.0
 40
3.0
 40
4.0
 40
4.0
 40
4.0
 40
5.0
 40
5.0
 40
5.0
 40
6.0
 40
6.0
 40
6.0
 40
7.0
 40
7.0
 40
7.0
 40
8.0
 40
8.0
 40
8.0
 40
9.0
 40
9.0
 40
9.0
 40
10.0
 40
10.0
 40
10.0
 40
11.0
 40
11.0
 40
11.0
 40
12.0
 40
12.0
 40
12.0
 40
13.0
 40
13.0
 40
13.0
 40
14.0
 40
14.0
 40
14.0
 40
15.0
 40
15.0
 40
15.0
 40
16.0
 40
16.0
 40
16.0
 40
16.0
 10
121.559849687492
 20
182.2312540234526
 10
121.7658663975099
 20
182.2453789149421
 10
121.9208956943461
 20
182.4117770268797
 10
121.9208956943461
 20
182.6515556726531
 10
121.9208956943461
 20
182.8799655033251
 10
121.7631103211217
 20
183.0746133982417
 10
121.4471950651243
 20
183.0746133982417
 10
121.1846787891483
 20
183.0746133982417
 10
120.9931314801684
 20
182.8940903948146
 10
120.9931314801684
 20
182.623305889674
 10
120.9931314801684
 20
182.4681043380635
 10
121.0692680903924
 20
182.3440809005945
 10
121.1819227127601
 20
182.2510633224928
 10
121.1819227127601
 20
182.2510633224928
 10
121.1708984072072
 20
182.0450466124748
 10
121.1708984072072
 20
182.0450466124748
 10
121.1708984072072
 20
182.0450466124748
 10
120.1328911375015
 20
182.2312540234526
 10
120.1328911375015
 20
182.2312540234526
 10
120.1328911375015
 20
182.2312540234526
 10
120.1328911375015
 20
183.2184461347509
 10
120.1328911375015
 20
183.2184461347509
 10
120.1328911375015
 20
183.2184461347509
 10
120.3444200002958
 20
183.2184461347509
 10
120.3444200002958
 20
183.2184461347509
 10
120.3444200002958
 20
183.2184461347509
 10
120.3444200002958
 20
182.4117770268797
 10
120.3444200002958
 20
182.4117770268797
 10
120.3444200002958
 20
182.4117770268797
 10
120.9197509463326
 20
182.3046345572884
 10
120.9197509463326
 20
182.3046345572884
 10
120.9197509463326
 20
182.3046345572884
 10
120.925263099109
 20
182.3103189648391
 10
120.925263099109
 20
182.3103189648391
 10
120.8267333682308
 20
182.3976521353902
 10
120.781602617374
 20
182.54716927945
 10
120.781602617374
 20
182.6825615320203
 10
120.781602617374
 20
183.0379231313238
 10
121.0072563716579
 20
183.3285169355047
 10
121.4668321093902
 20
183.3285169355047
 10
121.8054849955903
 20
183.3285169355047
 10
122.1324245571405
 20
183.0944226972819
 10
122.1324245571405
 20
182.6289902972247
 10
122.1324245571405
 20
182.28206918186
 10
121.9208956943461
 20
181.9999158616181
 10
121.559849687492
 20
181.9914753776792
 10
121.559849687492
 20
181.9914753776792
 10
121.559849687492
 20
182.2312540234526
 10
121.559849687492
 20
182.2312540234526
 97
        0
 97
        1
330
2EA
 75
     2
 76
     1
 98
        1
 10
0.0
 20
0.0
450
        0
451
        0
460
0.0
461
0.0
452
        0
462
0.0
453
        0
470

  0
ENDBLK
  5
2E7
330
2E4
100
AcDbEntity
  8
0
100
AcDbBlockEnd
  0
BLOCK
  5
2EF
330
2ED
100
AcDbEntity
  8
0
100
AcDbBlockBegin
  2
Block_33
 70
     0
 10
0.0
 20
0.0
 30
0.0
  3
Block_33
  1

  0
INSERT
  5
2F2
330
2ED
100
AcDbEntity
  8
Sichtbar (ISO)
100
AcDbBlockReference
  2
Block_34
 10
0.0
 20
0.0
 30
0.0
  0
ENDBLK
  5
2F0
330
2ED
100
AcDbEntity
  8
0
100
AcDbBlockEnd
  0
BLOCK
  5
2F3
330
2F1
100
AcDbEntity
  8
0
100
AcDbBlockBegin
  2
Block_34
 70
     0
 10
0.0
 20
0.0
 30
0.0
  3
Block_34
  1

  0
LINE
  5
2F5
330
2F1
100
AcDbEntity
  8
Sichtbar (ISO)
 62
    18
420
        0
370
     5
100
AcDbLine
 10
119.2692810608131
 20
183.4011653865499
 30
0.0
 11
119.267160173905
 21
180.4616053659903
 31
0.0
  0
INSERT
  5
2F7
330
2F1
100
AcDbEntity
  8
Sichtbar (ISO)
100
AcDbBlockReference
  2
Block_35
 10
0.0
 20
0.0
 30
0.0
  0
INSERT
  5
2FD
330
2F1
100
AcDbEntity
  8
Sichtbar (ISO)
100
AcDbBlockReference
  2
Block_36
 10
0.0
 20
0.0
 30
0.0
  0
ENDBLK
  5
2F4
330
2F1
100
AcDbEntity
  8
0
100
AcDbBlockEnd
  0
BLOCK
  5
2F8
330
2F6
100
AcDbEntity
  8
0
100
AcDbBlockBegin
  2
Block_35
 70
     0
 10
0.0
 20
0.0
 30
0.0
  3
Block_35
  1

  0
LWPOLYLINE
  5
2FA
330
2F6
100
AcDbEntity
  8
Sichtbar (ISO)
100
AcDbPolyline
 90
        3
 70
     1
 43
0.0
 10
119.0475138048735
 20
182.7688827057726
 10
119.2693564222768
 20
184.4498955159535
 10
119.4901332132644
 20
182.7685597280709
  0
HATCH
  5
2FB
330
2F6
100
AcDbEntity
  8
Sichtbar (ISO)
 62
    18
420
        0
440
 33554687
100
AcDbHatch
 10
0.0
 20
0.0
 30
0.0
210
0.0
220
0.0
230
1.0
  2
SOLID
 70
     1
 71
     1
 91
        1
 92
        1
 93
        3
 72
     1
 10
119.0475138048735
 20
182.7688827057726
 11
119.2693564222768
 21
184.4498955159535
 72
     1
 10
119.2693564222768
 20
184.4498955159535
 11
119.4901332132644
 21
182.7685597280709
 72
     1
 10
119.4901332132644
 20
182.7685597280709
 11
119.0475138048735
 21
182.7688827057726
 97
        1
330
2FA
 75
     2
 76
     1
 98
        1
 10
0.0
 20
0.0
450
        0
451
        0
460
0.0
461
0.0
452
        0
462
0.0
453
        0
470

  0
ENDBLK
  5
2F9
330
2F6
100
AcDbEntity
  8
0
100
AcDbBlockEnd
  0
BLOCK
  5
2FE
330
2FC
100
AcDbEntity
  8
0
100
AcDbBlockBegin
  2
Block_36
 70
     0
 10
0.0
 20
0.0
 30
0.0
  3
Block_36
  1

  0
LWPOLYLINE
  5
300
330
2FC
100
AcDbEntity
  8
Sichtbar (ISO)
100
AcDbPolyline
 90
        3
 70
     1
 43
0.0
 10
119.0463080214537
 20
181.0942217903926
 10
119.2657175401705
 20
179.4128860025101
 10
119.4889274298445
 20
181.0938988126909
  0
HATCH
  5
301
330
2FC
100
AcDbEntity
  8
Sichtbar (ISO)
 62
    18
420
        0
440
 33554687
100
AcDbHatch
 10
0.0
 20
0.0
 30
0.0
210
0.0
220
0.0
230
1.0
  2
SOLID
 70
     1
 71
     1
 91
        1
 92
        1
 93
        3
 72
     1
 10
119.0463080214537
 20
181.0942217903926
 11
119.2657175401705
 21
179.4128860025101
 72
     1
 10
119.2657175401705
 20
179.4128860025101
 11
119.4889274298445
 21
181.0938988126909
 72
     1
 10
119.4889274298445
 20
181.0938988126909
 11
119.0463080214537
 21
181.0942217903926
 97
        1
330
300
 75
     2
 76
     1
 98
        1
 10
0.0
 20
0.0
450
        0
451
        0
460
0.0
461
0.0
452
        0
462
0.0
453
        0
470

  0
ENDBLK
  5
2FF
330
2FC
100
AcDbEntity
  8
0
100
AcDbBlockEnd
  0
BLOCK
  5
305
330
303
100
AcDbEntity
  8
0
100
AcDbBlockBegin
  2
Block_37
 70
     0
 10
0.0
 20
0.0
 30
0.0
  3
Block_37
  1

  0
INSERT
  5
308
330
303
100
AcDbEntity
  8
Sichtbar (ISO)
100
AcDbBlockReference
  2
Block_38
 10
0.0
 20
0.0
 30
0.0
  0
ENDBLK
  5
306
330
303
100
AcDbEntity
  8
0
100
AcDbBlockEnd
  0
BLOCK
  5
309
330
307
100
AcDbEntity
  8
0
100
AcDbBlockBegin
  2
Block_38
 70
     0
 10
0.0
 20
0.0
 30
0.0
  3
Block_38
  1

  0
SPLINE
  5
30B
330
307
100
AcDbEntity
  8
Sichtbar (ISO)
100
AcDbSpline
210
0.0
220
0.0
230
1.0
 70
     9
 71
     3
 72
    17
 73
    13
 74
     0
 42
0.0000000001
 43
0.0000000001
 40
0.0
 40
0.0
 40
0.0
 40
0.0
 40
1.0
 40
1.0
 40
1.0
 40
2.0
 40
2.0
 40
2.0
 40
3.0
 40
3.0
 40
3.0
 40
4.0
 40
4.0
 40
4.0
 40
4.0
 10
134.9702283733755
 20
175.2468396914313
 30
0.0
 10
134.7245930652772
 20
175.2468396914313
 30
0.0
 10
134.5130642024828
 20
175.1030069549221
 30
0.0
 10
134.5130642024828
 20
174.835150780944
 30
0.0
 10
134.5130642024828
 20
174.5502413843138
 30
0.0
 10
134.7418185427034
 20
174.4430989147225
 30
0.0
 10
134.9871093412532
 20
174.4430989147225
 30
0.0
 10
135.2041503568239
 20
174.4430989147225
 30
0.0
 10
135.4101670668419
 20
174.6065686954977
 30
0.0
 10
135.4101670668419
 20
174.8379068573322
 30
0.0
 10
135.4101670668419
 20
175.0888820634326
 30
0.0
 10
135.2072509427607
 20
175.2468396914313
 30
0.0
 10
134.9702283733755
 20
175.2468396914313
 30
0.0
  0
SPLINE
  5
30C
330
307
100
AcDbEntity
  8
Sichtbar (ISO)
100
AcDbSpline
210
0.0
220
0.0
230
1.0
 70
     9
 71
     3
 72
    35
 73
    31
 74
     0
 42
0.0000000001
 43
0.0000000001
 40
0.0
 40
0.0
 40
0.0
 40
0.0
 40
1.0
 40
1.0
 40
1.0
 40
2.0
 40
2.0
 40
2.0
 40
3.0
 40
3.0
 40
3.0
 40
4.0
 40
4.0
 40
4.0
 40
5.0
 40
5.0
 40
5.0
 40
6.0
 40
6.0
 40
6.0
 40
7.0
 40
7.0
 40
7.0
 40
8.0
 40
8.0
 40
8.0
 40
9.0
 40
9.0
 40
9.0
 40
10.0
 40
10.0
 40
10.0
 40
10.0
 10
135.819099900941
 20
174.4711764429273
 30
0.0
 10
136.0137477958577
 20
174.4909857419675
 30
0.0
 10
136.1236463418371
 20
174.6460150388038
 30
0.0
 10
136.1236463418371
 20
174.8379068573322
 30
0.0
 10
136.1236463418371
 20
175.1312567379012
 30
0.0
 10
135.8700873141228
 20
175.2750894744104
 30
0.0
 10
135.3509114244956
 20
175.2892143658999
 30
0.0
 10
135.3509114244956
 20
175.2892143658999
 30
0.0
 10
135.3453992717192
 20
175.2835299583493
 30
0.0
 10
135.3453992717192
 20
175.2835299583493
 30
0.0
 10
135.5145534600449
 20
175.1932684566357
 30
0.0
 10
135.6216959296362
 20
175.0156737843711
 30
0.0
 10
135.6216959296362
 20
174.8210258894544
 30
0.0
 10
135.6216959296362
 20
174.411920800581
 30
0.0
 10
135.3481553481074
 20
174.1891953774596
 30
0.0
 10
134.9533474054978
 20
174.1891953774596
 30
0.0
 10
134.5695637684409
 20
174.1891953774596
 30
0.0
 10
134.3015353396885
 20
174.4599798826003
 30
0.0
 10
134.3015353396885
 20
174.846347341271
 30
0.0
 10
134.3015353396885
 20
175.2187621632265
 30
0.0
 10
134.50203989693
 20
175.5317490880615
 30
0.0
 10
135.2578938463938
 20
175.5317490880615
 30
0.0
 10
135.948980000735
 20
175.5317490880615
 30
0.0
 10
136.33551971418
 20
175.3229763016554
 30
0.0
 10
136.33551971418
 20
174.8379068573322
 30
0.0
 10
136.33551971418
 20
174.5021823022946
 30
0.0
 10
136.1632649399175
 20
174.2625759112955
 30
0.0
 10
135.819099900941
 20
174.2313977971539
 30
0.0
 10
135.819099900941
 20
174.2313977971539
 30
0.0
 10
135.819099900941
 20
174.4711764429273
 30
0.0
 10
135.819099900941
 20
174.4711764429273
 30
0.0
  0
HATCH
  5
30D
330
307
100
AcDbEntity
  8
Sichtbar (ISO)
 62
    18
420
        0
440
 33554687
100
AcDbHatch
 10
0.0
 20
0.0
 30
0.0
210
0.0
220
0.0
230
1.0
  2
SOLID
 70
     1
 71
     1
 91
        2
 92
        1
 93
        1
 72
     4
 94
        3
 73
     0
 74
     0
 95
       17
 96
       13
 40
0.0
 40
0.0
 40
0.0
 40
0.0
 40
1.0
 40
1.0
 40
1.0
 40
2.0
 40
2.0
 40
2.0
 40
3.0
 40
3.0
 40
3.0
 40
4.0
 40
4.0
 40
4.0
 40
4.0
 10
134.9702283733755
 20
175.2468396914313
 10
134.7245930652772
 20
175.2468396914313
 10
134.5130642024828
 20
175.1030069549221
 10
134.5130642024828
 20
174.835150780944
 10
134.5130642024828
 20
174.5502413843138
 10
134.7418185427034
 20
174.4430989147225
 10
134.9871093412532
 20
174.4430989147225
 10
135.2041503568239
 20
174.4430989147225
 10
135.4101670668419
 20
174.6065686954977
 10
135.4101670668419
 20
174.8379068573322
 10
135.4101670668419
 20
175.0888820634326
 10
135.2072509427607
 20
175.2468396914313
 10
134.9702283733755
 20
175.2468396914313
 97
        0
 97
        1
330
30B
 92
        1
 93
        1
 72
     4
 94
        3
 73
     0
 74
     0
 95
       35
 96
       31
 40
0.0
 40
0.0
 40
0.0
 40
0.0
 40
1.0
 40
1.0
 40
1.0
 40
2.0
 40
2.0
 40
2.0
 40
3.0
 40
3.0
 40
3.0
 40
4.0
 40
4.0
 40
4.0
 40
5.0
 40
5.0
 40
5.0
 40
6.0
 40
6.0
 40
6.0
 40
7.0
 40
7.0
 40
7.0
 40
8.0
 40
8.0
 40
8.0
 40
9.0
 40
9.0
 40
9.0
 40
10.0
 40
10.0
 40
10.0
 40
10.0
 10
135.819099900941
 20
174.4711764429273
 10
136.0137477958577
 20
174.4909857419675
 10
136.1236463418371
 20
174.6460150388038
 10
136.1236463418371
 20
174.8379068573322
 10
136.1236463418371
 20
175.1312567379012
 10
135.8700873141228
 20
175.2750894744104
 10
135.3509114244956
 20
175.2892143658999
 10
135.3509114244956
 20
175.2892143658999
 10
135.3453992717192
 20
175.2835299583493
 10
135.3453992717192
 20
175.2835299583493
 10
135.5145534600449
 20
175.1932684566357
 10
135.6216959296362
 20
175.0156737843711
 10
135.6216959296362
 20
174.8210258894544
 10
135.6216959296362
 20
174.411920800581
 10
135.3481553481074
 20
174.1891953774596
 10
134.9533474054978
 20
174.1891953774596
 10
134.5695637684409
 20
174.1891953774596
 10
134.3015353396885
 20
174.4599798826003
 10
134.3015353396885
 20
174.846347341271
 10
134.3015353396885
 20
175.2187621632265
 10
134.50203989693
 20
175.5317490880615
 10
135.2578938463938
 20
175.5317490880615
 10
135.948980000735
 20
175.5317490880615
 10
136.33551971418
 20
175.3229763016554
 10
136.33551971418
 20
174.8379068573322
 10
136.33551971418
 20
174.5021823022946
 10
136.1632649399175
 20
174.2625759112955
 10
135.819099900941
 20
174.2313977971539
 10
135.819099900941
 20
174.2313977971539
 10
135.819099900941
 20
174.4711764429273
 10
135.819099900941
 20
174.4711764429273
 97
        0
 97
        1
330
30C
 75
     2
 76
     1
 98
        1
 10
0.0
 20
0.0
450
        0
451
        0
460
0.0
461
0.0
452
        0
462
0.0
453
        0
470

  0
SPLINE
  5
30E
330
307
100
AcDbEntity
  8
Sichtbar (ISO)
100
AcDbSpline
210
0.0
220
0.0
230
1.0
 70
     9
 71
     3
 72
    26
 73
    22
 74
     0
 42
0.0000000001
 43
0.0000000001
 40
0.0
 40
0.0
 40
0.0
 40
0.0
 40
1.0
 40
1.0
 40
1.0
 40
2.0
 40
2.0
 40
2.0
 40
3.0
 40
3.0
 40
3.0
 40
4.0
 40
4.0
 40
4.0
 40
5.0
 40
5.0
 40
5.0
 40
6.0
 40
6.0
 40
6.0
 40
7.0
 40
7.0
 40
7.0
 40
7.0
 10
134.5612955392763
 20
176.8525986971063
 30
0.0
 10
134.5612955392763
 20
176.8525986971063
 30
0.0
 10
134.5612955392763
 20
175.8033948670735
 30
0.0
 10
134.5612955392763
 20
175.8033948670735
 30
0.0
 10
134.5612955392763
 20
175.8033948670735
 30
0.0
 10
134.3356417849925
 20
175.8033948670735
 30
0.0
 10
134.3356417849925
 20
175.8033948670735
 30
0.0
 10
134.3356417849925
 20
175.8033948670735
 30
0.0
 10
134.3356417849925
 20
177.0980617504303
 30
0.0
 10
134.3356417849925
 20
177.0980617504303
 30
0.0
 10
134.3356417849925
 20
177.0980617504303
 30
0.0
 10
134.5413139854619
 20
177.0980617504303
 30
0.0
 10
134.5413139854619
 20
177.0980617504303
 30
0.0
 10
134.9392225140082
 20
176.6946410691076
 30
0.0
 10
135.6781954955943
 20
176.3675292527831
 30
0.0
 10
136.301413268876
 20
176.3308389858652
 30
0.0
 10
136.301413268876
 20
176.3308389858652
 30
0.0
 10
136.301413268876
 20
176.0628105571128
 30
0.0
 10
136.301413268876
 20
176.0628105571128
 30
0.0
 10
135.6244520060244
 20
176.1079413079695
 30
0.0
 10
135.0039903091309
 20
176.4322970479058
 30
0.0
 10
134.5612955392763
 20
176.8525986971063
 30
0.0
  0
HATCH
  5
30F
330
307
100
AcDbEntity
  8
Sichtbar (ISO)
 62
    18
420
        0
440
 33554687
100
AcDbHatch
 10
0.0
 20
0.0
 30
0.0
210
0.0
220
0.0
230
1.0
  2
SOLID
 70
     1
 71
     1
 91
        1
 92
        1
 93
        1
 72
     4
 94
        3
 73
     0
 74
     0
 95
       26
 96
       22
 40
0.0
 40
0.0
 40
0.0
 40
0.0
 40
1.0
 40
1.0
 40
1.0
 40
2.0
 40
2.0
 40
2.0
 40
3.0
 40
3.0
 40
3.0
 40
4.0
 40
4.0
 40
4.0
 40
5.0
 40
5.0
 40
5.0
 40
6.0
 40
6.0
 40
6.0
 40
7.0
 40
7.0
 40
7.0
 40
7.0
 10
134.5612955392763
 20
176.8525986971063
 10
134.5612955392763
 20
176.8525986971063
 10
134.5612955392763
 20
175.8033948670735
 10
134.5612955392763
 20
175.8033948670735
 10
134.5612955392763
 20
175.8033948670735
 10
134.3356417849925
 20
175.8033948670735
 10
134.3356417849925
 20
175.8033948670735
 10
134.3356417849925
 20
175.8033948670735
 10
134.3356417849925
 20
177.0980617504303
 10
134.3356417849925
 20
177.0980617504303
 10
134.3356417849925
 20
177.0980617504303
 10
134.5413139854619
 20
177.0980617504303
 10
134.5413139854619
 20
177.0980617504303
 10
134.9392225140082
 20
176.6946410691076
 10
135.6781954955943
 20
176.3675292527831
 10
136.301413268876
 20
176.3308389858652
 10
136.301413268876
 20
176.3308389858652
 10
136.301413268876
 20
176.0628105571128
 10
136.301413268876
 20
176.0628105571128
 10
135.6244520060244
 20
176.1079413079695
 10
135.0039903091309
 20
176.4322970479058
 10
134.5612955392763
 20
176.8525986971063
 97
        0
 97
        1
330
30E
 75
     2
 76
     1
 98
        1
 10
0.0
 20
0.0
450
        0
451
        0
460
0.0
461
0.0
452
        0
462
0.0
453
        0
470

  0
ENDBLK
  5
30A
330
307
100
AcDbEntity
  8
0
100
AcDbBlockEnd
  0
BLOCK
  5
312
330
310
100
AcDbEntity
  8
0
100
AcDbBlockBegin
  2
Block_39
 70
     0
 10
0.0
 20
0.0
 30
0.0
  3
Block_39
  1

  0
SPLINE
  5
314
330
310
100
AcDbEntity
  8
Sichtbar (ISO)
100
AcDbSpline
210
0.0
220
0.0
230
1.0
 70
    11
 71
     3
 72
    17
 73
    13
 74
     0
 42
0.0000000001
 43
0.0000000001
 40
0.0
 40
0.0
 40
0.0
 40
0.0
 40
1.0
 40
1.0
 40
1.0
 40
2.0
 40
2.0
 40
2.0
 40
3.0
 40
3.0
 40
3.0
 40
4.0
 40
4.0
 40
4.0
 40
4.0
 10
129.0601670684294
 20
136.363769497159
 30
0.0
 10
129.0601670684294
 20
136.363769497159
 30
0.0
 10
127.3989420254419
 20
136.363769497159
 30
0.0
 10
127.3989420254419
 20
136.363769497159
 30
0.0
 10
127.3989420254419
 20
136.363769497159
 30
0.0
 10
127.3989420254419
 20
134.7053005305598
 30
0.0
 10
127.3989420254419
 20
134.7053005305598
 30
0.0
 10
127.3989420254419
 20
134.7053005305598
 30
0.0
 10
129.0601670684294
 20
134.7053005305598
 30
0.0
 10
129.0601670684294
 20
134.7053005305598
 30
0.0
 10
129.0601670684294
 20
134.7053005305598
 30
0.0
 10
129.0601670684294
 20
136.363769497159
 30
0.0
 10
129.0601670684294
 20
136.363769497159
 30
0.0
  0
SPLINE
  5
315
330
310
100
AcDbEntity
  8
Sichtbar (ISO)
100
AcDbSpline
210
0.0
220
0.0
230
1.0
 70
    11
 71
     3
 72
    17
 73
    13
 74
     0
 42
0.0000000001
 43
0.0000000001
 40
0.0
 40
0.0
 40
0.0
 40
0.0
 40
1.0
 40
1.0
 40
1.0
 40
2.0
 40
2.0
 40
2.0
 40
3.0
 40
3.0
 40
3.0
 40
4.0
 40
4.0
 40
4.0
 40
4.0
 10
127.1732882711581
 20
134.4765461903392
 30
0.0
 10
127.1732882711581
 20
134.4765461903392
 30
0.0
 10
127.1732882711581
 20
136.5894232514429
 30
0.0
 10
127.1732882711581
 20
136.5894232514429
 30
0.0
 10
127.1732882711581
 20
136.5894232514429
 30
0.0
 10
129.2885768991015
 20
136.5894232514429
 30
0.0
 10
129.2885768991015
 20
136.5894232514429
 30
0.0
 10
129.2885768991015
 20
136.5894232514429
 30
0.0
 10
129.2885768991015
 20
134.4765461903392
 30
0.0
 10
129.2885768991015
 20
134.4765461903392
 30
0.0
 10
129.2885768991015
 20
134.4765461903392
 30
0.0
 10
127.1732882711581
 20
134.4765461903392
 30
0.0
 10
127.1732882711581
 20
134.4765461903392
 30
0.0
  0
HATCH
  5
316
330
310
100
AcDbEntity
  8
Sichtbar (ISO)
 62
    18
420
        0
440
 33554687
100
AcDbHatch
 10
0.0
 20
0.0
 30
0.0
210
0.0
220
0.0
230
1.0
  2
SOLID
 70
     1
 71
     1
 91
        2
 92
        1
 93
        1
 72
     4
 94
        3
 73
     0
 74
     0
 95
       17
 96
       13
 40
0.0
 40
0.0
 40
0.0
 40
0.0
 40
1.0
 40
1.0
 40
1.0
 40
2.0
 40
2.0
 40
2.0
 40
3.0
 40
3.0
 40
3.0
 40
4.0
 40
4.0
 40
4.0
 40
4.0
 10
129.0601670684294
 20
136.363769497159
 10
129.0601670684294
 20
136.363769497159
 10
127.3989420254419
 20
136.363769497159
 10
127.3989420254419
 20
136.363769497159
 10
127.3989420254419
 20
136.363769497159
 10
127.3989420254419
 20
134.7053005305598
 10
127.3989420254419
 20
134.7053005305598
 10
127.3989420254419
 20
134.7053005305598
 10
129.0601670684294
 20
134.7053005305598
 10
129.0601670684294
 20
134.7053005305598
 10
129.0601670684294
 20
134.7053005305598
 10
129.0601670684294
 20
136.363769497159
 10
129.0601670684294
 20
136.363769497159
 97
        0
 97
        1
330
314
 92
        1
 93
        1
 72
     4
 94
        3
 73
     0
 74
     0
 95
       17
 96
       13
 40
0.0
 40
0.0
 40
0.0
 40
0.0
 40
1.0
 40
1.0
 40
1.0
 40
2.0
 40
2.0
 40
2.0
 40
3.0
 40
3.0
 40
3.0
 40
4.0
 40
4.0
 40
4.0
 40
4.0
 10
127.1732882711581
 20
134.4765461903392
 10
127.1732882711581
 20
134.4765461903392
 10
127.1732882711581
 20
136.5894232514429
 10
127.1732882711581
 20
136.5894232514429
 10
127.1732882711581
 20
136.5894232514429
 10
129.2885768991015
 20
136.5894232514429
 10
129.2885768991015
 20
136.5894232514429
 10
129.2885768991015
 20
136.5894232514429
 10
129.2885768991015
 20
134.4765461903392
 10
129.2885768991015
 20
134.4765461903392
 10
129.2885768991015
 20
134.4765461903392
 10
127.1732882711581
 20
134.4765461903392
 10
127.1732882711581
 20
134.4765461903392
 97
        0
 97
        1
330
315
 75
     2
 76
     1
 98
        1
 10
0.0
 20
0.0
450
        0
451
        0
460
0.0
461
0.0
452
        0
462
0.0
453
        0
470

  0
SPLINE
  5
317
330
310
100
AcDbEntity
  8
Sichtbar (ISO)
100
AcDbSpline
210
0.0
220
0.0
230
1.0
 70
     9
 71
     3
 72
    41
 73
    37
 74
     0
 42
0.0000000001
 43
0.0000000001
 40
0.0
 40
0.0
 40
0.0
 40
0.0
 40
1.0
 40
1.0
 40
1.0
 40
2.0
 40
2.0
 40
2.0
 40
3.0
 40
3.0
 40
3.0
 40
4.0
 40
4.0
 40
4.0
 40
5.0
 40
5.0
 40
5.0
 40
6.0
 40
6.0
 40
6.0
 40
7.0
 40
7.0
 40
7.0
 40
8.0
 40
8.0
 40
8.0
 40
9.0
 40
9.0
 40
9.0
 40
10.0
 40
10.0
 40
10.0
 40
11.0
 40
11.0
 40
11.0
 40
12.0
 40
12.0
 40
12.0
 40
12.0
 10
128.4707112309031
 20
138.0070800436232
 30
0.0
 10
128.2591823681088
 20
138.3453884202747
 30
0.0
 10
128.1406710834162
 20
138.5176431945372
 30
0.0
 10
127.8612738395624
 20
138.5176431945372
 30
0.0
 10
127.6442328239917
 20
138.5176431945372
 30
0.0
 10
127.5002278327082
 20
138.3426323438865
 30
0.0
 10
127.5002278327082
 20
138.1311034810922
 30
0.0
 10
127.5002278327082
 20
137.852050746787
 30
0.0
 10
127.7568874463594
 20
137.7335394620944
 30
0.0
 10
127.9966660921328
 20
137.741807691259
 30
0.0
 10
127.9966660921328
 20
137.741807691259
 30
0.0
 10
127.9966660921328
 20
137.5020290454856
 30
0.0
 10
127.9966660921328
 20
137.5020290454856
 30
0.0
 10
127.5904893344218
 20
137.4796359248315
 30
0.0
 10
127.2886989699139
 20
137.7221706469931
 30
0.0
 10
127.2886989699139
 20
138.1452283725817
 30
0.0
 10
127.2886989699139
 20
138.4921494879464
 30
0.0
 10
127.4919596035436
 20
138.7712022222516
 30
0.0
 10
127.8643744254992
 20
138.7712022222516
 30
0.0
 10
128.2168076936402
 20
138.7712022222516
 30
0.0
 10
128.3918185442909
 20
138.534524162415
 30
0.0
 10
128.5496039175153
 20
138.2861327779285
 30
0.0
 10
128.6991210615752
 20
138.0380859029904
 30
0.0
 10
128.8317572377573
 20
137.770057474238
 30
0.0
 10
129.0770480363071
 20
137.7249267233813
 30
0.0
 10
129.0770480363071
 20
137.7249267233813
 30
0.0
 10
129.0770480363071
 20
138.7519061823662
 30
0.0
 10
129.0770480363071
 20
138.7519061823662
 30
0.0
 10
129.0770480363071
 20
138.7519061823662
 30
0.0
 10
129.2885768991015
 20
138.7519061823662
 30
0.0
 10
129.2885768991015
 20
138.7519061823662
 30
0.0
 10
129.2885768991015
 20
138.7519061823662
 30
0.0
 10
129.2885768991015
 20
137.4455294795275
 30
0.0
 10
129.2885768991015
 20
137.4455294795275
 30
0.0
 10
128.8176323462678
 20
137.4823920012197
 30
0.0
 10
128.6398654192289
 20
137.7249267233813
 30
0.0
 10
128.4707112309031
 20
138.0070800436232
 30
0.0
  0
HATCH
  5
318
330
310
100
AcDbEntity
  8
Sichtbar (ISO)
 62
    18
420
        0
440
 33554687
100
AcDbHatch
 10
0.0
 20
0.0
 30
0.0
210
0.0
220
0.0
230
1.0
  2
SOLID
 70
     1
 71
     1
 91
        1
 92
        1
 93
        1
 72
     4
 94
        3
 73
     0
 74
     0
 95
       41
 96
       37
 40
0.0
 40
0.0
 40
0.0
 40
0.0
 40
1.0
 40
1.0
 40
1.0
 40
2.0
 40
2.0
 40
2.0
 40
3.0
 40
3.0
 40
3.0
 40
4.0
 40
4.0
 40
4.0
 40
5.0
 40
5.0
 40
5.0
 40
6.0
 40
6.0
 40
6.0
 40
7.0
 40
7.0
 40
7.0
 40
8.0
 40
8.0
 40
8.0
 40
9.0
 40
9.0
 40
9.0
 40
10.0
 40
10.0
 40
10.0
 40
11.0
 40
11.0
 40
11.0
 40
12.0
 40
12.0
 40
12.0
 40
12.0
 10
128.4707112309031
 20
138.0070800436232
 10
128.2591823681088
 20
138.3453884202747
 10
128.1406710834162
 20
138.5176431945372
 10
127.8612738395624
 20
138.5176431945372
 10
127.6442328239917
 20
138.5176431945372
 10
127.5002278327082
 20
138.3426323438865
 10
127.5002278327082
 20
138.1311034810922
 10
127.5002278327082
 20
137.852050746787
 10
127.7568874463594
 20
137.7335394620944
 10
127.9966660921328
 20
137.741807691259
 10
127.9966660921328
 20
137.741807691259
 10
127.9966660921328
 20
137.5020290454856
 10
127.9966660921328
 20
137.5020290454856
 10
127.5904893344218
 20
137.4796359248315
 10
127.2886989699139
 20
137.7221706469931
 10
127.2886989699139
 20
138.1452283725817
 10
127.2886989699139
 20
138.4921494879464
 10
127.4919596035436
 20
138.7712022222516
 10
127.8643744254992
 20
138.7712022222516
 10
128.2168076936402
 20
138.7712022222516
 10
128.3918185442909
 20
138.534524162415
 10
128.5496039175153
 20
138.2861327779285
 10
128.6991210615752
 20
138.0380859029904
 10
128.8317572377573
 20
137.770057474238
 10
129.0770480363071
 20
137.7249267233813
 10
129.0770480363071
 20
137.7249267233813
 10
129.0770480363071
 20
138.7519061823662
 10
129.0770480363071
 20
138.7519061823662
 10
129.0770480363071
 20
138.7519061823662
 10
129.2885768991015
 20
138.7519061823662
 10
129.2885768991015
 20
138.7519061823662
 10
129.2885768991015
 20
138.7519061823662
 10
129.2885768991015
 20
137.4455294795275
 10
129.2885768991015
 20
137.4455294795275
 10
128.8176323462678
 20
137.4823920012197
 10
128.6398654192289
 20
137.7249267233813
 10
128.4707112309031
 20
138.0070800436232
 97
        0
 97
        1
330
317
 75
     2
 76
     1
 98
        1
 10
0.0
 20
0.0
450
        0
451
        0
460
0.0
461
0.0
452
        0
462
0.0
453
        0
470

  0
SPLINE
  5
319
330
310
100
AcDbEntity
  8
Sichtbar (ISO)
100
AcDbSpline
210
0.0
220
0.0
230
1.0
 70
     9
 71
     3
 72
    62
 73
    58
 74
     0
 42
0.0000000001
 43
0.0000000001
 40
0.0
 40
0.0
 40
0.0
 40
0.0
 40
1.0
 40
1.0
 40
1.0
 40
2.0
 40
2.0
 40
2.0
 40
3.0
 40
3.0
 40
3.0
 40
4.0
 40
4.0
 40
4.0
 40
5.0
 40
5.0
 40
5.0
 40
6.0
 40
6.0
 40
6.0
 40
7.0
 40
7.0
 40
7.0
 40
8.0
 40
8.0
 40
8.0
 40
9.0
 40
9.0
 40
9.0
 40
10.0
 40
10.0
 40
10.0
 40
11.0
 40
11.0
 40
11.0
 40
12.0
 40
12.0
 40
12.0
 40
13.0
 40
13.0
 40
13.0
 40
14.0
 40
14.0
 40
14.0
 40
15.0
 40
15.0
 40
15.0
 40
16.0
 40
16.0
 40
16.0
 40
17.0
 40
17.0
 40
17.0
 40
18.0
 40
18.0
 40
18.0
 40
19.0
 40
19.0
 40
19.0
 40
19.0
 10
128.6708712785961
 20
139.2714300867099
 30
0.0
 10
128.9302869686355
 20
139.280042825423
 30
0.0
 10
129.1108099720626
 20
139.423703307158
 30
0.0
 10
129.1108099720626
 20
139.6975883982353
 30
0.0
 10
129.1108099720626
 20
139.9315103816838
 30
0.0
 10
128.9643934139394
 20
140.1320149389253
 30
0.0
 10
128.7246147681661
 20
140.1320149389253
 30
0.0
 10
128.4734673072913
 20
140.1320149389253
 30
0.0
 10
128.3408311311092
 20
139.9428791967851
 30
0.0
 10
128.3408311311092
 20
139.7062011369484
 30
0.0
 10
128.3408311311092
 20
139.6552137237667
 30
0.0
 10
128.3435872074974
 20
139.6073268965217
 30
0.0
 10
128.3494438698224
 20
139.562196145665
 30
0.0
 10
128.3494438698224
 20
139.562196145665
 30
0.0
 10
128.1461832361926
 20
139.562196145665
 30
0.0
 10
128.1461832361926
 20
139.562196145665
 30
0.0
 10
128.1489393125808
 20
139.5818331899309
 30
0.0
 10
128.1489393125808
 20
139.5987141578086
 30
0.0
 10
128.1489393125808
 20
139.6159396352349
 30
0.0
 10
128.1489393125808
 20
139.6159396352349
 30
0.0
 10
128.1489393125808
 20
139.6665825388681
 30
0.0
 10
128.1489393125808
 20
139.6665825388681
 30
0.0
 10
128.1489393125808
 20
139.8694986629493
 30
0.0
 10
128.0362814557445
 20
140.0472655899882
 30
0.0
 10
127.8219997510306
 20
140.0472655899882
 30
0.0
 10
127.6104708882362
 20
140.0472655899882
 30
0.0
 10
127.5002278327082
 20
139.8949923695401
 30
0.0
 10
127.5002278327082
 20
139.6917317359104
 30
0.0
 10
127.5002278327082
 20
139.4323160458711
 30
0.0
 10
127.7007323899498
 20
139.314149270727
 30
0.0
 10
127.9346543733983
 20
139.314149270727
 30
0.0
 10
127.9346543733983
 20
139.314149270727
 30
0.0
 10
127.9346543733983
 20
139.0743706249536
 30
0.0
 10
127.9346543733983
 20
139.0743706249536
 30
0.0
 10
127.5539713222781
 20
139.0881510068946
 30
0.0
 10
127.2886989699139
 20
139.2914116405244
 30
0.0
 10
127.2886989699139
 20
139.6917317359104
 30
0.0
 10
127.2886989699139
 20
140.0389973608236
 30
0.0
 10
127.4550970818515
 20
140.3011691272511
 30
0.0
 10
127.8247558274188
 20
140.3011691272511
 30
0.0
 10
128.0025227544577
 20
140.3011691272511
 30
0.0
 10
128.1520398985175
 20
140.1799017661703
 30
0.0
 10
128.2223198464166
 20
140.0245279597855
 30
0.0
 10
128.2223198464166
 20
140.0245279597855
 30
0.0
 10
128.2281765087415
 20
140.0245279597855
 30
0.0
 10
128.2281765087415
 20
140.0245279597855
 30
0.0
 10
128.2815754887629
 20
140.2701632678838
 30
0.0
 10
128.4734673072913
 20
140.3855739666397
 30
0.0
 10
128.7132459530647
 20
140.3855739666397
 30
0.0
 10
129.1108099720626
 20
140.3855739666397
 30
0.0
 10
129.3223388348569
 20
140.072759296579
 30
0.0
 10
129.3223388348569
 20
139.6975883982353
 30
0.0
 10
129.3223388348569
 20
139.2914116405244
 30
0.0
 10
129.0856607750202
 20
139.0233832117719
 30
0.0
 10
128.6708712785961
 20
139.0316514409365
 30
0.0
 10
128.6708712785961
 20
139.0316514409365
 30
0.0
 10
128.6708712785961
 20
139.2714300867099
 30
0.0
 10
128.6708712785961
 20
139.2714300867099
 30
0.0
  0
HATCH
  5
31A
330
310
100
AcDbEntity
  8
Sichtbar (ISO)
 62
    18
420
        0
440
 33554687
100
AcDbHatch
 10
0.0
 20
0.0
 30
0.0
210
0.0
220
0.0
230
1.0
  2
SOLID
 70
     1
 71
     1
 91
        1
 92
        1
 93
        1
 72
     4
 94
        3
 73
     0
 74
     0
 95
       62
 96
       58
 40
0.0
 40
0.0
 40
0.0
 40
0.0
 40
1.0
 40
1.0
 40
1.0
 40
2.0
 40
2.0
 40
2.0
 40
3.0
 40
3.0
 40
3.0
 40
4.0
 40
4.0
 40
4.0
 40
5.0
 40
5.0
 40
5.0
 40
6.0
 40
6.0
 40
6.0
 40
7.0
 40
7.0
 40
7.0
 40
8.0
 40
8.0
 40
8.0
 40
9.0
 40
9.0
 40
9.0
 40
10.0
 40
10.0
 40
10.0
 40
11.0
 40
11.0
 40
11.0
 40
12.0
 40
12.0
 40
12.0
 40
13.0
 40
13.0
 40
13.0
 40
14.0
 40
14.0
 40
14.0
 40
15.0
 40
15.0
 40
15.0
 40
16.0
 40
16.0
 40
16.0
 40
17.0
 40
17.0
 40
17.0
 40
18.0
 40
18.0
 40
18.0
 40
19.0
 40
19.0
 40
19.0
 40
19.0
 10
128.6708712785961
 20
139.2714300867099
 10
128.9302869686355
 20
139.280042825423
 10
129.1108099720626
 20
139.423703307158
 10
129.1108099720626
 20
139.6975883982353
 10
129.1108099720626
 20
139.9315103816838
 10
128.9643934139394
 20
140.1320149389253
 10
128.7246147681661
 20
140.1320149389253
 10
128.4734673072913
 20
140.1320149389253
 10
128.3408311311092
 20
139.9428791967851
 10
128.3408311311092
 20
139.7062011369484
 10
128.3408311311092
 20
139.6552137237667
 10
128.3435872074974
 20
139.6073268965217
 10
128.3494438698224
 20
139.562196145665
 10
128.3494438698224
 20
139.562196145665
 10
128.1461832361926
 20
139.562196145665
 10
128.1461832361926
 20
139.562196145665
 10
128.1489393125808
 20
139.5818331899309
 10
128.1489393125808
 20
139.5987141578086
 10
128.1489393125808
 20
139.6159396352349
 10
128.1489393125808
 20
139.6159396352349
 10
128.1489393125808
 20
139.6665825388681
 10
128.1489393125808
 20
139.6665825388681
 10
128.1489393125808
 20
139.8694986629493
 10
128.0362814557445
 20
140.0472655899882
 10
127.8219997510306
 20
140.0472655899882
 10
127.6104708882362
 20
140.0472655899882
 10
127.5002278327082
 20
139.8949923695401
 10
127.5002278327082
 20
139.6917317359104
 10
127.5002278327082
 20
139.4323160458711
 10
127.7007323899498
 20
139.314149270727
 10
127.9346543733983
 20
139.314149270727
 10
127.9346543733983
 20
139.314149270727
 10
127.9346543733983
 20
139.0743706249536
 10
127.9346543733983
 20
139.0743706249536
 10
127.5539713222781
 20
139.0881510068946
 10
127.2886989699139
 20
139.2914116405244
 10
127.2886989699139
 20
139.6917317359104
 10
127.2886989699139
 20
140.0389973608236
 10
127.4550970818515
 20
140.3011691272511
 10
127.8247558274188
 20
140.3011691272511
 10
128.0025227544577
 20
140.3011691272511
 10
128.1520398985175
 20
140.1799017661703
 10
128.2223198464166
 20
140.0245279597855
 10
128.2223198464166
 20
140.0245279597855
 10
128.2281765087415
 20
140.0245279597855
 10
128.2281765087415
 20
140.0245279597855
 10
128.2815754887629
 20
140.2701632678838
 10
128.4734673072913
 20
140.3855739666397
 10
128.7132459530647
 20
140.3855739666397
 10
129.1108099720626
 20
140.3855739666397
 10
129.3223388348569
 20
140.072759296579
 10
129.3223388348569
 20
139.6975883982353
 10
129.3223388348569
 20
139.2914116405244
 10
129.0856607750202
 20
139.0233832117719
 10
128.6708712785961
 20
139.0316514409365
 10
128.6708712785961
 20
139.0316514409365
 10
128.6708712785961
 20
139.2714300867099
 10
128.6708712785961
 20
139.2714300867099
 97
        0
 97
        1
330
319
 75
     2
 76
     1
 98
        1
 10
0.0
 20
0.0
450
        0
451
        0
460
0.0
461
0.0
452
        0
462
0.0
453
        0
470

  0
SPLINE
  5
31B
330
310
100
AcDbEntity
  8
Sichtbar (ISO)
100
AcDbSpline
210
0.0
220
0.0
230
1.0
 70
     9
 71
     3
 72
    62
 73
    58
 74
     0
 42
0.0000000001
 43
0.0000000001
 40
0.0
 40
0.0
 40
0.0
 40
0.0
 40
1.0
 40
1.0
 40
1.0
 40
2.0
 40
2.0
 40
2.0
 40
3.0
 40
3.0
 40
3.0
 40
4.0
 40
4.0
 40
4.0
 40
5.0
 40
5.0
 40
5.0
 40
6.0
 40
6.0
 40
6.0
 40
7.0
 40
7.0
 40
7.0
 40
8.0
 40
8.0
 40
8.0
 40
9.0
 40
9.0
 40
9.0
 40
10.0
 40
10.0
 40
10.0
 40
11.0
 40
11.0
 40
11.0
 40
12.0
 40
12.0
 40
12.0
 40
13.0
 40
13.0
 40
13.0
 40
14.0
 40
14.0
 40
14.0
 40
15.0
 40
15.0
 40
15.0
 40
16.0
 40
16.0
 40
16.0
 40
17.0
 40
17.0
 40
17.0
 40
18.0
 40
18.0
 40
18.0
 40
19.0
 40
19.0
 40
19.0
 40
19.0
 10
128.6708712785961
 20
140.8410155897897
 30
0.0
 10
128.9302869686355
 20
140.8492838189543
 30
0.0
 10
129.1108099720626
 20
140.9932888102378
 30
0.0
 10
129.1108099720626
 20
141.2668293917666
 30
0.0
 10
129.1108099720626
 20
141.5010958847636
 30
0.0
 10
128.9643934139394
 20
141.7012559324566
 30
0.0
 10
128.7246147681661
 20
141.7012559324566
 30
0.0
 10
128.4734673072913
 20
141.7012559324566
 30
0.0
 10
128.3408311311092
 20
141.5121201903164
 30
0.0
 10
128.3408311311092
 20
141.2750976209312
 30
0.0
 10
128.3408311311092
 20
141.224454717298
 30
0.0
 10
128.3435872074974
 20
141.1765678900531
 30
0.0
 10
128.3494438698224
 20
141.1314371391963
 30
0.0
 10
128.3494438698224
 20
141.1314371391963
 30
0.0
 10
128.1461832361926
 20
141.1314371391963
 30
0.0
 10
128.1461832361926
 20
141.1314371391963
 30
0.0
 10
128.1489393125808
 20
141.1510741834622
 30
0.0
 10
128.1489393125808
 20
141.1682996608885
 30
0.0
 10
128.1489393125808
 20
141.1848361192177
 30
0.0
 10
128.1489393125808
 20
141.1848361192177
 30
0.0
 10
128.1489393125808
 20
141.2358235323994
 30
0.0
 10
128.1489393125808
 20
141.2358235323994
 30
0.0
 10
128.1489393125808
 20
141.4390841660291
 30
0.0
 10
128.0362814557445
 20
141.6165065835194
 30
0.0
 10
127.8219997510306
 20
141.6165065835194
 30
0.0
 10
127.6104708882362
 20
141.6165065835194
 30
0.0
 10
127.5002278327082
 20
141.4642333630714
 30
0.0
 10
127.5002278327082
 20
141.2613172389902
 30
0.0
 10
127.5002278327082
 20
141.0015570394024
 30
0.0
 10
127.7007323899498
 20
140.8830457547098
 30
0.0
 10
127.9346543733983
 20
140.8830457547098
 30
0.0
 10
127.9346543733983
 20
140.8830457547098
 30
0.0
 10
127.9346543733983
 20
140.6432671089364
 30
0.0
 10
127.9346543733983
 20
140.6432671089364
 30
0.0
 10
127.5539713222781
 20
140.6577365099744
 30
0.0
 10
127.2886989699139
 20
140.8606526340556
 30
0.0
 10
127.2886989699139
 20
141.2613172389902
 30
0.0
 10
127.2886989699139
 20
141.6078938448063
 30
0.0
 10
127.4550970818515
 20
141.8704101207824
 30
0.0
 10
127.8247558274188
 20
141.8704101207824
 30
0.0
 10
128.0025227544577
 20
141.8704101207824
 30
0.0
 10
128.1520398985175
 20
141.7491427597016
 30
0.0
 10
128.2223198464166
 20
141.5941134628654
 30
0.0
 10
128.2223198464166
 20
141.5941134628654
 30
0.0
 10
128.2281765087415
 20
141.5941134628654
 30
0.0
 10
128.2281765087415
 20
141.5941134628654
 30
0.0
 10
128.2815754887629
 20
141.8394042614151
 30
0.0
 10
128.4734673072913
 20
141.9551594697195
 30
0.0
 10
128.7132459530647
 20
141.9551594697195
 30
0.0
 10
129.1108099720626
 20
141.9551594697195
 30
0.0
 10
129.3223388348569
 20
141.6420002901103
 30
0.0
 10
129.3223388348569
 20
141.2668293917666
 30
0.0
 10
129.3223388348569
 20
140.8606526340556
 30
0.0
 10
129.0856607750202
 20
140.5926242053032
 30
0.0
 10
128.6708712785961
 20
140.6012369440163
 30
0.0
 10
128.6708712785961
 20
140.6012369440163
 30
0.0
 10
128.6708712785961
 20
140.8410155897897
 30
0.0
 10
128.6708712785961
 20
140.8410155897897
 30
0.0
  0
HATCH
  5
31C
330
310
100
AcDbEntity
  8
Sichtbar (ISO)
 62
    18
420
        0
440
 33554687
100
AcDbHatch
 10
0.0
 20
0.0
 30
0.0
210
0.0
220
0.0
230
1.0
  2
SOLID
 70
     1
 71
     1
 91
        1
 92
        1
 93
        1
 72
     4
 94
        3
 73
     0
 74
     0
 95
       62
 96
       58
 40
0.0
 40
0.0
 40
0.0
 40
0.0
 40
1.0
 40
1.0
 40
1.0
 40
2.0
 40
2.0
 40
2.0
 40
3.0
 40
3.0
 40
3.0
 40
4.0
 40
4.0
 40
4.0
 40
5.0
 40
5.0
 40
5.0
 40
6.0
 40
6.0
 40
6.0
 40
7.0
 40
7.0
 40
7.0
 40
8.0
 40
8.0
 40
8.0
 40
9.0
 40
9.0
 40
9.0
 40
10.0
 40
10.0
 40
10.0
 40
11.0
 40
11.0
 40
11.0
 40
12.0
 40
12.0
 40
12.0
 40
13.0
 40
13.0
 40
13.0
 40
14.0
 40
14.0
 40
14.0
 40
15.0
 40
15.0
 40
15.0
 40
16.0
 40
16.0
 40
16.0
 40
17.0
 40
17.0
 40
17.0
 40
18.0
 40
18.0
 40
18.0
 40
19.0
 40
19.0
 40
19.0
 40
19.0
 10
128.6708712785961
 20
140.8410155897897
 10
128.9302869686355
 20
140.8492838189543
 10
129.1108099720626
 20
140.9932888102378
 10
129.1108099720626
 20
141.2668293917666
 10
129.1108099720626
 20
141.5010958847636
 10
128.9643934139394
 20
141.7012559324566
 10
128.7246147681661
 20
141.7012559324566
 10
128.4734673072913
 20
141.7012559324566
 10
128.3408311311092
 20
141.5121201903164
 10
128.3408311311092
 20
141.2750976209312
 10
128.3408311311092
 20
141.224454717298
 10
128.3435872074974
 20
141.1765678900531
 10
128.3494438698224
 20
141.1314371391963
 10
128.3494438698224
 20
141.1314371391963
 10
128.1461832361926
 20
141.1314371391963
 10
128.1461832361926
 20
141.1314371391963
 10
128.1489393125808
 20
141.1510741834622
 10
128.1489393125808
 20
141.1682996608885
 10
128.1489393125808
 20
141.1848361192177
 10
128.1489393125808
 20
141.1848361192177
 10
128.1489393125808
 20
141.2358235323994
 10
128.1489393125808
 20
141.2358235323994
 10
128.1489393125808
 20
141.4390841660291
 10
128.0362814557445
 20
141.6165065835194
 10
127.8219997510306
 20
141.6165065835194
 10
127.6104708882362
 20
141.6165065835194
 10
127.5002278327082
 20
141.4642333630714
 10
127.5002278327082
 20
141.2613172389902
 10
127.5002278327082
 20
141.0015570394024
 10
127.7007323899498
 20
140.8830457547098
 10
127.9346543733983
 20
140.8830457547098
 10
127.9346543733983
 20
140.8830457547098
 10
127.9346543733983
 20
140.6432671089364
 10
127.9346543733983
 20
140.6432671089364
 10
127.5539713222781
 20
140.6577365099744
 10
127.2886989699139
 20
140.8606526340556
 10
127.2886989699139
 20
141.2613172389902
 10
127.2886989699139
 20
141.6078938448063
 10
127.4550970818515
 20
141.8704101207824
 10
127.8247558274188
 20
141.8704101207824
 10
128.0025227544577
 20
141.8704101207824
 10
128.1520398985175
 20
141.7491427597016
 10
128.2223198464166
 20
141.5941134628654
 10
128.2223198464166
 20
141.5941134628654
 10
128.2281765087415
 20
141.5941134628654
 10
128.2281765087415
 20
141.5941134628654
 10
128.2815754887629
 20
141.8394042614151
 10
128.4734673072913
 20
141.9551594697195
 10
128.7132459530647
 20
141.9551594697195
 10
129.1108099720626
 20
141.9551594697195
 10
129.3223388348569
 20
141.6420002901103
 10
129.3223388348569
 20
141.2668293917666
 10
129.3223388348569
 20
140.8606526340556
 10
129.0856607750202
 20
140.5926242053032
 10
128.6708712785961
 20
140.6012369440163
 10
128.6708712785961
 20
140.6012369440163
 10
128.6708712785961
 20
140.8410155897897
 10
128.6708712785961
 20
140.8410155897897
 97
        0
 97
        1
330
31B
 75
     2
 76
     1
 98
        1
 10
0.0
 20
0.0
450
        0
451
        0
460
0.0
461
0.0
452
        0
462
0.0
453
        0
470

  0
ENDBLK
  5
313
330
310
100
AcDbEntity
  8
0
100
AcDbBlockEnd
  0
BLOCK
  5
31F
330
31D
100
AcDbEntity
  8
0
100
AcDbBlockBegin
  2
Block_40
 70
     0
 10
0.0
 20
0.0
 30
0.0
  3
Block_40
  1

  0
SPLINE
  5
321
330
31D
100
AcDbEntity
  8
Sichtbar (ISO)
100
AcDbSpline
210
0.0
220
0.0
230
1.0
 70
    11
 71
     3
 72
    17
 73
    13
 74
     0
 42
0.0000000001
 43
0.0000000001
 40
0.0
 40
0.0
 40
0.0
 40
0.0
 40
1.0
 40
1.0
 40
1.0
 40
2.0
 40
2.0
 40
2.0
 40
3.0
 40
3.0
 40
3.0
 40
4.0
 40
4.0
 40
4.0
 40
4.0
 10
136.0991861638919
 20
136.4185465153745
 30
0.0
 10
136.0991861638919
 20
136.4185465153745
 30
0.0
 10
134.4379611209044
 20
136.4185465153745
 30
0.0
 10
134.4379611209044
 20
136.4185465153745
 30
0.0
 10
134.4379611209044
 20
136.4185465153745
 30
0.0
 10
134.4379611209044
 20
134.7597330392267
 30
0.0
 10
134.4379611209044
 20
134.7597330392267
 30
0.0
 10
134.4379611209044
 20
134.7597330392267
 30
0.0
 10
136.0991861638919
 20
134.7597330392267
 30
0.0
 10
136.0991861638919
 20
134.7597330392267
 30
0.0
 10
136.0991861638919
 20
134.7597330392267
 30
0.0
 10
136.0991861638919
 20
136.4185465153745
 30
0.0
 10
136.0991861638919
 20
136.4185465153745
 30
0.0
  0
SPLINE
  5
322
330
31D
100
AcDbEntity
  8
Sichtbar (ISO)
100
AcDbSpline
210
0.0
220
0.0
230
1.0
 70
    11
 71
     3
 72
    17
 73
    13
 74
     0
 42
0.0000000001
 43
0.0000000001
 40
0.0
 40
0.0
 40
0.0
 40
0.0
 40
1.0
 40
1.0
 40
1.0
 40
2.0
 40
2.0
 40
2.0
 40
3.0
 40
3.0
 40
3.0
 40
4.0
 40
4.0
 40
4.0
 40
4.0
 10
134.2123073666205
 20
134.5316677181032
 30
0.0
 10
134.2123073666205
 20
134.5316677181032
 30
0.0
 10
134.2123073666205
 20
136.6442002696584
 30
0.0
 10
134.2123073666205
 20
136.6442002696584
 30
0.0
 10
134.2123073666205
 20
136.6442002696584
 30
0.0
 10
136.3275959945639
 20
136.6442002696584
 30
0.0
 10
136.3275959945639
 20
136.6442002696584
 30
0.0
 10
136.3275959945639
 20
136.6442002696584
 30
0.0
 10
136.3275959945639
 20
134.5316677181032
 30
0.0
 10
136.3275959945639
 20
134.5316677181032
 30
0.0
 10
136.3275959945639
 20
134.5316677181032
 30
0.0
 10
134.2123073666205
 20
134.5316677181032
 30
0.0
 10
134.2123073666205
 20
134.5316677181032
 30
0.0
  0
HATCH
  5
323
330
31D
100
AcDbEntity
  8
Sichtbar (ISO)
 62
    18
420
        0
440
 33554687
100
AcDbHatch
 10
0.0
 20
0.0
 30
0.0
210
0.0
220
0.0
230
1.0
  2
SOLID
 70
     1
 71
     1
 91
        2
 92
        1
 93
        1
 72
     4
 94
        3
 73
     0
 74
     0
 95
       17
 96
       13
 40
0.0
 40
0.0
 40
0.0
 40
0.0
 40
1.0
 40
1.0
 40
1.0
 40
2.0
 40
2.0
 40
2.0
 40
3.0
 40
3.0
 40
3.0
 40
4.0
 40
4.0
 40
4.0
 40
4.0
 10
136.0991861638919
 20
136.4185465153745
 10
136.0991861638919
 20
136.4185465153745
 10
134.4379611209044
 20
136.4185465153745
 10
134.4379611209044
 20
136.4185465153745
 10
134.4379611209044
 20
136.4185465153745
 10
134.4379611209044
 20
134.7597330392267
 10
134.4379611209044
 20
134.7597330392267
 10
134.4379611209044
 20
134.7597330392267
 10
136.0991861638919
 20
134.7597330392267
 10
136.0991861638919
 20
134.7597330392267
 10
136.0991861638919
 20
134.7597330392267
 10
136.0991861638919
 20
136.4185465153745
 10
136.0991861638919
 20
136.4185465153745
 97
        0
 97
        1
330
321
 92
        1
 93
        1
 72
     4
 94
        3
 73
     0
 74
     0
 95
       17
 96
       13
 40
0.0
 40
0.0
 40
0.0
 40
0.0
 40
1.0
 40
1.0
 40
1.0
 40
2.0
 40
2.0
 40
2.0
 40
3.0
 40
3.0
 40
3.0
 40
4.0
 40
4.0
 40
4.0
 40
4.0
 10
134.2123073666205
 20
134.5316677181032
 10
134.2123073666205
 20
134.5316677181032
 10
134.2123073666205
 20
136.6442002696584
 10
134.2123073666205
 20
136.6442002696584
 10
134.2123073666205
 20
136.6442002696584
 10
136.3275959945639
 20
136.6442002696584
 10
136.3275959945639
 20
136.6442002696584
 10
136.3275959945639
 20
136.6442002696584
 10
136.3275959945639
 20
134.5316677181032
 10
136.3275959945639
 20
134.5316677181032
 10
136.3275959945639
 20
134.5316677181032
 10
134.2123073666205
 20
134.5316677181032
 10
134.2123073666205
 20
134.5316677181032
 97
        0
 97
        1
330
322
 75
     2
 76
     1
 98
        1
 10
0.0
 20
0.0
450
        0
451
        0
460
0.0
461
0.0
452
        0
462
0.0
453
        0
470

  0
SPLINE
  5
324
330
31D
100
AcDbEntity
  8
Sichtbar (ISO)
100
AcDbSpline
210
0.0
220
0.0
230
1.0
 70
     9
 71
     3
 72
    41
 73
    37
 74
     0
 42
0.0000000001
 43
0.0000000001
 40
0.0
 40
0.0
 40
0.0
 40
0.0
 40
1.0
 40
1.0
 40
1.0
 40
2.0
 40
2.0
 40
2.0
 40
3.0
 40
3.0
 40
3.0
 40
4.0
 40
4.0
 40
4.0
 40
5.0
 40
5.0
 40
5.0
 40
6.0
 40
6.0
 40
6.0
 40
7.0
 40
7.0
 40
7.0
 40
8.0
 40
8.0
 40
8.0
 40
9.0
 40
9.0
 40
9.0
 40
10.0
 40
10.0
 40
10.0
 40
11.0
 40
11.0
 40
11.0
 40
12.0
 40
12.0
 40
12.0
 40
12.0
 10
135.5097303263656
 20
138.0618570618387
 30
0.0
 10
135.2982014635713
 20
138.4005099480388
 30
0.0
 10
135.1796901788787
 20
138.5724202127527
 30
0.0
 10
134.9002929350249
 20
138.5724202127527
 30
0.0
 10
134.6832519194542
 20
138.5724202127527
 30
0.0
 10
134.5392469281707
 20
138.397409362102
 30
0.0
 10
134.5392469281707
 20
138.1858804993077
 30
0.0
 10
134.5392469281707
 20
137.9064832554539
 30
0.0
 10
134.7959065418218
 20
137.7879719707613
 30
0.0
 10
135.0356851875952
 20
137.7965847094744
 30
0.0
 10
135.0356851875952
 20
137.7965847094744
 30
0.0
 10
135.0356851875952
 20
137.5568060637011
 30
0.0
 10
135.0356851875952
 20
137.5568060637011
 30
0.0
 10
134.6295084298843
 20
137.5344129430469
 30
0.0
 10
134.3277180653764
 20
137.7769476652085
 30
0.0
 10
134.3277180653764
 20
138.2000053907972
 30
0.0
 10
134.3277180653764
 20
138.5469265061619
 30
0.0
 10
134.5309786990061
 20
138.8263237500156
 30
0.0
 10
134.9033935209616
 20
138.8263237500156
 30
0.0
 10
135.2558267891027
 20
138.8263237500156
 30
0.0
 10
135.4308376397534
 20
138.5893011806304
 30
0.0
 10
135.5886230129778
 20
138.3412543056925
 30
0.0
 10
135.7381401570377
 20
138.0928629212059
 30
0.0
 10
135.8707763332198
 20
137.8248344924535
 30
0.0
 10
136.1160671317696
 20
137.7797037415967
 30
0.0
 10
136.1160671317696
 20
137.7797037415967
 30
0.0
 10
136.1160671317696
 20
138.8063421962012
 30
0.0
 10
136.1160671317696
 20
138.8063421962012
 30
0.0
 10
136.1160671317696
 20
138.8063421962012
 30
0.0
 10
136.3275959945639
 20
138.8063421962012
 30
0.0
 10
136.3275959945639
 20
138.8063421962012
 30
0.0
 10
136.3275959945639
 20
138.8063421962012
 30
0.0
 10
136.3275959945639
 20
137.5006510072915
 30
0.0
 10
136.3275959945639
 20
137.5006510072915
 30
0.0
 10
135.8566514417303
 20
137.5371690194352
 30
0.0
 10
135.6788845146914
 20
137.7797037415967
 30
0.0
 10
135.5097303263656
 20
138.0618570618387
 30
0.0
  0
HATCH
  5
325
330
31D
100
AcDbEntity
  8
Sichtbar (ISO)
 62
    18
420
        0
440
 33554687
100
AcDbHatch
 10
0.0
 20
0.0
 30
0.0
210
0.0
220
0.0
230
1.0
  2
SOLID
 70
     1
 71
     1
 91
        1
 92
        1
 93
        1
 72
     4
 94
        3
 73
     0
 74
     0
 95
       41
 96
       37
 40
0.0
 40
0.0
 40
0.0
 40
0.0
 40
1.0
 40
1.0
 40
1.0
 40
2.0
 40
2.0
 40
2.0
 40
3.0
 40
3.0
 40
3.0
 40
4.0
 40
4.0
 40
4.0
 40
5.0
 40
5.0
 40
5.0
 40
6.0
 40
6.0
 40
6.0
 40
7.0
 40
7.0
 40
7.0
 40
8.0
 40
8.0
 40
8.0
 40
9.0
 40
9.0
 40
9.0
 40
10.0
 40
10.0
 40
10.0
 40
11.0
 40
11.0
 40
11.0
 40
12.0
 40
12.0
 40
12.0
 40
12.0
 10
135.5097303263656
 20
138.0618570618387
 10
135.2982014635713
 20
138.4005099480388
 10
135.1796901788787
 20
138.5724202127527
 10
134.9002929350249
 20
138.5724202127527
 10
134.6832519194542
 20
138.5724202127527
 10
134.5392469281707
 20
138.397409362102
 10
134.5392469281707
 20
138.1858804993077
 10
134.5392469281707
 20
137.9064832554539
 10
134.7959065418218
 20
137.7879719707613
 10
135.0356851875952
 20
137.7965847094744
 10
135.0356851875952
 20
137.7965847094744
 10
135.0356851875952
 20
137.5568060637011
 10
135.0356851875952
 20
137.5568060637011
 10
134.6295084298843
 20
137.5344129430469
 10
134.3277180653764
 20
137.7769476652085
 10
134.3277180653764
 20
138.2000053907972
 10
134.3277180653764
 20
138.5469265061619
 10
134.5309786990061
 20
138.8263237500156
 10
134.9033935209616
 20
138.8263237500156
 10
135.2558267891027
 20
138.8263237500156
 10
135.4308376397534
 20
138.5893011806304
 10
135.5886230129778
 20
138.3412543056925
 10
135.7381401570377
 20
138.0928629212059
 10
135.8707763332198
 20
137.8248344924535
 10
136.1160671317696
 20
137.7797037415967
 10
136.1160671317696
 20
137.7797037415967
 10
136.1160671317696
 20
138.8063421962012
 10
136.1160671317696
 20
138.8063421962012
 10
136.1160671317696
 20
138.8063421962012
 10
136.3275959945639
 20
138.8063421962012
 10
136.3275959945639
 20
138.8063421962012
 10
136.3275959945639
 20
138.8063421962012
 10
136.3275959945639
 20
137.5006510072915
 10
136.3275959945639
 20
137.5006510072915
 10
135.8566514417303
 20
137.5371690194352
 10
135.6788845146914
 20
137.7797037415967
 10
135.5097303263656
 20
138.0618570618387
 97
        0
 97
        1
330
324
 75
     2
 76
     1
 98
        1
 10
0.0
 20
0.0
450
        0
451
        0
460
0.0
461
0.0
452
        0
462
0.0
453
        0
470

  0
SPLINE
  5
326
330
31D
100
AcDbEntity
  8
Sichtbar (ISO)
100
AcDbSpline
210
0.0
220
0.0
230
1.0
 70
    11
 71
     3
 72
    17
 73
    13
 74
     0
 42
0.0000000001
 43
0.0000000001
 40
0.0
 40
0.0
 40
0.0
 40
0.0
 40
1.0
 40
1.0
 40
1.0
 40
2.0
 40
2.0
 40
2.0
 40
3.0
 40
3.0
 40
3.0
 40
4.0
 40
4.0
 40
4.0
 40
4.0
 10
135.6478786553241
 20
139.9583821264687
 30
0.0
 10
135.6478786553241
 20
139.9583821264687
 30
0.0
 10
134.6691270279646
 20
139.9583821264687
 30
0.0
 10
134.6691270279646
 20
139.9583821264687
 30
0.0
 10
134.6691270279646
 20
139.9583821264687
 30
0.0
 10
134.6691270279646
 20
139.9525254641438
 30
0.0
 10
134.6691270279646
 20
139.9525254641438
 30
0.0
 10
134.6691270279646
 20
139.9525254641438
 30
0.0
 10
135.6478786553241
 20
139.2869330163935
 30
0.0
 10
135.6478786553241
 20
139.2869330163935
 30
0.0
 10
135.6478786553241
 20
139.2869330163935
 30
0.0
 10
135.6478786553241
 20
139.9583821264687
 30
0.0
 10
135.6478786553241
 20
139.9583821264687
 30
0.0
  0
SPLINE
  5
327
330
31D
100
AcDbEntity
  8
Sichtbar (ISO)
100
AcDbSpline
210
0.0
220
0.0
230
1.0
 70
    11
 71
     3
 72
    38
 73
    34
 74
     0
 42
0.0000000001
 43
0.0000000001
 40
0.0
 40
0.0
 40
0.0
 40
0.0
 40
1.0
 40
1.0
 40
1.0
 40
2.0
 40
2.0
 40
2.0
 40
3.0
 40
3.0
 40
3.0
 40
4.0
 40
4.0
 40
4.0
 40
5.0
 40
5.0
 40
5.0
 40
6.0
 40
6.0
 40
6.0
 40
7.0
 40
7.0
 40
7.0
 40
8.0
 40
8.0
 40
8.0
 40
9.0
 40
9.0
 40
9.0
 40
10.0
 40
10.0
 40
10.0
 40
11.0
 40
11.0
 40
11.0
 40
11.0
 10
135.6282416110582
 20
139.0809163063756
 30
0.0
 10
135.6282416110582
 20
139.0809163063756
 30
0.0
 10
134.3277180653764
 20
139.9921440622241
 30
0.0
 10
134.3277180653764
 20
139.9921440622241
 30
0.0
 10
134.3277180653764
 20
139.9921440622241
 30
0.0
 10
134.3277180653764
 20
140.183691371204
 30
0.0
 10
134.3277180653764
 20
140.183691371204
 30
0.0
 10
134.3277180653764
 20
140.183691371204
 30
0.0
 10
135.6478786553241
 20
140.183691371204
 30
0.0
 10
135.6478786553241
 20
140.183691371204
 30
0.0
 10
135.6478786553241
 20
140.183691371204
 30
0.0
 10
135.6478786553241
 20
140.4544758763447
 30
0.0
 10
135.6478786553241
 20
140.4544758763447
 30
0.0
 10
135.6478786553241
 20
140.4544758763447
 30
0.0
 10
135.8594075181184
 20
140.4544758763447
 30
0.0
 10
135.8594075181184
 20
140.4544758763447
 30
0.0
 10
135.8594075181184
 20
140.4544758763447
 30
0.0
 10
135.8594075181184
 20
140.183691371204
 30
0.0
 10
135.8594075181184
 20
140.183691371204
 30
0.0
 10
135.8594075181184
 20
140.183691371204
 30
0.0
 10
136.3275959945639
 20
140.183691371204
 30
0.0
 10
136.3275959945639
 20
140.183691371204
 30
0.0
 10
136.3275959945639
 20
140.183691371204
 30
0.0
 10
136.3275959945639
 20
139.9583821264687
 30
0.0
 10
136.3275959945639
 20
139.9583821264687
 30
0.0
 10
136.3275959945639
 20
139.9583821264687
 30
0.0
 10
135.8594075181184
 20
139.9583821264687
 30
0.0
 10
135.8594075181184
 20
139.9583821264687
 30
0.0
 10
135.8594075181184
 20
139.9583821264687
 30
0.0
 10
135.8594075181184
 20
139.0809163063756
 30
0.0
 10
135.8594075181184
 20
139.0809163063756
 30
0.0
 10
135.8594075181184
 20
139.0809163063756
 30
0.0
 10
135.6282416110582
 20
139.0809163063756
 30
0.0
 10
135.6282416110582
 20
139.0809163063756
 30
0.0
  0
HATCH
  5
328
330
31D
100
AcDbEntity
  8
Sichtbar (ISO)
 62
    18
420
        0
440
 33554687
100
AcDbHatch
 10
0.0
 20
0.0
 30
0.0
210
0.0
220
0.0
230
1.0
  2
SOLID
 70
     1
 71
     1
 91
        2
 92
        1
 93
        1
 72
     4
 94
        3
 73
     0
 74
     0
 95
       17
 96
       13
 40
0.0
 40
0.0
 40
0.0
 40
0.0
 40
1.0
 40
1.0
 40
1.0
 40
2.0
 40
2.0
 40
2.0
 40
3.0
 40
3.0
 40
3.0
 40
4.0
 40
4.0
 40
4.0
 40
4.0
 10
135.6478786553241
 20
139.9583821264687
 10
135.6478786553241
 20
139.9583821264687
 10
134.6691270279646
 20
139.9583821264687
 10
134.6691270279646
 20
139.9583821264687
 10
134.6691270279646
 20
139.9583821264687
 10
134.6691270279646
 20
139.9525254641438
 10
134.6691270279646
 20
139.9525254641438
 10
134.6691270279646
 20
139.9525254641438
 10
135.6478786553241
 20
139.2869330163935
 10
135.6478786553241
 20
139.2869330163935
 10
135.6478786553241
 20
139.2869330163935
 10
135.6478786553241
 20
139.9583821264687
 10
135.6478786553241
 20
139.9583821264687
 97
        0
 97
        1
330
326
 92
        1
 93
        1
 72
     4
 94
        3
 73
     0
 74
     0
 95
       38
 96
       34
 40
0.0
 40
0.0
 40
0.0
 40
0.0
 40
1.0
 40
1.0
 40
1.0
 40
2.0
 40
2.0
 40
2.0
 40
3.0
 40
3.0
 40
3.0
 40
4.0
 40
4.0
 40
4.0
 40
5.0
 40
5.0
 40
5.0
 40
6.0
 40
6.0
 40
6.0
 40
7.0
 40
7.0
 40
7.0
 40
8.0
 40
8.0
 40
8.0
 40
9.0
 40
9.0
 40
9.0
 40
10.0
 40
10.0
 40
10.0
 40
11.0
 40
11.0
 40
11.0
 40
11.0
 10
135.6282416110582
 20
139.0809163063756
 10
135.6282416110582
 20
139.0809163063756
 10
134.3277180653764
 20
139.9921440622241
 10
134.3277180653764
 20
139.9921440622241
 10
134.3277180653764
 20
139.9921440622241
 10
134.3277180653764
 20
140.183691371204
 10
134.3277180653764
 20
140.183691371204
 10
134.3277180653764
 20
140.183691371204
 10
135.6478786553241
 20
140.183691371204
 10
135.6478786553241
 20
140.183691371204
 10
135.6478786553241
 20
140.183691371204
 10
135.6478786553241
 20
140.4544758763447
 10
135.6478786553241
 20
140.4544758763447
 10
135.6478786553241
 20
140.4544758763447
 10
135.8594075181184
 20
140.4544758763447
 10
135.8594075181184
 20
140.4544758763447
 10
135.8594075181184
 20
140.4544758763447
 10
135.8594075181184
 20
140.183691371204
 10
135.8594075181184
 20
140.183691371204
 10
135.8594075181184
 20
140.183691371204
 10
136.3275959945639
 20
140.183691371204
 10
136.3275959945639
 20
140.183691371204
 10
136.3275959945639
 20
140.183691371204
 10
136.3275959945639
 20
139.9583821264687
 10
136.3275959945639
 20
139.9583821264687
 10
136.3275959945639
 20
139.9583821264687
 10
135.8594075181184
 20
139.9583821264687
 10
135.8594075181184
 20
139.9583821264687
 10
135.8594075181184
 20
139.9583821264687
 10
135.8594075181184
 20
139.0809163063756
 10
135.8594075181184
 20
139.0809163063756
 10
135.8594075181184
 20
139.0809163063756
 10
135.6282416110582
 20
139.0809163063756
 10
135.6282416110582
 20
139.0809163063756
 97
        0
 97
        1
330
327
 75
     2
 76
     1
 98
        1
 10
0.0
 20
0.0
450
        0
451
        0
460
0.0
461
0.0
452
        0
462
0.0
453
        0
470

  0
SPLINE
  5
329
330
31D
100
AcDbEntity
  8
Sichtbar (ISO)
100
AcDbSpline
210
0.0
220
0.0
230
1.0
 70
     9
 71
     3
 72
    62
 73
    58
 74
     0
 42
0.0000000001
 43
0.0000000001
 40
0.0
 40
0.0
 40
0.0
 40
0.0
 40
1.0
 40
1.0
 40
1.0
 40
2.0
 40
2.0
 40
2.0
 40
3.0
 40
3.0
 40
3.0
 40
4.0
 40
4.0
 40
4.0
 40
5.0
 40
5.0
 40
5.0
 40
6.0
 40
6.0
 40
6.0
 40
7.0
 40
7.0
 40
7.0
 40
8.0
 40
8.0
 40
8.0
 40
9.0
 40
9.0
 40
9.0
 40
10.0
 40
10.0
 40
10.0
 40
11.0
 40
11.0
 40
11.0
 40
12.0
 40
12.0
 40
12.0
 40
13.0
 40
13.0
 40
13.0
 40
14.0
 40
14.0
 40
14.0
 40
15.0
 40
15.0
 40
15.0
 40
16.0
 40
16.0
 40
16.0
 40
17.0
 40
17.0
 40
17.0
 40
18.0
 40
18.0
 40
18.0
 40
19.0
 40
19.0
 40
19.0
 40
19.0
 10
135.7098903740586
 20
140.8954480984567
 30
0.0
 10
135.9693060640979
 20
140.9040608371698
 30
0.0
 10
136.149829067525
 20
141.0477213189047
 30
0.0
 10
136.149829067525
 20
141.3216064099821
 30
0.0
 10
136.149829067525
 20
141.5555283934305
 30
0.0
 10
136.0034125094019
 20
141.7560329506721
 30
0.0
 10
135.7636338636285
 20
141.7560329506721
 30
0.0
 10
135.5124864027538
 20
141.7560329506721
 30
0.0
 10
135.3798502265717
 20
141.5668972085319
 30
0.0
 10
135.3798502265717
 20
141.3302191486952
 30
0.0
 10
135.3798502265717
 20
141.2792317355135
 30
0.0
 10
135.3826063029599
 20
141.2313449082685
 30
0.0
 10
135.3884629652848
 20
141.1862141574118
 30
0.0
 10
135.3884629652848
 20
141.1862141574118
 30
0.0
 10
135.1852023316551
 20
141.1862141574118
 30
0.0
 10
135.1852023316551
 20
141.1862141574118
 30
0.0
 10
135.1883029175918
 20
141.2058512016777
 30
0.0
 10
135.1883029175918
 20
141.2227321695554
 30
0.0
 10
135.1883029175918
 20
141.2399576469816
 30
0.0
 10
135.1883029175918
 20
141.2399576469816
 30
0.0
 10
135.1883029175918
 20
141.2906005506148
 30
0.0
 10
135.1883029175918
 20
141.2906005506148
 30
0.0
 10
135.1883029175918
 20
141.493516674696
 30
0.0
 10
135.0753037856756
 20
141.6712836017349
 30
0.0
 10
134.8610188464931
 20
141.6712836017349
 30
0.0
 10
134.6494899836987
 20
141.6712836017349
 30
0.0
 10
134.5392469281707
 20
141.5190103812869
 30
0.0
 10
134.5392469281707
 20
141.3157497476571
 30
0.0
 10
134.5392469281707
 20
141.0563340576179
 30
0.0
 10
134.7397514854123
 20
140.9381672824738
 30
0.0
 10
134.9736734688607
 20
140.9381672824738
 30
0.0
 10
134.9736734688607
 20
140.9381672824738
 30
0.0
 10
134.9736734688607
 20
140.6983886367004
 30
0.0
 10
134.9736734688607
 20
140.6983886367004
 30
0.0
 10
134.5929904177406
 20
140.7121690186414
 30
0.0
 10
134.3277180653764
 20
140.9154296522711
 30
0.0
 10
134.3277180653764
 20
141.3157497476571
 30
0.0
 10
134.3277180653764
 20
141.6630153725703
 30
0.0
 10
134.4941161773139
 20
141.9251871389978
 30
0.0
 10
134.8637749228813
 20
141.9251871389978
 30
0.0
 10
135.0415418499202
 20
141.9251871389978
 30
0.0
 10
135.19105899398
 20
141.8039197779171
 30
0.0
 10
135.2613389418791
 20
141.6485459715323
 30
0.0
 10
135.2613389418791
 20
141.6485459715323
 30
0.0
 10
135.267195604204
 20
141.6485459715323
 30
0.0
 10
135.267195604204
 20
141.6485459715323
 30
0.0
 10
135.3205945842254
 20
141.8941812796306
 30
0.0
 10
135.5124864027538
 20
142.0095919783865
 30
0.0
 10
135.7522650485272
 20
142.0095919783865
 30
0.0
 10
136.149829067525
 20
142.0095919783865
 30
0.0
 10
136.3617024398679
 20
141.6967773083258
 30
0.0
 10
136.3617024398679
 20
141.3216064099821
 30
0.0
 10
136.3617024398679
 20
140.9154296522711
 30
0.0
 10
136.1246798704827
 20
140.6474012235187
 30
0.0
 10
135.7098903740586
 20
140.6556694526833
 30
0.0
 10
135.7098903740586
 20
140.6556694526833
 30
0.0
 10
135.7098903740586
 20
140.8954480984567
 30
0.0
 10
135.7098903740586
 20
140.8954480984567
 30
0.0
  0
HATCH
  5
32A
330
31D
100
AcDbEntity
  8
Sichtbar (ISO)
 62
    18
420
        0
440
 33554687
100
AcDbHatch
 10
0.0
 20
0.0
 30
0.0
210
0.0
220
0.0
230
1.0
  2
SOLID
 70
     1
 71
     1
 91
        1
 92
        1
 93
        1
 72
     4
 94
        3
 73
     0
 74
     0
 95
       62
 96
       58
 40
0.0
 40
0.0
 40
0.0
 40
0.0
 40
1.0
 40
1.0
 40
1.0
 40
2.0
 40
2.0
 40
2.0
 40
3.0
 40
3.0
 40
3.0
 40
4.0
 40
4.0
 40
4.0
 40
5.0
 40
5.0
 40
5.0
 40
6.0
 40
6.0
 40
6.0
 40
7.0
 40
7.0
 40
7.0
 40
8.0
 40
8.0
 40
8.0
 40
9.0
 40
9.0
 40
9.0
 40
10.0
 40
10.0
 40
10.0
 40
11.0
 40
11.0
 40
11.0
 40
12.0
 40
12.0
 40
12.0
 40
13.0
 40
13.0
 40
13.0
 40
14.0
 40
14.0
 40
14.0
 40
15.0
 40
15.0
 40
15.0
 40
16.0
 40
16.0
 40
16.0
 40
17.0
 40
17.0
 40
17.0
 40
18.0
 40
18.0
 40
18.0
 40
19.0
 40
19.0
 40
19.0
 40
19.0
 10
135.7098903740586
 20
140.8954480984567
 10
135.9693060640979
 20
140.9040608371698
 10
136.149829067525
 20
141.0477213189047
 10
136.149829067525
 20
141.3216064099821
 10
136.149829067525
 20
141.5555283934305
 10
136.0034125094019
 20
141.7560329506721
 10
135.7636338636285
 20
141.7560329506721
 10
135.5124864027538
 20
141.7560329506721
 10
135.3798502265717
 20
141.5668972085319
 10
135.3798502265717
 20
141.3302191486952
 10
135.3798502265717
 20
141.2792317355135
 10
135.3826063029599
 20
141.2313449082685
 10
135.3884629652848
 20
141.1862141574118
 10
135.3884629652848
 20
141.1862141574118
 10
135.1852023316551
 20
141.1862141574118
 10
135.1852023316551
 20
141.1862141574118
 10
135.1883029175918
 20
141.2058512016777
 10
135.1883029175918
 20
141.2227321695554
 10
135.1883029175918
 20
141.2399576469816
 10
135.1883029175918
 20
141.2399576469816
 10
135.1883029175918
 20
141.2906005506148
 10
135.1883029175918
 20
141.2906005506148
 10
135.1883029175918
 20
141.493516674696
 10
135.0753037856756
 20
141.6712836017349
 10
134.8610188464931
 20
141.6712836017349
 10
134.6494899836987
 20
141.6712836017349
 10
134.5392469281707
 20
141.5190103812869
 10
134.5392469281707
 20
141.3157497476571
 10
134.5392469281707
 20
141.0563340576179
 10
134.7397514854123
 20
140.9381672824738
 10
134.9736734688607
 20
140.9381672824738
 10
134.9736734688607
 20
140.9381672824738
 10
134.9736734688607
 20
140.6983886367004
 10
134.9736734688607
 20
140.6983886367004
 10
134.5929904177406
 20
140.7121690186414
 10
134.3277180653764
 20
140.9154296522711
 10
134.3277180653764
 20
141.3157497476571
 10
134.3277180653764
 20
141.6630153725703
 10
134.4941161773139
 20
141.9251871389978
 10
134.8637749228813
 20
141.9251871389978
 10
135.0415418499202
 20
141.9251871389978
 10
135.19105899398
 20
141.8039197779171
 10
135.2613389418791
 20
141.6485459715323
 10
135.2613389418791
 20
141.6485459715323
 10
135.267195604204
 20
141.6485459715323
 10
135.267195604204
 20
141.6485459715323
 10
135.3205945842254
 20
141.8941812796306
 10
135.5124864027538
 20
142.0095919783865
 10
135.7522650485272
 20
142.0095919783865
 10
136.149829067525
 20
142.0095919783865
 10
136.3617024398679
 20
141.6967773083258
 10
136.3617024398679
 20
141.3216064099821
 10
136.3617024398679
 20
140.9154296522711
 10
136.1246798704827
 20
140.6474012235187
 10
135.7098903740586
 20
140.6556694526833
 10
135.7098903740586
 20
140.6556694526833
 10
135.7098903740586
 20
140.8954480984567
 10
135.7098903740586
 20
140.8954480984567
 97
        0
 97
        1
330
329
 75
     2
 76
     1
 98
        1
 10
0.0
 20
0.0
450
        0
451
        0
460
0.0
461
0.0
452
        0
462
0.0
453
        0
470

  0
ENDBLK
  5
320
330
31D
100
AcDbEntity
  8
0
100
AcDbBlockEnd
  0
BLOCK
  5
330
330
32E
100
AcDbEntity
  8
0
100
AcDbBlockBegin
  2
Block_41
 70
     0
 10
0.0
 20
0.0
 30
0.0
  3
Block_41
  1

  0
INSERT
  5
333
330
32E
100
AcDbEntity
  8
Sichtbar (ISO)
100
AcDbBlockReference
  2
Block_42
 10
0.0
 20
0.0
 30
0.0
  0
ENDBLK
  5
331
330
32E
100
AcDbEntity
  8
0
100
AcDbBlockEnd
  0
BLOCK
  5
334
330
332
100
AcDbEntity
  8
0
100
AcDbBlockBegin
  2
Block_42
 70
     0
 10
0.0
 20
0.0
 30
0.0
  3
Block_42
  1

  0
LINE
  5
336
330
332
100
AcDbEntity
  8
Sichtbar (ISO)
 62
    18
420
        0
370
     5
100
AcDbLine
 10
120.8109397586156
 20
148.1994703981986
 30
0.0
 11
120.8133620913787
 21
128.657747617982
 31
0.0
  0
INSERT
  5
338
330
332
100
AcDbEntity
  8
Sichtbar (ISO)
100
AcDbBlockReference
  2
Block_43
 10
0.0
 20
0.0
 30
0.0
  0
INSERT
  5
33E
330
332
100
AcDbEntity
  8
Sichtbar (ISO)
100
AcDbBlockReference
  2
Block_44
 10
0.0
 20
0.0
 30
0.0
  0
ENDBLK
  5
335
330
332
100
AcDbEntity
  8
0
100
AcDbBlockEnd
  0
BLOCK
  5
339
330
337
100
AcDbEntity
  8
0
100
AcDbBlockBegin
  2
Block_43
 70
     0
 10
0.0
 20
0.0
 30
0.0
  3
Block_43
  1

  0
LWPOLYLINE
  5
33B
330
337
100
AcDbEntity
  8
Sichtbar (ISO)
100
AcDbPolyline
 90
        3
 70
     1
 43
0.0
 10
120.5897107988456
 20
147.5669831648769
 10
120.8101215484379
 20
149.2481897616788
 10
121.0323302072365
 20
147.5670477604172
  0
HATCH
  5
33C
330
337
100
AcDbEntity
  8
Sichtbar (ISO)
 62
    18
420
        0
440
 33554687
100
AcDbHatch
 10
0.0
 20
0.0
 30
0.0
210
0.0
220
0.0
230
1.0
  2
SOLID
 70
     1
 71
     1
 91
        1
 92
        1
 93
        3
 72
     1
 10
120.5897107988456
 20
147.5669831648769
 11
120.8101215484379
 21
149.2481897616788
 72
     1
 10
120.8101215484379
 20
149.2481897616788
 11
121.0323302072365
 21
147.5670477604172
 72
     1
 10
121.0323302072365
 20
147.5670477604172
 11
120.5897107988456
 21
147.5669831648769
 97
        1
330
33B
 75
     2
 76
     1
 98
        1
 10
0.0
 20
0.0
450
        0
451
        0
460
0.0
461
0.0
452
        0
462
0.0
453
        0
470

  0
ENDBLK
  5
33A
330
337
100
AcDbEntity
  8
0
100
AcDbBlockEnd
  0
BLOCK
  5
33F
330
33D
100
AcDbEntity
  8
0
100
AcDbBlockBegin
  2
Block_44
 70
     0
 10
0.0
 20
0.0
 30
0.0
  3
Block_44
  1

  0
LWPOLYLINE
  5
341
330
33D
100
AcDbEntity
  8
Sichtbar (ISO)
100
AcDbPolyline
 90
        3
 70
     1
 43
0.0
 10
120.5919716427578
 20
129.2901702557634
 10
120.8128130292857
 20
127.6090174885784
 10
121.0346018170721
 20
129.2902240853803
  0
HATCH
  5
342
330
33D
100
AcDbEntity
  8
Sichtbar (ISO)
 62
    18
420
        0
440
 33554687
100
AcDbHatch
 10
0.0
 20
0.0
 30
0.0
210
0.0
220
0.0
230
1.0
  2
SOLID
 70
     1
 71
     1
 91
        1
 92
        1
 93
        3
 72
     1
 10
120.5919716427578
 20
129.2901702557634
 11
120.8128130292857
 21
127.6090174885784
 72
     1
 10
120.8128130292857
 20
127.6090174885784
 11
121.0346018170721
 21
129.2902240853803
 72
     1
 10
121.0346018170721
 20
129.2902240853803
 11
120.5919716427578
 21
129.2901702557634
 97
        1
330
341
 75
     2
 76
     1
 98
        1
 10
0.0
 20
0.0
450
        0
451
        0
460
0.0
461
0.0
452
        0
462
0.0
453
        0
470

  0
ENDBLK
  5
340
330
33D
100
AcDbEntity
  8
0
100
AcDbBlockEnd
  0
BLOCK
  5
345
330
343
100
AcDbEntity
  8
0
100
AcDbBlockBegin
  2
Block_45
 70
     0
 10
0.0
 20
0.0
 30
0.0
  3
Block_45
  1

  0
INSERT
  5
348
330
343
100
AcDbEntity
  8
Sichtbar (ISO)
100
AcDbBlockReference
  2
Block_46
 10
0.0
 20
0.0
 30
0.0
  0
ENDBLK
  5
346
330
343
100
AcDbEntity
  8
0
100
AcDbBlockEnd
  0
BLOCK
  5
349
330
347
100
AcDbEntity
  8
0
100
AcDbBlockBegin
  2
Block_46
 70
     0
 10
0.0
 20
0.0
 30
0.0
  3
Block_46
  1

  0
SPLINE
  5
34B
330
347
100
AcDbEntity
  8
Sichtbar (ISO)
100
AcDbSpline
210
0.0
220
0.0
230
1.0
 70
     9
 71
     3
 72
    26
 73
    22
 74
     0
 42
0.0000000001
 43
0.0000000001
 40
0.0
 40
0.0
 40
0.0
 40
0.0
 40
1.0
 40
1.0
 40
1.0
 40
2.0
 40
2.0
 40
2.0
 40
3.0
 40
3.0
 40
3.0
 40
4.0
 40
4.0
 40
4.0
 40
5.0
 40
5.0
 40
5.0
 40
6.0
 40
6.0
 40
6.0
 40
7.0
 40
7.0
 40
7.0
 40
7.0
 10
123.6517116661357
 20
136.2387125310445
 30
0.0
 10
123.6699706722075
 20
136.2917670015173
 30
0.0
 10
123.6789279204691
 20
136.3458550006357
 30
0.0
 10
123.6789279204691
 20
136.4002875093027
 30
0.0
 10
123.6789279204691
 20
136.5759873790504
 30
0.0
 10
123.5972791574687
 20
136.7006998356165
 30
0.0
 10
123.4336371219193
 20
136.7740803694523
 30
0.0
 10
123.3354519005897
 20
136.818522101212
 30
0.0
 10
123.2224527686735
 20
136.8409152218661
 30
0.0
 10
123.0946397261708
 20
136.8409152218661
 30
0.0
 10
123.0119574345248
 20
136.8409152218661
 30
0.0
 10
122.9409884675286
 20
136.8336805213471
 30
0.0
 10
122.8810438060853
 20
136.8199001394061
 30
0.0
 10
122.8490044180725
 20
136.8123209293386
 30
0.0
 10
122.8114528772832
 20
136.7995740760431
 30
0.0
 10
122.7680446741691
 20
136.7820040890683
 30
0.0
 10
122.7680446741691
 20
136.7820040890683
 30
0.0
 10
123.546291744287
 20
136.0909179347273
 30
0.0
 10
123.546291744287
 20
136.0909179347273
 30
0.0
 10
123.5983126861143
 20
136.1363931951325
 30
0.0
 10
123.6334526600638
 20
136.1860025701201
 30
0.0
 10
123.6517116661357
 20
136.2387125310445
 30
0.0
  0
SPLINE
  5
34C
330
347
100
AcDbEntity
  8
Sichtbar (ISO)
100
AcDbSpline
210
0.0
220
0.0
230
1.0
 70
     9
 71
     3
 72
    26
 73
    22
 74
     0
 42
0.0000000001
 43
0.0000000001
 40
0.0
 40
0.0
 40
0.0
 40
0.0
 40
1.0
 40
1.0
 40
1.0
 40
2.0
 40
2.0
 40
2.0
 40
3.0
 40
3.0
 40
3.0
 40
4.0
 40
4.0
 40
4.0
 40
5.0
 40
5.0
 40
5.0
 40
6.0
 40
6.0
 40
6.0
 40
7.0
 40
7.0
 40
7.0
 40
7.0
 10
122.5775308938348
 20
136.6025146142869
 30
0.0
 10
122.5513481681469
 20
136.5449815196832
 30
0.0
 10
122.5379122957544
 20
136.4809027436575
 30
0.0
 10
122.5379122957544
 20
136.4102782862099
 30
0.0
 10
122.5379122957544
 20
136.2755750527366
 30
0.0
 10
122.5937228426154
 20
136.1677435640483
 30
0.0
 10
122.705688445886
 20
136.0864393105964
 30
0.0
 10
122.8173095396082
 20
136.0051350571445
 30
0.0
 10
122.9613145308916
 20
135.9644829304186
 30
0.0
 10
123.1370144006393
 20
135.9644829304186
 30
0.0
 10
123.2031602339561
 20
135.9644829304186
 30
0.0
 10
123.2665499908847
 20
135.9717176309376
 30
0.0
 10
123.3275281809737
 20
135.9858425224271
 30
0.0
 10
123.3612901167291
 20
135.9944552611402
 30
0.0
 10
123.4046983198433
 20
136.0082356430813
 30
0.0
 10
123.457063771219
 20
136.0282171968957
 30
0.0
 10
123.457063771219
 20
136.0282171968957
 30
0.0
 10
122.6753716056159
 20
136.72791608995
 30
0.0
 10
122.6753716056159
 20
136.72791608995
 30
0.0
 10
122.6367865361811
 20
136.7020778738106
 30
0.0
 10
122.6040581290712
 20
136.6600477088905
 30
0.0
 10
122.5775308938348
 20
136.6025146142869
 30
0.0
  0
SPLINE
  5
34D
330
347
100
AcDbEntity
  8
Sichtbar (ISO)
100
AcDbSpline
210
0.0
220
0.0
230
1.0
 70
    11
 71
     3
 72
    59
 73
    55
 74
     0
 42
0.0000000001
 43
0.0000000001
 40
0.0
 40
0.0
 40
0.0
 40
0.0
 40
1.0
 40
1.0
 40
1.0
 40
2.0
 40
2.0
 40
2.0
 40
3.0
 40
3.0
 40
3.0
 40
4.0
 40
4.0
 40
4.0
 40
5.0
 40
5.0
 40
5.0
 40
6.0
 40
6.0
 40
6.0
 40
7.0
 40
7.0
 40
7.0
 40
8.0
 40
8.0
 40
8.0
 40
9.0
 40
9.0
 40
9.0
 40
10.0
 40
10.0
 40
10.0
 40
11.0
 40
11.0
 40
11.0
 40
12.0
 40
12.0
 40
12.0
 40
13.0
 40
13.0
 40
13.0
 40
14.0
 40
14.0
 40
14.0
 40
15.0
 40
15.0
 40
15.0
 40
16.0
 40
16.0
 40
16.0
 40
17.0
 40
17.0
 40
17.0
 40
18.0
 40
18.0
 40
18.0
 40
18.0
 10
123.8332681982083
 20
135.680607062434
 30
0.0
 10
123.8332681982083
 20
135.680607062434
 30
0.0
 10
123.6479220611019
 20
135.8573404608273
 30
0.0
 10
123.6479220611019
 20
135.8573404608273
 30
0.0
 10
123.5800536800425
 20
135.811176181325
 30
0.0
 10
123.5039170698184
 20
135.7760362073754
 30
0.0
 10
123.4195122304298
 20
135.7512315198816
 30
0.0
 10
123.3347628814927
 20
135.7260823228393
 30
0.0
 10
123.2348551124204
 20
135.7136799790924
 30
0.0
 10
123.119099904116
 20
135.7136799790924
 30
0.0
 10
122.9106716272584
 20
135.7136799790924
 30
0.0
 10
122.725325490152
 20
135.7722466023416
 30
0.0
 10
122.5634060023452
 20
135.8890353392916
 30
0.0
 10
122.40114200499
 20
136.0061685857901
 30
0.0
 10
122.3201822610866
 20
136.17670081231
 30
0.0
 10
122.3201822610866
 20
136.4006320188512
 30
0.0
 10
122.3201822610866
 20
136.5170762462527
 30
0.0
 10
122.3411973435466
 20
136.6193955821646
 30
0.0
 10
122.3825384893696
 20
136.7072455170385
 30
0.0
 10
122.4069986673149
 20
136.7589219493172
 30
0.0
 10
122.4466172653953
 20
136.8181775916635
 30
0.0
 10
122.5017387931593
 20
136.8846679345288
 30
0.0
 10
122.5017387931593
 20
136.8846679345288
 30
0.0
 10
122.3081244268882
 20
137.0603678042765
 30
0.0
 10
122.3081244268882
 20
137.0603678042765
 30
0.0
 10
122.3081244268882
 20
137.0603678042765
 30
0.0
 10
122.3780598652388
 20
137.1316812808212
 30
0.0
 10
122.3780598652388
 20
137.1316812808212
 30
0.0
 10
122.3780598652388
 20
137.1316812808212
 30
0.0
 10
122.5754638365436
 20
136.9546033728794
 30
0.0
 10
122.5754638365436
 20
136.9546033728794
 30
0.0
 10
122.6602131854808
 20
137.0128254865801
 30
0.0
 10
122.7570203686163
 20
137.0541666324031
 30
0.0
 10
122.8662298954987
 20
137.0789713198969
 30
0.0
 10
122.9368543529463
 20
137.0948187591291
 30
0.0
 10
123.0078233199425
 20
137.1027424787451
 30
0.0
 10
123.0784477773901
 20
137.1027424787451
 30
0.0
 10
123.3154703467753
 20
137.1027424787451
 30
0.0
 10
123.5108072607889
 20
137.038319193171
 30
0.0
 10
123.6644585194311
 20
136.9094726220226
 30
0.0
 10
123.8184542876217
 20
136.7806260508743
 30
0.0
 10
123.8952799169428
 20
136.6090602957088
 30
0.0
 10
123.8952799169428
 20
136.3947753565263
 30
0.0
 10
123.8952799169428
 20
136.2928005301629
 30
0.0
 10
123.8804660063562
 20
136.2018500093523
 30
0.0
 10
123.8508381851831
 20
136.122268303643
 30
0.0
 10
123.8208658544614
 20
136.0426865979337
 30
0.0
 10
123.780558237284
 20
135.977918802811
 30
0.0
 10
123.7292263145538
 20
135.9289984469205
 30
0.0
 10
123.7292263145538
 20
135.9289984469205
 30
0.0
 10
123.9049261843015
 20
135.7619113158859
 30
0.0
 10
123.9049261843015
 20
135.7619113158859
 30
0.0
 10
123.9049261843015
 20
135.7619113158859
 30
0.0
 10
123.8332681982083
 20
135.680607062434
 30
0.0
 10
123.8332681982083
 20
135.680607062434
 30
0.0
  0
HATCH
  5
34E
330
347
100
AcDbEntity
  8
Sichtbar (ISO)
 62
   250
420
  2039067
440
 33554687
100
AcDbHatch
 10
0.0
 20
0.0
 30
0.0
210
0.0
220
0.0
230
1.0
  2
SOLID
 70
     1
 71
     1
 91
        3
 92
        1
 93
        1
 72
     4
 94
        3
 73
     0
 74
     0
 95
       26
 96
       22
 40
0.0
 40
0.0
 40
0.0
 40
0.0
 40
1.0
 40
1.0
 40
1.0
 40
2.0
 40
2.0
 40
2.0
 40
3.0
 40
3.0
 40
3.0
 40
4.0
 40
4.0
 40
4.0
 40
5.0
 40
5.0
 40
5.0
 40
6.0
 40
6.0
 40
6.0
 40
7.0
 40
7.0
 40
7.0
 40
7.0
 10
123.6517116661357
 20
136.2387125310445
 10
123.6699706722075
 20
136.2917670015173
 10
123.6789279204691
 20
136.3458550006357
 10
123.6789279204691
 20
136.4002875093027
 10
123.6789279204691
 20
136.5759873790504
 10
123.5972791574687
 20
136.7006998356165
 10
123.4336371219193
 20
136.7740803694523
 10
123.3354519005897
 20
136.818522101212
 10
123.2224527686735
 20
136.8409152218661
 10
123.0946397261708
 20
136.8409152218661
 10
123.0119574345248
 20
136.8409152218661
 10
122.9409884675286
 20
136.8336805213471
 10
122.8810438060853
 20
136.8199001394061
 10
122.8490044180725
 20
136.8123209293386
 10
122.8114528772832
 20
136.7995740760431
 10
122.7680446741691
 20
136.7820040890683
 10
122.7680446741691
 20
136.7820040890683
 10
123.546291744287
 20
136.0909179347273
 10
123.546291744287
 20
136.0909179347273
 10
123.5983126861143
 20
136.1363931951325
 10
123.6334526600638
 20
136.1860025701201
 10
123.6517116661357
 20
136.2387125310445
 97
        0
 97
        1
330
34B
 92
        1
 93
        1
 72
     4
 94
        3
 73
     0
 74
     0
 95
       26
 96
       22
 40
0.0
 40
0.0
 40
0.0
 40
0.0
 40
1.0
 40
1.0
 40
1.0
 40
2.0
 40
2.0
 40
2.0
 40
3.0
 40
3.0
 40
3.0
 40
4.0
 40
4.0
 40
4.0
 40
5.0
 40
5.0
 40
5.0
 40
6.0
 40
6.0
 40
6.0
 40
7.0
 40
7.0
 40
7.0
 40
7.0
 10
122.5775308938348
 20
136.6025146142869
 10
122.5513481681469
 20
136.5449815196832
 10
122.5379122957544
 20
136.4809027436575
 10
122.5379122957544
 20
136.4102782862099
 10
122.5379122957544
 20
136.2755750527366
 10
122.5937228426154
 20
136.1677435640483
 10
122.705688445886
 20
136.0864393105964
 10
122.8173095396082
 20
136.0051350571445
 10
122.9613145308916
 20
135.9644829304186
 10
123.1370144006393
 20
135.9644829304186
 10
123.2031602339561
 20
135.9644829304186
 10
123.2665499908847
 20
135.9717176309376
 10
123.3275281809737
 20
135.9858425224271
 10
123.3612901167291
 20
135.9944552611402
 10
123.4046983198433
 20
136.0082356430813
 10
123.457063771219
 20
136.0282171968957
 10
123.457063771219
 20
136.0282171968957
 10
122.6753716056159
 20
136.72791608995
 10
122.6753716056159
 20
136.72791608995
 10
122.6367865361811
 20
136.7020778738106
 10
122.6040581290712
 20
136.6600477088905
 10
122.5775308938348
 20
136.6025146142869
 97
        0
 97
        1
330
34C
 92
        1
 93
        1
 72
     4
 94
        3
 73
     0
 74
     0
 95
       59
 96
       55
 40
0.0
 40
0.0
 40
0.0
 40
0.0
 40
1.0
 40
1.0
 40
1.0
 40
2.0
 40
2.0
 40
2.0
 40
3.0
 40
3.0
 40
3.0
 40
4.0
 40
4.0
 40
4.0
 40
5.0
 40
5.0
 40
5.0
 40
6.0
 40
6.0
 40
6.0
 40
7.0
 40
7.0
 40
7.0
 40
8.0
 40
8.0
 40
8.0
 40
9.0
 40
9.0
 40
9.0
 40
10.0
 40
10.0
 40
10.0
 40
11.0
 40
11.0
 40
11.0
 40
12.0
 40
12.0
 40
12.0
 40
13.0
 40
13.0
 40
13.0
 40
14.0
 40
14.0
 40
14.0
 40
15.0
 40
15.0
 40
15.0
 40
16.0
 40
16.0
 40
16.0
 40
17.0
 40
17.0
 40
17.0
 40
18.0
 40
18.0
 40
18.0
 40
18.0
 10
123.8332681982083
 20
135.680607062434
 10
123.8332681982083
 20
135.680607062434
 10
123.6479220611019
 20
135.8573404608273
 10
123.6479220611019
 20
135.8573404608273
 10
123.5800536800425
 20
135.811176181325
 10
123.5039170698184
 20
135.7760362073754
 10
123.4195122304298
 20
135.7512315198816
 10
123.3347628814927
 20
135.7260823228393
 10
123.2348551124204
 20
135.7136799790924
 10
123.119099904116
 20
135.7136799790924
 10
122.9106716272584
 20
135.7136799790924
 10
122.725325490152
 20
135.7722466023416
 10
122.5634060023452
 20
135.8890353392916
 10
122.40114200499
 20
136.0061685857901
 10
122.3201822610866
 20
136.17670081231
 10
122.3201822610866
 20
136.4006320188512
 10
122.3201822610866
 20
136.5170762462527
 10
122.3411973435466
 20
136.6193955821646
 10
122.3825384893696
 20
136.7072455170385
 10
122.4069986673149
 20
136.7589219493172
 10
122.4466172653953
 20
136.8181775916635
 10
122.5017387931593
 20
136.8846679345288
 10
122.5017387931593
 20
136.8846679345288
 10
122.3081244268882
 20
137.0603678042765
 10
122.3081244268882
 20
137.0603678042765
 10
122.3081244268882
 20
137.0603678042765
 10
122.3780598652388
 20
137.1316812808212
 10
122.3780598652388
 20
137.1316812808212
 10
122.3780598652388
 20
137.1316812808212
 10
122.5754638365436
 20
136.9546033728794
 10
122.5754638365436
 20
136.9546033728794
 10
122.6602131854808
 20
137.0128254865801
 10
122.7570203686163
 20
137.0541666324031
 10
122.8662298954987
 20
137.0789713198969
 10
122.9368543529463
 20
137.0948187591291
 10
123.0078233199425
 20
137.1027424787451
 10
123.0784477773901
 20
137.1027424787451
 10
123.3154703467753
 20
137.1027424787451
 10
123.5108072607889
 20
137.038319193171
 10
123.6644585194311
 20
136.9094726220226
 10
123.8184542876217
 20
136.7806260508743
 10
123.8952799169428
 20
136.6090602957088
 10
123.8952799169428
 20
136.3947753565263
 10
123.8952799169428
 20
136.2928005301629
 10
123.8804660063562
 20
136.2018500093523
 10
123.8508381851831
 20
136.122268303643
 10
123.8208658544614
 20
136.0426865979337
 10
123.780558237284
 20
135.977918802811
 10
123.7292263145538
 20
135.9289984469205
 10
123.7292263145538
 20
135.9289984469205
 10
123.9049261843015
 20
135.7619113158859
 10
123.9049261843015
 20
135.7619113158859
 10
123.9049261843015
 20
135.7619113158859
 10
123.8332681982083
 20
135.680607062434
 10
123.8332681982083
 20
135.680607062434
 97
        0
 97
        1
330
34D
 75
     2
 76
     1
 98
        1
 10
0.0
 20
0.0
450
        0
451
        0
460
0.0
461
0.0
452
        0
462
0.0
453
        0
470

  0
SPLINE
  5
34F
330
347
100
AcDbEntity
  8
Sichtbar (ISO)
100
AcDbSpline
210
0.0
220
0.0
230
1.0
 70
    11
 71
     3
 72
    26
 73
    22
 74
     0
 42
0.0000000001
 43
0.0000000001
 40
0.0
 40
0.0
 40
0.0
 40
0.0
 40
1.0
 40
1.0
 40
1.0
 40
2.0
 40
2.0
 40
2.0
 40
3.0
 40
3.0
 40
3.0
 40
4.0
 40
4.0
 40
4.0
 40
5.0
 40
5.0
 40
5.0
 40
6.0
 40
6.0
 40
6.0
 40
7.0
 40
7.0
 40
7.0
 40
7.0
 10
122.4059651386693
 20
138.0422200175728
 30
0.0
 10
122.4059651386693
 20
138.0422200175728
 30
0.0
 10
122.4059651386693
 20
137.5233886374941
 30
0.0
 10
122.4059651386693
 20
137.5233886374941
 30
0.0
 10
122.4059651386693
 20
137.5233886374941
 30
0.0
 10
122.2140733201409
 20
137.5233886374941
 30
0.0
 10
122.2140733201409
 20
137.5233886374941
 30
0.0
 10
122.2140733201409
 20
137.796929219023
 30
0.0
 10
122.1437933722418
 20
138.044976093961
 30
0.0
 10
121.8389024217972
 20
138.0987195835309
 30
0.0
 10
121.8389024217972
 20
138.0987195835309
 30
0.0
 10
121.8389024217972
 20
138.2819986633462
 30
0.0
 10
121.8389024217972
 20
138.2819986633462
 30
0.0
 10
121.8389024217972
 20
138.2819986633462
 30
0.0
 10
123.8387803509847
 20
138.2819986633462
 30
0.0
 10
123.8387803509847
 20
138.2819986633462
 30
0.0
 10
123.8387803509847
 20
138.2819986633462
 30
0.0
 10
123.8387803509847
 20
138.0422200175728
 30
0.0
 10
123.8387803509847
 20
138.0422200175728
 30
0.0
 10
123.8387803509847
 20
138.0422200175728
 30
0.0
 10
122.4059651386693
 20
138.0422200175728
 30
0.0
 10
122.4059651386693
 20
138.0422200175728
 30
0.0
  0
HATCH
  5
350
330
347
100
AcDbEntity
  8
Sichtbar (ISO)
 62
    18
420
        0
440
 33554687
100
AcDbHatch
 10
0.0
 20
0.0
 30
0.0
210
0.0
220
0.0
230
1.0
  2
SOLID
 70
     1
 71
     1
 91
        1
 92
        1
 93
        1
 72
     4
 94
        3
 73
     0
 74
     0
 95
       26
 96
       22
 40
0.0
 40
0.0
 40
0.0
 40
0.0
 40
1.0
 40
1.0
 40
1.0
 40
2.0
 40
2.0
 40
2.0
 40
3.0
 40
3.0
 40
3.0
 40
4.0
 40
4.0
 40
4.0
 40
5.0
 40
5.0
 40
5.0
 40
6.0
 40
6.0
 40
6.0
 40
7.0
 40
7.0
 40
7.0
 40
7.0
 10
122.4059651386693
 20
138.0422200175728
 10
122.4059651386693
 20
138.0422200175728
 10
122.4059651386693
 20
137.5233886374941
 10
122.4059651386693
 20
137.5233886374941
 10
122.4059651386693
 20
137.5233886374941
 10
122.2140733201409
 20
137.5233886374941
 10
122.2140733201409
 20
137.5233886374941
 10
122.2140733201409
 20
137.796929219023
 10
122.1437933722418
 20
138.044976093961
 10
121.8389024217972
 20
138.0987195835309
 10
121.8389024217972
 20
138.0987195835309
 10
121.8389024217972
 20
138.2819986633462
 10
121.8389024217972
 20
138.2819986633462
 10
121.8389024217972
 20
138.2819986633462
 10
123.8387803509847
 20
138.2819986633462
 10
123.8387803509847
 20
138.2819986633462
 10
123.8387803509847
 20
138.2819986633462
 10
123.8387803509847
 20
138.0422200175728
 10
123.8387803509847
 20
138.0422200175728
 10
123.8387803509847
 20
138.0422200175728
 10
122.4059651386693
 20
138.0422200175728
 10
122.4059651386693
 20
138.0422200175728
 97
        0
 97
        1
330
34F
 75
     2
 76
     1
 98
        1
 10
0.0
 20
0.0
450
        0
451
        0
460
0.0
461
0.0
452
        0
462
0.0
453
        0
470

  0
SPLINE
  5
351
330
347
100
AcDbEntity
  8
Sichtbar (ISO)
100
AcDbSpline
210
0.0
220
0.0
230
1.0
 70
    11
 71
     3
 72
    26
 73
    22
 74
     0
 42
0.0000000001
 43
0.0000000001
 40
0.0
 40
0.0
 40
0.0
 40
0.0
 40
1.0
 40
1.0
 40
1.0
 40
2.0
 40
2.0
 40
2.0
 40
3.0
 40
3.0
 40
3.0
 40
4.0
 40
4.0
 40
4.0
 40
5.0
 40
5.0
 40
5.0
 40
6.0
 40
6.0
 40
6.0
 40
7.0
 40
7.0
 40
7.0
 40
7.0
 10
122.4059651386693
 20
139.6114610111041
 30
0.0
 10
122.4059651386693
 20
139.6114610111041
 30
0.0
 10
122.4059651386693
 20
139.0922851214769
 30
0.0
 10
122.4059651386693
 20
139.0922851214769
 30
0.0
 10
122.4059651386693
 20
139.0922851214769
 30
0.0
 10
122.2140733201409
 20
139.0922851214769
 30
0.0
 10
122.2140733201409
 20
139.0922851214769
 30
0.0
 10
122.2140733201409
 20
139.3658257030057
 30
0.0
 10
122.1437933722418
 20
139.6142170874923
 30
0.0
 10
121.8389024217972
 20
139.6676160675136
 30
0.0
 10
121.8389024217972
 20
139.6676160675136
 30
0.0
 10
121.8389024217972
 20
139.8512396568775
 30
0.0
 10
121.8389024217972
 20
139.8512396568775
 30
0.0
 10
121.8389024217972
 20
139.8512396568775
 30
0.0
 10
123.8387803509847
 20
139.8512396568775
 30
0.0
 10
123.8387803509847
 20
139.8512396568775
 30
0.0
 10
123.8387803509847
 20
139.8512396568775
 30
0.0
 10
123.8387803509847
 20
139.6114610111041
 30
0.0
 10
123.8387803509847
 20
139.6114610111041
 30
0.0
 10
123.8387803509847
 20
139.6114610111041
 30
0.0
 10
122.4059651386693
 20
139.6114610111041
 30
0.0
 10
122.4059651386693
 20
139.6114610111041
 30
0.0
  0
HATCH
  5
352
330
347
100
AcDbEntity
  8
Sichtbar (ISO)
 62
    18
420
        0
440
 33554687
100
AcDbHatch
 10
0.0
 20
0.0
 30
0.0
210
0.0
220
0.0
230
1.0
  2
SOLID
 70
     1
 71
     1
 91
        1
 92
        1
 93
        1
 72
     4
 94
        3
 73
     0
 74
     0
 95
       26
 96
       22
 40
0.0
 40
0.0
 40
0.0
 40
0.0
 40
1.0
 40
1.0
 40
1.0
 40
2.0
 40
2.0
 40
2.0
 40
3.0
 40
3.0
 40
3.0
 40
4.0
 40
4.0
 40
4.0
 40
5.0
 40
5.0
 40
5.0
 40
6.0
 40
6.0
 40
6.0
 40
7.0
 40
7.0
 40
7.0
 40
7.0
 10
122.4059651386693
 20
139.6114610111041
 10
122.4059651386693
 20
139.6114610111041
 10
122.4059651386693
 20
139.0922851214769
 10
122.4059651386693
 20
139.0922851214769
 10
122.4059651386693
 20
139.0922851214769
 10
122.2140733201409
 20
139.0922851214769
 10
122.2140733201409
 20
139.0922851214769
 10
122.2140733201409
 20
139.3658257030057
 10
122.1437933722418
 20
139.6142170874923
 10
121.8389024217972
 20
139.6676160675136
 10
121.8389024217972
 20
139.6676160675136
 10
121.8389024217972
 20
139.8512396568775
 10
121.8389024217972
 20
139.8512396568775
 10
121.8389024217972
 20
139.8512396568775
 10
123.8387803509847
 20
139.8512396568775
 10
123.8387803509847
 20
139.8512396568775
 10
123.8387803509847
 20
139.8512396568775
 10
123.8387803509847
 20
139.6114610111041
 10
123.8387803509847
 20
139.6114610111041
 10
123.8387803509847
 20
139.6114610111041
 10
122.4059651386693
 20
139.6114610111041
 10
122.4059651386693
 20
139.6114610111041
 97
        0
 97
        1
330
351
 75
     2
 76
     1
 98
        1
 10
0.0
 20
0.0
450
        0
451
        0
460
0.0
461
0.0
452
        0
462
0.0
453
        0
470

  0
SPLINE
  5
353
330
347
100
AcDbEntity
  8
Sichtbar (ISO)
100
AcDbSpline
210
0.0
220
0.0
230
1.0
 70
     9
 71
     3
 72
    53
 73
    49
 74
     0
 42
0.0000000001
 43
0.0000000001
 40
0.0
 40
0.0
 40
0.0
 40
0.0
 40
1.0
 40
1.0
 40
1.0
 40
2.0
 40
2.0
 40
2.0
 40
3.0
 40
3.0
 40
3.0
 40
4.0
 40
4.0
 40
4.0
 40
5.0
 40
5.0
 40
5.0
 40
6.0
 40
6.0
 40
6.0
 40
7.0
 40
7.0
 40
7.0
 40
8.0
 40
8.0
 40
8.0
 40
9.0
 40
9.0
 40
9.0
 40
10.0
 40
10.0
 40
10.0
 40
11.0
 40
11.0
 40
11.0
 40
12.0
 40
12.0
 40
12.0
 40
13.0
 40
13.0
 40
13.0
 40
14.0
 40
14.0
 40
14.0
 40
15.0
 40
15.0
 40
15.0
 40
16.0
 40
16.0
 40
16.0
 40
16.0
 10
123.2999674170917
 20
140.7548882026585
 30
0.0
 10
123.5059841271096
 20
140.7686685845995
 30
0.0
 10
123.6610134239458
 20
140.9354112060856
 30
0.0
 10
123.6610134239458
 20
141.175189851859
 30
0.0
 10
123.6610134239458
 20
141.4032551729825
 30
0.0
 10
123.5032280507214
 20
141.5982475774477
 30
0.0
 10
123.187312794724
 20
141.5982475774477
 30
0.0
 10
122.9247965187479
 20
141.5982475774477
 30
0.0
 10
122.733249209768
 20
141.4177245740205
 30
0.0
 10
122.733249209768
 20
141.1469400688799
 30
0.0
 10
122.733249209768
 20
140.9915662624952
 30
0.0
 10
122.8093858199921
 20
140.8675428250261
 30
0.0
 10
122.9220404423597
 20
140.7745252469244
 30
0.0
 10
122.9220404423597
 20
140.7745252469244
 30
0.0
 10
122.9110161368069
 20
140.5685085369064
 30
0.0
 10
122.9110161368069
 20
140.5685085369064
 30
0.0
 10
122.9110161368069
 20
140.5685085369064
 30
0.0
 10
121.8730088671012
 20
140.7548882026585
 30
0.0
 10
121.8730088671012
 20
140.7548882026585
 30
0.0
 10
121.8730088671012
 20
140.7548882026585
 30
0.0
 10
121.8730088671012
 20
141.7419080591826
 30
0.0
 10
121.8730088671012
 20
141.7419080591826
 30
0.0
 10
121.8730088671012
 20
141.7419080591826
 30
0.0
 10
122.0845377298955
 20
141.7419080591826
 30
0.0
 10
122.0845377298955
 20
141.7419080591826
 30
0.0
 10
122.0845377298955
 20
141.7419080591826
 30
0.0
 10
122.0845377298955
 20
140.9354112060856
 30
0.0
 10
122.0845377298955
 20
140.9354112060856
 30
0.0
 10
122.0845377298955
 20
140.9354112060856
 30
0.0
 10
122.6598686759322
 20
140.8279242269458
 30
0.0
 10
122.6598686759322
 20
140.8279242269458
 30
0.0
 10
122.6598686759322
 20
140.8279242269458
 30
0.0
 10
122.6653808287086
 20
140.8337808892707
 30
0.0
 10
122.6653808287086
 20
140.8337808892707
 30
0.0
 10
122.5668510978305
 20
140.9209418050475
 30
0.0
 10
122.5217203469737
 20
141.0704589491074
 30
0.0
 10
122.5217203469737
 20
141.2061957112262
 30
0.0
 10
122.5217203469737
 20
141.5613850557555
 30
0.0
 10
122.7473741012576
 20
141.851806605162
 30
0.0
 10
123.2069498389899
 20
141.851806605162
 30
0.0
 10
123.54560272519
 20
141.851806605162
 30
0.0
 10
123.8725422867402
 20
141.6178846217136
 30
0.0
 10
123.8725422867402
 20
141.1524522216563
 30
0.0
 10
123.8725422867402
 20
140.8055311062916
 30
0.0
 10
123.6610134239458
 20
140.5233777860497
 30
0.0
 10
123.2999674170917
 20
140.5151095568851
 30
0.0
 10
123.2999674170917
 20
140.5151095568851
 30
0.0
 10
123.2999674170917
 20
140.7548882026585
 30
0.0
 10
123.2999674170917
 20
140.7548882026585
 30
0.0
  0
HATCH
  5
354
330
347
100
AcDbEntity
  8
Sichtbar (ISO)
 62
    18
420
        0
440
 33554687
100
AcDbHatch
 10
0.0
 20
0.0
 30
0.0
210
0.0
220
0.0
230
1.0
  2
SOLID
 70
     1
 71
     1
 91
        1
 92
        1
 93
        1
 72
     4
 94
        3
 73
     0
 74
     0
 95
       53
 96
       49
 40
0.0
 40
0.0
 40
0.0
 40
0.0
 40
1.0
 40
1.0
 40
1.0
 40
2.0
 40
2.0
 40
2.0
 40
3.0
 40
3.0
 40
3.0
 40
4.0
 40
4.0
 40
4.0
 40
5.0
 40
5.0
 40
5.0
 40
6.0
 40
6.0
 40
6.0
 40
7.0
 40
7.0
 40
7.0
 40
8.0
 40
8.0
 40
8.0
 40
9.0
 40
9.0
 40
9.0
 40
10.0
 40
10.0
 40
10.0
 40
11.0
 40
11.0
 40
11.0
 40
12.0
 40
12.0
 40
12.0
 40
13.0
 40
13.0
 40
13.0
 40
14.0
 40
14.0
 40
14.0
 40
15.0
 40
15.0
 40
15.0
 40
16.0
 40
16.0
 40
16.0
 40
16.0
 10
123.2999674170917
 20
140.7548882026585
 10
123.5059841271096
 20
140.7686685845995
 10
123.6610134239458
 20
140.9354112060856
 10
123.6610134239458
 20
141.175189851859
 10
123.6610134239458
 20
141.4032551729825
 10
123.5032280507214
 20
141.5982475774477
 10
123.187312794724
 20
141.5982475774477
 10
122.9247965187479
 20
141.5982475774477
 10
122.733249209768
 20
141.4177245740205
 10
122.733249209768
 20
141.1469400688799
 10
122.733249209768
 20
140.9915662624952
 10
122.8093858199921
 20
140.8675428250261
 10
122.9220404423597
 20
140.7745252469244
 10
122.9220404423597
 20
140.7745252469244
 10
122.9110161368069
 20
140.5685085369064
 10
122.9110161368069
 20
140.5685085369064
 10
122.9110161368069
 20
140.5685085369064
 10
121.8730088671012
 20
140.7548882026585
 10
121.8730088671012
 20
140.7548882026585
 10
121.8730088671012
 20
140.7548882026585
 10
121.8730088671012
 20
141.7419080591826
 10
121.8730088671012
 20
141.7419080591826
 10
121.8730088671012
 20
141.7419080591826
 10
122.0845377298955
 20
141.7419080591826
 10
122.0845377298955
 20
141.7419080591826
 10
122.0845377298955
 20
141.7419080591826
 10
122.0845377298955
 20
140.9354112060856
 10
122.0845377298955
 20
140.9354112060856
 10
122.0845377298955
 20
140.9354112060856
 10
122.6598686759322
 20
140.8279242269458
 10
122.6598686759322
 20
140.8279242269458
 10
122.6598686759322
 20
140.8279242269458
 10
122.6653808287086
 20
140.8337808892707
 10
122.6653808287086
 20
140.8337808892707
 10
122.5668510978305
 20
140.9209418050475
 10
122.5217203469737
 20
141.0704589491074
 10
122.5217203469737
 20
141.2061957112262
 10
122.5217203469737
 20
141.5613850557555
 10
122.7473741012576
 20
141.851806605162
 10
123.2069498389899
 20
141.851806605162
 10
123.54560272519
 20
141.851806605162
 10
123.8725422867402
 20
141.6178846217136
 10
123.8725422867402
 20
141.1524522216563
 10
123.8725422867402
 20
140.8055311062916
 10
123.6610134239458
 20
140.5233777860497
 10
123.2999674170917
 20
140.5151095568851
 10
123.2999674170917
 20
140.5151095568851
 10
123.2999674170917
 20
140.7548882026585
 10
123.2999674170917
 20
140.7548882026585
 97
        0
 97
        1
330
353
 75
     2
 76
     1
 98
        1
 10
0.0
 20
0.0
450
        0
451
        0
460
0.0
461
0.0
452
        0
462
0.0
453
        0
470

  0
ENDBLK
  5
34A
330
347
100
AcDbEntity
  8
0
100
AcDbBlockEnd
  0
ENDSEC
  0
SECTION
  2
ENTITIES
  0
INSERT
  5
79
330
70
100
AcDbEntity
  8
0
100
AcDbBlockReference
  2
Block_0
 10
0.0
 20
0.0
 30
0.0
  0
INSERT
  5
7D
330
70
100
AcDbEntity
  8
0
100
AcDbBlockReference
  2
Block_1
 10
0.0
 20
0.0
 30
0.0
  0
INSERT
  5
81
330
70
100
AcDbEntity
  8
0
100
AcDbBlockReference
  2
Block_2
 10
0.0
 20
0.0
 30
0.0
  0
INSERT
  5
85
330
70
100
AcDbEntity
  8
0
100
AcDbBlockReference
  2
Block_3
 10
0.0
 20
0.0
 30
0.0
  0
INSERT
  5
89
330
70
100
AcDbEntity
  8
0
100
AcDbBlockReference
  2
Block_4
 10
0.0
 20
0.0
 30
0.0
  0
INSERT
  5
8F
330
70
100
AcDbEntity
  8
Titel (ISO)
100
AcDbBlockReference
  2
Block_5
 10
0.0
 20
0.0
 30
0.0
  0
INSERT
  5
93
330
70
100
AcDbEntity
  8
Titel (ISO)
100
AcDbBlockReference
  2
Block_6
 10
0.0
 20
0.0
 30
0.0
  0
INSERT
  5
97
330
70
100
AcDbEntity
  8
Titel (ISO)
100
AcDbBlockReference
  2
Block_7
 10
0.0
 20
0.0
 30
0.0
  0
INSERT
  5
9B
330
70
100
AcDbEntity
  8
Titel (ISO)
100
AcDbBlockReference
  2
Block_8
 10
0.0
 20
0.0
 30
0.0
  0
INSERT
  5
9F
330
70
100
AcDbEntity
  8
Titel (ISO)
100
AcDbBlockReference
  2
Block_9
 10
0.0
 20
0.0
 30
0.0
  0
INSERT
  5
A3
330
70
100
AcDbEntity
  8
Titel (ISO)
100
AcDbBlockReference
  2
Block_10
 10
0.0
 20
0.0
 30
0.0
  0
INSERT
  5
A7
330
70
100
AcDbEntity
  8
Titel (ISO)
100
AcDbBlockReference
  2
Block_11
 10
0.0
 20
0.0
 30
0.0
  0
INSERT
  5
AB
330
70
100
AcDbEntity
  8
Titel (ISO)
100
AcDbBlockReference
  2
Block_12
 10
0.0
 20
0.0
 30
0.0
  0
INSERT
  5
AF
330
70
100
AcDbEntity
  8
Titel (ISO)
100
AcDbBlockReference
  2
Block_13
 10
0.0
 20
0.0
 30
0.0
  0
INSERT
  5
B5
330
70
100
AcDbEntity
  8
Sichtbar (ISO)
100
AcDbBlockReference
  2
Block_14
 10
0.0
 20
0.0
 30
0.0
  0
INSERT
  5
BB
330
70
100
AcDbEntity
  8
Sichtbar (ISO)
100
AcDbBlockReference
  2
Block_15
 10
0.0
 20
0.0
 30
0.0
  0
INSERT
  5
257
330
70
100
AcDbEntity
  8
Sichtbar (ISO)
100
AcDbBlockReference
  2
Block_16
 10
0.0
 20
0.0
 30
0.0
  0
INSERT
  5
28F
330
70
100
AcDbEntity
  8
Sichtbar (ISO)
100
AcDbBlockReference
  2
Block_17
 10
0.0
 20
0.0
 30
0.0
  0
LINE
  5
2A3
330
70
100
AcDbEntity
  8
Sichtbar (ISO)
 62
    18
420
        0
370
     5
100
AcDbLine
 10
108.363470094143
 20
116.7054968963066
 30
0.0
 11
128.350647880967
 21
116.705496895765
 31
0.0
  0
LINE
  5
2A4
330
70
100
AcDbEntity
  8
Sichtbar (ISO)
 62
    18
420
        0
370
     5
100
AcDbLine
 10
108.9251340284285
 20
160.693271210725
 30
0.0
 11
128.3939652088103
 21
160.6978707074988
 31
0.0
  0
LINE
  5
2A5
330
70
100
AcDbEntity
  8
Sichtbar (ISO)
 62
    18
420
        0
370
     5
100
AcDbLine
 10
109.4904122113245
 20
115.5775462790336
 30
0.0
 11
135.2782321798317
 21
115.578511376456
 31
0.0
  0
INSERT
  5
2A7
330
70
100
AcDbEntity
  8
Sichtbar (ISO)
100
AcDbBlockReference
  2
Block_21
 10
0.0
 20
0.0
 30
0.0
  0
LINE
  5
2BB
330
70
100
AcDbEntity
  8
Sichtbar (ISO)
 62
    18
420
        0
370
     5
100
AcDbLine
 10
109.4736347065028
 20
161.2598774668829
 30
0.0
 11
135.3114293794427
 21
161.2598774660297
 31
0.0
  0
LWPOLYLINE
  5
2BC
330
70
100
AcDbEntity
  8
Sichtbar (ISO)
 62
    18
420
        0
370
     5
100
AcDbPolyline
 90
        1
 70
     0
 43
0.0
 10
138.4338369195983
 20
171.36057002366
  0
LINE
  5
2BD
330
70
100
AcDbEntity
  8
Sichtbar (ISO)
 62
    18
420
        0
370
     5
100
AcDbLine
 10
107.6054271133918
 20
166.7962327480457
 30
0.0
 11
135.3865325032225
 21
166.8299501589538
 31
0.0
  0
INSERT
  5
2BF
330
70
100
AcDbEntity
  8
Sichtbar (ISO)
100
AcDbBlockReference
  2
Block_25
 10
0.0
 20
0.0
 30
0.0
  0
LWPOLYLINE
  5
2CA
330
70
100
AcDbEntity
  8
Sichtbar (ISO)
 62
    18
420
        0
370
     5
100
AcDbPolyline
 90
        1
 70
     0
 43
0.0
 10
118.7640404452886
 20
178.8501254941592
  0
INSERT
  5
2CC
330
70
100
AcDbEntity
  8
Sichtbar (ISO)
100
AcDbBlockReference
  2
Block_27
 10
0.0
 20
0.0
 30
0.0
  0
INSERT
  5
2E1
330
70
100
AcDbEntity
  8
Sichtbar (ISO)
100
AcDbBlockReference
  2
Block_31
 10
0.0
 20
0.0
 30
0.0
  0
LINE
  5
2EC
330
70
100
AcDbEntity
  8
Sichtbar (ISO)
 62
    18
420
        0
370
     5
100
AcDbLine
 10
109.4418914118326
 20
184.4722016205308
 30
0.0
 11
135.4441082394043
 21
184.5052518976717
 31
0.0
  0
INSERT
  5
2EE
330
70
100
AcDbEntity
  8
Sichtbar (ISO)
100
AcDbBlockReference
  2
Block_33
 10
0.0
 20
0.0
 30
0.0
  0
LWPOLYLINE
  5
302
330
70
100
AcDbEntity
  8
Sichtbar (ISO)
 62
    18
420
        0
370
     5
100
AcDbPolyline
 90
        1
 70
     0
 43
0.0
 10
125.6495852413508
 20
179.4128817428409
  0
INSERT
  5
304
330
70
100
AcDbEntity
  8
Sichtbar (ISO)
100
AcDbBlockReference
  2
Block_37
 10
0.0
 20
0.0
 30
0.0
  0
INSERT
  5
311
330
70
100
AcDbEntity
  8
Sichtbar (ISO)
100
AcDbBlockReference
  2
Block_39
 10
0.0
 20
0.0
 30
0.0
  0
INSERT
  5
31E
330
70
100
AcDbEntity
  8
Sichtbar (ISO)
100
AcDbBlockReference
  2
Block_40
 10
0.0
 20
0.0
 30
0.0
  0
LWPOLYLINE
  5
32B
330
70
100
AcDbEntity
  8
Sichtbar (ISO)
 62
    18
420
        0
370
     5
100
AcDbPolyline
 90
        1
 70
     0
 43
0.0
 10
121.0828074361024
 20
142.8861707487457
  0
LINE
  5
32C
330
70
100
AcDbEntity
  8
Sichtbar (ISO)
 62
    18
420
        0
370
     5
100
AcDbLine
 10
86.63735975988627
 20
149.2280730195922
 30
0.0
 11
122.8188299179611
 21
149.249375797942
 31
0.0
  0
LINE
  5
32D
330
70
100
AcDbEntity
  8
Sichtbar (ISO)
 62
    18
420
        0
370
     5
100
AcDbLine
 10
87.02137523225717
 20
127.6067197786669
 30
0.0
 11
122.8106509961469
 21
127.6113192754414
 31
0.0
  0
INSERT
  5
32F
330
70
100
AcDbEntity
  8
Sichtbar (ISO)
100
AcDbBlockReference
  2
Block_41
 10
0.0
 20
0.0
 30
0.0
  0
INSERT
  5
344
330
70
100
AcDbEntity
  8
Sichtbar (ISO)
100
AcDbBlockReference
  2
Block_45
 10
0.0
 20
0.0
 30
0.0
  0
ENDSEC
  0
SECTION
  2
OBJECTS
  0
DICTIONARY
  5
C
330
0
100
AcDbDictionary
281
     1
  3
ACAD_COLOR
350
63
  3
ACAD_DETAILVIEWSTYLE
350
6A
  3
ACAD_GROUP
350
D
  3
ACAD_LAYOUT
350
62
  3
ACAD_MATERIAL
350
10
  3
ACAD_MLEADERSTYLE
350
66
  3
ACAD_MLINESTYLE
350
5F
  3
ACAD_PLOTSETTINGS
350
61
  3
ACAD_PLOTSTYLENAME
350
E
  3
ACAD_SCALELIST
350
42
  3
ACAD_SECTIONVIEWSTYLE
350
68
  3
ACAD_TABLESTYLE
350
64
  3
ACAD_VISUALSTYLE
350
29
  3
ACDB_RECOMPOSE_DATA
350
35D
  3
AcDbVariableDictionary
350
355
  0
DICTIONARY
  5
63
102
{ACAD_REACTORS
330
C
102
}
330
C
100
AcDbDictionary
281
     1
  0
DICTIONARY
  5
6A
102
{ACAD_REACTORS
330
C
102
}
330
C
100
AcDbDictionary
281
     1
  3
Imperial24
350
6B
  0
DICTIONARY
  5
D
102
{ACAD_REACTORS
330
C
102
}
330
C
100
AcDbDictionary
281
     1
  0
DICTIONARY
  5
62
102
{ACAD_REACTORS
330
C
102
}
330
C
100
AcDbDictionary
281
     1
  3
Layout1
350
6F
  3
Layout2
350
77
  3
Model
350
73
  0
DICTIONARY
  5
10
102
{ACAD_REACTORS
330
C
102
}
330
C
100
AcDbDictionary
281
     1
  3
ByBlock
350
19
  3
ByLayer
350
11
  3
Global
350
21
  0
DICTIONARY
  5
66
102
{ACAD_REACTORS
330
C
102
}
330
C
100
AcDbDictionary
281
     1
  3
Standard
350
67
  0
DICTIONARY
  5
5F
102
{ACAD_REACTORS
330
C
102
}
330
C
100
AcDbDictionary
281
     1
  3
Standard
350
60
  0
DICTIONARY
  5
61
102
{ACAD_REACTORS
330
C
102
}
330
C
100
AcDbDictionary
281
     1
  0
ACDBDICTIONARYWDFLT
  5
E
102
{ACAD_REACTORS
330
C
102
}
330
C
100
AcDbDictionary
281
     1
  3
Normal
350
F
100
AcDbDictionaryWithDefault
340
F
  0
DICTIONARY
  5
42
102
{ACAD_REACTORS
330
C
102
}
330
C
100
AcDbDictionary
281
     1
  3
A0
350
43
  3
A1
350
44
  3
A2
350
45
  3
A3
350
46
  3
A4
350
47
  3
A5
350
48
  3
A6
350
49
  3
A7
350
4A
  3
A8
350
4B
  3
A9
350
4C
  3
B0
350
4D
  3
B1
350
4E
  3
B2
350
4F
  3
B3
350
50
  3
B4
350
51
  3
B5
350
52
  3
B6
350
53
  0
DICTIONARY
  5
68
102
{ACAD_REACTORS
330
C
102
}
330
C
100
AcDbDictionary
281
     1
  3
Imperial24
350
69
  0
DICTIONARY
  5
64
102
{ACAD_REACTORS
330
C
102
}
330
C
100
AcDbDictionary
281
     1
  3
Standard
350
65
  0
DICTIONARY
  5
29
102
{ACAD_REACTORS
330
C
102
}
330
C
100
AcDbDictionary
281
     1
  3
2dWireframe
350
2F
  3
Basic
350
2E
  3
Brighten
350
35
  3
ColorChange
350
39
  3
Conceptual
350
32
  3
Dim
350
34
  3
EdgeColorOff
350
41
  3
Facepattern
350
38
  3
Flat
350
2A
  3
FlatWithEdges
350
2B
  3
Gouraud
350
2C
  3
GouraudWithEdges
350
2D
  3
Hidden
350
31
  3
JitterOff
350
3F
  3
Linepattern
350
37
  3
OverhangOff
350
40
  3
Realistic
350
33
  3
Shaded
350
3E
  3
Shaded with edges
350
3D
  3
Shades of Gray
350
3A
  3
Sketchy
350
3B
  3
Thicken
350
36
  3
Wireframe
350
30
  3
X-Ray
350
3C
  0
XRECORD
  5
35D
102
{ACAD_REACTORS
330
C
102
}
330
C
100
AcDbXrecord
280
     1
 90
        1
330
65
  0
DICTIONARY
  5
355
102
{ACAD_REACTORS
330
C
102
}
330
C
100
AcDbDictionary
281
     1
  3
CANNOSCALE
350
35A
  3
CMLEADERSTYLE
350
357
  3
CTABLESTYLE
350
356
  3
CVIEWDETAILSTYLE
350
358
  3
CVIEWSECTIONSTYLE
350
359
  0
ACDBDETAILVIEWSTYLE
  5
6B
102
{ACAD_REACTORS
330
6A
102
}
330
6A
100
AcDbModelDocViewStyle
 70
     0
  3
Imperial24
290
     1
300
Imperial24
 90
        0
100
AcDbDetailViewStyle
 70
     0
 71
     0
 90
        3
 71
     1
340
55
 62
   256
 40
0.24
340
0
 62
   256
 40
0.24
300

 40
0.36
280
     3
 71
     2
340
5D
 90
       25
 62
   256
 71
     3
340
55
 62
   256
 40
0.24
 90
        1
 40
0.75
 90
        1
300
%<\AcVar ViewType \f "%tc1">% %<\AcVar ViewDetailId>%\PSCALE %<\AcVar ViewScale \f "%sn">%
 71
     4
340
5D
 90
       25
 62
   256
340
5D
 90
       25
 62
   256
280
     0
  0
LAYOUT
  5
6F
102
{ACAD_REACTORS
330
62
102
}
330
62
100
AcDbPlotSettings
  1

  2

  4

  6

 40
0.0
 41
0.0
 42
0.0
 43
0.0
 44
0.0
 45
0.0
 46
0.0
 47
0.0
 48
0.0
 49
0.0
140
0.0
141
0.0
142
1.0
143
1.0
 70
   688
 72
     0
 73
     0
 74
     5
  7

 75
    16
147
1.0
 76
     0
 77
     2
 78
   300
148
0.0
149
0.0
100
AcDbLayout
  1
Layout1
 70
     1
 71
     1
 10
0.0
 20
0.0
 11
12.0
 21
9.0
 12
0.0
 22
0.0
 32
0.0
 14
0.0
 24
0.0
 34
0.0
 15
0.0
 25
0.0
 35
0.0
146
0.0
 13
0.0
 23
0.0
 33
0.0
 16
1.0
 26
0.0
 36
0.0
 17
0.0
 27
1.0
 37
0.0
 76
     0
330
6C
  0
LAYOUT
  5
77
102
{ACAD_REACTORS
330
62
102
}
330
62
100
AcDbPlotSettings
  1

  2

  4

  6

 40
0.0
 41
0.0
 42
0.0
 43
0.0
 44
0.0
 45
0.0
 46
0.0
 47
0.0
 48
0.0
 49
0.0
140
0.0
141
0.0
142
1.0
143
1.0
 70
   688
 72
     0
 73
     0
 74
     5
  7

 75
    16
147
1.0
 76
     0
 77
     2
 78
   300
148
0.0
149
0.0
100
AcDbLayout
  1
Layout2
 70
     1
 71
     2
 10
0.0
 20
0.0
 11
12.0
 21
9.0
 12
0.0
 22
0.0
 32
0.0
 14
0.0
 24
0.0
 34
0.0
 15
0.0
 25
0.0
 35
0.0
146
0.0
 13
0.0
 23
0.0
 33
0.0
 16
1.0
 26
0.0
 36
0.0
 17
0.0
 27
1.0
 37
0.0
 76
     0
330
74
  0
LAYOUT
  5
73
102
{ACAD_REACTORS
330
62
102
}
330
62
100
AcDbPlotSettings
  1

  2

  4

  6

 40
0.0
 41
0.0
 42
0.0
 43
0.0
 44
0.0
 45
0.0
 46
0.0
 47
0.0
 48
0.0
 49
0.0
140
0.0
141
0.0
142
1.0
143
1.0
 70
  1712
 72
     0
 73
     0
 74
     0
  7

 75
     0
147
1.0
 76
     0
 77
     2
 78
   300
148
0.0
149
0.0
100
AcDbLayout
  1
Model
 70
     1
 71
     0
 10
0.0
 20
0.0
 11
12.0
 21
9.0
 12
0.0
 22
0.0
 32
0.0
 14
0.0
 24
0.0
 34
0.0
 15
0.0
 25
0.0
 35
0.0
146
0.0
 13
0.0
 23
0.0
 33
0.0
 16
1.0
 26
0.0
 36
0.0
 17
0.0
 27
1.0
 37
0.0
 76
     0
330
70
  0
MATERIAL
  5
19
102
{ACAD_XDICTIONARY
360
1A
102
}
102
{ACAD_REACTORS
330
10
102
}
330
10
100
AcDbMaterial
  1
ByBlock
 72
     0
 43
0.0208333333333333
 43
0.0
 43
0.0
 43
0.0
 43
0.0
 43
0.0208333333333333
 43
0.0
 43
0.0
 43
0.0
 43
0.0
 43
1.0
 43
0.0
 43
0.0
 43
0.0
 43
0.0
 43
1.0
 77
     0
 47
0.0208333333333333
 47
0.0
 47
0.0
 47
0.0
 47
0.0
 47
0.0208333333333333
 47
0.0
 47
0.0
 47
0.0
 47
0.0
 47
1.0
 47
0.0
 47
0.0
 47
0.0
 47
0.0
 47
1.0
171
     0
 49
0.0208333333333333
 49
0.0
 49
0.0
 49
0.0
 49
0.0
 49
0.0208333333333333
 49
0.0
 49
0.0
 49
0.0
 49
0.0
 49
1.0
 49
0.0
 49
0.0
 49
0.0
 49
0.0
 49
1.0
175
     0
142
0.0208333333333333
142
0.0
142
0.0
142
0.0
142
0.0
142
0.0208333333333333
142
0.0
142
0.0
142
0.0
142
0.0
142
1.0
142
0.0
142
0.0
142
0.0
142
0.0
142
1.0
179
     0
144
0.0208333333333333
144
0.0
144
0.0
144
0.0
144
0.0
144
0.0208333333333333
144
0.0
144
0.0
144
0.0
144
0.0
144
1.0
144
0.0
144
0.0
144
0.0
144
0.0
144
1.0
147
0.0208333333333333
147
0.0
147
0.0
147
0.0
147
0.0
147
0.0208333333333333
147
0.0
147
0.0
147
0.0
147
0.0
147
1.0
147
0.0
147
0.0
147
0.0
147
0.0
147
1.0
  0
MATERIAL
  5
11
102
{ACAD_XDICTIONARY
360
12
102
}
102
{ACAD_REACTORS
330
10
102
}
330
10
100
AcDbMaterial
  1
ByLayer
 72
     0
 43
0.0208333333333333
 43
0.0
 43
0.0
 43
0.0
 43
0.0
 43
0.0208333333333333
 43
0.0
 43
0.0
 43
0.0
 43
0.0
 43
1.0
 43
0.0
 43
0.0
 43
0.0
 43
0.0
 43
1.0
 77
     0
 47
0.0208333333333333
 47
0.0
 47
0.0
 47
0.0
 47
0.0
 47
0.0208333333333333
 47
0.0
 47
0.0
 47
0.0
 47
0.0
 47
1.0
 47
0.0
 47
0.0
 47
0.0
 47
0.0
 47
1.0
171
     0
 49
0.0208333333333333
 49
0.0
 49
0.0
 49
0.0
 49
0.0
 49
0.0208333333333333
 49
0.0
 49
0.0
 49
0.0
 49
0.0
 49
1.0
 49
0.0
 49
0.0
 49
0.0
 49
0.0
 49
1.0
175
     0
142
0.0208333333333333
142
0.0
142
0.0
142
0.0
142
0.0
142
0.0208333333333333
142
0.0
142
0.0
142
0.0
142
0.0
142
1.0
142
0.0
142
0.0
142
0.0
142
0.0
142
1.0
179
     0
144
0.0208333333333333
144
0.0
144
0.0
144
0.0
144
0.0
144
0.0208333333333333
144
0.0
144
0.0
144
0.0
144
0.0
144
1.0
144
0.0
144
0.0
144
0.0
144
0.0
144
1.0
147
0.0208333333333333
147
0.0
147
0.0
147
0.0
147
0.0
147
0.0208333333333333
147
0.0
147
0.0
147
0.0
147
0.0
147
1.0
147
0.0
147
0.0
147
0.0
147
0.0
147
1.0
  0
MATERIAL
  5
21
102
{ACAD_XDICTIONARY
360
22
102
}
102
{ACAD_REACTORS
330
10
102
}
330
10
100
AcDbMaterial
  1
Global
 72
     0
 43
0.0208333333333333
 43
0.0
 43
0.0
 43
0.0
 43
0.0
 43
0.0208333333333333
 43
0.0
 43
0.0
 43
0.0
 43
0.0
 43
1.0
 43
0.0
 43
0.0
 43
0.0
 43
0.0
 43
1.0
 77
     0
 47
0.0208333333333333
 47
0.0
 47
0.0
 47
0.0
 47
0.0
 47
0.0208333333333333
 47
0.0
 47
0.0
 47
0.0
 47
0.0
 47
1.0
 47
0.0
 47
0.0
 47
0.0
 47
0.0
 47
1.0
171
     0
 49
0.0208333333333333
 49
0.0
 49
0.0
 49
0.0
 49
0.0
 49
0.0208333333333333
 49
0.0
 49
0.0
 49
0.0
 49
0.0
 49
1.0
 49
0.0
 49
0.0
 49
0.0
 49
0.0
 49
1.0
175
     0
142
0.0208333333333333
142
0.0
142
0.0
142
0.0
142
0.0
142
0.0208333333333333
142
0.0
142
0.0
142
0.0
142
0.0
142
1.0
142
0.0
142
0.0
142
0.0
142
0.0
142
1.0
179
     0
144
0.0208333333333333
144
0.0
144
0.0
144
0.0
144
0.0
144
0.0208333333333333
144
0.0
144
0.0
144
0.0
144
0.0
144
1.0
144
0.0
144
0.0
144
0.0
144
0.0
144
1.0
147
0.0208333333333333
147
0.0
147
0.0
147
0.0
147
0.0
147
0.0208333333333333
147
0.0
147
0.0
147
0.0
147
0.0
147
1.0
147
0.0
147
0.0
147
0.0
147
0.0
147
1.0
  0
MLEADERSTYLE
  5
67
102
{ACAD_REACTORS
330
66
102
}
330
66
100
AcDbMLeaderStyle
179
     2
170
     2
171
     1
172
     0
 90
        2
 40
0.0
 41
0.0
173
     1
 91
-1056964608
340
5B
 92
       -2
290
     1
 42
0.09
291
     1
 43
0.36
  3
Standard
 44
0.18
300

342
55
174
     1
178
     6
175
     1
176
     0
 93
-1056964608
 45
0.18
292
     0
297
     0
 46
0.18
 94
-1056964608
 47
1.0
 49
1.0
140
1.0
293
     1
141
0.0
294
     1
177
     0
142
1.0
295
     1
296
     0
143
0.125
271
     0
272
     9
273
     9
298
     1
  0
MLINESTYLE
  5
60
102
{ACAD_REACTORS
330
5F
102
}
330
5F
100
AcDbMlineStyle
  2
STANDARD
 70
     0
  3

 62
   256
 51
90.0
 52
90.0
 71
     2
 49
0.5
 62
   256
  6
BYLAYER
 49
-0.5
 62
   256
  6
BYLAYER
  0
ACDBPLACEHOLDER
  5
F
102
{ACAD_REACTORS
330
E
102
}
330
E
  0
SCALE
  5
43
102
{ACAD_REACTORS
330
42
102
}
330
42
100
AcDbScale
 70
     0
300
1:1
140
1.0
141
1.0
290
     1
  0
SCALE
  5
44
102
{ACAD_REACTORS
330
42
102
}
330
42
100
AcDbScale
 70
     0
300
1/128" = 1'-0"
140
0.0078125
141
12.0
290
     0
  0
SCALE
  5
45
102
{ACAD_REACTORS
330
42
102
}
330
42
100
AcDbScale
 70
     0
300
1/64" = 1'-0"
140
0.015625
141
12.0
290
     0
  0
SCALE
  5
46
102
{ACAD_REACTORS
330
42
102
}
330
42
100
AcDbScale
 70
     0
300
1/32" = 1'-0"
140
0.03125
141
12.0
290
     0
  0
SCALE
  5
47
102
{ACAD_REACTORS
330
42
102
}
330
42
100
AcDbScale
 70
     0
300
1/16" = 1'-0"
140
0.0625
141
12.0
290
     0
  0
SCALE
  5
48
102
{ACAD_REACTORS
330
42
102
}
330
42
100
AcDbScale
 70
     0
300
3/32" = 1'-0"
140
0.09375
141
12.0
290
     0
  0
SCALE
  5
49
102
{ACAD_REACTORS
330
42
102
}
330
42
100
AcDbScale
 70
     0
300
1/8" = 1'-0"
140
0.125
141
12.0
290
     0
  0
SCALE
  5
4A
102
{ACAD_REACTORS
330
42
102
}
330
42
100
AcDbScale
 70
     0
300
3/16" = 1'-0"
140
0.1875
141
12.0
290
     0
  0
SCALE
  5
4B
102
{ACAD_REACTORS
330
42
102
}
330
42
100
AcDbScale
 70
     0
300
1/4" = 1'-0"
140
0.25
141
12.0
290
     0
  0
SCALE
  5
4C
102
{ACAD_REACTORS
330
42
102
}
330
42
100
AcDbScale
 70
     0
300
3/8" = 1'-0"
140
0.375
141
12.0
290
     0
  0
SCALE
  5
4D
102
{ACAD_REACTORS
330
42
102
}
330
42
100
AcDbScale
 70
     0
300
1/2" = 1'-0"
140
0.5
141
12.0
290
     0
  0
SCALE
  5
4E
102
{ACAD_REACTORS
330
42
102
}
330
42
100
AcDbScale
 70
     0
300
3/4" = 1'-0"
140
0.75
141
12.0
290
     0
  0
SCALE
  5
4F
102
{ACAD_REACTORS
330
42
102
}
330
42
100
AcDbScale
 70
     0
300
1" = 1'-0"
140
1.0
141
12.0
290
     0
  0
SCALE
  5
50
102
{ACAD_REACTORS
330
42
102
}
330
42
100
AcDbScale
 70
     0
300
1-1/2" = 1'-0"
140
1.5
141
12.0
290
     0
  0
SCALE
  5
51
102
{ACAD_REACTORS
330
42
102
}
330
42
100
AcDbScale
 70
     0
300
3" = 1'-0"
140
3.0
141
12.0
290
     0
  0
SCALE
  5
52
102
{ACAD_REACTORS
330
42
102
}
330
42
100
AcDbScale
 70
     0
300
6" = 1'-0"
140
6.0
141
12.0
290
     0
  0
SCALE
  5
53
102
{ACAD_REACTORS
330
42
102
}
330
42
100
AcDbScale
 70
     0
300
1'-0" = 1'-0"
140
12.0
141
12.0
290
     0
  0
ACDBSECTIONVIEWSTYLE
  5
69
102
{ACAD_REACTORS
330
68
102
}
330
68
100
AcDbModelDocViewStyle
 70
     0
  3
Imperial24
290
     1
300
Imperial24
 90
        0
100
AcDbSectionViewStyle
 70
     0
 71
     0
 90
       78
 71
     1
340
55
 62
   256
 40
0.24
340
0
340
0
 62
   256
 40
0.24
300
I, O, Q, S, X, Z
 40
0.48
 90
        3
 40
0.18
 90
        1
 71
     2
340
5D
 90
       25
 62
   256
340
5D
 90
       50
 62
   256
 40
0.24
 40
0.0
 40
0.24
 71
     3
340
55
 62
   256
 40
0.24
 90
        1
 40
0.75
 90
        1
300
%<\AcVar ViewType \f "%tc1">% %<\AcVar ViewSectionStartId>%-%<\AcVar ViewSectionEndId>%\PSCALE %<\AcVar ViewScale \f "%sn">%
 71
     4
 62
   256
 62
   257
300
ANSI31
 40
1.0
 90
        0
290
     0
290
     0
 90
        6
 40
0.0
 40
1.570796326794896
 40
0.2617993877991494
 40
1.308996938995747
 40
-0.2617993877991494
 40
1.832595714594046
  0
TABLESTYLE
  5
65
102
{ACAD_XDICTIONARY
360
35B
102
}
102
{ACAD_REACTORS
330
64
102
}
330
64
100
AcDbTableStyle
280
     0
  3
Standard
 70
     0
 71
     0
 40
0.06
 41
0.06
280
     0
281
     0
  7
Standard
140
0.18
170
     2
 62
     0
 63
     7
283
     0
 90
      512
 91
        0
  1

274
    -2
284
     1
 64
     0
275
    -2
285
     1
 65
     0
276
    -2
286
     1
 66
     0
277
    -2
287
     1
 67
     0
278
    -2
288
     1
 68
     0
279
    -2
289
     1
 69
     0
  7
Standard
140
0.25
170
     5
 62
     0
 63
     7
283
     0
 90
      512
 91
        0
  1

274
    -2
284
     1
 64
     0
275
    -2
285
     1
 65
     0
276
    -2
286
     1
 66
     0
277
    -2
287
     1
 67
     0
278
    -2
288
     1
 68
     0
279
    -2
289
     1
 69
     0
  7
Standard
140
0.18
170
     5
 62
     0
 63
     7
283
     0
 90
      512
 91
        0
  1

274
    -2
284
     1
 64
     0
275
    -2
285
     1
 65
     0
276
    -2
286
     1
 66
     0
277
    -2
287
     1
 67
     0
278
    -2
288
     1
 68
     0
279
    -2
289
     1
 69
     0
  0
VISUALSTYLE
  5
2F
102
{ACAD_REACTORS
330
29
102
}
330
29
100
AcDbVisualStyle
  2
2dWireframe
 70
     4
177
     3
291
     0
 70
    58
 90
        0
176
     1
 90
        2
176
     1
 90
        0
176
     1
 90
        0
176
     1
 40
0.6
176
     1
 40
30.0
176
     1
 62
     7
420
 16777215
176
     1
 90
        1
176
     1
 90
        4
176
     1
 62
     7
176
     1
 62
   257
176
     1
 90
        1
176
     1
 90
        1
176
     1
 40
1.0
176
     1
 90
        0
176
     1
 62
   257
176
     1
 40
1.0
176
     1
 90
        1
176
     1
 90
        6
176
     1
 90
        2
176
     1
 62
     7
176
     1
 90
        5
176
     1
 90
        0
176
     1
 90
        0
176
     1
290
     0
176
     1
 90
        1
176
     1
 40
0.0
176
     1
 90
        0
176
     1
290
     1
176
     1
290
     1
176
     1
290
     0
176
     1
290
     0
176
     1
290
     0
176
     1
290
     0
176
     1
290
     0
176
     1
290
     0
176
     1
290
     0
176
     1
 90
       50
176
     1
 40
0.0
176
     1
 40
1.0
176
     1
 90
        0
176
     1
 62
    18
420
        0
176
     1
 90
       50
176
     1
 90
        3
176
     1
 62
     5
420
      255
176
     1
290
     0
176
     1
 90
       50
176
     1
 90
       50
176
     1
 90
       50
176
     1
290
     0
176
     1
 90
       50
176
     1
 62
   256
176
     0
 40
1.0
176
     0
 90
        2
176
     1
  1
strokes_ogs.tif
176
     1
290
     0
176
     1
 40
1.0
176
     1
 40
1.0
176
     1
  0
VISUALSTYLE
  5
2E
102
{ACAD_REACTORS
330
29
102
}
330
29
100
AcDbVisualStyle
  2
Basic
 70
     7
177
     3
291
     1
 70
    58
 90
        1
176
     1
 90
        0
176
     1
 90
        1
176
     1
 90
        0
176
     1
 40
0.6
176
     1
 40
30.0
176
     1
 62
     7
420
 16777215
176
     1
 90
        0
176
     1
 90
        4
176
     1
 62
     7
176
     1
 62
   257
176
     1
 90
        1
176
     1
 90
        1
176
     1
 40
1.0
176
     1
 90
        8
176
     1
 62
     7
176
     1
 40
1.0
176
     1
 90
        1
176
     1
 90
        6
176
     1
 90
        2
176
     1
 62
     7
176
     1
 90
        5
176
     1
 90
        0
176
     1
 90
        0
176
     1
290
     0
176
     1
 90
        1
176
     1
 40
0.0
176
     1
 90
        0
176
     1
290
     0
176
     1
290
     1
176
     1
290
     1
176
     1
290
     0
176
     1
290
     0
176
     1
290
     0
176
     1
290
     0
176
     1
290
     0
176
     1
290
     0
176
     1
 90
       50
176
     1
 40
0.0
176
     1
 40
1.0
176
     1
 90
        0
176
     1
 62
    18
420
        0
176
     1
 90
       50
176
     1
 90
        3
176
     1
 62
     5
420
      255
176
     1
290
     0
176
     1
 90
       50
176
     1
 90
       50
176
     1
 90
       50
176
     1
290
     0
176
     1
 90
       50
176
     1
 62
   256
176
     0
 40
1.0
176
     0
 90
        2
176
     1
  1
strokes_ogs.tif
176
     1
290
     0
176
     1
 40
1.0
176
     1
 40
1.0
176
     1
  0
VISUALSTYLE
  5
35
102
{ACAD_REACTORS
330
29
102
}
330
29
100
AcDbVisualStyle
  2
Brighten
 70
    12
177
     3
291
     1
 70
    58
 90
        2
176
     1
 90
        2
176
     1
 90
        0
176
     1
 90
        0
176
     1
 40
0.6
176
     1
 40
30.0
176
     1
 62
     7
420
 16777215
176
     1
 90
        1
176
     1
 90
        4
176
     1
 62
     7
176
     1
 62
   257
176
     1
 90
        1
176
     1
 90
        1
176
     1
 40
1.0
176
     1
 90
        8
176
     1
 62
     7
176
     1
 40
1.0
176
     1
 90
        1
176
     1
 90
        6
176
     1
 90
        2
176
     1
 62
     7
176
     1
 90
        5
176
     1
 90
        0
176
     1
 90
        0
176
     1
290
     0
176
     1
 90
        1
176
     1
 40
50.0
176
     1
 90
        0
176
     1
290
     0
176
     1
290
     1
176
     1
290
     1
176
     1
290
     0
176
     1
290
     0
176
     1
290
     0
176
     1
290
     0
176
     1
290
     0
176
     1
290
     0
176
     1
 90
       50
176
     1
 40
0.0
176
     1
 40
1.0
176
     1
 90
        0
176
     1
 62
    18
420
        0
176
     1
 90
       50
176
     1
 90
        3
176
     1
 62
     5
420
      255
176
     1
290
     0
176
     1
 90
       50
176
     1
 90
       50
176
     1
 90
       50
176
     1
290
     0
176
     1
 90
       50
176
     1
 62
   256
176
     0
 40
1.0
176
     0
 90
        2
176
     1
  1
strokes_ogs.tif
176
     1
290
     0
176
     1
 40
1.0
176
     1
 40
1.0
176
     1
  0
VISUALSTYLE
  5
39
102
{ACAD_REACTORS
330
29
102
}
330
29
100
AcDbVisualStyle
  2
ColorChange
 70
    16
177
     3
291
     1
 70
    58
 90
        2
176
     1
 90
        2
176
     1
 90
        3
176
     1
 90
        0
176
     1
 40
0.6
176
     1
 40
30.0
176
     1
 62
     8
420
  8421504
176
     1
 90
        1
176
     1
 90
        4
176
     1
 62
     7
176
     1
 62
   257
176
     1
 90
        1
176
     1
 90
        1
176
     1
 40
1.0
176
     1
 90
        8
176
     1
 62
     8
420
  8421504
176
     1
 40
1.0
176
     1
 90
        1
176
     1
 90
        6
176
     1
 90
        2
176
     1
 62
     7
176
     1
 90
        5
176
     1
 90
        0
176
     1
 90
        0
176
     1
290
     0
176
     1
 90
        1
176
     1
 40
0.0
176
     1
 90
        0
176
     1
290
     0
176
     1
290
     1
176
     1
290
     1
176
     1
290
     0
176
     1
290
     0
176
     1
290
     0
176
     1
290
     0
176
     1
290
     0
176
     1
290
     0
176
     1
 90
       50
176
     1
 40
0.0
176
     1
 40
1.0
176
     1
 90
        0
176
     1
 62
    18
420
        0
176
     1
 90
       50
176
     1
 90
        3
176
     1
 62
     5
420
      255
176
     1
290
     0
176
     1
 90
       50
176
     1
 90
       50
176
     1
 90
       50
176
     1
290
     0
176
     1
 90
       50
176
     1
 62
   256
176
     0
 40
1.0
176
     0
 90
        2
176
     1
  1
strokes_ogs.tif
176
     1
290
     0
176
     1
 40
1.0
176
     1
 40
1.0
176
     1
  0
VISUALSTYLE
  5
32
102
{ACAD_REACTORS
330
29
102
}
330
29
100
AcDbVisualStyle
  2
Conceptual
 70
     9
177
     3
291
     0
 70
    58
 90
        3
176
     1
 90
        2
176
     1
 90
        0
176
     1
 90
        0
176
     1
 40
0.6
176
     1
 40
30.0
176
     1
 62
     7
420
 16777215
176
     1
 90
        2
176
     1
 90
        2
176
     1
 62
     7
176
     1
 62
   257
176
     1
 90
        1
176
     1
 90
        1
176
     1
 40
179.0
176
     1
 90
        8
176
     1
 62
     7
176
     1
 40
1.0
176
     1
 90
        1
176
     1
 90
        6
176
     1
 90
        2
176
     1
 62
     7
176
     1
 90
        3
176
     1
 90
        0
176
     1
 90
        0
176
     1
290
     0
176
     1
 90
        1
176
     1
 40
0.0
176
     1
 90
        0
176
     1
290
     0
176
     1
290
     1
176
     1
290
     1
176
     1
290
     0
176
     1
290
     0
176
     1
290
     0
176
     1
290
     0
176
     1
290
     0
176
     1
290
     0
176
     1
 90
       50
176
     1
 40
0.0
176
     1
 40
1.0
176
     1
 90
        0
176
     1
 62
    18
420
        0
176
     1
 90
       50
176
     1
 90
        3
176
     1
 62
     5
420
      255
176
     1
290
     0
176
     1
 90
       50
176
     1
 90
       50
176
     1
 90
       50
176
     1
290
     0
176
     1
 90
       50
176
     1
 62
   256
176
     0
 40
1.0
176
     0
 90
        2
176
     1
  1
strokes_ogs.tif
176
     1
290
     0
176
     1
 40
1.0
176
     1
 40
1.0
176
     1
  0
VISUALSTYLE
  5
34
102
{ACAD_REACTORS
330
29
102
}
330
29
100
AcDbVisualStyle
  2
Dim
 70
    11
177
     3
291
     1
 70
    58
 90
        2
176
     1
 90
        2
176
     1
 90
        0
176
     1
 90
        0
176
     1
 40
0.6
176
     1
 40
30.0
176
     1
 62
     7
420
 16777215
176
     1
 90
        1
176
     1
 90
        4
176
     1
 62
     7
176
     1
 62
   257
176
     1
 90
        1
176
     1
 90
        1
176
     1
 40
1.0
176
     1
 90
        8
176
     1
 62
     7
176
     1
 40
1.0
176
     1
 90
        1
176
     1
 90
        6
176
     1
 90
        2
176
     1
 62
     7
176
     1
 90
        5
176
     1
 90
        0
176
     1
 90
        0
176
     1
290
     0
176
     1
 90
        1
176
     1
 40
-50.0
176
     1
 90
        0
176
     1
290
     0
176
     1
290
     1
176
     1
290
     1
176
     1
290
     0
176
     1
290
     0
176
     1
290
     0
176
     1
290
     0
176
     1
290
     0
176
     1
290
     0
176
     1
 90
       50
176
     1
 40
0.0
176
     1
 40
1.0
176
     1
 90
        0
176
     1
 62
    18
420
        0
176
     1
 90
       50
176
     1
 90
        3
176
     1
 62
     5
420
      255
176
     1
290
     0
176
     1
 90
       50
176
     1
 90
       50
176
     1
 90
       50
176
     1
290
     0
176
     1
 90
       50
176
     1
 62
   256
176
     0
 40
1.0
176
     0
 90
        2
176
     1
  1
strokes_ogs.tif
176
     1
290
     0
176
     1
 40
1.0
176
     1
 40
1.0
176
     1
  0
VISUALSTYLE
  5
41
102
{ACAD_REACTORS
330
29
102
}
330
29
100
AcDbVisualStyle
  2
EdgeColorOff
 70
    22
177
     3
291
     1
 70
    58
 90
        2
176
     0
 90
        2
176
     0
 90
        0
176
     0
 90
        0
176
     0
 40
0.6
176
     0
 40
30.0
176
     0
 62
     7
420
 16777215
176
     0
 90
        1
176
     0
 90
        4
176
     0
 62
     7
176
     0
 62
   257
176
     0
 90
        1
176
     0
 90
        1
176
     0
 40
1.0
176
     0
 90
        8
176
     2
 62
     7
176
     0
 40
1.0
176
     0
 90
        1
176
     0
 90
        6
176
     0
 90
        2
176
     0
 62
     7
176
     0
 90
        5
176
     0
 90
        0
176
     0
 90
        0
176
     0
290
     0
176
     0
 90
        1
176
     0
 40
0.0
176
     0
 90
        0
176
     0
290
     0
176
     0
290
     1
176
     0
290
     1
176
     0
290
     0
176
     0
290
     0
176
     0
290
     0
176
     0
290
     0
176
     0
290
     0
176
     0
290
     0
176
     0
 90
       50
176
     0
 40
0.0
176
     0
 40
1.0
176
     0
 90
        0
176
     0
 62
    18
420
        0
176
     0
 90
       50
176
     0
 90
        3
176
     0
 62
     5
420
      255
176
     0
290
     0
176
     0
 90
       50
176
     0
 90
       50
176
     0
 90
       50
176
     0
290
     0
176
     0
 90
       50
176
     0
 62
   256
176
     0
 40
1.0
176
     0
 90
        2
176
     0
  1
strokes_ogs.tif
176
     0
290
     0
176
     0
 40
1.0
176
     0
 40
1.0
176
     0
  0
VISUALSTYLE
  5
38
102
{ACAD_REACTORS
330
29
102
}
330
29
100
AcDbVisualStyle
  2
Facepattern
 70
    15
177
     3
291
     1
 70
    58
 90
        2
176
     1
 90
        2
176
     1
 90
        0
176
     1
 90
        0
176
     1
 40
0.6
176
     1
 40
30.0
176
     1
 62
     7
420
 16777215
176
     1
 90
        1
176
     1
 90
        4
176
     1
 62
     7
176
     1
 62
   257
176
     1
 90
        1
176
     1
 90
        1
176
     1
 40
1.0
176
     1
 90
        8
176
     1
 62
     7
176
     1
 40
1.0
176
     1
 90
        1
176
     1
 90
        6
176
     1
 90
        2
176
     1
 62
     7
176
     1
 90
        5
176
     1
 90
        0
176
     1
 90
        0
176
     1
290
     0
176
     1
 90
        1
176
     1
 40
0.0
176
     1
 90
        0
176
     1
290
     0
176
     1
290
     1
176
     1
290
     1
176
     1
290
     0
176
     1
290
     0
176
     1
290
     0
176
     1
290
     0
176
     1
290
     0
176
     1
290
     0
176
     1
 90
       50
176
     1
 40
0.0
176
     1
 40
1.0
176
     1
 90
        0
176
     1
 62
    18
420
        0
176
     1
 90
       50
176
     1
 90
        3
176
     1
 62
     5
420
      255
176
     1
290
     0
176
     1
 90
       50
176
     1
 90
       50
176
     1
 90
       50
176
     1
290
     0
176
     1
 90
       50
176
     1
 62
   256
176
     0
 40
1.0
176
     0
 90
        2
176
     1
  1
strokes_ogs.tif
176
     1
290
     0
176
     1
 40
1.0
176
     1
 40
1.0
176
     1
  0
VISUALSTYLE
  5
2A
102
{ACAD_REACTORS
330
29
102
}
330
29
100
AcDbVisualStyle
  2
Flat
 70
     0
177
     3
291
     1
 70
    58
 90
        2
176
     1
 90
        1
176
     1
 90
        1
176
     1
 90
        2
176
     1
 40
0.6
176
     1
 40
30.0
176
     1
 62
     7
420
 16777215
176
     1
 90
        0
176
     1
 90
        0
176
     1
 62
     7
176
     1
 62
   257
176
     1
 90
        1
176
     1
 90
        1
176
     1
 40
1.0
176
     1
 90
        8
176
     1
 62
     7
176
     1
 40
1.0
176
     1
 90
        1
176
     1
 90
        6
176
     1
 90
        2
176
     1
 62
     7
176
     1
 90
        5
176
     1
 90
        0
176
     1
 90
        0
176
     1
290
     0
176
     1
 90
       13
176
     1
 40
0.0
176
     1
 90
        0
176
     1
290
     0
176
     1
290
     1
176
     1
290
     1
176
     1
290
     0
176
     1
290
     0
176
     1
290
     0
176
     1
290
     0
176
     1
290
     0
176
     1
290
     0
176
     1
 90
       50
176
     1
 40
0.0
176
     1
 40
1.0
176
     1
 90
        0
176
     1
 62
    18
420
        0
176
     1
 90
       50
176
     1
 90
        3
176
     1
 62
     5
420
      255
176
     1
290
     0
176
     1
 90
       50
176
     1
 90
       50
176
     1
 90
       50
176
     1
290
     0
176
     1
 90
       50
176
     1
 62
   256
176
     0
 40
1.0
176
     0
 90
        2
176
     1
  1
strokes_ogs.tif
176
     1
290
     0
176
     1
 40
1.0
176
     1
 40
1.0
176
     1
  0
VISUALSTYLE
  5
2B
102
{ACAD_REACTORS
330
29
102
}
330
29
100
AcDbVisualStyle
  2
FlatWithEdges
 70
     1
177
     3
291
     1
 70
    58
 90
        2
176
     1
 90
        1
176
     1
 90
        1
176
     1
 90
        2
176
     1
 40
0.6
176
     1
 40
30.0
176
     1
 62
     7
420
 16777215
176
     1
 90
        1
176
     1
 90
        0
176
     1
 62
     7
176
     1
 62
   257
176
     1
 90
        1
176
     1
 90
        1
176
     1
 40
1.0
176
     1
 90
        0
176
     1
 62
   257
176
     1
 40
1.0
176
     1
 90
        1
176
     1
 90
        6
176
     1
 90
        2
176
     1
 62
     7
176
     1
 90
        5
176
     1
 90
        0
176
     1
 90
        0
176
     1
290
     0
176
     1
 90
       13
176
     1
 40
0.0
176
     1
 90
        0
176
     1
290
     0
176
     1
290
     1
176
     1
290
     1
176
     1
290
     0
176
     1
290
     0
176
     1
290
     0
176
     1
290
     0
176
     1
290
     0
176
     1
290
     0
176
     1
 90
       50
176
     1
 40
0.0
176
     1
 40
1.0
176
     1
 90
        0
176
     1
 62
    18
420
        0
176
     1
 90
       50
176
     1
 90
        3
176
     1
 62
     5
420
      255
176
     1
290
     0
176
     1
 90
       50
176
     1
 90
       50
176
     1
 90
       50
176
     1
290
     0
176
     1
 90
       50
176
     1
 62
   256
176
     0
 40
1.0
176
     0
 90
        2
176
     1
  1
strokes_ogs.tif
176
     1
290
     0
176
     1
 40
1.0
176
     1
 40
1.0
176
     1
  0
VISUALSTYLE
  5
2C
102
{ACAD_REACTORS
330
29
102
}
330
29
100
AcDbVisualStyle
  2
Gouraud
 70
     2
177
     3
291
     1
 70
    58
 90
        2
176
     1
 90
        2
176
     1
 90
        1
176
     1
 90
        2
176
     1
 40
0.6
176
     1
 40
30.0
176
     1
 62
     7
420
 16777215
176
     1
 90
        0
176
     1
 90
        0
176
     1
 62
     7
176
     1
 62
   257
176
     1
 90
        1
176
     1
 90
        1
176
     1
 40
1.0
176
     1
 90
        0
176
     1
 62
     7
176
     1
 40
1.0
176
     1
 90
        1
176
     1
 90
        6
176
     1
 90
        2
176
     1
 62
     7
176
     1
 90
        5
176
     1
 90
        0
176
     1
 90
        0
176
     1
290
     0
176
     1
 90
       13
176
     1
 40
0.0
176
     1
 90
        0
176
     1
290
     0
176
     1
290
     1
176
     1
290
     1
176
     1
290
     0
176
     1
290
     0
176
     1
290
     0
176
     1
290
     0
176
     1
290
     0
176
     1
290
     0
176
     1
 90
       50
176
     1
 40
0.0
176
     1
 40
1.0
176
     1
 90
        0
176
     1
 62
    18
420
        0
176
     1
 90
       50
176
     1
 90
        3
176
     1
 62
     5
420
      255
176
     1
290
     0
176
     1
 90
       50
176
     1
 90
       50
176
     1
 90
       50
176
     1
290
     0
176
     1
 90
       50
176
     1
 62
   256
176
     0
 40
1.0
176
     0
 90
        2
176
     1
  1
strokes_ogs.tif
176
     1
290
     0
176
     1
 40
1.0
176
     1
 40
1.0
176
     1
  0
VISUALSTYLE
  5
2D
102
{ACAD_REACTORS
330
29
102
}
330
29
100
AcDbVisualStyle
  2
GouraudWithEdges
 70
     3
177
     3
291
     1
 70
    58
 90
        2
176
     1
 90
        2
176
     1
 90
        1
176
     1
 90
        2
176
     1
 40
0.6
176
     1
 40
30.0
176
     1
 62
     7
420
 16777215
176
     1
 90
        1
176
     1
 90
        0
176
     1
 62
     7
176
     1
 62
   257
176
     1
 90
        1
176
     1
 90
        1
176
     1
 40
1.0
176
     1
 90
        0
176
     1
 62
   257
176
     1
 40
1.0
176
     1
 90
        1
176
     1
 90
        6
176
     1
 90
        2
176
     1
 62
     7
176
     1
 90
        5
176
     1
 90
        0
176
     1
 90
        0
176
     1
290
     0
176
     1
 90
       13
176
     1
 40
0.0
176
     1
 90
        0
176
     1
290
     0
176
     1
290
     1
176
     1
290
     1
176
     1
290
     0
176
     1
290
     0
176
     1
290
     0
176
     1
290
     0
176
     1
290
     0
176
     1
290
     0
176
     1
 90
       50
176
     1
 40
0.0
176
     1
 40
1.0
176
     1
 90
        0
176
     1
 62
    18
420
        0
176
     1
 90
       50
176
     1
 90
        3
176
     1
 62
     5
420
      255
176
     1
290
     0
176
     1
 90
       50
176
     1
 90
       50
176
     1
 90
       50
176
     1
290
     0
176
     1
 90
       50
176
     1
 62
   256
176
     0
 40
1.0
176
     0
 90
        2
176
     1
  1
strokes_ogs.tif
176
     1
290
     0
176
     1
 40
1.0
176
     1
 40
1.0
176
     1
  0
VISUALSTYLE
  5
31
102
{ACAD_REACTORS
330
29
102
}
330
29
100
AcDbVisualStyle
  2
Hidden
 70
     6
177
     3
291
     0
 70
    58
 90
        1
176
     1
 90
        2
176
     1
 90
        2
176
     1
 90
        0
176
     1
 40
0.6
176
     1
 40
30.0
176
     1
 62
     7
420
 16777215
176
     1
 90
        2
176
     1
 90
        2
176
     1
 62
     7
176
     1
 62
   257
176
     1
 90
        2
176
     1
 90
        1
176
     1
 40
40.0
176
     1
 90
        0
176
     1
 62
   257
176
     1
 40
1.0
176
     1
 90
        1
176
     1
 90
        6
176
     1
 90
        2
176
     1
 62
     7
176
     1
 90
        3
176
     1
 90
        0
176
     1
 90
        0
176
     1
290
     0
176
     1
 90
        1
176
     1
 40
0.0
176
     1
 90
        0
176
     1
290
     0
176
     1
290
     1
176
     1
290
     1
176
     1
290
     0
176
     1
290
     0
176
     1
290
     0
176
     1
290
     0
176
     1
290
     0
176
     1
290
     0
176
     1
 90
       50
176
     1
 40
0.0
176
     1
 40
1.0
176
     1
 90
        0
176
     1
 62
    18
420
        0
176
     1
 90
       50
176
     1
 90
        3
176
     1
 62
     5
420
      255
176
     1
290
     0
176
     1
 90
       50
176
     1
 90
       50
176
     1
 90
       50
176
     1
290
     0
176
     1
 90
       50
176
     1
 62
   256
176
     0
 40
1.0
176
     0
 90
        2
176
     1
  1
strokes_ogs.tif
176
     1
290
     0
176
     1
 40
1.0
176
     1
 40
1.0
176
     1
  0
VISUALSTYLE
  5
3F
102
{ACAD_REACTORS
330
29
102
}
330
29
100
AcDbVisualStyle
  2
JitterOff
 70
    20
177
     3
291
     1
 70
    58
 90
        2
176
     0
 90
        2
176
     0
 90
        0
176
     0
 90
        0
176
     0
 40
0.6
176
     0
 40
30.0
176
     0
 62
     7
420
 16777215
176
     0
 90
        1
176
     0
 90
        4
176
     0
 62
     7
176
     0
 62
   257
176
     0
 90
        1
176
     0
 90
        1
176
     0
 40
1.0
176
     0
 90
       10
176
     2
 62
     7
176
     0
 40
1.0
176
     0
 90
        1
176
     0
 90
        6
176
     0
 90
        2
176
     0
 62
     7
176
     0
 90
        5
176
     0
 90
        0
176
     0
 90
        0
176
     0
290
     0
176
     0
 90
        1
176
     0
 40
0.0
176
     0
 90
        0
176
     0
290
     0
176
     0
290
     1
176
     0
290
     1
176
     0
290
     0
176
     0
290
     0
176
     0
290
     0
176
     0
290
     0
176
     0
290
     0
176
     0
290
     0
176
     0
 90
       50
176
     0
 40
0.0
176
     0
 40
1.0
176
     0
 90
        0
176
     0
 62
    18
420
        0
176
     0
 90
       50
176
     0
 90
        3
176
     0
 62
     5
420
      255
176
     0
290
     0
176
     0
 90
       50
176
     0
 90
       50
176
     0
 90
       50
176
     0
290
     0
176
     0
 90
       50
176
     0
 62
   256
176
     0
 40
1.0
176
     0
 90
        2
176
     0
  1
strokes_ogs.tif
176
     0
290
     0
176
     0
 40
1.0
176
     0
 40
1.0
176
     0
  0
VISUALSTYLE
  5
37
102
{ACAD_REACTORS
330
29
102
}
330
29
100
AcDbVisualStyle
  2
Linepattern
 70
    14
177
     3
291
     1
 70
    58
 90
        2
176
     1
 90
        2
176
     1
 90
        0
176
     1
 90
        0
176
     1
 40
0.6
176
     1
 40
30.0
176
     1
 62
     7
420
 16777215
176
     1
 90
        1
176
     1
 90
        4
176
     1
 62
     7
176
     1
 62
   257
176
     1
 90
        7
176
     1
 90
        7
176
     1
 40
1.0
176
     1
 90
        8
176
     1
 62
     7
176
     1
 40
1.0
176
     1
 90
        1
176
     1
 90
        6
176
     1
 90
        2
176
     1
 62
     7
176
     1
 90
        5
176
     1
 90
        0
176
     1
 90
        0
176
     1
290
     0
176
     1
 90
        1
176
     1
 40
0.0
176
     1
 90
        0
176
     1
290
     0
176
     1
290
     1
176
     1
290
     1
176
     1
290
     0
176
     1
290
     0
176
     1
290
     0
176
     1
290
     0
176
     1
290
     0
176
     1
290
     0
176
     1
 90
       50
176
     1
 40
0.0
176
     1
 40
1.0
176
     1
 90
        0
176
     1
 62
    18
420
        0
176
     1
 90
       50
176
     1
 90
        3
176
     1
 62
     5
420
      255
176
     1
290
     0
176
     1
 90
       50
176
     1
 90
       50
176
     1
 90
       50
176
     1
290
     0
176
     1
 90
       50
176
     1
 62
   256
176
     0
 40
1.0
176
     0
 90
        2
176
     1
  1
strokes_ogs.tif
176
     1
290
     0
176
     1
 40
1.0
176
     1
 40
1.0
176
     1
  0
VISUALSTYLE
  5
40
102
{ACAD_REACTORS
330
29
102
}
330
29
100
AcDbVisualStyle
  2
OverhangOff
 70
    21
177
     3
291
     1
 70
    58
 90
        2
176
     0
 90
        2
176
     0
 90
        0
176
     0
 90
        0
176
     0
 40
0.6
176
     0
 40
30.0
176
     0
 62
     7
420
 16777215
176
     0
 90
        1
176
     0
 90
        4
176
     0
 62
     7
176
     0
 62
   257
176
     0
 90
        1
176
     0
 90
        1
176
     0
 40
1.0
176
     0
 90
        9
176
     2
 62
     7
176
     0
 40
1.0
176
     0
 90
        1
176
     0
 90
        6
176
     0
 90
        2
176
     0
 62
     7
176
     0
 90
        5
176
     0
 90
        0
176
     0
 90
        0
176
     0
290
     0
176
     0
 90
        1
176
     0
 40
0.0
176
     0
 90
        0
176
     0
290
     0
176
     0
290
     1
176
     0
290
     1
176
     0
290
     0
176
     0
290
     0
176
     0
290
     0
176
     0
290
     0
176
     0
290
     0
176
     0
290
     0
176
     0
 90
       50
176
     0
 40
0.0
176
     0
 40
1.0
176
     0
 90
        0
176
     0
 62
    18
420
        0
176
     0
 90
       50
176
     0
 90
        3
176
     0
 62
     5
420
      255
176
     0
290
     0
176
     0
 90
       50
176
     0
 90
       50
176
     0
 90
       50
176
     0
290
     0
176
     0
 90
       50
176
     0
 62
   256
176
     0
 40
1.0
176
     0
 90
        2
176
     0
  1
strokes_ogs.tif
176
     0
290
     0
176
     0
 40
1.0
176
     0
 40
1.0
176
     0
  0
VISUALSTYLE
  5
33
102
{ACAD_REACTORS
330
29
102
}
330
29
100
AcDbVisualStyle
  2
Realistic
 70
     8
177
     3
291
     0
 70
    58
 90
        2
176
     1
 90
        3
176
     1
 90
        0
176
     1
 90
        2
176
     1
 40
0.6
176
     1
 40
30.0
176
     1
 62
     7
420
 16777215
176
     1
 90
        0
176
     1
 90
        0
176
     1
 62
     7
176
     1
 62
   257
176
     1
 90
        1
176
     1
 90
        1
176
     1
 40
1.0
176
     1
 90
        8
176
     1
 62
   257
176
     1
 40
1.0
176
     1
 90
        1
176
     1
 90
        6
176
     1
 90
        2
176
     1
 62
     7
176
     1
 90
        3
176
     1
 90
        0
176
     1
 90
        0
176
     1
290
     0
176
     1
 90
       13
176
     1
 40
0.0
176
     1
 90
        0
176
     1
290
     0
176
     1
290
     1
176
     1
290
     1
176
     1
290
     0
176
     1
290
     0
176
     1
290
     0
176
     1
290
     0
176
     1
290
     0
176
     1
290
     0
176
     1
 90
       50
176
     1
 40
0.0
176
     1
 40
1.0
176
     1
 90
        0
176
     1
 62
    18
420
        0
176
     1
 90
       50
176
     1
 90
        3
176
     1
 62
     5
420
      255
176
     1
290
     0
176
     1
 90
       50
176
     1
 90
       50
176
     1
 90
       50
176
     1
290
     0
176
     1
 90
       50
176
     1
 62
   256
176
     0
 40
1.0
176
     0
 90
        2
176
     1
  1
strokes_ogs.tif
176
     1
290
     0
176
     1
 40
1.0
176
     1
 40
1.0
176
     1
  0
VISUALSTYLE
  5
3E
102
{ACAD_REACTORS
330
29
102
}
330
29
100
AcDbVisualStyle
  2
Shaded
 70
    27
177
     3
291
     0
 70
    58
 90
        2
176
     1
 90
        2
176
     1
 90
        1
176
     1
 90
        2
176
     1
 40
0.6
176
     1
 40
30.0
176
     1
 62
     7
420
 16777215
176
     1
 90
        0
176
     1
 90
        4
176
     1
 62
     7
176
     1
 62
   257
176
     1
 90
        1
176
     1
 90
        1
176
     1
 40
1.0
176
     1
 90
        8
176
     1
 62
   257
176
     1
 40
1.0
176
     1
 90
        1
176
     1
 90
        6
176
     1
 90
        2
176
     1
 62
     8
420
  7895160
176
     1
 90
        3
176
     1
 90
        0
176
     1
 90
        0
176
     1
290
     0
176
     1
 90
        5
176
     1
 40
0.0
176
     1
 90
        0
176
     1
290
     0
176
     1
290
     1
176
     1
290
     1
176
     1
290
     0
176
     1
290
     0
176
     1
290
     0
176
     1
290
     0
176
     1
290
     0
176
     1
290
     0
176
     1
 90
       50
176
     1
 40
0.0
176
     1
 40
1.0
176
     1
 90
        0
176
     1
 62
    18
420
        0
176
     1
 90
       50
176
     1
 90
        3
176
     1
 62
     5
420
      255
176
     1
290
     0
176
     1
 90
       50
176
     1
 90
       50
176
     1
 90
       50
176
     1
290
     0
176
     1
 90
       50
176
     1
 62
   256
176
     0
 40
1.0
176
     0
 90
        2
176
     1
  1
strokes_ogs.tif
176
     1
290
     0
176
     1
 40
1.0
176
     1
 40
1.0
176
     1
  0
VISUALSTYLE
  5
3D
102
{ACAD_REACTORS
330
29
102
}
330
29
100
AcDbVisualStyle
  2
Shaded with edges
 70
    26
177
     3
291
     0
 70
    58
 90
        2
176
     1
 90
        2
176
     1
 90
        1
176
     1
 90
        2
176
     1
 40
0.6
176
     1
 40
30.0
176
     1
 62
     7
420
 16777215
176
     1
 90
        1
176
     1
 90
        2
176
     1
 62
     7
176
     1
 62
   257
176
     1
 90
        2
176
     1
 90
        1
176
     1
 40
1.0
176
     1
 90
        8
176
     1
 62
   257
176
     1
 40
1.0
176
     1
 90
        1
176
     1
 90
        6
176
     1
 90
        2
176
     1
 62
     7
176
     1
 90
        3
176
     1
 90
        0
176
     1
 90
        0
176
     1
290
     0
176
     1
 90
        5
176
     1
 40
0.0
176
     1
 90
        0
176
     1
290
     0
176
     1
290
     1
176
     1
290
     1
176
     1
290
     0
176
     1
290
     0
176
     1
290
     0
176
     1
290
     0
176
     1
290
     0
176
     1
290
     0
176
     1
 90
       50
176
     1
 40
0.0
176
     1
 40
1.0
176
     1
 90
        0
176
     1
 62
    18
420
        0
176
     1
 90
       50
176
     1
 90
        3
176
     1
 62
     5
420
      255
176
     1
290
     0
176
     1
 90
       50
176
     1
 90
       50
176
     1
 90
       50
176
     1
290
     0
176
     1
 90
       50
176
     1
 62
   256
176
     0
 40
1.0
176
     0
 90
        2
176
     1
  1
strokes_ogs.tif
176
     1
290
     0
176
     1
 40
1.0
176
     1
 40
1.0
176
     1
  0
VISUALSTYLE
  5
3A
102
{ACAD_REACTORS
330
29
102
}
330
29
100
AcDbVisualStyle
  2
Shades of Gray
 70
    23
177
     3
291
     0
 70
    58
 90
        2
176
     1
 90
        2
176
     1
 90
        3
176
     1
 90
        0
176
     1
 40
0.6
176
     1
 40
30.0
176
     1
 62
     7
420
 16777215
176
     1
 90
        2
176
     1
 90
        2
176
     1
 62
     7
176
     1
 62
     7
176
     1
 90
        1
176
     1
 90
        1
176
     1
 40
40.0
176
     1
 90
        8
176
     1
 62
     7
176
     1
 40
1.0
176
     1
 90
        1
176
     1
 90
        6
176
     1
 90
        2
176
     1
 62
     7
176
     1
 90
        3
176
     1
 90
        0
176
     1
 90
        0
176
     1
290
     0
176
     1
 90
        1
176
     1
 40
0.0
176
     1
 90
        0
176
     1
290
     0
176
     1
290
     1
176
     1
290
     1
176
     1
290
     0
176
     1
290
     0
176
     1
290
     0
176
     1
290
     0
176
     1
290
     0
176
     1
290
     0
176
     1
 90
       50
176
     1
 40
0.0
176
     1
 40
1.0
176
     1
 90
        0
176
     1
 62
    18
420
        0
176
     1
 90
       50
176
     1
 90
        3
176
     1
 62
     5
420
      255
176
     1
290
     0
176
     1
 90
       50
176
     1
 90
       50
176
     1
 90
       50
176
     1
290
     0
176
     1
 90
       50
176
     1
 62
   256
176
     0
 40
1.0
176
     0
 90
        2
176
     1
  1
strokes_ogs.tif
176
     1
290
     0
176
     1
 40
1.0
176
     1
 40
1.0
176
     1
  0
VISUALSTYLE
  5
3B
102
{ACAD_REACTORS
330
29
102
}
330
29
100
AcDbVisualStyle
  2
Sketchy
 70
    24
177
     3
291
     0
 70
    58
 90
        1
176
     1
 90
        2
176
     1
 90
        2
176
     1
 90
        0
176
     1
 40
0.6
176
     1
 40
30.0
176
     1
 62
     7
420
 16777215
176
     1
 90
        2
176
     1
 90
        2
176
     1
 62
     7
176
     1
 62
     7
176
     1
 90
        1
176
     1
 90
        1
176
     1
 40
40.0
176
     1
 90
       11
176
     1
 62
     7
176
     1
 40
1.0
176
     1
 90
        1
176
     1
 90
        6
176
     1
 90
        2
176
     1
 62
     7
176
     1
 90
        6
176
     1
 90
        0
176
     1
 90
        0
176
     1
290
     0
176
     1
 90
        1
176
     1
 40
0.0
176
     1
 90
        0
176
     1
290
     0
176
     1
290
     1
176
     1
290
     1
176
     1
290
     0
176
     1
290
     0
176
     1
290
     0
176
     1
290
     0
176
     1
290
     0
176
     1
290
     0
176
     1
 90
       50
176
     1
 40
0.0
176
     1
 40
1.0
176
     1
 90
        0
176
     1
 62
    18
420
        0
176
     1
 90
       50
176
     1
 90
        3
176
     1
 62
     5
420
      255
176
     1
290
     0
176
     1
 90
       50
176
     1
 90
       50
176
     1
 90
       50
176
     1
290
     0
176
     1
 90
       50
176
     1
 62
   256
176
     0
 40
1.0
176
     0
 90
        2
176
     1
  1
strokes_ogs.tif
176
     1
290
     0
176
     1
 40
1.0
176
     1
 40
1.0
176
     1
  0
VISUALSTYLE
  5
36
102
{ACAD_REACTORS
330
29
102
}
330
29
100
AcDbVisualStyle
  2
Thicken
 70
    13
177
     3
291
     1
 70
    58
 90
        2
176
     1
 90
        2
176
     1
 90
        0
176
     1
 90
        0
176
     1
 40
0.6
176
     1
 40
30.0
176
     1
 62
     7
420
 16777215
176
     1
 90
        1
176
     1
 90
        4
176
     1
 62
     7
176
     1
 62
   257
176
     1
 90
        1
176
     1
 90
        1
176
     1
 40
1.0
176
     1
 90
       12
176
     1
 62
     7
176
     1
 40
1.0
176
     1
 90
        1
176
     1
 90
        6
176
     1
 90
        2
176
     1
 62
     7
176
     1
 90
        5
176
     1
 90
        0
176
     1
 90
        0
176
     1
290
     0
176
     1
 90
        1
176
     1
 40
0.0
176
     1
 90
        0
176
     1
290
     0
176
     1
290
     1
176
     1
290
     1
176
     1
290
     0
176
     1
290
     0
176
     1
290
     0
176
     1
290
     0
176
     1
290
     0
176
     1
290
     0
176
     1
 90
       50
176
     1
 40
0.0
176
     1
 40
1.0
176
     1
 90
        0
176
     1
 62
    18
420
        0
176
     1
 90
       50
176
     1
 90
        3
176
     1
 62
     5
420
      255
176
     1
290
     0
176
     1
 90
       50
176
     1
 90
       50
176
     1
 90
       50
176
     1
290
     0
176
     1
 90
       50
176
     1
 62
   256
176
     0
 40
1.0
176
     0
 90
        2
176
     1
  1
strokes_ogs.tif
176
     1
290
     0
176
     1
 40
1.0
176
     1
 40
1.0
176
     1
  0
VISUALSTYLE
  5
30
102
{ACAD_REACTORS
330
29
102
}
330
29
100
AcDbVisualStyle
  2
Wireframe
 70
     5
177
     3
291
     0
 70
    58
 90
        0
176
     1
 90
        2
176
     1
 90
        0
176
     1
 90
        0
176
     1
 40
0.6
176
     1
 40
30.0
176
     1
 62
     7
420
 16777215
176
     1
 90
        1
176
     1
 90
        4
176
     1
 62
     7
176
     1
 62
   257
176
     1
 90
        1
176
     1
 90
        1
176
     1
 40
1.0
176
     1
 90
        0
176
     1
 62
   257
176
     1
 40
1.0
176
     1
 90
        1
176
     1
 90
        6
176
     1
 90
        2
176
     1
 62
     7
176
     1
 90
        3
176
     1
 90
        0
176
     1
 90
        0
176
     1
290
     0
176
     1
 90
        1
176
     1
 40
0.0
176
     1
 90
        0
176
     1
290
     0
176
     1
290
     1
176
     1
290
     1
176
     1
290
     0
176
     1
290
     0
176
     1
290
     0
176
     1
290
     0
176
     1
290
     0
176
     1
290
     0
176
     1
 90
       50
176
     1
 40
0.0
176
     1
 40
1.0
176
     1
 90
        0
176
     1
 62
    18
420
        0
176
     1
 90
       50
176
     1
 90
        3
176
     1
 62
     5
420
      255
176
     1
290
     0
176
     1
 90
       50
176
     1
 90
       50
176
     1
 90
       50
176
     1
290
     0
176
     1
 90
       50
176
     1
 62
   256
176
     0
 40
1.0
176
     0
 90
        2
176
     1
  1
strokes_ogs.tif
176
     1
290
     0
176
     1
 40
1.0
176
     1
 40
1.0
176
     1
  0
VISUALSTYLE
  5
3C
102
{ACAD_REACTORS
330
29
102
}
330
29
100
AcDbVisualStyle
  2
X-Ray
 70
    25
177
     3
291
     0
 70
    58
 90
        2
176
     1
 90
        2
176
     1
 90
        1
176
     1
 90
        1
176
     1
 40
0.5
176
     1
 40
30.0
176
     1
 62
     7
420
 16777215
176
     1
 90
        1
176
     1
 90
        0
176
     1
 62
     7
176
     1
 62
   257
176
     1
 90
        1
176
     1
 90
        1
176
     1
 40
1.0
176
     1
 90
        8
176
     1
 62
     7
176
     1
 40
1.0
176
     1
 90
        1
176
     1
 90
        6
176
     1
 90
        2
176
     1
 62
     7
176
     1
 90
        3
176
     1
 90
        0
176
     1
 90
        0
176
     1
290
     0
176
     1
 90
       13
176
     1
 40
0.0
176
     1
 90
        0
176
     1
290
     0
176
     1
290
     1
176
     1
290
     1
176
     1
290
     0
176
     1
290
     0
176
     1
290
     0
176
     1
290
     0
176
     1
290
     0
176
     1
290
     0
176
     1
 90
       50
176
     1
 40
0.0
176
     1
 40
1.0
176
     1
 90
        0
176
     1
 62
    18
420
        0
176
     1
 90
       50
176
     1
 90
        3
176
     1
 62
     5
420
      255
176
     1
290
     0
176
     1
 90
       50
176
     1
 90
       50
176
     1
 90
       50
176
     1
290
     0
176
     1
 90
       50
176
     1
 62
   256
176
     0
 40
1.0
176
     0
 90
        2
176
     1
  1
strokes_ogs.tif
176
     1
290
     0
176
     1
 40
1.0
176
     1
 40
1.0
176
     1
  0
DICTIONARYVAR
  5
35A
102
{ACAD_REACTORS
330
355
102
}
330
355
100
DictionaryVariables
280
     0
  1
1:1
  0
DICTIONARYVAR
  5
357
102
{ACAD_REACTORS
330
355
102
}
330
355
100
DictionaryVariables
280
     0
  1
STANDARD
  0
DICTIONARYVAR
  5
356
102
{ACAD_REACTORS
330
355
102
}
330
355
100
DictionaryVariables
280
     0
  1
STANDARD
  0
DICTIONARYVAR
  5
358
102
{ACAD_REACTORS
330
355
102
}
330
355
100
DictionaryVariables
280
     0
  1
Imperial24
  0
DICTIONARYVAR
  5
359
102
{ACAD_REACTORS
330
355
102
}
330
355
100
DictionaryVariables
280
     0
  1
Imperial24
  0
DICTIONARY
  5
1A
330
19
100
AcDbDictionary
280
     1
281
     1
  3
BUMPTILE
360
1C
  3
DIFFUSETILE
360
1B
  3
OPACITYTILE
360
1F
  3
REFLECTIONTILE
360
1E
  3
REFRACTIONTILE
360
20
  3
SPECULARTILE
360
1D
  0
DICTIONARY
  5
12
330
11
100
AcDbDictionary
280
     1
281
     1
  3
BUMPTILE
360
14
  3
DIFFUSETILE
360
13
  3
OPACITYTILE
360
17
  3
REFLECTIONTILE
360
16
  3
REFRACTIONTILE
360
18
  3
SPECULARTILE
360
15
  0
DICTIONARY
  5
22
330
21
100
AcDbDictionary
280
     1
281
     1
  3
BUMPTILE
360
24
  3
DIFFUSETILE
360
23
  3
OPACITYTILE
360
27
  3
REFLECTIONTILE
360
26
  3
REFRACTIONTILE
360
28
  3
SPECULARTILE
360
25
  0
DICTIONARY
  5
35B
330
65
100
AcDbDictionary
280
     1
281
     1
  3
ACAD_ROUNDTRIP_2008_TABLESTYLE_CELLSTYLEMAP
360
35C
  0
XRECORD
  5
1C
102
{ACAD_REACTORS
330
1A
102
}
330
1A
100
AcDbXrecord
280
     1
270
     1
271
     1
  0
XRECORD
  5
1B
102
{ACAD_REACTORS
330
1A
102
}
330
1A
100
AcDbXrecord
280
     1
270
     1
271
     1
  0
XRECORD
  5
1F
102
{ACAD_REACTORS
330
1A
102
}
330
1A
100
AcDbXrecord
280
     1
270
     1
271
     1
  0
XRECORD
  5
1E
102
{ACAD_REACTORS
330
1A
102
}
330
1A
100
AcDbXrecord
280
     1
270
     1
271
     1
  0
XRECORD
  5
20
102
{ACAD_REACTORS
330
1A
102
}
330
1A
100
AcDbXrecord
280
     1
270
     1
271
     1
  0
XRECORD
  5
1D
102
{ACAD_REACTORS
330
1A
102
}
330
1A
100
AcDbXrecord
280
     1
270
     1
271
     1
  0
XRECORD
  5
14
102
{ACAD_REACTORS
330
12
102
}
330
12
100
AcDbXrecord
280
     1
270
     1
271
     1
  0
XRECORD
  5
13
102
{ACAD_REACTORS
330
12
102
}
330
12
100
AcDbXrecord
280
     1
270
     1
271
     1
  0
XRECORD
  5
17
102
{ACAD_REACTORS
330
12
102
}
330
12
100
AcDbXrecord
280
     1
270
     1
271
     1
  0
XRECORD
  5
16
102
{ACAD_REACTORS
330
12
102
}
330
12
100
AcDbXrecord
280
     1
270
     1
271
     1
  0
XRECORD
  5
18
102
{ACAD_REACTORS
330
12
102
}
330
12
100
AcDbXrecord
280
     1
270
     1
271
     1
  0
XRECORD
  5
15
102
{ACAD_REACTORS
330
12
102
}
330
12
100
AcDbXrecord
280
     1
270
     1
271
     1
  0
XRECORD
  5
24
102
{ACAD_REACTORS
330
22
102
}
330
22
100
AcDbXrecord
280
     1
270
     1
271
     1
  0
XRECORD
  5
23
102
{ACAD_REACTORS
330
22
102
}
330
22
100
AcDbXrecord
280
     1
270
     1
271
     1
  0
XRECORD
  5
27
102
{ACAD_REACTORS
330
22
102
}
330
22
100
AcDbXrecord
280
     1
270
     1
271
     1
  0
XRECORD
  5
26
102
{ACAD_REACTORS
330
22
102
}
330
22
100
AcDbXrecord
280
     1
270
     1
271
     1
  0
XRECORD
  5
28
102
{ACAD_REACTORS
330
22
102
}
330
22
100
AcDbXrecord
280
     1
270
     1
271
     1
  0
XRECORD
  5
25
102
{ACAD_REACTORS
330
22
102
}
330
22
100
AcDbXrecord
280
     1
270
     1
271
     1
  0
CELLSTYLEMAP
  5
35C
102
{ACAD_REACTORS
330
35B
102
}
330
35B
100
AcDbCellStyleMap
 90
        3
300
CELLSTYLE
  1
TABLEFORMAT_BEGIN
 90
        5
170
     1
 91
        0
 92
    32768
 62
   257
 93
        1
300
CONTENTFORMAT
  1
CONTENTFORMAT_BEGIN
 90
        0
 91
        0
 92
      512
 93
        0
300

 40
0.0
140
1.0
 94
        5
 62
     0
340
55
144
0.25
309
CONTENTFORMAT_END
171
     0
 94
        0
309
TABLEFORMAT_END
  1
CELLSTYLE_BEGIN
 90
        1
 91
        1
300
_TITLE
309
CELLSTYLE_END
300
CELLSTYLE
  1
TABLEFORMAT_BEGIN
 90
        5
170
     1
 91
        0
 92
        0
 62
   257
 93
        1
300
CONTENTFORMAT
  1
CONTENTFORMAT_BEGIN
 90
        0
 91
        0
 92
      512
 93
        0
300

 40
0.0
140
1.0
 94
        5
 62
     0
340
55
144
0.18
309
CONTENTFORMAT_END
171
     0
 94
        0
309
TABLEFORMAT_END
  1
CELLSTYLE_BEGIN
 90
        2
 91
        1
300
_HEADER
309
CELLSTYLE_END
300
CELLSTYLE
  1
TABLEFORMAT_BEGIN
 90
        5
170
     1
 91
        0
 92
        0
 62
   257
 93
        1
300
CONTENTFORMAT
  1
CONTENTFORMAT_BEGIN
 90
        0
 91
        0
 92
      512
 93
        0
300

 40
0.0
140
1.0
 94
        2
 62
     0
340
55
144
0.18
309
CONTENTFORMAT_END
171
     0
 94
        0
309
TABLEFORMAT_END
  1
CELLSTYLE_BEGIN
 90
        3
 91
        2
300
_DATA
309
CELLSTYLE_END
  0
ENDSEC
  0
EOF
