  0
SECTION
  2
HEADER
  9
$ACADVER
  1
AC1032
  9
$ACADMAINTVER
 90
      251
  9
$DWGCODEPAGE
  3
ANSI_1252
  9
$REQUIREDVERSIONS
160
                 0
  9
$INSBASE
 10
0.0
 20
0.0
 30
0.0
  9
$EXTMIN
 10
1.000000000000000E+20
 20
1.000000000000000E+20
 30
1.000000000000000E+20
  9
$EXTMAX
 10
-1.000000000000000E+20
 20
-1.000000000000000E+20
 30
-1.000000000000000E+20
  9
$LIMMIN
 10
0.0
 20
0.0
  9
$LIMMAX
 10
12.0
 20
9.0
  9
$ORTHOMODE
 70
     0
  9
$REGENMODE
 70
     1
  9
$FILLMODE
 70
     1
  9
$QTEXTMODE
 70
     0
  9
$MIRRTEXT
 70
     0
  9
$LTSCALE
 40
1.0
  9
$ATTMODE
 70
     1
  9
$TEXTSIZE
 40
0.2
  9
$TRACEWID
 40
0.05
  9
$TEXTSTYLE
  7
Standard
  9
$CLAYER
  8
0
  9
$CELTYPE
  6
ByLayer
  9
$CECOLOR
 62
   256
  9
$CELTSCALE
 40
1.0
  9
$DISPSILH
 70
     0
  9
$DIMSCALE
 40
1.0
  9
$DIMASZ
 40
0.18
  9
$DIMEXO
 40
0.0625
  9
$DIMDLI
 40
0.38
  9
$DIMRND
 40
0.0
  9
$DIMDLE
 40
0.0
  9
$DIMEXE
 40
0.18
  9
$DIMTP
 40
0.0
  9
$DIMTM
 40
0.0
  9
$DIMTXT
 40
0.18
  9
$DIMCEN
 40
0.09
  9
$DIMTSZ
 40
0.0
  9
$DIMTOL
 70
     0
  9
$DIMLIM
 70
     0
  9
$DIMTIH
 70
     1
  9
$DIMTOH
 70
     1
  9
$DIMSE1
 70
     0
  9
$DIMSE2
 70
     0
  9
$DIMTAD
 70
     0
  9
$DIMZIN
 70
     0
  9
$DIMBLK
  1

  9
$DIMASO
 70
     1
  9
$DIMSHO
 70
     1
  9
$DIMPOST
  1

  9
$DIMAPOST
  1

  9
$DIMALT
 70
     0
  9
$DIMALTD
 70
     2
  9
$DIMALTF
 40
25.4
  9
$DIMLFAC
 40
1.0
  9
$DIMTOFL
 70
     0
  9
$DIMTVP
 40
0.0
  9
$DIMTIX
 70
     0
  9
$DIMSOXD
 70
     0
  9
$DIMSAH
 70
     0
  9
$DIMBLK1
  1

  9
$DIMBLK2
  1

  9
$DIMSTYLE
  2
Standard
  9
$DIMCLRD
 70
     0
  9
$DIMCLRE
 70
     0
  9
$DIMCLRT
 70
     0
  9
$DIMTFAC
 40
1.0
  9
$DIMGAP
 40
0.09
  9
$DIMJUST
 70
     0
  9
$DIMSD1
 70
     0
  9
$DIMSD2
 70
     0
  9
$DIMTOLJ
 70
     1
  9
$DIMTZIN
 70
     0
  9
$DIMALTZ
 70
     0
  9
$DIMALTTZ
 70
     0
  9
$DIMUPT
 70
     0
  9
$DIMDEC
 70
     4
  9
$DIMTDEC
 70
     4
  9
$DIMALTU
 70
     2
  9
$DIMALTTD
 70
     2
  9
$DIMTXSTY
  7
Standard
  9
$DIMAUNIT
 70
     0
  9
$DIMADEC
 70
     0
  9
$DIMALTRND
 40
0.0
  9
$DIMAZIN
 70
     0
  9
$DIMDSEP
 70
    46
  9
$DIMATFIT
 70
     3
  9
$DIMFRAC
 70
     0
  9
$DIMLDRBLK
  1

  9
$DIMLUNIT
 70
     2
  9
$DIMLWD
 70
    -2
  9
$DIMLWE
 70
    -2
  9
$DIMTMOVE
 70
     0
  9
$DIMFXL
 40
1.0
  9
$DIMFXLON
 70
     0
  9
$DIMJOGANG
 40
0.7853981633974483
  9
$DIMTFILL
 70
     0
  9
$DIMTFILLCLR
 70
     0
  9
$DIMARCSYM
 70
     0
  9
$DIMLTYPE
  6

  9
$DIMLTEX1
  6

  9
$DIMLTEX2
  6

  9
$DIMTXTDIRECTION
 70
     0
  9
$LUNITS
 70
     2
  9
$LUPREC
 70
     4
  9
$SKETCHINC
 40
0.1
  9
$FILLETRAD
 40
0.0
  9
$AUNITS
 70
     0
  9
$AUPREC
 70
     0
  9
$MENU
  1
.
  9
$ELEVATION
 40
0.0
  9
$PELEVATION
 40
0.0
  9
$THICKNESS
 40
0.0
  9
$LIMCHECK
 70
     0
  9
$CHAMFERA
 40
0.0
  9
$CHAMFERB
 40
0.0
  9
$CHAMFERC
 40
0.0
  9
$CHAMFERD
 40
0.0
  9
$SKPOLY
 70
     0
  9
$TDCREATE
 40
2459963.396064815
  9
$TDUCREATE
 40
2459963.354398148
  9
$TDUPDATE
 40
2459963.396064815
  9
$TDUUPDATE
 40
2459963.354398148
  9
$TDINDWG
 40
0.0000000000
  9
$TDUSRTIMER
 40
0.0000000000
  9
$USRTIMER
 70
     1
  9
$ANGBASE
 50
0.0
  9
$ANGDIR
 70
     0
  9
$PDMODE
 70
     0
  9
$PDSIZE
 40
0.0
  9
$PLINEWID
 40
0.0
  9
$SPLFRAME
 70
     0
  9
$SPLINETYPE
 70
     6
  9
$SPLINESEGS
 70
     8
  9
$HANDSEED
  5
2CE
  9
$SURFTAB1
 70
     6
  9
$SURFTAB2
 70
     6
  9
$SURFTYPE
 70
     6
  9
$SURFU
 70
     6
  9
$SURFV
 70
     6
  9
$UCSBASE
  2

  9
$UCSNAME
  2

  9
$UCSORG
 10
0.0
 20
0.0
 30
0.0
  9
$UCSXDIR
 10
1.0
 20
0.0
 30
0.0
  9
$UCSYDIR
 10
0.0
 20
1.0
 30
0.0
  9
$UCSORTHOREF
  2

  9
$UCSORTHOVIEW
 70
     0
  9
$UCSORGTOP
 10
0.0
 20
0.0
 30
0.0
  9
$UCSORGBOTTOM
 10
0.0
 20
0.0
 30
0.0
  9
$UCSORGLEFT
 10
0.0
 20
0.0
 30
0.0
  9
$UCSORGRIGHT
 10
0.0
 20
0.0
 30
0.0
  9
$UCSORGFRONT
 10
0.0
 20
0.0
 30
0.0
  9
$UCSORGBACK
 10
0.0
 20
0.0
 30
0.0
  9
$PUCSBASE
  2

  9
$PUCSNAME
  2

  9
$PUCSORG
 10
0.0
 20
0.0
 30
0.0
  9
$PUCSXDIR
 10
1.0
 20
0.0
 30
0.0
  9
$PUCSYDIR
 10
0.0
 20
1.0
 30
0.0
  9
$PUCSORTHOREF
  2

  9
$PUCSORTHOVIEW
 70
     0
  9
$PUCSORGTOP
 10
0.0
 20
0.0
 30
0.0
  9
$PUCSORGBOTTOM
 10
0.0
 20
0.0
 30
0.0
  9
$PUCSORGLEFT
 10
0.0
 20
0.0
 30
0.0
  9
$PUCSORGRIGHT
 10
0.0
 20
0.0
 30
0.0
  9
$PUCSORGFRONT
 10
0.0
 20
0.0
 30
0.0
  9
$PUCSORGBACK
 10
0.0
 20
0.0
 30
0.0
  9
$USERI1
 70
     0
  9
$USERI2
 70
     0
  9
$USERI3
 70
     0
  9
$USERI4
 70
     0
  9
$USERI5
 70
     0
  9
$USERR1
 40
0.0
  9
$USERR2
 40
0.0
  9
$USERR3
 40
0.0
  9
$USERR4
 40
0.0
  9
$USERR5
 40
0.0
  9
$WORLDVIEW
 70
     1
  9
$SHADEDGE
 70
     3
  9
$SHADEDIF
 70
    70
  9
$TILEMODE
 70
     1
  9
$MAXACTVP
 70
    64
  9
$PINSBASE
 10
0.0
 20
0.0
 30
0.0
  9
$PLIMCHECK
 70
     0
  9
$PEXTMIN
 10
1.000000000000000E+20
 20
1.000000000000000E+20
 30
1.000000000000000E+20
  9
$PEXTMAX
 10
-1.000000000000000E+20
 20
-1.000000000000000E+20
 30
-1.000000000000000E+20
  9
$PLIMMIN
 10
0.0
 20
0.0
  9
$PLIMMAX
 10
12.0
 20
9.0
  9
$UNITMODE
 70
     0
  9
$VISRETAIN
 70
     1
  9
$PLINEGEN
 70
     0
  9
$PSLTSCALE
 70
     1
  9
$TREEDEPTH
 70
  3020
  9
$CMLSTYLE
  2
Standard
  9
$CMLJUST
 70
     0
  9
$CMLSCALE
 40
1.0
  9
$PROXYGRAPHICS
 70
     1
  9
$MEASUREMENT
 70
     0
  9
$CELWEIGHT
370
    -1
  9
$ENDCAPS
280
     0
  9
$JOINSTYLE
280
     0
  9
$LWDISPLAY
290
     1
  9
$INSUNITS
 70
     4
  9
$HYPERLINKBASE
  1

  9
$STYLESHEET
  1

  9
$XEDIT
290
     1
  9
$CEPSNTYPE
380
     0
  9
$PSTYLEMODE
290
     1
  9
$FINGERPRINTGUID
  2
{32CF758B-5A36-CE4F-97EA-C6A4A22FA288}
  9
$VERSIONGUID
  2
{E1981D47-2B7C-B244-AB2F-DDE90F5DAAD6}
  9
$EXTNAMES
290
     1
  9
$PSVPSCALE
 40
0.0
  9
$OLESTARTUP
290
     0
  9
$SORTENTS
280
   127
  9
$INDEXCTL
280
     0
  9
$HIDETEXT
280
     1
  9
$XCLIPFRAME
280
     2
  9
$HALOGAP
280
     0
  9
$OBSCOLOR
 70
   257
  9
$OBSLTYPE
280
     0
  9
$INTERSECTIONDISPLAY
280
     0
  9
$INTERSECTIONCOLOR
 70
   257
  9
$DIMASSOC
280
     2
  9
$PROJECTNAME
  1

  9
$CAMERADISPLAY
290
     0
  9
$LENSLENGTH
 40
50.0
  9
$CAMERAHEIGHT
 40
0.0
  9
$STEPSPERSEC
 40
2.0
  9
$STEPSIZE
 40
6.0
  9
$3DDWFPREC
 40
2.0
  9
$PSOLWIDTH
 40
0.25
  9
$PSOLHEIGHT
 40
4.0
  9
$LOFTANG1
 40
1.570796326794896
  9
$LOFTANG2
 40
1.570796326794896
  9
$LOFTMAG1
 40
0.0
  9
$LOFTMAG2
 40
0.0
  9
$LOFTPARAM
 70
     7
  9
$LOFTNORMALS
280
     1
  9
$LATITUDE
 40
37.795
  9
$LONGITUDE
 40
-122.394
  9
$NORTHDIRECTION
 40
0.0
  9
$TIMEZONE
 70
 -8000
  9
$LIGHTGLYPHDISPLAY
280
     1
  9
$TILEMODELIGHTSYNCH
280
     1
  9
$CMATERIAL
347
11
  9
$SOLIDHIST
280
     0
  9
$SHOWHIST
280
     1
  9
$DWFFRAME
280
     2
  9
$DGNFRAME
280
     0
  9
$REALWORLDSCALE
290
     1
  9
$INTERFERECOLOR
 62
     1
  9
$INTERFEREOBJVS
345
33
  9
$INTERFEREVPVS
346
30
  9
$CSHADOW
280
     0
  9
$SHADOWPLANELOCATION
 40
0.0
  0
ENDSEC
  0
SECTION
  2
CLASSES
  0
CLASS
  1
ACDBDICTIONARYWDFLT
  2
AcDbDictionaryWithDefault
  3
ObjectDBX Classes
 90
        0
 91
        1
280
     0
281
     0
  0
CLASS
  1
MATERIAL
  2
AcDbMaterial
  3
ObjectDBX Classes
 90
     1153
 91
        3
280
     0
281
     0
  0
CLASS
  1
VISUALSTYLE
  2
AcDbVisualStyle
  3
ObjectDBX Classes
 90
     4095
 91
       24
280
     0
281
     0
  0
CLASS
  1
SCALE
  2
AcDbScale
  3
ObjectDBX Classes
 90
     1153
 91
       17
280
     0
281
     0
  0
CLASS
  1
TABLESTYLE
  2
AcDbTableStyle
  3
ObjectDBX Classes
 90
     4095
 91
        1
280
     0
281
     0
  0
CLASS
  1
MLEADERSTYLE
  2
AcDbMLeaderStyle
  3
ACDB_MLEADERSTYLE_CLASS
 90
     4095
 91
        1
280
     0
281
     0
  0
CLASS
  1
ACDBSECTIONVIEWSTYLE
  2
AcDbSectionViewStyle
  3
ObjectDBX Classes
 90
     1025
 91
        1
280
     0
281
     0
  0
CLASS
  1
ACDBDETAILVIEWSTYLE
  2
AcDbDetailViewStyle
  3
ObjectDBX Classes
 90
     1025
 91
        1
280
     0
281
     0
  0
CLASS
  1
DICTIONARYVAR
  2
AcDbDictionaryVar
  3
ObjectDBX Classes
 90
        0
 91
        5
280
     0
281
     0
  0
CLASS
  1
CELLSTYLEMAP
  2
AcDbCellStyleMap
  3
ObjectDBX Classes
 90
     1152
 91
        1
280
     0
281
     0
  0
ENDSEC
  0
SECTION
  2
TABLES
  0
TABLE
  2
VPORT
  5
8
330
0
100
AcDbSymbolTable
 70
     1
  0
VPORT
  5
57
330
8
100
AcDbSymbolTableRecord
100
AcDbViewportTableRecord
  2
*Active
 70
     0
 10
0.0
 20
0.0
 11
1.0
 21
1.0
 12
0.0
 22
0.0
 13
0.0
 23
0.0
 14
1.0
 24
1.0
 15
0.0
 25
0.0
 16
0.0
 26
0.0
 36
1.0
 17
105.0000721959721
 27
148.5000416295418
 37
0.0
 40
89.75999997755987
 41
1.0
 42
50.0
 43
0.0
 44
0.0
 50
0.0
 51
0.0
 71
     0
 72
   100
 73
     1
 74
     1
 75
     0
 76
     0
 77
     0
 78
     0
281
     0
 65
     1
110
0.0
120
0.0
130
0.0
111
1.0
121
0.0
131
0.0
112
0.0
122
1.0
132
0.0
 79
     0
146
0.0
 60
     3
 61
     5
292
     1
282
     1
141
0.0
142
0.0
 63
   250
421
  3355443
  0
ENDTAB
  0
TABLE
  2
LTYPE
  5
5
330
0
100
AcDbSymbolTable
 70
     3
  0
LTYPE
  5
5B
330
5
100
AcDbSymbolTableRecord
100
AcDbLinetypeTableRecord
  2
ByBlock
 70
     0
  3

 72
    65
 73
     0
 40
0.0
  0
LTYPE
  5
5C
330
5
100
AcDbSymbolTableRecord
100
AcDbLinetypeTableRecord
  2
ByLayer
 70
     0
  3

 72
    65
 73
     0
 40
0.0
  0
LTYPE
  5
5D
330
5
100
AcDbSymbolTableRecord
100
AcDbLinetypeTableRecord
  2
Continuous
 70
     0
  3
Solid line
 72
    65
 73
     0
 40
0.0
  0
LTYPE
  5
233
330
5
100
AcDbSymbolTableRecord
100
AcDbLinetypeTableRecord
  2
AI-Linetype-0
 70
     0
  3
Adobe Illustrator Linetype No. 0
 72
    65
 73
     2
 40
1.411111110758333
 49
0.7055555553791667
 74
     0
 49
-0.7055555553791667
 74
     0
  0
LTYPE
  5
266
330
5
100
AcDbSymbolTableRecord
100
AcDbLinetypeTableRecord
  2
AI-Linetype-1
 70
     0
  3
Adobe Illustrator Linetype No. 1
 72
    65
 73
     2
 40
1.411111110758333
 49
0.7055555553791667
 74
     0
 49
-0.7055555553791667
 74
     0
  0
ENDTAB
  0
TABLE
  2
LAYER
  5
2
330
0
100
AcDbSymbolTable
 70
     5
  0
LAYER
  5
54
330
2
100
AcDbSymbolTableRecord
100
AcDbLayerTableRecord
  2
0
 70
     0
 62
     7
  6
Continuous
370
     0
390
F
347
21
348
0
  0
LAYER
  5
8C
330
2
100
AcDbSymbolTableRecord
100
AcDbLayerTableRecord
  2
Rahmen (ISO)
 70
     0
 62
     7
  6
Continuous
370
     0
390
F
347
21
348
0
  0
LAYER
  5
8D
330
2
100
AcDbSymbolTableRecord
100
AcDbLayerTableRecord
  2
Titel (ISO)
 70
     0
 62
     7
  6
Continuous
370
     0
390
F
347
21
348
0
  0
LAYER
  5
B2
330
2
100
AcDbSymbolTableRecord
100
AcDbLayerTableRecord
  2
Sichtbar (ISO)
 70
     0
 62
     7
  6
Continuous
370
     0
390
F
347
21
348
0
  0
LAYER
  5
B3
330
2
100
AcDbSymbolTableRecord
100
AcDbLayerTableRecord
  2
Sichtbar schmal (ISO)
 70
     0
 62
     7
  6
Continuous
370
     0
390
F
347
21
348
0
  0
ENDTAB
  0
TABLE
  2
STYLE
  5
3
330
0
100
AcDbSymbolTable
 70
     2
  0
STYLE
  5
55
330
3
100
AcDbSymbolTableRecord
100
AcDbTextStyleTableRecord
  2
Standard
 70
     0
 40
0.0
 41
1.0
 50
0.0
 71
     0
 42
0.2
  3
txt
  4

  0
STYLE
  5
5A
330
3
100
AcDbSymbolTableRecord
100
AcDbTextStyleTableRecord
  2
Annotative
 70
     0
 40
0.0
 41
1.0
 50
0.0
 71
     0
 42
0.2
  3
txt
  4

1001
AcadAnnotative
1000
AnnotativeData
1002
{
1070
     1
1070
     1
1002
}
  0
ENDTAB
  0
TABLE
  2
VIEW
  5
6
330
0
100
AcDbSymbolTable
 70
     0
  0
ENDTAB
  0
TABLE
  2
UCS
  5
7
330
0
100
AcDbSymbolTable
 70
     0
  0
ENDTAB
  0
TABLE
  2
APPID
  5
9
330
0
100
AcDbSymbolTable
 70
     2
  0
APPID
  5
56
330
9
100
AcDbSymbolTableRecord
100
AcDbRegAppTableRecord
  2
ACAD
 70
     0
  0
APPID
  5
5E
330
9
100
AcDbSymbolTableRecord
100
AcDbRegAppTableRecord
  2
AcadAnnotative
 70
     0
  0
ENDTAB
  0
TABLE
  2
DIMSTYLE
  5
A
330
0
100
AcDbSymbolTable
 70
     2
100
AcDbDimStyleTable
 71
     0
  0
DIMSTYLE
105
58
330
A
100
AcDbSymbolTableRecord
100
AcDbDimStyleTableRecord
  2
Standard
 70
     0
340
55
  0
DIMSTYLE
105
59
330
A
100
AcDbSymbolTableRecord
100
AcDbDimStyleTableRecord
  2
Annotative
 70
     0
340
55
1001
AcadAnnotative
1000
AnnotativeData
1002
{
1070
     1
1070
     1
1002
}
  0
ENDTAB
  0
TABLE
  2
BLOCK_RECORD
  5
1
330
0
100
AcDbSymbolTable
 70
    47
  0
BLOCK_RECORD
  5
70
330
1
100
AcDbSymbolTableRecord
100
AcDbBlockTableRecord
  2
*Model_Space
340
73
 70
     0
280
     1
281
     0
  0
BLOCK_RECORD
  5
6C
330
1
100
AcDbSymbolTableRecord
100
AcDbBlockTableRecord
  2
*Paper_Space
340
6F
 70
     0
280
     1
281
     0
  0
BLOCK_RECORD
  5
74
330
1
100
AcDbSymbolTableRecord
100
AcDbBlockTableRecord
  2
*Paper_Space0
340
77
 70
     0
280
     1
281
     0
  0
BLOCK_RECORD
  5
78
330
1
100
AcDbSymbolTableRecord
100
AcDbBlockTableRecord
  2
Block_0
340
0
102
{BLKREFS
331
79
102
}
 70
     0
280
     1
281
     0
  0
BLOCK_RECORD
  5
7C
330
1
100
AcDbSymbolTableRecord
100
AcDbBlockTableRecord
  2
Block_1
340
0
102
{BLKREFS
331
7D
102
}
 70
     0
280
     1
281
     0
  0
BLOCK_RECORD
  5
80
330
1
100
AcDbSymbolTableRecord
100
AcDbBlockTableRecord
  2
Block_2
340
0
102
{BLKREFS
331
81
102
}
 70
     0
280
     1
281
     0
  0
BLOCK_RECORD
  5
84
330
1
100
AcDbSymbolTableRecord
100
AcDbBlockTableRecord
  2
Block_3
340
0
102
{BLKREFS
331
85
102
}
 70
     0
280
     1
281
     0
  0
BLOCK_RECORD
  5
88
330
1
100
AcDbSymbolTableRecord
100
AcDbBlockTableRecord
  2
Block_4
340
0
102
{BLKREFS
331
89
102
}
 70
     0
280
     1
281
     0
  0
BLOCK_RECORD
  5
8E
330
1
100
AcDbSymbolTableRecord
100
AcDbBlockTableRecord
  2
Block_5
340
0
102
{BLKREFS
331
8F
102
}
 70
     0
280
     1
281
     0
  0
BLOCK_RECORD
  5
92
330
1
100
AcDbSymbolTableRecord
100
AcDbBlockTableRecord
  2
Block_6
340
0
102
{BLKREFS
331
93
102
}
 70
     0
280
     1
281
     0
  0
BLOCK_RECORD
  5
96
330
1
100
AcDbSymbolTableRecord
100
AcDbBlockTableRecord
  2
Block_7
340
0
102
{BLKREFS
331
97
102
}
 70
     0
280
     1
281
     0
  0
BLOCK_RECORD
  5
9A
330
1
100
AcDbSymbolTableRecord
100
AcDbBlockTableRecord
  2
Block_8
340
0
102
{BLKREFS
331
9B
102
}
 70
     0
280
     1
281
     0
  0
BLOCK_RECORD
  5
9E
330
1
100
AcDbSymbolTableRecord
100
AcDbBlockTableRecord
  2
Block_9
340
0
102
{BLKREFS
331
9F
102
}
 70
     0
280
     1
281
     0
  0
BLOCK_RECORD
  5
A2
330
1
100
AcDbSymbolTableRecord
100
AcDbBlockTableRecord
  2
Block_10
340
0
102
{BLKREFS
331
A3
102
}
 70
     0
280
     1
281
     0
  0
BLOCK_RECORD
  5
A6
330
1
100
AcDbSymbolTableRecord
100
AcDbBlockTableRecord
  2
Block_11
340
0
102
{BLKREFS
331
A7
102
}
 70
     0
280
     1
281
     0
  0
BLOCK_RECORD
  5
AA
330
1
100
AcDbSymbolTableRecord
100
AcDbBlockTableRecord
  2
Block_12
340
0
102
{BLKREFS
331
AB
102
}
 70
     0
280
     1
281
     0
  0
BLOCK_RECORD
  5
AE
330
1
100
AcDbSymbolTableRecord
100
AcDbBlockTableRecord
  2
Block_13
340
0
102
{BLKREFS
331
AF
102
}
 70
     0
280
     1
281
     0
  0
BLOCK_RECORD
  5
B4
330
1
100
AcDbSymbolTableRecord
100
AcDbBlockTableRecord
  2
Block_14
340
0
102
{BLKREFS
331
B5
102
}
 70
     0
280
     1
281
     0
  0
BLOCK_RECORD
  5
BA
330
1
100
AcDbSymbolTableRecord
100
AcDbBlockTableRecord
  2
Block_15
340
0
102
{BLKREFS
331
BB
102
}
 70
     0
280
     1
281
     0
  0
BLOCK_RECORD
  5
1DA
330
1
100
AcDbSymbolTableRecord
100
AcDbBlockTableRecord
  2
Block_16
340
0
102
{BLKREFS
331
1DB
102
}
 70
     0
280
     1
281
     0
  0
BLOCK_RECORD
  5
203
330
1
100
AcDbSymbolTableRecord
100
AcDbBlockTableRecord
  2
Block_17
340
0
102
{BLKREFS
331
204
102
}
 70
     0
280
     1
281
     0
  0
BLOCK_RECORD
  5
207
330
1
100
AcDbSymbolTableRecord
100
AcDbBlockTableRecord
  2
Block_18
340
0
102
{BLKREFS
331
208
102
}
 70
     0
280
     1
281
     0
  0
BLOCK_RECORD
  5
20C
330
1
100
AcDbSymbolTableRecord
100
AcDbBlockTableRecord
  2
Block_19
340
0
102
{BLKREFS
331
20D
102
}
 70
     0
280
     1
281
     0
  0
BLOCK_RECORD
  5
212
330
1
100
AcDbSymbolTableRecord
100
AcDbBlockTableRecord
  2
Block_20
340
0
102
{BLKREFS
331
213
102
}
 70
     0
280
     1
281
     0
  0
BLOCK_RECORD
  5
21B
330
1
100
AcDbSymbolTableRecord
100
AcDbBlockTableRecord
  2
Block_21
340
0
102
{BLKREFS
331
21C
102
}
 70
     0
280
     1
281
     0
  0
BLOCK_RECORD
  5
21F
330
1
100
AcDbSymbolTableRecord
100
AcDbBlockTableRecord
  2
Block_22
340
0
102
{BLKREFS
331
220
102
}
 70
     0
280
     1
281
     0
  0
BLOCK_RECORD
  5
224
330
1
100
AcDbSymbolTableRecord
100
AcDbBlockTableRecord
  2
Block_23
340
0
102
{BLKREFS
331
225
102
}
 70
     0
280
     1
281
     0
  0
BLOCK_RECORD
  5
22A
330
1
100
AcDbSymbolTableRecord
100
AcDbBlockTableRecord
  2
Block_24
340
0
102
{BLKREFS
331
22B
102
}
 70
     0
280
     1
281
     0
  0
BLOCK_RECORD
  5
234
330
1
100
AcDbSymbolTableRecord
100
AcDbBlockTableRecord
  2
Block_25
340
0
102
{BLKREFS
331
235
102
}
 70
     0
280
     1
281
     0
  0
BLOCK_RECORD
  5
238
330
1
100
AcDbSymbolTableRecord
100
AcDbBlockTableRecord
  2
Block_26
340
0
102
{BLKREFS
331
239
102
}
 70
     0
280
     1
281
     0
  0
BLOCK_RECORD
  5
23D
330
1
100
AcDbSymbolTableRecord
100
AcDbBlockTableRecord
  2
Block_27
340
0
102
{BLKREFS
331
23E
102
}
 70
     0
280
     1
281
     0
  0
BLOCK_RECORD
  5
243
330
1
100
AcDbSymbolTableRecord
100
AcDbBlockTableRecord
  2
Block_28
340
0
102
{BLKREFS
331
244
102
}
 70
     0
280
     1
281
     0
  0
BLOCK_RECORD
  5
247
330
1
100
AcDbSymbolTableRecord
100
AcDbBlockTableRecord
  2
Block_29
340
0
102
{BLKREFS
331
248
102
}
 70
     0
280
     1
281
     0
  0
BLOCK_RECORD
  5
24C
330
1
100
AcDbSymbolTableRecord
100
AcDbBlockTableRecord
  2
Block_30
340
0
102
{BLKREFS
331
24D
102
}
 70
     0
280
     1
281
     0
  0
BLOCK_RECORD
  5
252
330
1
100
AcDbSymbolTableRecord
100
AcDbBlockTableRecord
  2
Block_31
340
0
102
{BLKREFS
331
253
102
}
 70
     0
280
     1
281
     0
  0
BLOCK_RECORD
  5
258
330
1
100
AcDbSymbolTableRecord
100
AcDbBlockTableRecord
  2
Block_32
340
0
102
{BLKREFS
331
259
102
}
 70
     0
280
     1
281
     0
  0
BLOCK_RECORD
  5
25C
330
1
100
AcDbSymbolTableRecord
100
AcDbBlockTableRecord
  2
Block_33
340
0
102
{BLKREFS
331
25D
102
}
 70
     0
280
     1
281
     0
  0
BLOCK_RECORD
  5
267
330
1
100
AcDbSymbolTableRecord
100
AcDbBlockTableRecord
  2
Block_34
340
0
102
{BLKREFS
331
268
102
}
 70
     0
280
     1
281
     0
  0
BLOCK_RECORD
  5
26B
330
1
100
AcDbSymbolTableRecord
100
AcDbBlockTableRecord
  2
Block_35
340
0
102
{BLKREFS
331
26C
102
}
 70
     0
280
     1
281
     0
  0
BLOCK_RECORD
  5
275
330
1
100
AcDbSymbolTableRecord
100
AcDbBlockTableRecord
  2
Block_36
340
0
102
{BLKREFS
331
276
102
}
 70
     0
280
     1
281
     0
  0
BLOCK_RECORD
  5
279
330
1
100
AcDbSymbolTableRecord
100
AcDbBlockTableRecord
  2
Block_37
340
0
102
{BLKREFS
331
27A
102
}
 70
     0
280
     1
281
     0
  0
BLOCK_RECORD
  5
289
330
1
100
AcDbSymbolTableRecord
100
AcDbBlockTableRecord
  2
Block_38
340
0
102
{BLKREFS
331
28A
102
}
 70
     0
280
     1
281
     0
  0
BLOCK_RECORD
  5
28D
330
1
100
AcDbSymbolTableRecord
100
AcDbBlockTableRecord
  2
Block_39
340
0
102
{BLKREFS
331
28E
102
}
 70
     0
280
     1
281
     0
  0
BLOCK_RECORD
  5
29E
330
1
100
AcDbSymbolTableRecord
100
AcDbBlockTableRecord
  2
Block_40
340
0
102
{BLKREFS
331
29F
102
}
 70
     0
280
     1
281
     0
  0
BLOCK_RECORD
  5
2A2
330
1
100
AcDbSymbolTableRecord
100
AcDbBlockTableRecord
  2
Block_41
340
0
102
{BLKREFS
331
2A3
102
}
 70
     0
280
     1
281
     0
  0
BLOCK_RECORD
  5
2A7
330
1
100
AcDbSymbolTableRecord
100
AcDbBlockTableRecord
  2
Block_42
340
0
102
{BLKREFS
331
2A8
102
}
 70
     0
280
     1
281
     0
  0
BLOCK_RECORD
  5
2AD
330
1
100
AcDbSymbolTableRecord
100
AcDbBlockTableRecord
  2
Block_43
340
0
102
{BLKREFS
331
2AE
102
}
 70
     0
280
     1
281
     0
  0
BLOCK_RECORD
  5
2B3
330
1
100
AcDbSymbolTableRecord
100
AcDbBlockTableRecord
  2
Block_44
340
0
102
{BLKREFS
331
2B4
102
}
 70
     0
280
     1
281
     0
  0
BLOCK_RECORD
  5
2B7
330
1
100
AcDbSymbolTableRecord
100
AcDbBlockTableRecord
  2
Block_45
340
0
102
{BLKREFS
331
2B8
102
}
 70
     0
280
     1
281
     0
  0
ENDTAB
  0
ENDSEC
  0
SECTION
  2
BLOCKS
  0
BLOCK
  5
71
330
70
100
AcDbEntity
  8
0
100
AcDbBlockBegin
  2
*Model_Space
 70
     0
 10
0.0
 20
0.0
 30
0.0
  3
*Model_Space
  1

  0
ENDBLK
  5
72
330
70
100
AcDbEntity
  8
0
100
AcDbBlockEnd
  0
BLOCK
  5
6D
330
6C
100
AcDbEntity
 67
     1
  8
0
100
AcDbBlockBegin
  2
*Paper_Space
 70
     0
 10
0.0
 20
0.0
 30
0.0
  3
*Paper_Space
  1

  0
ENDBLK
  5
6E
330
6C
100
AcDbEntity
 67
     1
  8
0
100
AcDbBlockEnd
  0
BLOCK
  5
75
330
74
100
AcDbEntity
 67
     1
  8
0
100
AcDbBlockBegin
  2
*Paper_Space0
 70
     0
 10
0.0
 20
0.0
 30
0.0
  3
*Paper_Space0
  1

  0
ENDBLK
  5
76
330
74
100
AcDbEntity
 67
     1
  8
0
100
AcDbBlockEnd
  0
BLOCK
  5
7A
330
78
100
AcDbEntity
  8
0
100
AcDbBlockBegin
  2
Block_0
 70
     0
 10
0.0
 20
0.0
 30
0.0
  3
Block_0
  1

  0
ENDBLK
  5
7B
330
78
100
AcDbEntity
  8
0
100
AcDbBlockEnd
  0
BLOCK
  5
7E
330
7C
100
AcDbEntity
  8
0
100
AcDbBlockBegin
  2
Block_1
 70
     0
 10
0.0
 20
0.0
 30
0.0
  3
Block_1
  1

  0
ENDBLK
  5
7F
330
7C
100
AcDbEntity
  8
0
100
AcDbBlockEnd
  0
BLOCK
  5
82
330
80
100
AcDbEntity
  8
0
100
AcDbBlockBegin
  2
Block_2
 70
     0
 10
0.0
 20
0.0
 30
0.0
  3
Block_2
  1

  0
ENDBLK
  5
83
330
80
100
AcDbEntity
  8
0
100
AcDbBlockEnd
  0
BLOCK
  5
86
330
84
100
AcDbEntity
  8
0
100
AcDbBlockBegin
  2
Block_3
 70
     0
 10
0.0
 20
0.0
 30
0.0
  3
Block_3
  1

  0
ENDBLK
  5
87
330
84
100
AcDbEntity
  8
0
100
AcDbBlockEnd
  0
BLOCK
  5
8A
330
88
100
AcDbEntity
  8
0
100
AcDbBlockBegin
  2
Block_4
 70
     0
 10
0.0
 20
0.0
 30
0.0
  3
Block_4
  1

  0
ENDBLK
  5
8B
330
88
100
AcDbEntity
  8
0
100
AcDbBlockEnd
  0
BLOCK
  5
90
330
8E
100
AcDbEntity
  8
0
100
AcDbBlockBegin
  2
Block_5
 70
     0
 10
0.0
 20
0.0
 30
0.0
  3
Block_5
  1

  0
ENDBLK
  5
91
330
8E
100
AcDbEntity
  8
0
100
AcDbBlockEnd
  0
BLOCK
  5
94
330
92
100
AcDbEntity
  8
0
100
AcDbBlockBegin
  2
Block_6
 70
     0
 10
0.0
 20
0.0
 30
0.0
  3
Block_6
  1

  0
ENDBLK
  5
95
330
92
100
AcDbEntity
  8
0
100
AcDbBlockEnd
  0
BLOCK
  5
98
330
96
100
AcDbEntity
  8
0
100
AcDbBlockBegin
  2
Block_7
 70
     0
 10
0.0
 20
0.0
 30
0.0
  3
Block_7
  1

  0
ENDBLK
  5
99
330
96
100
AcDbEntity
  8
0
100
AcDbBlockEnd
  0
BLOCK
  5
9C
330
9A
100
AcDbEntity
  8
0
100
AcDbBlockBegin
  2
Block_8
 70
     0
 10
0.0
 20
0.0
 30
0.0
  3
Block_8
  1

  0
ENDBLK
  5
9D
330
9A
100
AcDbEntity
  8
0
100
AcDbBlockEnd
  0
BLOCK
  5
A0
330
9E
100
AcDbEntity
  8
0
100
AcDbBlockBegin
  2
Block_9
 70
     0
 10
0.0
 20
0.0
 30
0.0
  3
Block_9
  1

  0
ENDBLK
  5
A1
330
9E
100
AcDbEntity
  8
0
100
AcDbBlockEnd
  0
BLOCK
  5
A4
330
A2
100
AcDbEntity
  8
0
100
AcDbBlockBegin
  2
Block_10
 70
     0
 10
0.0
 20
0.0
 30
0.0
  3
Block_10
  1

  0
ENDBLK
  5
A5
330
A2
100
AcDbEntity
  8
0
100
AcDbBlockEnd
  0
BLOCK
  5
A8
330
A6
100
AcDbEntity
  8
0
100
AcDbBlockBegin
  2
Block_11
 70
     0
 10
0.0
 20
0.0
 30
0.0
  3
Block_11
  1

  0
ENDBLK
  5
A9
330
A6
100
AcDbEntity
  8
0
100
AcDbBlockEnd
  0
BLOCK
  5
AC
330
AA
100
AcDbEntity
  8
0
100
AcDbBlockBegin
  2
Block_12
 70
     0
 10
0.0
 20
0.0
 30
0.0
  3
Block_12
  1

  0
ENDBLK
  5
AD
330
AA
100
AcDbEntity
  8
0
100
AcDbBlockEnd
  0
BLOCK
  5
B0
330
AE
100
AcDbEntity
  8
0
100
AcDbBlockBegin
  2
Block_13
 70
     0
 10
0.0
 20
0.0
 30
0.0
  3
Block_13
  1

  0
ENDBLK
  5
B1
330
AE
100
AcDbEntity
  8
0
100
AcDbBlockEnd
  0
BLOCK
  5
B6
330
B4
100
AcDbEntity
  8
0
100
AcDbBlockBegin
  2
Block_14
 70
     0
 10
0.0
 20
0.0
 30
0.0
  3
Block_14
  1

  0
SPLINE
  5
B8
330
B4
100
AcDbEntity
  8
Sichtbar schmal (ISO)
100
AcDbSpline
210
0.0
220
0.0
230
1.0
 70
     8
 71
     3
 72
    38
 73
    34
 74
     0
 42
0.0000000001
 43
0.0000000001
 40
0.0
 40
0.0
 40
0.0
 40
0.0
 40
1.0
 40
1.0
 40
1.0
 40
2.0
 40
2.0
 40
2.0
 40
3.0
 40
3.0
 40
3.0
 40
4.0
 40
4.0
 40
4.0
 40
5.0
 40
5.0
 40
5.0
 40
6.0
 40
6.0
 40
6.0
 40
7.0
 40
7.0
 40
7.0
 40
8.0
 40
8.0
 40
8.0
 40
9.0
 40
9.0
 40
9.0
 40
10.0
 40
10.0
 40
10.0
 40
11.0
 40
11.0
 40
11.0
 40
11.0
 10
112.3329758407856
 20
180.4604671521532
 30
0.0
 10
112.3329758407856
 20
180.4604671521532
 30
0.0
 10
112.802866821173
 20
180.4604671521532
 30
0.0
 10
112.802866821173
 20
180.4604671521532
 30
0.0
 10
112.802866821173
 20
180.4604671521532
 30
0.0
 10
112.802866821173
 20
176.9283866364027
 30
0.0
 10
112.802866821173
 20
176.9283866364027
 30
0.0
 10
112.802866821173
 20
176.9283866364027
 30
0.0
 10
112.802866821173
 20
176.5741035167618
 30
0.0
 10
112.802866821173
 20
176.5741035167618
 30
0.0
 10
112.802866821173
 20
176.2352015112682
 30
0.0
 10
112.487300784419
 20
175.960467153278
 30
0.0
 10
112.0980303505925
 20
175.960467153278
 30
0.0
 10
112.0980303505925
 20
175.960467153278
 30
0.0
 10
66.75355074330609
 20
175.960467153278
 30
0.0
 10
66.75355074330609
 20
175.960467153278
 30
0.0
 10
66.36428030948048
 20
175.960467153278
 30
0.0
 10
66.04871427272553
 20
176.2352015112682
 30
0.0
 10
66.04871427272553
 20
176.5741035167618
 30
0.0
 10
66.04871427272553
 20
176.5741035167618
 30
0.0
 10
66.04871427272553
 20
176.9283866364027
 30
0.0
 10
66.04871427272553
 20
176.9283866364027
 30
0.0
 10
66.04871427272553
 20
176.9283866364027
 30
0.0
 10
66.04871427272553
 20
180.4604671521532
 30
0.0
 10
66.04871427272553
 20
180.4604671521532
 30
0.0
 10
66.04871427272553
 20
180.4604671521532
 30
0.0
 10
66.51860525311268
 20
180.4604671521532
 30
0.0
 10
66.51860525311268
 20
180.4604671521532
 30
0.0
 10
66.51860525311268
 20
180.4604671521532
 30
0.0
 10
66.54209980213231
 20
180.4604671521532
 30
0.0
 10
66.54209980213231
 20
180.4604671521532
 30
0.0
 10
66.54209980213231
 20
180.4604671521532
 30
0.0
 10
112.3094812917659
 20
180.4604671521532
 30
0.0
 10
112.3094812917659
 20
180.4604671521532
 30
0.0
  0
HATCH
  5
B9
330
B4
100
AcDbEntity
  8
Sichtbar schmal (ISO)
 62
   254
420
 14606046
440
 33554687
100
AcDbHatch
 10
0.0
 20
0.0
 30
0.0
210
0.0
220
0.0
230
1.0
  2
SOLID
 70
     1
 71
     1
 91
        1
 92
        1
 93
        2
 72
     4
 94
        3
 73
     0
 74
     0
 95
       38
 96
       34
 40
0.0
 40
0.0
 40
0.0
 40
0.0
 40
1.0
 40
1.0
 40
1.0
 40
2.0
 40
2.0
 40
2.0
 40
3.0
 40
3.0
 40
3.0
 40
4.0
 40
4.0
 40
4.0
 40
5.0
 40
5.0
 40
5.0
 40
6.0
 40
6.0
 40
6.0
 40
7.0
 40
7.0
 40
7.0
 40
8.0
 40
8.0
 40
8.0
 40
9.0
 40
9.0
 40
9.0
 40
10.0
 40
10.0
 40
10.0
 40
11.0
 40
11.0
 40
11.0
 40
11.0
 10
112.3329758407856
 20
180.4604671521532
 10
112.3329758407856
 20
180.4604671521532
 10
112.802866821173
 20
180.4604671521532
 10
112.802866821173
 20
180.4604671521532
 10
112.802866821173
 20
180.4604671521532
 10
112.802866821173
 20
176.9283866364027
 10
112.802866821173
 20
176.9283866364027
 10
112.802866821173
 20
176.9283866364027
 10
112.802866821173
 20
176.5741035167618
 10
112.802866821173
 20
176.5741035167618
 10
112.802866821173
 20
176.2352015112682
 10
112.487300784419
 20
175.960467153278
 10
112.0980303505925
 20
175.960467153278
 10
112.0980303505925
 20
175.960467153278
 10
66.75355074330609
 20
175.960467153278
 10
66.75355074330609
 20
175.960467153278
 10
66.36428030948048
 20
175.960467153278
 10
66.04871427272553
 20
176.2352015112682
 10
66.04871427272553
 20
176.5741035167618
 10
66.04871427272553
 20
176.5741035167618
 10
66.04871427272553
 20
176.9283866364027
 10
66.04871427272553
 20
176.9283866364027
 10
66.04871427272553
 20
176.9283866364027
 10
66.04871427272553
 20
180.4604671521532
 10
66.04871427272553
 20
180.4604671521532
 10
66.04871427272553
 20
180.4604671521532
 10
66.51860525311268
 20
180.4604671521532
 10
66.51860525311268
 20
180.4604671521532
 10
66.51860525311268
 20
180.4604671521532
 10
66.54209980213231
 20
180.4604671521532
 10
66.54209980213231
 20
180.4604671521532
 10
66.54209980213231
 20
180.4604671521532
 10
112.3094812917659
 20
180.4604671521532
 10
112.3094812917659
 20
180.4604671521532
 97
        0
 72
     1
 10
112.3094812917659
 20
180.4604671521532
 11
112.3329758407856
 21
180.4604671521532
 97
        0
 75
     2
 76
     1
 98
        1
 10
0.0
 20
0.0
450
        0
451
        0
460
0.0
461
0.0
452
        0
462
0.0
453
        0
470

  0
ENDBLK
  5
B7
330
B4
100
AcDbEntity
  8
0
100
AcDbBlockEnd
  0
BLOCK
  5
BC
330
BA
100
AcDbEntity
  8
0
100
AcDbBlockBegin
  2
Block_15
 70
     0
 10
0.0
 20
0.0
 30
0.0
  3
Block_15
  1

  0
LINE
  5
BE
330
BA
100
AcDbEntity
  8
Sichtbar schmal (ISO)
 62
    18
420
        0
370
     5
100
AcDbLine
 10
71.60981058517504
 20
173.794998038894
 30
0.0
 11
71.60981058517504
 21
173.5921589584844
 31
0.0
  0
SPLINE
  5
BF
330
BA
100
AcDbEntity
  8
Sichtbar schmal (ISO)
 62
    18
420
        0
370
     5
100
AcDbSpline
210
0.0
220
0.0
230
1.0
 70
     8
 71
     3
 72
     8
 73
     4
 74
     0
 42
0.0000000001
 43
0.0000000001
 40
0.0
 40
0.0
 40
0.0
 40
0.0
 40
1.0
 40
1.0
 40
1.0
 40
1.0
 10
71.60981058517504
 20
173.794998038894
 30
0.0
 10
71.60981058517504
 20
173.9070229696734
 30
0.0
 10
71.50719173930925
 20
173.9978371193025
 30
0.0
 10
71.38060497775595
 20
173.9978371193025
 30
0.0
  0
LINE
  5
C0
330
BA
100
AcDbEntity
  8
Sichtbar schmal (ISO)
 62
    18
420
        0
370
     5
100
AcDbLine
 10
65.07745077372402
 20
173.9978371193025
 30
0.0
 11
114.1274507614614
 21
173.9978371193025
 31
0.0
  0
LINE
  5
C1
330
BA
100
AcDbEntity
  8
Sichtbar schmal (ISO)
 62
    18
420
        0
370
     5
100
AcDbLine
 10
65.07745077372402
 20
180.4886876923927
 30
0.0
 11
114.1274507614614
 21
180.4886876923927
 31
0.0
  0
LINE
  5
C2
330
BA
100
AcDbEntity
  8
Sichtbar schmal (ISO)
 62
    18
420
        0
370
     5
100
AcDbLine
 10
114.1274507614614
 20
180.4886876923927
 30
0.0
 11
114.1274507614614
 21
173.9978371193025
 31
0.0
  0
LINE
  5
C3
330
BA
100
AcDbEntity
  8
Sichtbar schmal (ISO)
 62
    18
420
        0
370
     5
100
AcDbLine
 10
65.07745077372402
 20
180.4886876923927
 30
0.0
 11
65.07745077372402
 21
173.9978371193025
 31
0.0
  0
LINE
  5
C4
330
BA
100
AcDbEntity
  8
Sichtbar schmal (ISO)
 62
    18
420
        0
370
     5
100
AcDbLine
 10
88.22721712307677
 20
162.8416876968045
 30
0.0
 11
90.97768441210869
 21
162.8416876968045
 31
0.0
  0
LINE
  5
C5
330
BA
100
AcDbEntity
  8
Sichtbar schmal (ISO)
 62
    18
420
        0
370
     5
100
AcDbLine
 10
90.97768441210869
 20
173.9978371193025
 30
0.0
 11
90.97768441210869
 21
162.8416876968045
 31
0.0
  0
LINE
  5
C6
330
BA
100
AcDbEntity
  8
Sichtbar schmal (ISO)
 62
    18
420
        0
370
     5
100
AcDbLine
 10
88.22721712307677
 20
173.9978371193025
 30
0.0
 11
88.22721712307677
 21
162.8416876968045
 31
0.0
  0
LINE
  5
C7
330
BA
100
AcDbEntity
  8
Sichtbar schmal (ISO)
 62
    18
420
        0
370
     5
100
AcDbLine
 10
65.65046479227238
 20
162.8416876968045
 30
0.0
 11
68.40093208130461
 21
162.8416876968045
 31
0.0
  0
LINE
  5
C8
330
BA
100
AcDbEntity
  8
Sichtbar schmal (ISO)
 62
    18
420
        0
370
     5
100
AcDbLine
 10
68.40093208130461
 20
173.9978371193025
 30
0.0
 11
68.40093208130461
 21
162.8416876968045
 31
0.0
  0
LINE
  5
C9
330
BA
100
AcDbEntity
  8
Sichtbar schmal (ISO)
 62
    18
420
        0
370
     5
100
AcDbLine
 10
65.65046479227238
 20
173.9978371193025
 30
0.0
 11
65.65046479227238
 21
162.8416876968045
 31
0.0
  0
LINE
  5
CA
330
BA
100
AcDbEntity
  8
Sichtbar schmal (ISO)
 62
    18
420
        0
370
     5
100
AcDbLine
 10
110.8039694538811
 20
162.8416876968045
 30
0.0
 11
113.5544367429134
 21
162.8416876968045
 31
0.0
  0
LINE
  5
CB
330
BA
100
AcDbEntity
  8
Sichtbar schmal (ISO)
 62
    18
420
        0
370
     5
100
AcDbLine
 10
113.5544367429134
 20
173.9978371193025
 30
0.0
 11
113.5544367429134
 21
162.8416876968045
 31
0.0
  0
LINE
  5
CC
330
BA
100
AcDbEntity
  8
Sichtbar schmal (ISO)
 62
    18
420
        0
370
     5
100
AcDbLine
 10
110.8039694538811
 20
173.9978371193025
 30
0.0
 11
110.8039694538811
 21
162.8416876968045
 31
0.0
  0
LINE
  5
CD
330
BA
100
AcDbEntity
  8
Sichtbar schmal (ISO)
 62
    18
420
        0
370
     5
100
AcDbLine
 10
80.21557825671695
 20
171.9694463152123
 30
0.0
 11
80.21557825671695
 21
172.5779635564393
 31
0.0
  0
LINE
  5
CE
330
BA
100
AcDbEntity
  8
Sichtbar schmal (ISO)
 62
    18
420
        0
370
     5
100
AcDbLine
 10
80.31962366710995
 20
171.9694463152123
 30
0.0
 11
80.31962366710995
 21
172.0708658554165
 31
0.0
  0
LINE
  5
CF
330
BA
100
AcDbEntity
  8
Sichtbar schmal (ISO)
 62
    18
420
        0
370
     5
100
AcDbLine
 10
80.31962366710931
 20
172.0708658554165
 30
0.0
 11
80.65287468492138
 21
172.0708658554165
 31
0.0
  0
LINE
  5
D0
330
BA
100
AcDbEntity
  8
Sichtbar schmal (ISO)
 62
    18
420
        0
370
     5
100
AcDbLine
 10
80.65287468492204
 20
172.0708658554165
 30
0.0
 11
80.65287468492204
 21
172.5779635564393
 31
0.0
  0
LINE
  5
D1
330
BA
100
AcDbEntity
  8
Sichtbar schmal (ISO)
 62
    18
420
        0
370
     5
100
AcDbLine
 10
86.62277787114156
 20
172.5779635564393
 30
0.0
 11
85.47674983404483
 21
172.5779635564393
 31
0.0
  0
LINE
  5
D2
330
BA
100
AcDbEntity
  8
Sichtbar schmal (ISO)
 62
    18
420
        0
370
     5
100
AcDbLine
 10
84.55992740436753
 20
172.5779635564393
 30
0.0
 11
77.53706759303923
 21
172.5779635564393
 31
0.0
  0
LINE
  5
D3
330
BA
100
AcDbEntity
  8
Sichtbar schmal (ISO)
 62
    18
420
        0
370
     5
100
AcDbLine
 10
77.53706759303923
 20
172.5779635564393
 30
0.0
 11
77.19325918191028
 21
172.5779635564393
 31
0.0
  0
LINE
  5
D4
330
BA
100
AcDbEntity
  8
Sichtbar schmal (ISO)
 62
    18
420
        0
370
     5
100
AcDbLine
 10
87.83756759046401
 20
165.6814348225313
 30
0.0
 11
87.53960030081886
 21
165.6814348225313
 31
0.0
  0
LINE
  5
D5
330
BA
100
AcDbEntity
  8
Sichtbar schmal (ISO)
 62
    18
420
        0
370
     5
100
AcDbLine
 10
76.14808161207808
 20
172.5779635564393
 30
0.0
 11
76.14808161207808
 21
165.6814348225313
 31
0.0
  0
LINE
  5
D6
330
BA
100
AcDbEntity
  8
Sichtbar schmal (ISO)
 62
    18
420
        0
370
     5
100
AcDbLine
 10
76.76693675211025
 20
172.5779635564393
 30
0.0
 11
76.76693675211025
 21
165.6814348225313
 31
0.0
  0
LINE
  5
D7
330
BA
100
AcDbEntity
  8
Sichtbar schmal (ISO)
 62
    18
420
        0
370
     5
100
AcDbLine
 10
84.55992740436753
 20
165.6814348225313
 30
0.0
 11
76.76693675211025
 21
165.6814348225313
 31
0.0
  0
LINE
  5
D8
330
BA
100
AcDbEntity
  8
Sichtbar schmal (ISO)
 62
    18
420
        0
370
     5
100
AcDbLine
 10
81.69485731162575
 20
172.0708658554165
 30
0.0
 11
80.65287468492204
 21
172.0708658554165
 31
0.0
  0
LINE
  5
D9
330
BA
100
AcDbEntity
  8
Sichtbar schmal (ISO)
 62
    18
420
        0
370
     5
100
AcDbLine
 10
81.69485731162575
 20
171.8680267750073
 30
0.0
 11
81.69485731162575
 21
172.0708658554165
 31
0.0
  0
LINE
  5
DA
330
BA
100
AcDbEntity
  8
Sichtbar schmal (ISO)
 62
    18
420
        0
370
     5
100
AcDbLine
 10
84.2161189932389
 20
171.8680267750073
 30
0.0
 11
81.69485731162575
 21
171.8680267750073
 31
0.0
  0
SPLINE
  5
DB
330
BA
100
AcDbEntity
  8
Sichtbar schmal (ISO)
 62
    18
420
        0
370
     5
100
AcDbSpline
210
0.0
220
0.0
230
1.0
 70
     8
 71
     3
 72
     8
 73
     4
 74
     0
 42
0.0000000001
 43
0.0000000001
 40
0.0
 40
0.0
 40
0.0
 40
0.0
 40
1.0
 40
1.0
 40
1.0
 40
1.0
 10
84.44532460065799
 20
171.6651876945987
 30
0.0
 10
84.44532460065799
 20
171.7772126253782
 30
0.0
 10
84.34270575479187
 20
171.8680267750073
 30
0.0
 10
84.2161189932389
 20
171.8680267750073
 30
0.0
  0
LINE
  5
DC
330
BA
100
AcDbEntity
  8
Sichtbar schmal (ISO)
 62
    18
420
        0
370
     5
100
AcDbLine
 10
84.44532460065799
 20
171.4927744762511
 30
0.0
 11
84.44532460065799
 21
171.6651876945987
 31
0.0
  0
SPLINE
  5
DD
330
BA
100
AcDbEntity
  8
Sichtbar schmal (ISO)
 62
    18
420
        0
370
     5
100
AcDbSpline
210
0.0
220
0.0
230
1.0
 70
     8
 71
     3
 72
     8
 73
     4
 74
     0
 42
0.0000000001
 43
0.0000000001
 40
0.0
 40
0.0
 40
0.0
 40
0.0
 40
1.0
 40
1.0
 40
1.0
 40
1.0
 10
84.2161189932389
 20
171.2899353958419
 30
0.0
 10
84.34270575479187
 20
171.2899353958419
 30
0.0
 10
84.44532460065799
 20
171.3807495454709
 30
0.0
 10
84.44532460065799
 20
171.4927744762511
 30
0.0
  0
LINE
  5
DE
330
BA
100
AcDbEntity
  8
Sichtbar schmal (ISO)
 62
    18
420
        0
370
     5
100
AcDbLine
 10
81.70631759199686
 20
171.2899353958419
 30
0.0
 11
84.2161189932389
 21
171.2899353958419
 31
0.0
  0
LINE
  5
DF
330
BA
100
AcDbEntity
  8
Sichtbar schmal (ISO)
 62
    18
420
        0
370
     5
100
AcDbLine
 10
81.70631759199686
 20
171.4927744762511
 30
0.0
 11
81.70631759199686
 21
171.2899353958419
 31
0.0
  0
LINE
  5
E0
330
BA
100
AcDbEntity
  8
Sichtbar schmal (ISO)
 62
    18
420
        0
370
     5
100
AcDbLine
 10
80.30816338673883
 20
171.4927744762511
 30
0.0
 11
81.70631759199686
 21
171.4927744762511
 31
0.0
  0
LINE
  5
E1
330
BA
100
AcDbEntity
  8
Sichtbar schmal (ISO)
 62
    18
420
        0
370
     5
100
AcDbLine
 10
80.30816338673883
 20
171.2899353958419
 30
0.0
 11
80.30816338673883
 21
171.4927744762511
 31
0.0
  0
LINE
  5
E2
330
BA
100
AcDbEntity
  8
Sichtbar schmal (ISO)
 62
    18
420
        0
370
     5
100
AcDbLine
 10
77.79836198549711
 20
171.2899353958419
 30
0.0
 11
80.30816338673883
 21
171.2899353958419
 31
0.0
  0
SPLINE
  5
E3
330
BA
100
AcDbEntity
  8
Sichtbar schmal (ISO)
 62
    18
420
        0
370
     5
100
AcDbSpline
210
0.0
220
0.0
230
1.0
 70
     8
 71
     3
 72
     8
 73
     4
 74
     0
 42
0.0000000001
 43
0.0000000001
 40
0.0
 40
0.0
 40
0.0
 40
0.0
 40
1.0
 40
1.0
 40
1.0
 40
1.0
 10
77.56915637807771
 20
171.4927744762511
 30
0.0
 10
77.56915637807771
 20
171.3807495454709
 30
0.0
 10
77.67177522394381
 20
171.2899353958419
 30
0.0
 10
77.79836198549711
 20
171.2899353958419
 30
0.0
  0
LINE
  5
E4
330
BA
100
AcDbEntity
  8
Sichtbar schmal (ISO)
 62
    18
420
        0
370
     5
100
AcDbLine
 10
77.56915637807771
 20
171.6651876945987
 30
0.0
 11
77.56915637807771
 21
171.4927744762511
 31
0.0
  0
SPLINE
  5
E5
330
BA
100
AcDbEntity
  8
Sichtbar schmal (ISO)
 62
    18
420
        0
370
     5
100
AcDbSpline
210
0.0
220
0.0
230
1.0
 70
     8
 71
     3
 72
     8
 73
     4
 74
     0
 42
0.0000000001
 43
0.0000000001
 40
0.0
 40
0.0
 40
0.0
 40
0.0
 40
1.0
 40
1.0
 40
1.0
 40
1.0
 10
77.79836198549711
 20
171.8680267750073
 30
0.0
 10
77.67177522394381
 20
171.8680267750073
 30
0.0
 10
77.56915637807771
 20
171.7772126253782
 30
0.0
 10
77.56915637807771
 20
171.6651876945987
 30
0.0
  0
LINE
  5
E6
330
BA
100
AcDbEntity
  8
Sichtbar schmal (ISO)
 62
    18
420
        0
370
     5
100
AcDbLine
 10
80.31962366710995
 20
171.8680267750073
 30
0.0
 11
77.79836198549711
 21
171.8680267750073
 31
0.0
  0
LINE
  5
E7
330
BA
100
AcDbEntity
  8
Sichtbar schmal (ISO)
 62
    18
420
        0
370
     5
100
AcDbLine
 10
80.31962366710995
 20
171.9694463152123
 30
0.0
 11
80.31962366710995
 21
171.8680267750073
 31
0.0
  0
LINE
  5
E8
330
BA
100
AcDbEntity
  8
Sichtbar schmal (ISO)
 62
    18
420
        0
370
     5
100
AcDbLine
 10
80.21557825671695
 20
171.9694463152123
 30
0.0
 11
80.31962366710995
 21
171.9694463152123
 31
0.0
  0
LINE
  5
E9
330
BA
100
AcDbEntity
  8
Sichtbar schmal (ISO)
 62
    18
420
        0
370
     5
100
AcDbLine
 10
75.81815816781517
 20
173.8964175790982
 30
0.0
 11
75.81815816781517
 21
173.9978371193025
 31
0.0
  0
LINE
  5
EA
330
BA
100
AcDbEntity
  8
Sichtbar schmal (ISO)
 62
    18
420
        0
370
     5
100
AcDbLine
 10
75.81815816781517
 20
173.8964175790982
 30
0.0
 11
75.81815816781517
 21
165.6814348225313
 31
0.0
  0
LINE
  5
EB
330
BA
100
AcDbEntity
  8
Sichtbar schmal (ISO)
 62
    18
420
        0
370
     5
100
AcDbLine
 10
76.14808161207808
 20
165.6814348225313
 30
0.0
 11
75.81815816781517
 21
165.6814348225313
 31
0.0
  0
LINE
  5
EC
330
BA
100
AcDbEntity
  8
Sichtbar schmal (ISO)
 62
    18
420
        0
370
     5
100
AcDbLine
 10
81.70631759199686
 20
166.6246365464337
 30
0.0
 11
81.70631759199686
 21
166.4217974660244
 31
0.0
  0
LINE
  5
ED
330
BA
100
AcDbEntity
  8
Sichtbar schmal (ISO)
 62
    18
420
        0
370
     5
100
AcDbLine
 10
80.30816338673883
 20
166.6246365464337
 30
0.0
 11
81.70631759199686
 21
166.6246365464337
 31
0.0
  0
LINE
  5
EE
330
BA
100
AcDbEntity
  8
Sichtbar schmal (ISO)
 62
    18
420
        0
370
     5
100
AcDbLine
 10
80.30816338673883
 20
166.4217974660244
 30
0.0
 11
80.30816338673883
 21
166.6246365464337
 31
0.0
  0
LINE
  5
EF
330
BA
100
AcDbEntity
  8
Sichtbar schmal (ISO)
 62
    18
420
        0
370
     5
100
AcDbLine
 10
77.79836198549711
 20
166.4217974660244
 30
0.0
 11
80.30816338673883
 21
166.4217974660244
 31
0.0
  0
SPLINE
  5
F0
330
BA
100
AcDbEntity
  8
Sichtbar schmal (ISO)
 62
    18
420
        0
370
     5
100
AcDbSpline
210
0.0
220
0.0
230
1.0
 70
     8
 71
     3
 72
     8
 73
     4
 74
     0
 42
0.0000000001
 43
0.0000000001
 40
0.0
 40
0.0
 40
0.0
 40
0.0
 40
1.0
 40
1.0
 40
1.0
 40
1.0
 10
77.56915637807771
 20
166.6246365464337
 30
0.0
 10
77.56915637807771
 20
166.5126116156535
 30
0.0
 10
77.67177522394381
 20
166.4217974660244
 30
0.0
 10
77.79836198549711
 20
166.4217974660244
 30
0.0
  0
LINE
  5
F1
330
BA
100
AcDbEntity
  8
Sichtbar schmal (ISO)
 62
    18
420
        0
370
     5
100
AcDbLine
 10
77.56915637807771
 20
166.7970497647813
 30
0.0
 11
77.56915637807771
 21
166.6246365464337
 31
0.0
  0
SPLINE
  5
F2
330
BA
100
AcDbEntity
  8
Sichtbar schmal (ISO)
 62
    18
420
        0
370
     5
100
AcDbSpline
210
0.0
220
0.0
230
1.0
 70
     8
 71
     3
 72
     8
 73
     4
 74
     0
 42
0.0000000001
 43
0.0000000001
 40
0.0
 40
0.0
 40
0.0
 40
0.0
 40
1.0
 40
1.0
 40
1.0
 40
1.0
 10
77.79836198549711
 20
166.9998888451906
 30
0.0
 10
77.67177522394381
 20
166.9998888451906
 30
0.0
 10
77.56915637807771
 20
166.9090746955608
 30
0.0
 10
77.56915637807771
 20
166.7970497647813
 30
0.0
  0
LINE
  5
F3
330
BA
100
AcDbEntity
  8
Sichtbar schmal (ISO)
 62
    18
420
        0
370
     5
100
AcDbLine
 10
80.31962366710995
 20
166.9998888451906
 30
0.0
 11
77.79836198549711
 21
166.9998888451906
 31
0.0
  0
LINE
  5
F4
330
BA
100
AcDbEntity
  8
Sichtbar schmal (ISO)
 62
    18
420
        0
370
     5
100
AcDbLine
 10
80.31962366710995
 20
167.2027279255991
 30
0.0
 11
80.31962366710995
 21
166.9998888451906
 31
0.0
  0
LINE
  5
F5
330
BA
100
AcDbEntity
  8
Sichtbar schmal (ISO)
 62
    18
420
        0
370
     5
100
AcDbLine
 10
81.69485731162575
 20
167.2027279255991
 30
0.0
 11
80.31962366710995
 21
167.2027279255991
 31
0.0
  0
LINE
  5
F6
330
BA
100
AcDbEntity
  8
Sichtbar schmal (ISO)
 62
    18
420
        0
370
     5
100
AcDbLine
 10
81.69485731162575
 20
166.9998888451906
 30
0.0
 11
81.69485731162575
 21
167.2027279255991
 31
0.0
  0
LINE
  5
F7
330
BA
100
AcDbEntity
  8
Sichtbar schmal (ISO)
 62
    18
420
        0
370
     5
100
AcDbLine
 10
84.2161189932389
 20
166.9998888451906
 30
0.0
 11
81.69485731162575
 21
166.9998888451906
 31
0.0
  0
SPLINE
  5
F8
330
BA
100
AcDbEntity
  8
Sichtbar schmal (ISO)
 62
    18
420
        0
370
     5
100
AcDbSpline
210
0.0
220
0.0
230
1.0
 70
     8
 71
     3
 72
     8
 73
     4
 74
     0
 42
0.0000000001
 43
0.0000000001
 40
0.0
 40
0.0
 40
0.0
 40
0.0
 40
1.0
 40
1.0
 40
1.0
 40
1.0
 10
84.44532460065799
 20
166.7970497647813
 30
0.0
 10
84.44532460065799
 20
166.9090746955608
 30
0.0
 10
84.34270575479187
 20
166.9998888451906
 30
0.0
 10
84.2161189932389
 20
166.9998888451906
 30
0.0
  0
LINE
  5
F9
330
BA
100
AcDbEntity
  8
Sichtbar schmal (ISO)
 62
    18
420
        0
370
     5
100
AcDbLine
 10
84.44532460065799
 20
166.6246365464337
 30
0.0
 11
84.44532460065799
 21
166.7970497647813
 31
0.0
  0
SPLINE
  5
FA
330
BA
100
AcDbEntity
  8
Sichtbar schmal (ISO)
 62
    18
420
        0
370
     5
100
AcDbSpline
210
0.0
220
0.0
230
1.0
 70
     8
 71
     3
 72
     8
 73
     4
 74
     0
 42
0.0000000001
 43
0.0000000001
 40
0.0
 40
0.0
 40
0.0
 40
0.0
 40
1.0
 40
1.0
 40
1.0
 40
1.0
 10
84.2161189932389
 20
166.4217974660244
 30
0.0
 10
84.34270575479187
 20
166.4217974660244
 30
0.0
 10
84.44532460065799
 20
166.5126116156535
 30
0.0
 10
84.44532460065799
 20
166.6246365464337
 30
0.0
  0
LINE
  5
FB
330
BA
100
AcDbEntity
  8
Sichtbar schmal (ISO)
 62
    18
420
        0
370
     5
100
AcDbLine
 10
81.70631759199686
 20
166.4217974660244
 30
0.0
 11
84.2161189932389
 21
166.4217974660244
 31
0.0
  0
LINE
  5
FC
330
BA
100
AcDbEntity
  8
Sichtbar schmal (ISO)
 62
    18
420
        0
370
     5
100
AcDbLine
 10
81.70631759199686
 20
167.8416710288877
 30
0.0
 11
81.70631759199686
 21
167.6388319484785
 31
0.0
  0
LINE
  5
FD
330
BA
100
AcDbEntity
  8
Sichtbar schmal (ISO)
 62
    18
420
        0
370
     5
100
AcDbLine
 10
80.30816338673883
 20
167.8416710288877
 30
0.0
 11
81.70631759199686
 21
167.8416710288877
 31
0.0
  0
LINE
  5
FE
330
BA
100
AcDbEntity
  8
Sichtbar schmal (ISO)
 62
    18
420
        0
370
     5
100
AcDbLine
 10
80.30816338673883
 20
167.6388319484785
 30
0.0
 11
80.30816338673883
 21
167.8416710288877
 31
0.0
  0
LINE
  5
FF
330
BA
100
AcDbEntity
  8
Sichtbar schmal (ISO)
 62
    18
420
        0
370
     5
100
AcDbLine
 10
77.79836198549711
 20
167.6388319484785
 30
0.0
 11
80.30816338673883
 21
167.6388319484785
 31
0.0
  0
SPLINE
  5
100
330
BA
100
AcDbEntity
  8
Sichtbar schmal (ISO)
 62
    18
420
        0
370
     5
100
AcDbSpline
210
0.0
220
0.0
230
1.0
 70
     8
 71
     3
 72
     8
 73
     4
 74
     0
 42
0.0000000001
 43
0.0000000001
 40
0.0
 40
0.0
 40
0.0
 40
0.0
 40
1.0
 40
1.0
 40
1.0
 40
1.0
 10
77.56915637807771
 20
167.8416710288877
 30
0.0
 10
77.56915637807771
 20
167.7296460981082
 30
0.0
 10
77.67177522394381
 20
167.6388319484785
 30
0.0
 10
77.79836198549711
 20
167.6388319484785
 30
0.0
  0
LINE
  5
101
330
BA
100
AcDbEntity
  8
Sichtbar schmal (ISO)
 62
    18
420
        0
370
     5
100
AcDbLine
 10
77.56915637807771
 20
168.0140842472354
 30
0.0
 11
77.56915637807771
 21
167.8416710288877
 31
0.0
  0
SPLINE
  5
102
330
BA
100
AcDbEntity
  8
Sichtbar schmal (ISO)
 62
    18
420
        0
370
     5
100
AcDbSpline
210
0.0
220
0.0
230
1.0
 70
     8
 71
     3
 72
     8
 73
     4
 74
     0
 42
0.0000000001
 43
0.0000000001
 40
0.0
 40
0.0
 40
0.0
 40
0.0
 40
1.0
 40
1.0
 40
1.0
 40
1.0
 10
77.79836198549711
 20
168.2169233276446
 30
0.0
 10
77.67177522394381
 20
168.2169233276446
 30
0.0
 10
77.56915637807771
 20
168.1261091780149
 30
0.0
 10
77.56915637807771
 20
168.0140842472354
 30
0.0
  0
LINE
  5
103
330
BA
100
AcDbEntity
  8
Sichtbar schmal (ISO)
 62
    18
420
        0
370
     5
100
AcDbLine
 10
80.31962366710995
 20
168.2169233276446
 30
0.0
 11
77.79836198549711
 21
168.2169233276446
 31
0.0
  0
LINE
  5
104
330
BA
100
AcDbEntity
  8
Sichtbar schmal (ISO)
 62
    18
420
        0
370
     5
100
AcDbLine
 10
80.31962366710995
 20
168.4197624080541
 30
0.0
 11
80.31962366710995
 21
168.2169233276446
 31
0.0
  0
LINE
  5
105
330
BA
100
AcDbEntity
  8
Sichtbar schmal (ISO)
 62
    18
420
        0
370
     5
100
AcDbLine
 10
81.69485731162575
 20
168.4197624080541
 30
0.0
 11
80.31962366710995
 21
168.4197624080541
 31
0.0
  0
LINE
  5
106
330
BA
100
AcDbEntity
  8
Sichtbar schmal (ISO)
 62
    18
420
        0
370
     5
100
AcDbLine
 10
81.69485731162575
 20
168.2169233276446
 30
0.0
 11
81.69485731162575
 21
168.4197624080541
 31
0.0
  0
LINE
  5
107
330
BA
100
AcDbEntity
  8
Sichtbar schmal (ISO)
 62
    18
420
        0
370
     5
100
AcDbLine
 10
84.2161189932389
 20
168.2169233276446
 30
0.0
 11
81.69485731162575
 21
168.2169233276446
 31
0.0
  0
SPLINE
  5
108
330
BA
100
AcDbEntity
  8
Sichtbar schmal (ISO)
 62
    18
420
        0
370
     5
100
AcDbSpline
210
0.0
220
0.0
230
1.0
 70
     8
 71
     3
 72
     8
 73
     4
 74
     0
 42
0.0000000001
 43
0.0000000001
 40
0.0
 40
0.0
 40
0.0
 40
0.0
 40
1.0
 40
1.0
 40
1.0
 40
1.0
 10
84.44532460065799
 20
168.0140842472354
 30
0.0
 10
84.44532460065799
 20
168.1261091780149
 30
0.0
 10
84.34270575479187
 20
168.2169233276446
 30
0.0
 10
84.2161189932389
 20
168.2169233276446
 30
0.0
  0
LINE
  5
109
330
BA
100
AcDbEntity
  8
Sichtbar schmal (ISO)
 62
    18
420
        0
370
     5
100
AcDbLine
 10
84.44532460065799
 20
167.8416710288877
 30
0.0
 11
84.44532460065799
 21
168.0140842472354
 31
0.0
  0
SPLINE
  5
10A
330
BA
100
AcDbEntity
  8
Sichtbar schmal (ISO)
 62
    18
420
        0
370
     5
100
AcDbSpline
210
0.0
220
0.0
230
1.0
 70
     8
 71
     3
 72
     8
 73
     4
 74
     0
 42
0.0000000001
 43
0.0000000001
 40
0.0
 40
0.0
 40
0.0
 40
0.0
 40
1.0
 40
1.0
 40
1.0
 40
1.0
 10
84.2161189932389
 20
167.6388319484785
 30
0.0
 10
84.34270575479187
 20
167.6388319484785
 30
0.0
 10
84.44532460065799
 20
167.7296460981082
 30
0.0
 10
84.44532460065799
 20
167.8416710288877
 30
0.0
  0
LINE
  5
10B
330
BA
100
AcDbEntity
  8
Sichtbar schmal (ISO)
 62
    18
420
        0
370
     5
100
AcDbLine
 10
81.70631759199686
 20
167.6388319484785
 30
0.0
 11
84.2161189932389
 21
167.6388319484785
 31
0.0
  0
LINE
  5
10C
330
BA
100
AcDbEntity
  8
Sichtbar schmal (ISO)
 62
    18
420
        0
370
     5
100
AcDbLine
 10
81.70631759199686
 20
169.0587055113424
 30
0.0
 11
81.70631759199686
 21
168.8558664309331
 31
0.0
  0
LINE
  5
10D
330
BA
100
AcDbEntity
  8
Sichtbar schmal (ISO)
 62
    18
420
        0
370
     5
100
AcDbLine
 10
80.30816338673883
 20
169.0587055113424
 30
0.0
 11
81.70631759199686
 21
169.0587055113424
 31
0.0
  0
LINE
  5
10E
330
BA
100
AcDbEntity
  8
Sichtbar schmal (ISO)
 62
    18
420
        0
370
     5
100
AcDbLine
 10
80.30816338673883
 20
168.8558664309331
 30
0.0
 11
80.30816338673883
 21
169.0587055113424
 31
0.0
  0
LINE
  5
10F
330
BA
100
AcDbEntity
  8
Sichtbar schmal (ISO)
 62
    18
420
        0
370
     5
100
AcDbLine
 10
77.79836198549711
 20
168.8558664309331
 30
0.0
 11
80.30816338673883
 21
168.8558664309331
 31
0.0
  0
SPLINE
  5
110
330
BA
100
AcDbEntity
  8
Sichtbar schmal (ISO)
 62
    18
420
        0
370
     5
100
AcDbSpline
210
0.0
220
0.0
230
1.0
 70
     8
 71
     3
 72
     8
 73
     4
 74
     0
 42
0.0000000001
 43
0.0000000001
 40
0.0
 40
0.0
 40
0.0
 40
0.0
 40
1.0
 40
1.0
 40
1.0
 40
1.0
 10
77.56915637807771
 20
169.0587055113424
 30
0.0
 10
77.56915637807771
 20
168.9466805805628
 30
0.0
 10
77.67177522394381
 20
168.8558664309331
 30
0.0
 10
77.79836198549711
 20
168.8558664309331
 30
0.0
  0
LINE
  5
111
330
BA
100
AcDbEntity
  8
Sichtbar schmal (ISO)
 62
    18
420
        0
370
     5
100
AcDbLine
 10
77.56915637807771
 20
169.23111872969
 30
0.0
 11
77.56915637807771
 21
169.0587055113424
 31
0.0
  0
SPLINE
  5
112
330
BA
100
AcDbEntity
  8
Sichtbar schmal (ISO)
 62
    18
420
        0
370
     5
100
AcDbSpline
210
0.0
220
0.0
230
1.0
 70
     8
 71
     3
 72
     8
 73
     4
 74
     0
 42
0.0000000001
 43
0.0000000001
 40
0.0
 40
0.0
 40
0.0
 40
0.0
 40
1.0
 40
1.0
 40
1.0
 40
1.0
 10
77.79836198549711
 20
169.4339578100986
 30
0.0
 10
77.67177522394381
 20
169.4339578100986
 30
0.0
 10
77.56915637807771
 20
169.3431436604695
 30
0.0
 10
77.56915637807771
 20
169.23111872969
 30
0.0
  0
LINE
  5
113
330
BA
100
AcDbEntity
  8
Sichtbar schmal (ISO)
 62
    18
420
        0
370
     5
100
AcDbLine
 10
80.31962366710995
 20
169.4339578100986
 30
0.0
 11
77.79836198549711
 21
169.4339578100986
 31
0.0
  0
LINE
  5
114
330
BA
100
AcDbEntity
  8
Sichtbar schmal (ISO)
 62
    18
420
        0
370
     5
100
AcDbLine
 10
80.31962366710995
 20
169.6367968905082
 30
0.0
 11
80.31962366710995
 21
169.4339578100986
 31
0.0
  0
LINE
  5
115
330
BA
100
AcDbEntity
  8
Sichtbar schmal (ISO)
 62
    18
420
        0
370
     5
100
AcDbLine
 10
81.69485731162575
 20
169.6367968905082
 30
0.0
 11
80.31962366710995
 21
169.6367968905082
 31
0.0
  0
LINE
  5
116
330
BA
100
AcDbEntity
  8
Sichtbar schmal (ISO)
 62
    18
420
        0
370
     5
100
AcDbLine
 10
81.69485731162575
 20
169.4339578100986
 30
0.0
 11
81.69485731162575
 21
169.6367968905082
 31
0.0
  0
LINE
  5
117
330
BA
100
AcDbEntity
  8
Sichtbar schmal (ISO)
 62
    18
420
        0
370
     5
100
AcDbLine
 10
84.2161189932389
 20
169.4339578100986
 30
0.0
 11
81.69485731162575
 21
169.4339578100986
 31
0.0
  0
SPLINE
  5
118
330
BA
100
AcDbEntity
  8
Sichtbar schmal (ISO)
 62
    18
420
        0
370
     5
100
AcDbSpline
210
0.0
220
0.0
230
1.0
 70
     8
 71
     3
 72
     8
 73
     4
 74
     0
 42
0.0000000001
 43
0.0000000001
 40
0.0
 40
0.0
 40
0.0
 40
0.0
 40
1.0
 40
1.0
 40
1.0
 40
1.0
 10
84.44532460065799
 20
169.23111872969
 30
0.0
 10
84.44532460065799
 20
169.3431436604695
 30
0.0
 10
84.34270575479187
 20
169.4339578100986
 30
0.0
 10
84.2161189932389
 20
169.4339578100986
 30
0.0
  0
LINE
  5
119
330
BA
100
AcDbEntity
  8
Sichtbar schmal (ISO)
 62
    18
420
        0
370
     5
100
AcDbLine
 10
84.44532460065799
 20
169.0587055113424
 30
0.0
 11
84.44532460065799
 21
169.23111872969
 31
0.0
  0
SPLINE
  5
11A
330
BA
100
AcDbEntity
  8
Sichtbar schmal (ISO)
 62
    18
420
        0
370
     5
100
AcDbSpline
210
0.0
220
0.0
230
1.0
 70
     8
 71
     3
 72
     8
 73
     4
 74
     0
 42
0.0000000001
 43
0.0000000001
 40
0.0
 40
0.0
 40
0.0
 40
0.0
 40
1.0
 40
1.0
 40
1.0
 40
1.0
 10
84.2161189932389
 20
168.8558664309331
 30
0.0
 10
84.34270575479187
 20
168.8558664309331
 30
0.0
 10
84.44532460065799
 20
168.9466805805628
 30
0.0
 10
84.44532460065799
 20
169.0587055113424
 30
0.0
  0
LINE
  5
11B
330
BA
100
AcDbEntity
  8
Sichtbar schmal (ISO)
 62
    18
420
        0
370
     5
100
AcDbLine
 10
81.70631759199686
 20
168.8558664309331
 30
0.0
 11
84.2161189932389
 21
168.8558664309331
 31
0.0
  0
LINE
  5
11C
330
BA
100
AcDbEntity
  8
Sichtbar schmal (ISO)
 62
    18
420
        0
370
     5
100
AcDbLine
 10
81.70631759199686
 20
170.2757399937964
 30
0.0
 11
81.70631759199686
 21
170.0729009133872
 31
0.0
  0
LINE
  5
11D
330
BA
100
AcDbEntity
  8
Sichtbar schmal (ISO)
 62
    18
420
        0
370
     5
100
AcDbLine
 10
80.30816338673883
 20
170.2757399937964
 30
0.0
 11
81.70631759199686
 21
170.2757399937964
 31
0.0
  0
LINE
  5
11E
330
BA
100
AcDbEntity
  8
Sichtbar schmal (ISO)
 62
    18
420
        0
370
     5
100
AcDbLine
 10
80.30816338673883
 20
170.0729009133872
 30
0.0
 11
80.30816338673883
 21
170.2757399937964
 31
0.0
  0
LINE
  5
11F
330
BA
100
AcDbEntity
  8
Sichtbar schmal (ISO)
 62
    18
420
        0
370
     5
100
AcDbLine
 10
77.79836198549711
 20
170.0729009133872
 30
0.0
 11
80.30816338673883
 21
170.0729009133872
 31
0.0
  0
SPLINE
  5
120
330
BA
100
AcDbEntity
  8
Sichtbar schmal (ISO)
 62
    18
420
        0
370
     5
100
AcDbSpline
210
0.0
220
0.0
230
1.0
 70
     8
 71
     3
 72
     8
 73
     4
 74
     0
 42
0.0000000001
 43
0.0000000001
 40
0.0
 40
0.0
 40
0.0
 40
0.0
 40
1.0
 40
1.0
 40
1.0
 40
1.0
 10
77.56915637807771
 20
170.2757399937964
 30
0.0
 10
77.56915637807771
 20
170.1637150630169
 30
0.0
 10
77.67177522394381
 20
170.0729009133872
 30
0.0
 10
77.79836198549711
 20
170.0729009133872
 30
0.0
  0
LINE
  5
121
330
BA
100
AcDbEntity
  8
Sichtbar schmal (ISO)
 62
    18
420
        0
370
     5
100
AcDbLine
 10
77.56915637807771
 20
170.4481532121441
 30
0.0
 11
77.56915637807771
 21
170.2757399937964
 31
0.0
  0
SPLINE
  5
122
330
BA
100
AcDbEntity
  8
Sichtbar schmal (ISO)
 62
    18
420
        0
370
     5
100
AcDbSpline
210
0.0
220
0.0
230
1.0
 70
     8
 71
     3
 72
     8
 73
     4
 74
     0
 42
0.0000000001
 43
0.0000000001
 40
0.0
 40
0.0
 40
0.0
 40
0.0
 40
1.0
 40
1.0
 40
1.0
 40
1.0
 10
77.79836198549711
 20
170.6509922925533
 30
0.0
 10
77.67177522394381
 20
170.6509922925533
 30
0.0
 10
77.56915637807771
 20
170.5601781429242
 30
0.0
 10
77.56915637807771
 20
170.4481532121441
 30
0.0
  0
LINE
  5
123
330
BA
100
AcDbEntity
  8
Sichtbar schmal (ISO)
 62
    18
420
        0
370
     5
100
AcDbLine
 10
80.31962366710995
 20
170.6509922925533
 30
0.0
 11
77.79836198549711
 21
170.6509922925533
 31
0.0
  0
LINE
  5
124
330
BA
100
AcDbEntity
  8
Sichtbar schmal (ISO)
 62
    18
420
        0
370
     5
100
AcDbLine
 10
80.31962366710995
 20
170.8538313729625
 30
0.0
 11
80.31962366710995
 21
170.6509922925533
 31
0.0
  0
LINE
  5
125
330
BA
100
AcDbEntity
  8
Sichtbar schmal (ISO)
 62
    18
420
        0
370
     5
100
AcDbLine
 10
81.69485731162575
 20
170.8538313729625
 30
0.0
 11
80.31962366710995
 21
170.8538313729625
 31
0.0
  0
LINE
  5
126
330
BA
100
AcDbEntity
  8
Sichtbar schmal (ISO)
 62
    18
420
        0
370
     5
100
AcDbLine
 10
81.69485731162575
 20
170.6509922925533
 30
0.0
 11
81.69485731162575
 21
170.8538313729625
 31
0.0
  0
LINE
  5
127
330
BA
100
AcDbEntity
  8
Sichtbar schmal (ISO)
 62
    18
420
        0
370
     5
100
AcDbLine
 10
84.2161189932389
 20
170.6509922925533
 30
0.0
 11
81.69485731162575
 21
170.6509922925533
 31
0.0
  0
SPLINE
  5
128
330
BA
100
AcDbEntity
  8
Sichtbar schmal (ISO)
 62
    18
420
        0
370
     5
100
AcDbSpline
210
0.0
220
0.0
230
1.0
 70
     8
 71
     3
 72
     8
 73
     4
 74
     0
 42
0.0000000001
 43
0.0000000001
 40
0.0
 40
0.0
 40
0.0
 40
0.0
 40
1.0
 40
1.0
 40
1.0
 40
1.0
 10
84.44532460065799
 20
170.4481532121441
 30
0.0
 10
84.44532460065799
 20
170.5601781429242
 30
0.0
 10
84.34270575479187
 20
170.6509922925533
 30
0.0
 10
84.2161189932389
 20
170.6509922925533
 30
0.0
  0
LINE
  5
129
330
BA
100
AcDbEntity
  8
Sichtbar schmal (ISO)
 62
    18
420
        0
370
     5
100
AcDbLine
 10
84.44532460065799
 20
170.2757399937964
 30
0.0
 11
84.44532460065799
 21
170.4481532121441
 31
0.0
  0
SPLINE
  5
12A
330
BA
100
AcDbEntity
  8
Sichtbar schmal (ISO)
 62
    18
420
        0
370
     5
100
AcDbSpline
210
0.0
220
0.0
230
1.0
 70
     8
 71
     3
 72
     8
 73
     4
 74
     0
 42
0.0000000001
 43
0.0000000001
 40
0.0
 40
0.0
 40
0.0
 40
0.0
 40
1.0
 40
1.0
 40
1.0
 40
1.0
 10
84.2161189932389
 20
170.0729009133872
 30
0.0
 10
84.34270575479187
 20
170.0729009133872
 30
0.0
 10
84.44532460065799
 20
170.1637150630169
 30
0.0
 10
84.44532460065799
 20
170.2757399937964
 30
0.0
  0
LINE
  5
12B
330
BA
100
AcDbEntity
  8
Sichtbar schmal (ISO)
 62
    18
420
        0
370
     5
100
AcDbLine
 10
81.70631759199686
 20
170.0729009133872
 30
0.0
 11
84.2161189932389
 21
170.0729009133872
 31
0.0
  0
LINE
  5
12C
330
BA
100
AcDbEntity
  8
Sichtbar schmal (ISO)
 62
    18
420
        0
370
     5
100
AcDbLine
 10
86.62277787114156
 20
168.2777750517673
 30
0.0
 11
85.47674983404483
 21
168.2777750517673
 31
0.0
  0
LINE
  5
12D
330
BA
100
AcDbEntity
  8
Sichtbar schmal (ISO)
 62
    18
420
        0
370
     5
100
AcDbLine
 10
85.47674983404483
 20
166.6550624084946
 30
0.0
 11
86.62277787114156
 21
166.6550624084946
 31
0.0
  0
LINE
  5
12E
330
BA
100
AcDbEntity
  8
Sichtbar schmal (ISO)
 62
    18
420
        0
370
     5
100
AcDbLine
 10
86.62277787114156
 20
165.6814348225313
 30
0.0
 11
85.47674983404483
 21
165.6814348225313
 31
0.0
  0
LINE
  5
12F
330
BA
100
AcDbEntity
  8
Sichtbar schmal (ISO)
 62
    18
420
        0
370
     5
100
AcDbLine
 10
93.72815170114092
 20
166.6550624084946
 30
0.0
 11
92.58212366404421
 21
166.6550624084946
 31
0.0
  0
LINE
  5
130
330
BA
100
AcDbEntity
  8
Sichtbar schmal (ISO)
 62
    18
420
        0
370
     5
100
AcDbLine
 10
92.58212366404421
 20
165.6814348225313
 30
0.0
 11
93.72815170114092
 21
165.6814348225313
 31
0.0
  0
LINE
  5
131
330
BA
100
AcDbEntity
  8
Sichtbar schmal (ISO)
 62
    18
420
        0
370
     5
100
AcDbLine
 10
92.58212366404421
 20
168.2777750517673
 30
0.0
 11
93.72815170114092
 21
168.2777750517673
 31
0.0
  0
LINE
  5
132
330
BA
100
AcDbEntity
  8
Sichtbar schmal (ISO)
 62
    18
420
        0
370
     5
100
AcDbLine
 10
103.0568199231077
 20
172.5779635564393
 30
0.0
 11
103.0568199231077
 21
165.6814348225313
 31
0.0
  0
LINE
  5
133
330
BA
100
AcDbEntity
  8
Sichtbar schmal (ISO)
 62
    18
420
        0
370
     5
100
AcDbLine
 10
103.0568199231077
 20
165.6814348225313
 30
0.0
 11
103.3867433673712
 21
165.6814348225313
 31
0.0
  0
LINE
  5
134
330
BA
100
AcDbEntity
  8
Sichtbar schmal (ISO)
 62
    18
420
        0
370
     5
100
AcDbLine
 10
103.3867433673712
 20
173.8964175790982
 30
0.0
 11
103.3867433673712
 21
165.6814348225313
 31
0.0
  0
LINE
  5
135
330
BA
100
AcDbEntity
  8
Sichtbar schmal (ISO)
 62
    18
420
        0
370
     5
100
AcDbLine
 10
103.3867433673712
 20
173.8964175790982
 30
0.0
 11
103.3867433673712
 21
173.9978371193025
 31
0.0
  0
LINE
  5
136
330
BA
100
AcDbEntity
  8
Sichtbar schmal (ISO)
 62
    18
420
        0
370
     5
100
AcDbLine
 10
98.98932327846884
 20
171.9694463152123
 30
0.0
 11
98.98932327846884
 21
172.5779635564393
 31
0.0
  0
LINE
  5
137
330
BA
100
AcDbEntity
  8
Sichtbar schmal (ISO)
 62
    18
420
        0
370
     5
100
AcDbLine
 10
98.98932327846884
 20
171.9694463152123
 30
0.0
 11
98.88527786807584
 21
171.9694463152123
 31
0.0
  0
LINE
  5
138
330
BA
100
AcDbEntity
  8
Sichtbar schmal (ISO)
 62
    18
420
        0
370
     5
100
AcDbLine
 10
98.88527786807584
 20
171.9694463152123
 30
0.0
 11
98.88527786807584
 21
171.8680267750073
 31
0.0
  0
LINE
  5
139
330
BA
100
AcDbEntity
  8
Sichtbar schmal (ISO)
 62
    18
420
        0
370
     5
100
AcDbLine
 10
98.88527786807584
 20
171.8680267750073
 30
0.0
 11
101.4065395496887
 21
171.8680267750073
 31
0.0
  0
SPLINE
  5
13A
330
BA
100
AcDbEntity
  8
Sichtbar schmal (ISO)
 62
    18
420
        0
370
     5
100
AcDbSpline
210
0.0
220
0.0
230
1.0
 70
     8
 71
     3
 72
     8
 73
     4
 74
     0
 42
0.0000000001
 43
0.0000000001
 40
0.0
 40
0.0
 40
0.0
 40
0.0
 40
1.0
 40
1.0
 40
1.0
 40
1.0
 10
101.635745157108
 20
171.6651876945987
 30
0.0
 10
101.635745157108
 20
171.7772126253782
 30
0.0
 10
101.5331263112419
 20
171.8680267750073
 30
0.0
 10
101.4065395496887
 20
171.8680267750073
 30
0.0
  0
LINE
  5
13B
330
BA
100
AcDbEntity
  8
Sichtbar schmal (ISO)
 62
    18
420
        0
370
     5
100
AcDbLine
 10
101.635745157108
 20
171.6651876945987
 30
0.0
 11
101.635745157108
 21
171.4927744762511
 31
0.0
  0
SPLINE
  5
13C
330
BA
100
AcDbEntity
  8
Sichtbar schmal (ISO)
 62
    18
420
        0
370
     5
100
AcDbSpline
210
0.0
220
0.0
230
1.0
 70
     8
 71
     3
 72
     8
 73
     4
 74
     0
 42
0.0000000001
 43
0.0000000001
 40
0.0
 40
0.0
 40
0.0
 40
0.0
 40
1.0
 40
1.0
 40
1.0
 40
1.0
 10
101.4065395496887
 20
171.2899353958419
 30
0.0
 10
101.5331263112419
 20
171.2899353958419
 30
0.0
 10
101.635745157108
 20
171.3807495454709
 30
0.0
 10
101.635745157108
 20
171.4927744762511
 30
0.0
  0
LINE
  5
13D
330
BA
100
AcDbEntity
  8
Sichtbar schmal (ISO)
 62
    18
420
        0
370
     5
100
AcDbLine
 10
101.4065395496887
 20
171.2899353958419
 30
0.0
 11
98.89673814844694
 21
171.2899353958419
 31
0.0
  0
LINE
  5
13E
330
BA
100
AcDbEntity
  8
Sichtbar schmal (ISO)
 62
    18
420
        0
370
     5
100
AcDbLine
 10
98.89673814844694
 20
171.2899353958419
 30
0.0
 11
98.89673814844694
 21
171.4927744762511
 31
0.0
  0
LINE
  5
13F
330
BA
100
AcDbEntity
  8
Sichtbar schmal (ISO)
 62
    18
420
        0
370
     5
100
AcDbLine
 10
98.89673814844694
 20
171.4927744762511
 30
0.0
 11
97.49858394318891
 21
171.4927744762511
 31
0.0
  0
LINE
  5
140
330
BA
100
AcDbEntity
  8
Sichtbar schmal (ISO)
 62
    18
420
        0
370
     5
100
AcDbLine
 10
97.49858394318891
 20
171.4927744762511
 30
0.0
 11
97.49858394318891
 21
171.2899353958419
 31
0.0
  0
LINE
  5
141
330
BA
100
AcDbEntity
  8
Sichtbar schmal (ISO)
 62
    18
420
        0
370
     5
100
AcDbLine
 10
97.49858394318891
 20
171.2899353958419
 30
0.0
 11
94.98878254194719
 21
171.2899353958419
 31
0.0
  0
SPLINE
  5
142
330
BA
100
AcDbEntity
  8
Sichtbar schmal (ISO)
 62
    18
420
        0
370
     5
100
AcDbSpline
210
0.0
220
0.0
230
1.0
 70
     8
 71
     3
 72
     8
 73
     4
 74
     0
 42
0.0000000001
 43
0.0000000001
 40
0.0
 40
0.0
 40
0.0
 40
0.0
 40
1.0
 40
1.0
 40
1.0
 40
1.0
 10
94.75957693452778
 20
171.4927744762511
 30
0.0
 10
94.75957693452778
 20
171.3807495454709
 30
0.0
 10
94.8621957803939
 20
171.2899353958419
 30
0.0
 10
94.98878254194719
 20
171.2899353958419
 30
0.0
  0
LINE
  5
143
330
BA
100
AcDbEntity
  8
Sichtbar schmal (ISO)
 62
    18
420
        0
370
     5
100
AcDbLine
 10
94.75957693452778
 20
171.4927744762511
 30
0.0
 11
94.75957693452778
 21
171.6651876945987
 31
0.0
  0
SPLINE
  5
144
330
BA
100
AcDbEntity
  8
Sichtbar schmal (ISO)
 62
    18
420
        0
370
     5
100
AcDbSpline
210
0.0
220
0.0
230
1.0
 70
     8
 71
     3
 72
     8
 73
     4
 74
     0
 42
0.0000000001
 43
0.0000000001
 40
0.0
 40
0.0
 40
0.0
 40
0.0
 40
1.0
 40
1.0
 40
1.0
 40
1.0
 10
94.98878254194719
 20
171.8680267750073
 30
0.0
 10
94.8621957803939
 20
171.8680267750073
 30
0.0
 10
94.75957693452778
 20
171.7772126253782
 30
0.0
 10
94.75957693452778
 20
171.6651876945987
 30
0.0
  0
LINE
  5
145
330
BA
100
AcDbEntity
  8
Sichtbar schmal (ISO)
 62
    18
420
        0
370
     5
100
AcDbLine
 10
94.98878254194719
 20
171.8680267750073
 30
0.0
 11
97.51004422356004
 21
171.8680267750073
 31
0.0
  0
LINE
  5
146
330
BA
100
AcDbEntity
  8
Sichtbar schmal (ISO)
 62
    18
420
        0
370
     5
100
AcDbLine
 10
97.51004422356004
 20
171.8680267750073
 30
0.0
 11
97.51004422356004
 21
172.0708658554165
 31
0.0
  0
LINE
  5
147
330
BA
100
AcDbEntity
  8
Sichtbar schmal (ISO)
 62
    18
420
        0
370
     5
100
AcDbLine
 10
97.51004422356004
 20
172.0708658554165
 30
0.0
 11
98.55202685026375
 21
172.0708658554165
 31
0.0
  0
LINE
  5
148
330
BA
100
AcDbEntity
  8
Sichtbar schmal (ISO)
 62
    18
420
        0
370
     5
100
AcDbLine
 10
98.55202685026375
 20
172.0708658554165
 30
0.0
 11
98.55202685026375
 21
172.5779635564393
 31
0.0
  0
LINE
  5
149
330
BA
100
AcDbEntity
  8
Sichtbar schmal (ISO)
 62
    18
420
        0
370
     5
100
AcDbLine
 10
94.64497413081824
 20
165.6814348225313
 30
0.0
 11
102.4379647830758
 21
165.6814348225313
 31
0.0
  0
LINE
  5
14A
330
BA
100
AcDbEntity
  8
Sichtbar schmal (ISO)
 62
    18
420
        0
370
     5
100
AcDbLine
 10
102.4379647830758
 20
172.5779635564393
 30
0.0
 11
102.4379647830758
 21
165.6814348225313
 31
0.0
  0
LINE
  5
14B
330
BA
100
AcDbEntity
  8
Sichtbar schmal (ISO)
 62
    18
420
        0
370
     5
100
AcDbLine
 10
97.49858394318891
 20
170.2757399937964
 30
0.0
 11
97.49858394318891
 21
170.0729009133872
 31
0.0
  0
LINE
  5
14C
330
BA
100
AcDbEntity
  8
Sichtbar schmal (ISO)
 62
    18
420
        0
370
     5
100
AcDbLine
 10
97.49858394318891
 20
170.0729009133872
 30
0.0
 11
94.98878254194719
 21
170.0729009133872
 31
0.0
  0
SPLINE
  5
14D
330
BA
100
AcDbEntity
  8
Sichtbar schmal (ISO)
 62
    18
420
        0
370
     5
100
AcDbSpline
210
0.0
220
0.0
230
1.0
 70
     8
 71
     3
 72
     8
 73
     4
 74
     0
 42
0.0000000001
 43
0.0000000001
 40
0.0
 40
0.0
 40
0.0
 40
0.0
 40
1.0
 40
1.0
 40
1.0
 40
1.0
 10
94.75957693452778
 20
170.2757399937964
 30
0.0
 10
94.75957693452778
 20
170.1637150630169
 30
0.0
 10
94.8621957803939
 20
170.0729009133872
 30
0.0
 10
94.98878254194719
 20
170.0729009133872
 30
0.0
  0
LINE
  5
14E
330
BA
100
AcDbEntity
  8
Sichtbar schmal (ISO)
 62
    18
420
        0
370
     5
100
AcDbLine
 10
94.75957693452778
 20
170.2757399937964
 30
0.0
 11
94.75957693452778
 21
170.4481532121441
 31
0.0
  0
SPLINE
  5
14F
330
BA
100
AcDbEntity
  8
Sichtbar schmal (ISO)
 62
    18
420
        0
370
     5
100
AcDbSpline
210
0.0
220
0.0
230
1.0
 70
     8
 71
     3
 72
     8
 73
     4
 74
     0
 42
0.0000000001
 43
0.0000000001
 40
0.0
 40
0.0
 40
0.0
 40
0.0
 40
1.0
 40
1.0
 40
1.0
 40
1.0
 10
94.98878254194719
 20
170.6509922925533
 30
0.0
 10
94.8621957803939
 20
170.6509922925533
 30
0.0
 10
94.75957693452778
 20
170.5601781429242
 30
0.0
 10
94.75957693452778
 20
170.4481532121441
 30
0.0
  0
LINE
  5
150
330
BA
100
AcDbEntity
  8
Sichtbar schmal (ISO)
 62
    18
420
        0
370
     5
100
AcDbLine
 10
94.98878254194719
 20
170.6509922925533
 30
0.0
 11
97.51004422356004
 21
170.6509922925533
 31
0.0
  0
LINE
  5
151
330
BA
100
AcDbEntity
  8
Sichtbar schmal (ISO)
 62
    18
420
        0
370
     5
100
AcDbLine
 10
97.51004422356004
 20
170.6509922925533
 30
0.0
 11
97.51004422356004
 21
170.8538313729625
 31
0.0
  0
LINE
  5
152
330
BA
100
AcDbEntity
  8
Sichtbar schmal (ISO)
 62
    18
420
        0
370
     5
100
AcDbLine
 10
97.51004422356004
 20
170.8538313729625
 30
0.0
 11
98.88527786807584
 21
170.8538313729625
 31
0.0
  0
LINE
  5
153
330
BA
100
AcDbEntity
  8
Sichtbar schmal (ISO)
 62
    18
420
        0
370
     5
100
AcDbLine
 10
98.88527786807584
 20
170.8538313729625
 30
0.0
 11
98.88527786807584
 21
170.6509922925533
 31
0.0
  0
LINE
  5
154
330
BA
100
AcDbEntity
  8
Sichtbar schmal (ISO)
 62
    18
420
        0
370
     5
100
AcDbLine
 10
98.88527786807584
 20
170.6509922925533
 30
0.0
 11
101.4065395496887
 21
170.6509922925533
 31
0.0
  0
SPLINE
  5
155
330
BA
100
AcDbEntity
  8
Sichtbar schmal (ISO)
 62
    18
420
        0
370
     5
100
AcDbSpline
210
0.0
220
0.0
230
1.0
 70
     8
 71
     3
 72
     8
 73
     4
 74
     0
 42
0.0000000001
 43
0.0000000001
 40
0.0
 40
0.0
 40
0.0
 40
0.0
 40
1.0
 40
1.0
 40
1.0
 40
1.0
 10
101.635745157108
 20
170.4481532121441
 30
0.0
 10
101.635745157108
 20
170.5601781429242
 30
0.0
 10
101.5331263112419
 20
170.6509922925533
 30
0.0
 10
101.4065395496887
 20
170.6509922925533
 30
0.0
  0
LINE
  5
156
330
BA
100
AcDbEntity
  8
Sichtbar schmal (ISO)
 62
    18
420
        0
370
     5
100
AcDbLine
 10
101.635745157108
 20
170.4481532121441
 30
0.0
 11
101.635745157108
 21
170.2757399937964
 31
0.0
  0
SPLINE
  5
157
330
BA
100
AcDbEntity
  8
Sichtbar schmal (ISO)
 62
    18
420
        0
370
     5
100
AcDbSpline
210
0.0
220
0.0
230
1.0
 70
     8
 71
     3
 72
     8
 73
     4
 74
     0
 42
0.0000000001
 43
0.0000000001
 40
0.0
 40
0.0
 40
0.0
 40
0.0
 40
1.0
 40
1.0
 40
1.0
 40
1.0
 10
101.4065395496887
 20
170.0729009133872
 30
0.0
 10
101.5331263112419
 20
170.0729009133872
 30
0.0
 10
101.635745157108
 20
170.1637150630169
 30
0.0
 10
101.635745157108
 20
170.2757399937964
 30
0.0
  0
LINE
  5
158
330
BA
100
AcDbEntity
  8
Sichtbar schmal (ISO)
 62
    18
420
        0
370
     5
100
AcDbLine
 10
101.4065395496887
 20
170.0729009133872
 30
0.0
 11
98.89673814844694
 21
170.0729009133872
 31
0.0
  0
LINE
  5
159
330
BA
100
AcDbEntity
  8
Sichtbar schmal (ISO)
 62
    18
420
        0
370
     5
100
AcDbLine
 10
98.89673814844694
 20
170.0729009133872
 30
0.0
 11
98.89673814844694
 21
170.2757399937964
 31
0.0
  0
LINE
  5
15A
330
BA
100
AcDbEntity
  8
Sichtbar schmal (ISO)
 62
    18
420
        0
370
     5
100
AcDbLine
 10
98.89673814844694
 20
170.2757399937964
 30
0.0
 11
97.49858394318891
 21
170.2757399937964
 31
0.0
  0
LINE
  5
15B
330
BA
100
AcDbEntity
  8
Sichtbar schmal (ISO)
 62
    18
420
        0
370
     5
100
AcDbLine
 10
97.49858394318891
 20
169.0587055113424
 30
0.0
 11
97.49858394318891
 21
168.8558664309331
 31
0.0
  0
LINE
  5
15C
330
BA
100
AcDbEntity
  8
Sichtbar schmal (ISO)
 62
    18
420
        0
370
     5
100
AcDbLine
 10
97.49858394318891
 20
168.8558664309331
 30
0.0
 11
94.98878254194719
 21
168.8558664309331
 31
0.0
  0
SPLINE
  5
15D
330
BA
100
AcDbEntity
  8
Sichtbar schmal (ISO)
 62
    18
420
        0
370
     5
100
AcDbSpline
210
0.0
220
0.0
230
1.0
 70
     8
 71
     3
 72
     8
 73
     4
 74
     0
 42
0.0000000001
 43
0.0000000001
 40
0.0
 40
0.0
 40
0.0
 40
0.0
 40
1.0
 40
1.0
 40
1.0
 40
1.0
 10
94.75957693452778
 20
169.0587055113424
 30
0.0
 10
94.75957693452778
 20
168.9466805805628
 30
0.0
 10
94.8621957803939
 20
168.8558664309331
 30
0.0
 10
94.98878254194719
 20
168.8558664309331
 30
0.0
  0
LINE
  5
15E
330
BA
100
AcDbEntity
  8
Sichtbar schmal (ISO)
 62
    18
420
        0
370
     5
100
AcDbLine
 10
94.75957693452778
 20
169.0587055113424
 30
0.0
 11
94.75957693452778
 21
169.23111872969
 31
0.0
  0
SPLINE
  5
15F
330
BA
100
AcDbEntity
  8
Sichtbar schmal (ISO)
 62
    18
420
        0
370
     5
100
AcDbSpline
210
0.0
220
0.0
230
1.0
 70
     8
 71
     3
 72
     8
 73
     4
 74
     0
 42
0.0000000001
 43
0.0000000001
 40
0.0
 40
0.0
 40
0.0
 40
0.0
 40
1.0
 40
1.0
 40
1.0
 40
1.0
 10
94.98878254194719
 20
169.4339578100986
 30
0.0
 10
94.8621957803939
 20
169.4339578100986
 30
0.0
 10
94.75957693452778
 20
169.3431436604695
 30
0.0
 10
94.75957693452778
 20
169.23111872969
 30
0.0
  0
LINE
  5
160
330
BA
100
AcDbEntity
  8
Sichtbar schmal (ISO)
 62
    18
420
        0
370
     5
100
AcDbLine
 10
94.98878254194719
 20
169.4339578100986
 30
0.0
 11
97.51004422356004
 21
169.4339578100986
 31
0.0
  0
LINE
  5
161
330
BA
100
AcDbEntity
  8
Sichtbar schmal (ISO)
 62
    18
420
        0
370
     5
100
AcDbLine
 10
97.51004422356004
 20
169.4339578100986
 30
0.0
 11
97.51004422356004
 21
169.6367968905082
 31
0.0
  0
LINE
  5
162
330
BA
100
AcDbEntity
  8
Sichtbar schmal (ISO)
 62
    18
420
        0
370
     5
100
AcDbLine
 10
97.51004422356004
 20
169.6367968905082
 30
0.0
 11
98.88527786807584
 21
169.6367968905082
 31
0.0
  0
LINE
  5
163
330
BA
100
AcDbEntity
  8
Sichtbar schmal (ISO)
 62
    18
420
        0
370
     5
100
AcDbLine
 10
98.88527786807584
 20
169.6367968905082
 30
0.0
 11
98.88527786807584
 21
169.4339578100986
 31
0.0
  0
LINE
  5
164
330
BA
100
AcDbEntity
  8
Sichtbar schmal (ISO)
 62
    18
420
        0
370
     5
100
AcDbLine
 10
98.88527786807584
 20
169.4339578100986
 30
0.0
 11
101.4065395496887
 21
169.4339578100986
 31
0.0
  0
SPLINE
  5
165
330
BA
100
AcDbEntity
  8
Sichtbar schmal (ISO)
 62
    18
420
        0
370
     5
100
AcDbSpline
210
0.0
220
0.0
230
1.0
 70
     8
 71
     3
 72
     8
 73
     4
 74
     0
 42
0.0000000001
 43
0.0000000001
 40
0.0
 40
0.0
 40
0.0
 40
0.0
 40
1.0
 40
1.0
 40
1.0
 40
1.0
 10
101.635745157108
 20
169.23111872969
 30
0.0
 10
101.635745157108
 20
169.3431436604695
 30
0.0
 10
101.5331263112419
 20
169.4339578100986
 30
0.0
 10
101.4065395496887
 20
169.4339578100986
 30
0.0
  0
LINE
  5
166
330
BA
100
AcDbEntity
  8
Sichtbar schmal (ISO)
 62
    18
420
        0
370
     5
100
AcDbLine
 10
101.635745157108
 20
169.23111872969
 30
0.0
 11
101.635745157108
 21
169.0587055113424
 31
0.0
  0
SPLINE
  5
167
330
BA
100
AcDbEntity
  8
Sichtbar schmal (ISO)
 62
    18
420
        0
370
     5
100
AcDbSpline
210
0.0
220
0.0
230
1.0
 70
     8
 71
     3
 72
     8
 73
     4
 74
     0
 42
0.0000000001
 43
0.0000000001
 40
0.0
 40
0.0
 40
0.0
 40
0.0
 40
1.0
 40
1.0
 40
1.0
 40
1.0
 10
101.4065395496887
 20
168.8558664309331
 30
0.0
 10
101.5331263112419
 20
168.8558664309331
 30
0.0
 10
101.635745157108
 20
168.9466805805628
 30
0.0
 10
101.635745157108
 20
169.0587055113424
 30
0.0
  0
LINE
  5
168
330
BA
100
AcDbEntity
  8
Sichtbar schmal (ISO)
 62
    18
420
        0
370
     5
100
AcDbLine
 10
101.4065395496887
 20
168.8558664309331
 30
0.0
 11
98.89673814844694
 21
168.8558664309331
 31
0.0
  0
LINE
  5
169
330
BA
100
AcDbEntity
  8
Sichtbar schmal (ISO)
 62
    18
420
        0
370
     5
100
AcDbLine
 10
98.89673814844694
 20
168.8558664309331
 30
0.0
 11
98.89673814844694
 21
169.0587055113424
 31
0.0
  0
LINE
  5
16A
330
BA
100
AcDbEntity
  8
Sichtbar schmal (ISO)
 62
    18
420
        0
370
     5
100
AcDbLine
 10
98.89673814844694
 20
169.0587055113424
 30
0.0
 11
97.49858394318891
 21
169.0587055113424
 31
0.0
  0
LINE
  5
16B
330
BA
100
AcDbEntity
  8
Sichtbar schmal (ISO)
 62
    18
420
        0
370
     5
100
AcDbLine
 10
97.49858394318891
 20
167.8416710288877
 30
0.0
 11
97.49858394318891
 21
167.6388319484785
 31
0.0
  0
LINE
  5
16C
330
BA
100
AcDbEntity
  8
Sichtbar schmal (ISO)
 62
    18
420
        0
370
     5
100
AcDbLine
 10
97.49858394318891
 20
167.6388319484785
 30
0.0
 11
94.98878254194719
 21
167.6388319484785
 31
0.0
  0
SPLINE
  5
16D
330
BA
100
AcDbEntity
  8
Sichtbar schmal (ISO)
 62
    18
420
        0
370
     5
100
AcDbSpline
210
0.0
220
0.0
230
1.0
 70
     8
 71
     3
 72
     8
 73
     4
 74
     0
 42
0.0000000001
 43
0.0000000001
 40
0.0
 40
0.0
 40
0.0
 40
0.0
 40
1.0
 40
1.0
 40
1.0
 40
1.0
 10
94.75957693452778
 20
167.8416710288877
 30
0.0
 10
94.75957693452778
 20
167.7296460981082
 30
0.0
 10
94.8621957803939
 20
167.6388319484785
 30
0.0
 10
94.98878254194719
 20
167.6388319484785
 30
0.0
  0
LINE
  5
16E
330
BA
100
AcDbEntity
  8
Sichtbar schmal (ISO)
 62
    18
420
        0
370
     5
100
AcDbLine
 10
94.75957693452778
 20
167.8416710288877
 30
0.0
 11
94.75957693452778
 21
168.0140842472354
 31
0.0
  0
SPLINE
  5
16F
330
BA
100
AcDbEntity
  8
Sichtbar schmal (ISO)
 62
    18
420
        0
370
     5
100
AcDbSpline
210
0.0
220
0.0
230
1.0
 70
     8
 71
     3
 72
     8
 73
     4
 74
     0
 42
0.0000000001
 43
0.0000000001
 40
0.0
 40
0.0
 40
0.0
 40
0.0
 40
1.0
 40
1.0
 40
1.0
 40
1.0
 10
94.98878254194719
 20
168.2169233276446
 30
0.0
 10
94.8621957803939
 20
168.2169233276446
 30
0.0
 10
94.75957693452778
 20
168.1261091780149
 30
0.0
 10
94.75957693452778
 20
168.0140842472354
 30
0.0
  0
LINE
  5
170
330
BA
100
AcDbEntity
  8
Sichtbar schmal (ISO)
 62
    18
420
        0
370
     5
100
AcDbLine
 10
94.98878254194719
 20
168.2169233276446
 30
0.0
 11
97.51004422356004
 21
168.2169233276446
 31
0.0
  0
LINE
  5
171
330
BA
100
AcDbEntity
  8
Sichtbar schmal (ISO)
 62
    18
420
        0
370
     5
100
AcDbLine
 10
97.51004422356004
 20
168.2169233276446
 30
0.0
 11
97.51004422356004
 21
168.4197624080541
 31
0.0
  0
LINE
  5
172
330
BA
100
AcDbEntity
  8
Sichtbar schmal (ISO)
 62
    18
420
        0
370
     5
100
AcDbLine
 10
97.51004422356004
 20
168.4197624080541
 30
0.0
 11
98.88527786807584
 21
168.4197624080541
 31
0.0
  0
LINE
  5
173
330
BA
100
AcDbEntity
  8
Sichtbar schmal (ISO)
 62
    18
420
        0
370
     5
100
AcDbLine
 10
98.88527786807584
 20
168.4197624080541
 30
0.0
 11
98.88527786807584
 21
168.2169233276446
 31
0.0
  0
LINE
  5
174
330
BA
100
AcDbEntity
  8
Sichtbar schmal (ISO)
 62
    18
420
        0
370
     5
100
AcDbLine
 10
98.88527786807584
 20
168.2169233276446
 30
0.0
 11
101.4065395496887
 21
168.2169233276446
 31
0.0
  0
SPLINE
  5
175
330
BA
100
AcDbEntity
  8
Sichtbar schmal (ISO)
 62
    18
420
        0
370
     5
100
AcDbSpline
210
0.0
220
0.0
230
1.0
 70
     8
 71
     3
 72
     8
 73
     4
 74
     0
 42
0.0000000001
 43
0.0000000001
 40
0.0
 40
0.0
 40
0.0
 40
0.0
 40
1.0
 40
1.0
 40
1.0
 40
1.0
 10
101.635745157108
 20
168.0140842472354
 30
0.0
 10
101.635745157108
 20
168.1261091780149
 30
0.0
 10
101.5331263112419
 20
168.2169233276446
 30
0.0
 10
101.4065395496887
 20
168.2169233276446
 30
0.0
  0
LINE
  5
176
330
BA
100
AcDbEntity
  8
Sichtbar schmal (ISO)
 62
    18
420
        0
370
     5
100
AcDbLine
 10
101.635745157108
 20
168.0140842472354
 30
0.0
 11
101.635745157108
 21
167.8416710288877
 31
0.0
  0
SPLINE
  5
177
330
BA
100
AcDbEntity
  8
Sichtbar schmal (ISO)
 62
    18
420
        0
370
     5
100
AcDbSpline
210
0.0
220
0.0
230
1.0
 70
     8
 71
     3
 72
     8
 73
     4
 74
     0
 42
0.0000000001
 43
0.0000000001
 40
0.0
 40
0.0
 40
0.0
 40
0.0
 40
1.0
 40
1.0
 40
1.0
 40
1.0
 10
101.4065395496887
 20
167.6388319484785
 30
0.0
 10
101.5331263112419
 20
167.6388319484785
 30
0.0
 10
101.635745157108
 20
167.7296460981082
 30
0.0
 10
101.635745157108
 20
167.8416710288877
 30
0.0
  0
LINE
  5
178
330
BA
100
AcDbEntity
  8
Sichtbar schmal (ISO)
 62
    18
420
        0
370
     5
100
AcDbLine
 10
101.4065395496887
 20
167.6388319484785
 30
0.0
 11
98.89673814844694
 21
167.6388319484785
 31
0.0
  0
LINE
  5
179
330
BA
100
AcDbEntity
  8
Sichtbar schmal (ISO)
 62
    18
420
        0
370
     5
100
AcDbLine
 10
98.89673814844694
 20
167.6388319484785
 30
0.0
 11
98.89673814844694
 21
167.8416710288877
 31
0.0
  0
LINE
  5
17A
330
BA
100
AcDbEntity
  8
Sichtbar schmal (ISO)
 62
    18
420
        0
370
     5
100
AcDbLine
 10
98.89673814844694
 20
167.8416710288877
 30
0.0
 11
97.49858394318891
 21
167.8416710288877
 31
0.0
  0
LINE
  5
17B
330
BA
100
AcDbEntity
  8
Sichtbar schmal (ISO)
 62
    18
420
        0
370
     5
100
AcDbLine
 10
97.49858394318891
 20
166.6246365464337
 30
0.0
 11
97.49858394318891
 21
166.4217974660244
 31
0.0
  0
LINE
  5
17C
330
BA
100
AcDbEntity
  8
Sichtbar schmal (ISO)
 62
    18
420
        0
370
     5
100
AcDbLine
 10
97.49858394318891
 20
166.4217974660244
 30
0.0
 11
94.98878254194719
 21
166.4217974660244
 31
0.0
  0
SPLINE
  5
17D
330
BA
100
AcDbEntity
  8
Sichtbar schmal (ISO)
 62
    18
420
        0
370
     5
100
AcDbSpline
210
0.0
220
0.0
230
1.0
 70
     8
 71
     3
 72
     8
 73
     4
 74
     0
 42
0.0000000001
 43
0.0000000001
 40
0.0
 40
0.0
 40
0.0
 40
0.0
 40
1.0
 40
1.0
 40
1.0
 40
1.0
 10
94.75957693452778
 20
166.6246365464337
 30
0.0
 10
94.75957693452778
 20
166.5126116156535
 30
0.0
 10
94.8621957803939
 20
166.4217974660244
 30
0.0
 10
94.98878254194719
 20
166.4217974660244
 30
0.0
  0
LINE
  5
17E
330
BA
100
AcDbEntity
  8
Sichtbar schmal (ISO)
 62
    18
420
        0
370
     5
100
AcDbLine
 10
94.75957693452778
 20
166.6246365464337
 30
0.0
 11
94.75957693452778
 21
166.7970497647813
 31
0.0
  0
SPLINE
  5
17F
330
BA
100
AcDbEntity
  8
Sichtbar schmal (ISO)
 62
    18
420
        0
370
     5
100
AcDbSpline
210
0.0
220
0.0
230
1.0
 70
     8
 71
     3
 72
     8
 73
     4
 74
     0
 42
0.0000000001
 43
0.0000000001
 40
0.0
 40
0.0
 40
0.0
 40
0.0
 40
1.0
 40
1.0
 40
1.0
 40
1.0
 10
94.98878254194719
 20
166.9998888451906
 30
0.0
 10
94.8621957803939
 20
166.9998888451906
 30
0.0
 10
94.75957693452778
 20
166.9090746955608
 30
0.0
 10
94.75957693452778
 20
166.7970497647813
 30
0.0
  0
LINE
  5
180
330
BA
100
AcDbEntity
  8
Sichtbar schmal (ISO)
 62
    18
420
        0
370
     5
100
AcDbLine
 10
94.98878254194719
 20
166.9998888451906
 30
0.0
 11
97.51004422356004
 21
166.9998888451906
 31
0.0
  0
LINE
  5
181
330
BA
100
AcDbEntity
  8
Sichtbar schmal (ISO)
 62
    18
420
        0
370
     5
100
AcDbLine
 10
97.51004422356004
 20
166.9998888451906
 30
0.0
 11
97.51004422356004
 21
167.2027279255991
 31
0.0
  0
LINE
  5
182
330
BA
100
AcDbEntity
  8
Sichtbar schmal (ISO)
 62
    18
420
        0
370
     5
100
AcDbLine
 10
97.51004422356004
 20
167.2027279255991
 30
0.0
 11
98.88527786807584
 21
167.2027279255991
 31
0.0
  0
LINE
  5
183
330
BA
100
AcDbEntity
  8
Sichtbar schmal (ISO)
 62
    18
420
        0
370
     5
100
AcDbLine
 10
98.88527786807584
 20
167.2027279255991
 30
0.0
 11
98.88527786807584
 21
166.9998888451906
 31
0.0
  0
LINE
  5
184
330
BA
100
AcDbEntity
  8
Sichtbar schmal (ISO)
 62
    18
420
        0
370
     5
100
AcDbLine
 10
98.88527786807584
 20
166.9998888451906
 30
0.0
 11
101.4065395496887
 21
166.9998888451906
 31
0.0
  0
SPLINE
  5
185
330
BA
100
AcDbEntity
  8
Sichtbar schmal (ISO)
 62
    18
420
        0
370
     5
100
AcDbSpline
210
0.0
220
0.0
230
1.0
 70
     8
 71
     3
 72
     8
 73
     4
 74
     0
 42
0.0000000001
 43
0.0000000001
 40
0.0
 40
0.0
 40
0.0
 40
0.0
 40
1.0
 40
1.0
 40
1.0
 40
1.0
 10
101.635745157108
 20
166.7970497647813
 30
0.0
 10
101.635745157108
 20
166.9090746955608
 30
0.0
 10
101.5331263112419
 20
166.9998888451906
 30
0.0
 10
101.4065395496887
 20
166.9998888451906
 30
0.0
  0
LINE
  5
186
330
BA
100
AcDbEntity
  8
Sichtbar schmal (ISO)
 62
    18
420
        0
370
     5
100
AcDbLine
 10
101.635745157108
 20
166.7970497647813
 30
0.0
 11
101.635745157108
 21
166.6246365464337
 31
0.0
  0
SPLINE
  5
187
330
BA
100
AcDbEntity
  8
Sichtbar schmal (ISO)
 62
    18
420
        0
370
     5
100
AcDbSpline
210
0.0
220
0.0
230
1.0
 70
     8
 71
     3
 72
     8
 73
     4
 74
     0
 42
0.0000000001
 43
0.0000000001
 40
0.0
 40
0.0
 40
0.0
 40
0.0
 40
1.0
 40
1.0
 40
1.0
 40
1.0
 10
101.4065395496887
 20
166.4217974660244
 30
0.0
 10
101.5331263112419
 20
166.4217974660244
 30
0.0
 10
101.635745157108
 20
166.5126116156535
 30
0.0
 10
101.635745157108
 20
166.6246365464337
 30
0.0
  0
LINE
  5
188
330
BA
100
AcDbEntity
  8
Sichtbar schmal (ISO)
 62
    18
420
        0
370
     5
100
AcDbLine
 10
101.4065395496887
 20
166.4217974660244
 30
0.0
 11
98.89673814844694
 21
166.4217974660244
 31
0.0
  0
LINE
  5
189
330
BA
100
AcDbEntity
  8
Sichtbar schmal (ISO)
 62
    18
420
        0
370
     5
100
AcDbLine
 10
98.89673814844694
 20
166.4217974660244
 30
0.0
 11
98.89673814844694
 21
166.6246365464337
 31
0.0
  0
LINE
  5
18A
330
BA
100
AcDbEntity
  8
Sichtbar schmal (ISO)
 62
    18
420
        0
370
     5
100
AcDbLine
 10
98.89673814844694
 20
166.6246365464337
 30
0.0
 11
97.49858394318891
 21
166.6246365464337
 31
0.0
  0
LINE
  5
18B
330
BA
100
AcDbEntity
  8
Sichtbar schmal (ISO)
 62
    18
420
        0
370
     5
100
AcDbLine
 10
91.36733394472178
 20
165.6814348225313
 30
0.0
 11
91.66530123436691
 21
165.6814348225313
 31
0.0
  0
LINE
  5
18C
330
BA
100
AcDbEntity
  8
Sichtbar schmal (ISO)
 62
    18
420
        0
370
     5
100
AcDbLine
 10
91.66530123436691
 20
170.5495727523484
 30
0.0
 11
90.97768441210869
 21
170.5495727523484
 31
0.0
  0
LINE
  5
18D
330
BA
100
AcDbEntity
  8
Sichtbar schmal (ISO)
 62
    18
420
        0
370
     5
100
AcDbLine
 10
88.22721712307677
 20
170.5495727523484
 30
0.0
 11
87.53960030081886
 21
170.5495727523484
 31
0.0
  0
LINE
  5
18E
330
BA
100
AcDbEntity
  8
Sichtbar schmal (ISO)
 62
    18
420
        0
370
     5
100
AcDbLine
 10
91.66530123436691
 20
170.1438945915306
 30
0.0
 11
91.66530123436691
 21
165.6814348225313
 31
0.0
  0
LINE
  5
18F
330
BA
100
AcDbEntity
  8
Sichtbar schmal (ISO)
 62
    18
420
        0
370
     5
100
AcDbLine
 10
91.66530123436691
 20
172.9836417172577
 30
0.0
 11
91.66530123436691
 21
170.5495727523484
 31
0.0
  0
LINE
  5
190
330
BA
100
AcDbEntity
  8
Sichtbar schmal (ISO)
 62
    18
420
        0
370
     5
100
AcDbLine
 10
87.53960030081886
 20
170.1438945915306
 30
0.0
 11
88.22721712307677
 21
170.1438945915306
 31
0.0
  0
LINE
  5
191
330
BA
100
AcDbEntity
  8
Sichtbar schmal (ISO)
 62
    18
420
        0
370
     5
100
AcDbLine
 10
90.97768441210869
 20
170.1438945915306
 30
0.0
 11
91.66530123436691
 21
170.1438945915306
 31
0.0
  0
LINE
  5
192
330
BA
100
AcDbEntity
  8
Sichtbar schmal (ISO)
 62
    18
420
        0
370
     5
100
AcDbLine
 10
92.58212366404421
 20
165.6814348225313
 30
0.0
 11
91.66530123436691
 21
165.6814348225313
 31
0.0
  0
LINE
  5
193
330
BA
100
AcDbEntity
  8
Sichtbar schmal (ISO)
 62
    18
420
        0
370
     5
100
AcDbLine
 10
92.58212366404421
 20
165.6814348225313
 30
0.0
 11
92.58212366404421
 21
172.5779635564393
 31
0.0
  0
LINE
  5
194
330
BA
100
AcDbEntity
  8
Sichtbar schmal (ISO)
 62
    18
420
        0
370
     5
100
AcDbLine
 10
92.58212366404421
 20
172.5779635564393
 30
0.0
 11
93.72815170114092
 21
172.5779635564393
 31
0.0
  0
LINE
  5
195
330
BA
100
AcDbEntity
  8
Sichtbar schmal (ISO)
 62
    18
420
        0
370
     5
100
AcDbLine
 10
93.72815170114092
 20
165.6814348225313
 30
0.0
 11
93.72815170114092
 21
172.5779635564393
 31
0.0
  0
LINE
  5
196
330
BA
100
AcDbEntity
  8
Sichtbar schmal (ISO)
 62
    18
420
        0
370
     5
100
AcDbLine
 10
94.64497413081824
 20
165.6814348225313
 30
0.0
 11
93.72815170114092
 21
165.6814348225313
 31
0.0
  0
LINE
  5
197
330
BA
100
AcDbEntity
  8
Sichtbar schmal (ISO)
 62
    18
420
        0
370
     5
100
AcDbLine
 10
94.64497413081824
 20
165.6814348225313
 30
0.0
 11
94.64497413081824
 21
172.5779635564393
 31
0.0
  0
LINE
  5
198
330
BA
100
AcDbEntity
  8
Sichtbar schmal (ISO)
 62
    18
420
        0
370
     5
100
AcDbLine
 10
94.64497413081824
 20
172.5779635564393
 30
0.0
 11
101.6678339421465
 21
172.5779635564393
 31
0.0
  0
LINE
  5
199
330
BA
100
AcDbEntity
  8
Sichtbar schmal (ISO)
 62
    18
420
        0
370
     5
100
AcDbLine
 10
91.66530123436691
 20
172.9836417172577
 30
0.0
 11
101.6678339421465
 21
172.9836417172577
 31
0.0
  0
LINE
  5
19A
330
BA
100
AcDbEntity
  8
Sichtbar schmal (ISO)
 62
    18
420
        0
370
     5
100
AcDbLine
 10
87.53960030081886
 20
172.9836417172577
 30
0.0
 11
87.53960030081886
 21
170.5495727523484
 31
0.0
  0
LINE
  5
19B
330
BA
100
AcDbEntity
  8
Sichtbar schmal (ISO)
 62
    18
420
        0
370
     5
100
AcDbLine
 10
87.53960030081886
 20
172.9836417172577
 30
0.0
 11
77.53706759303923
 21
172.9836417172577
 31
0.0
  0
LINE
  5
19C
330
BA
100
AcDbEntity
  8
Sichtbar schmal (ISO)
 62
    18
420
        0
370
     5
100
AcDbLine
 10
84.55992740436753
 20
165.6814348225313
 30
0.0
 11
84.55992740436753
 21
172.5779635564393
 31
0.0
  0
LINE
  5
19D
330
BA
100
AcDbEntity
  8
Sichtbar schmal (ISO)
 62
    18
420
        0
370
     5
100
AcDbLine
 10
84.55992740436753
 20
165.6814348225313
 30
0.0
 11
85.47674983404483
 21
165.6814348225313
 31
0.0
  0
LINE
  5
19E
330
BA
100
AcDbEntity
  8
Sichtbar schmal (ISO)
 62
    18
420
        0
370
     5
100
AcDbLine
 10
85.47674983404483
 20
165.6814348225313
 30
0.0
 11
85.47674983404483
 21
172.5779635564393
 31
0.0
  0
LINE
  5
19F
330
BA
100
AcDbEntity
  8
Sichtbar schmal (ISO)
 62
    18
420
        0
370
     5
100
AcDbLine
 10
86.62277787114156
 20
165.6814348225313
 30
0.0
 11
86.62277787114156
 21
172.5779635564393
 31
0.0
  0
LINE
  5
1A0
330
BA
100
AcDbEntity
  8
Sichtbar schmal (ISO)
 62
    18
420
        0
370
     5
100
AcDbLine
 10
86.62277787114156
 20
165.6814348225313
 30
0.0
 11
87.53960030081886
 21
165.6814348225313
 31
0.0
  0
LINE
  5
1A1
330
BA
100
AcDbEntity
  8
Sichtbar schmal (ISO)
 62
    18
420
        0
370
     5
100
AcDbLine
 10
87.53960030081886
 20
170.1438945915306
 30
0.0
 11
87.53960030081886
 21
165.6814348225313
 31
0.0
  0
LINE
  5
1A2
330
BA
100
AcDbEntity
  8
Sichtbar schmal (ISO)
 62
    18
420
        0
370
     5
100
AcDbLine
 10
107.6409320714933
 20
165.6814348225313
 30
0.0
 11
108.0535021648495
 21
165.6814348225313
 31
0.0
  0
LINE
  5
1A3
330
BA
100
AcDbEntity
  8
Sichtbar schmal (ISO)
 62
    18
420
        0
370
     5
100
AcDbLine
 10
107.4804881463008
 20
165.6814348225313
 30
0.0
 11
107.6409320714933
 21
165.6814348225313
 31
0.0
  0
LINE
  5
1A4
330
BA
100
AcDbEntity
  8
Sichtbar schmal (ISO)
 62
    18
420
        0
370
     5
100
AcDbLine
 10
107.4804881463008
 20
165.6814348225313
 30
0.0
 11
103.3867433673712
 21
165.6814348225313
 31
0.0
  0
LINE
  5
1A5
330
BA
100
AcDbEntity
  8
Sichtbar schmal (ISO)
 62
    18
420
        0
370
     5
100
AcDbLine
 10
102.4379647830758
 20
165.6814348225313
 30
0.0
 11
103.0568199231077
 21
165.6814348225313
 31
0.0
  0
LINE
  5
1A6
330
BA
100
AcDbEntity
  8
Sichtbar schmal (ISO)
 62
    18
420
        0
370
     5
100
AcDbLine
 10
90.97768441210869
 20
165.6814348225313
 30
0.0
 11
91.36733394472178
 21
165.6814348225313
 31
0.0
  0
LINE
  5
1A7
330
BA
100
AcDbEntity
  8
Sichtbar schmal (ISO)
 62
    18
420
        0
370
     5
100
AcDbLine
 10
88.22721712307677
 20
165.6814348225313
 30
0.0
 11
87.83756759046401
 21
165.6814348225313
 31
0.0
  0
LINE
  5
1A8
330
BA
100
AcDbEntity
  8
Sichtbar schmal (ISO)
 62
    18
420
        0
370
     5
100
AcDbLine
 10
76.76693675211025
 20
165.6814348225313
 30
0.0
 11
76.14808161207808
 21
165.6814348225313
 31
0.0
  0
LINE
  5
1A9
330
BA
100
AcDbEntity
  8
Sichtbar schmal (ISO)
 62
    18
420
        0
370
     5
100
AcDbLine
 10
71.72441338888489
 20
165.6814348225313
 30
0.0
 11
75.81815816781517
 21
165.6814348225313
 31
0.0
  0
LINE
  5
1AA
330
BA
100
AcDbEntity
  8
Sichtbar schmal (ISO)
 62
    18
420
        0
370
     5
100
AcDbLine
 10
71.56396946369219
 20
165.6814348225313
 30
0.0
 11
71.72441338888489
 21
165.6814348225313
 31
0.0
  0
LINE
  5
1AB
330
BA
100
AcDbEntity
  8
Sichtbar schmal (ISO)
 62
    18
420
        0
370
     5
100
AcDbLine
 10
71.15139937033655
 20
165.6814348225313
 30
0.0
 11
71.56396946369219
 21
165.6814348225313
 31
0.0
  0
LINE
  5
1AC
330
BA
100
AcDbEntity
  8
Sichtbar schmal (ISO)
 62
    18
420
        0
370
     5
100
AcDbLine
 10
107.4804881463008
 20
173.9978371193025
 30
0.0
 11
107.4804881463008
 21
173.8964175790982
 31
0.0
  0
LINE
  5
1AD
330
BA
100
AcDbEntity
  8
Sichtbar schmal (ISO)
 62
    18
420
        0
370
     5
100
AcDbLine
 10
107.4804881463008
 20
173.8964175790982
 30
0.0
 11
107.4804881463008
 21
165.6814348225313
 31
0.0
  0
LINE
  5
1AE
330
BA
100
AcDbEntity
  8
Sichtbar schmal (ISO)
 62
    18
420
        0
370
     5
100
AcDbLine
 10
108.0535021648495
 20
171.9694463152123
 30
0.0
 11
108.0535021648495
 21
165.6814348225313
 31
0.0
  0
LINE
  5
1AF
330
BA
100
AcDbEntity
  8
Sichtbar schmal (ISO)
 62
    18
420
        0
370
     5
100
AcDbLine
 10
107.6409320714933
 20
171.9694463152123
 30
0.0
 11
108.0535021648495
 21
171.9694463152123
 31
0.0
  0
LINE
  5
1B0
330
BA
100
AcDbEntity
  8
Sichtbar schmal (ISO)
 62
    18
420
        0
370
     5
100
AcDbLine
 10
108.0535021648495
 20
173.9978371193025
 30
0.0
 11
108.0535021648495
 21
171.9694463152123
 31
0.0
  0
LINE
  5
1B1
330
BA
100
AcDbEntity
  8
Sichtbar schmal (ISO)
 62
    18
420
        0
370
     5
100
AcDbLine
 10
107.4804881463008
 20
172.5779635564393
 30
0.0
 11
107.6409320714933
 21
172.5779635564393
 31
0.0
  0
LINE
  5
1B2
330
BA
100
AcDbEntity
  8
Sichtbar schmal (ISO)
 62
    18
420
        0
370
     5
100
AcDbLine
 10
71.72441338888489
 20
173.8964175790982
 30
0.0
 11
71.72441338888489
 21
165.6814348225313
 31
0.0
  0
LINE
  5
1B3
330
BA
100
AcDbEntity
  8
Sichtbar schmal (ISO)
 62
    18
420
        0
370
     5
100
AcDbLine
 10
71.72441338888489
 20
173.9978371193025
 30
0.0
 11
71.72441338888489
 21
173.8964175790982
 31
0.0
  0
LINE
  5
1B4
330
BA
100
AcDbEntity
  8
Sichtbar schmal (ISO)
 62
    18
420
        0
370
     5
100
AcDbLine
 10
71.15139937033655
 20
173.9978371193025
 30
0.0
 11
71.15139937033655
 21
173.2169066597278
 31
0.0
  0
LINE
  5
1B5
330
BA
100
AcDbEntity
  8
Sichtbar schmal (ISO)
 62
    18
420
        0
370
     5
100
AcDbLine
 10
71.15139937033655
 20
171.9390204531507
 30
0.0
 11
71.15139937033655
 21
165.6814348225313
 31
0.0
  0
LINE
  5
1B6
330
BA
100
AcDbEntity
  8
Sichtbar schmal (ISO)
 62
    18
420
        0
370
     5
100
AcDbLine
 10
71.56396946369219
 20
172.5779635564393
 30
0.0
 11
71.72441338888489
 21
172.5779635564393
 31
0.0
  0
LINE
  5
1B7
330
BA
100
AcDbEntity
  8
Sichtbar schmal (ISO)
 62
    18
420
        0
370
     5
100
AcDbLine
 10
98.88527786807648
 20
172.0708658554165
 30
0.0
 11
98.55202685026439
 21
172.0708658554165
 31
0.0
  0
LINE
  5
1B8
330
BA
100
AcDbEntity
  8
Sichtbar schmal (ISO)
 62
    18
420
        0
370
     5
100
AcDbLine
 10
98.88527786807584
 20
171.9694463152123
 30
0.0
 11
98.88527786807584
 21
172.0708658554165
 31
0.0
  0
LINE
  5
1B9
330
BA
100
AcDbEntity
  8
Sichtbar schmal (ISO)
 62
    18
420
        0
370
     5
100
AcDbLine
 10
101.6678339421465
 20
172.5779635564393
 30
0.0
 11
102.0116423532755
 21
172.5779635564393
 31
0.0
  0
LINE
  5
1BA
330
BA
100
AcDbEntity
  8
Sichtbar schmal (ISO)
 62
    18
420
        0
370
     5
100
AcDbLine
 10
102.0116423532755
 20
172.9836417172577
 30
0.0
 11
102.0116423532755
 21
172.5779635564393
 31
0.0
  0
LINE
  5
1BB
330
BA
100
AcDbEntity
  8
Sichtbar schmal (ISO)
 62
    18
420
        0
370
     5
100
AcDbLine
 10
102.0116423532755
 20
172.9836417172577
 30
0.0
 11
101.6678339421465
 21
172.9836417172577
 31
0.0
  0
LINE
  5
1BC
330
BA
100
AcDbEntity
  8
Sichtbar schmal (ISO)
 62
    18
420
        0
370
     5
100
AcDbLine
 10
98.0830582421084
 20
173.9978371193025
 30
0.0
 11
98.0830582421084
 21
172.9836417172577
 31
0.0
  0
LINE
  5
1BD
330
BA
100
AcDbEntity
  8
Sichtbar schmal (ISO)
 62
    18
420
        0
370
     5
100
AcDbLine
 10
99.4582918866242
 20
173.9978371193025
 30
0.0
 11
99.4582918866242
 21
172.9836417172577
 31
0.0
  0
LINE
  5
1BE
330
BA
100
AcDbEntity
  8
Sichtbar schmal (ISO)
 62
    18
420
        0
370
     5
100
AcDbLine
 10
76.76693675211025
 20
172.5779635564393
 30
0.0
 11
76.14808161207808
 21
172.5779635564393
 31
0.0
  0
LINE
  5
1BF
330
BA
100
AcDbEntity
  8
Sichtbar schmal (ISO)
 62
    18
420
        0
370
     5
100
AcDbLine
 10
102.4379647830758
 20
172.5779635564393
 30
0.0
 11
103.0568199231077
 21
172.5779635564393
 31
0.0
  0
LINE
  5
1C0
330
BA
100
AcDbEntity
  8
Sichtbar schmal (ISO)
 62
    18
420
        0
370
     5
100
AcDbLine
 10
77.19325918191028
 20
172.9836417172577
 30
0.0
 11
77.53706759303923
 21
172.9836417172577
 31
0.0
  0
LINE
  5
1C1
330
BA
100
AcDbEntity
  8
Sichtbar schmal (ISO)
 62
    18
420
        0
370
     5
100
AcDbLine
 10
81.12184329307739
 20
173.9978371193025
 30
0.0
 11
81.12184329307739
 21
172.9836417172577
 31
0.0
  0
LINE
  5
1C2
330
BA
100
AcDbEntity
  8
Sichtbar schmal (ISO)
 62
    18
420
        0
370
     5
100
AcDbLine
 10
79.74660964856159
 20
173.9978371193025
 30
0.0
 11
79.74660964856159
 21
172.9836417172577
 31
0.0
  0
LINE
  5
1C3
330
BA
100
AcDbEntity
  8
Sichtbar schmal (ISO)
 62
    18
420
        0
370
     5
100
AcDbLine
 10
77.19325918191028
 20
172.9836417172577
 30
0.0
 11
77.19325918191028
 21
172.5779635564393
 31
0.0
  0
LINE
  5
1C4
330
BA
100
AcDbEntity
  8
Sichtbar schmal (ISO)
 62
    18
420
        0
370
     5
100
AcDbLine
 10
107.6409320714933
 20
172.5779635564393
 30
0.0
 11
107.6409320714933
 21
165.6814348225313
 31
0.0
  0
LINE
  5
1C5
330
BA
100
AcDbEntity
  8
Sichtbar schmal (ISO)
 62
    18
420
        0
370
     5
100
AcDbLine
 10
71.56396946369219
 20
172.5779635564393
 30
0.0
 11
71.56396946369219
 21
165.6814348225313
 31
0.0
  0
LINE
  5
1C6
330
BA
100
AcDbEntity
  8
Sichtbar schmal (ISO)
 62
    18
420
        0
370
     5
100
AcDbLine
 10
98.93359660101964
 20
172.5778299505154
 30
0.0
 11
98.93359660101964
 21
172.5779635564393
 31
0.0
  0
LINE
  5
1C7
330
BA
100
AcDbEntity
  8
Sichtbar schmal (ISO)
 62
    18
420
        0
370
     5
100
AcDbLine
 10
98.9336983695154
 20
172.5779635594514
 30
0.0
 11
98.93363074970748
 21
172.5778744970811
 31
0.0
  0
LINE
  5
1C8
330
BA
100
AcDbEntity
  8
Sichtbar schmal (ISO)
 62
    18
420
        0
370
     5
100
AcDbLine
 10
80.59714800747315
 20
172.5778299505154
 30
0.0
 11
80.59714800747315
 21
172.5779635564393
 31
0.0
  0
LINE
  5
1C9
330
BA
100
AcDbEntity
  8
Sichtbar schmal (ISO)
 62
    18
420
        0
370
     5
100
AcDbLine
 10
80.59724977596861
 20
172.5779635594514
 30
0.0
 11
80.59718215616069
 21
172.5778744970811
 31
0.0
  0
LINE
  5
1CA
330
BA
100
AcDbEntity
  8
Sichtbar schmal (ISO)
 62
    18
420
        0
370
     5
100
AcDbLine
 10
70.15115503154523
 20
173.2169066597278
 30
0.0
 11
71.15139937033655
 21
173.2169066597278
 31
0.0
  0
LINE
  5
1CB
330
BA
100
AcDbEntity
  8
Sichtbar schmal (ISO)
 62
    18
420
        0
370
     5
100
AcDbLine
 10
70.15115503154523
 20
171.9390204531507
 30
0.0
 11
70.15115503154523
 21
173.2169066597278
 31
0.0
  0
LINE
  5
1CC
330
BA
100
AcDbEntity
  8
Sichtbar schmal (ISO)
 62
    18
420
        0
370
     5
100
AcDbLine
 10
71.15139937033655
 20
171.9390204531507
 30
0.0
 11
70.15115503154523
 21
171.9390204531507
 31
0.0
  0
LINE
  5
1CD
330
BA
100
AcDbEntity
  8
Sichtbar schmal (ISO)
 62
    18
420
        0
370
     5
100
AcDbLine
 10
71.49165691327124
 20
171.5637681543938
 30
0.0
 11
71.28566490659074
 21
171.5637681543938
 31
0.0
  0
LINE
  5
1CE
330
BA
100
AcDbEntity
  8
Sichtbar schmal (ISO)
 62
    18
420
        0
370
     5
100
AcDbLine
 10
71.28566490659074
 20
173.5921589584844
 30
0.0
 11
71.49165691327124
 21
173.5921589584844
 31
0.0
  0
ELLIPSE
  5
1CF
330
BA
100
AcDbEntity
  8
Sichtbar schmal (ISO)
 62
    18
420
        0
370
     5
100
AcDbEllipse
 10
70.67302957406645
 20
172.5779635564393
 30
0.0
 11
0.0
 21
0.177484195357826
 31
0.0
210
0.0
220
0.0
230
1.0
 40
0.799021761315129
 41
0.0
 42
6.283185307179586
  0
LINE
  5
1D0
330
BA
100
AcDbEntity
  8
Sichtbar schmal (ISO)
 62
    18
420
        0
370
     5
100
AcDbLine
 10
70.15115503154523
 20
173.2169066597278
 30
0.0
 11
70.02797967368323
 21
173.2169066597278
 31
0.0
  0
LINE
  5
1D1
330
BA
100
AcDbEntity
  8
Sichtbar schmal (ISO)
 62
    18
420
        0
370
     5
100
AcDbLine
 10
70.02797967368323
 20
171.9390204531507
 30
0.0
 11
70.15115503154523
 21
171.9390204531507
 31
0.0
  0
LINE
  5
1D2
330
BA
100
AcDbEntity
  8
Sichtbar schmal (ISO)
 62
    18
420
        0
370
     5
100
AcDbLine
 10
71.28566490659074
 20
171.5637681543938
 30
0.0
 11
71.16248954872874
 21
171.5637681543938
 31
0.0
  0
LINE
  5
1D3
330
BA
100
AcDbEntity
  8
Sichtbar schmal (ISO)
 62
    18
420
        0
370
     5
100
AcDbLine
 10
71.49165691327157
 20
171.5637681543938
 30
0.0
 11
71.56396946369219
 21
171.5637681543938
 31
0.0
  0
LINE
  5
1D4
330
BA
100
AcDbEntity
  8
Sichtbar schmal (ISO)
 62
    18
420
        0
370
     5
100
AcDbLine
 10
71.60981058517504
 20
172.5779635564393
 30
0.0
 11
71.60981058517504
 21
173.5921589584844
 31
0.0
  0
LINE
  5
1D5
330
BA
100
AcDbEntity
  8
Sichtbar schmal (ISO)
 62
    18
420
        0
370
     5
100
AcDbLine
 10
71.60981058517504
 20
173.5921589584844
 30
0.0
 11
71.49165691327157
 21
173.5921589584844
 31
0.0
  0
LINE
  5
1D6
330
BA
100
AcDbEntity
  8
Sichtbar schmal (ISO)
 62
    18
420
        0
370
     5
100
AcDbLine
 10
71.16248954872874
 20
173.5921589584844
 30
0.0
 11
71.28566490659074
 21
173.5921589584844
 31
0.0
  0
LINE
  5
1D7
330
BA
100
AcDbEntity
  8
Sichtbar schmal (ISO)
 62
    18
420
        0
370
     5
100
AcDbLine
 10
70.02797967368323
 20
171.9390204531507
 30
0.0
 11
69.90933412079451
 21
172.1418595335599
 31
0.0
  0
LINE
  5
1D8
330
BA
100
AcDbEntity
  8
Sichtbar schmal (ISO)
 62
    18
420
        0
370
     5
100
AcDbLine
 10
69.90933412079451
 20
172.1418595335599
 30
0.0
 11
69.90933412079451
 21
173.0140675793186
 31
0.0
  0
LINE
  5
1D9
330
BA
100
AcDbEntity
  8
Sichtbar schmal (ISO)
 62
    18
420
        0
370
     5
100
AcDbLine
 10
69.90933412079451
 20
173.0140675793186
 30
0.0
 11
70.02797967368323
 21
173.2169066597278
 31
0.0
  0
ENDBLK
  5
BD
330
BA
100
AcDbEntity
  8
0
100
AcDbBlockEnd
  0
BLOCK
  5
1DC
330
1DA
100
AcDbEntity
  8
0
100
AcDbBlockBegin
  2
Block_16
 70
     0
 10
0.0
 20
0.0
 30
0.0
  3
Block_16
  1

  0
SPLINE
  5
1DE
330
1DA
100
AcDbEntity
  8
Sichtbar schmal (ISO)
 62
    18
420
        0
370
     5
100
AcDbSpline
210
0.0
220
0.0
230
1.0
 70
     8
 71
     3
 72
    17
 73
    13
 74
     0
 42
0.0000000001
 43
0.0000000001
 40
0.0
 40
0.0
 40
0.0
 40
0.0
 40
1.0
 40
1.0
 40
1.0
 40
2.0
 40
2.0
 40
2.0
 40
3.0
 40
3.0
 40
3.0
 40
4.0
 40
4.0
 40
4.0
 40
4.0
 10
65.03710969378239
 20
138.4723625905683
 30
0.0
 10
63.62140882834186
 20
125.0028685986143
 30
0.0
 10
73.39293883487991
 20
112.9360339785426
 30
0.0
 10
86.86243282683392
 20
111.5203331131017
 30
0.0
 10
100.3319268187882
 20
110.1046322476615
 30
0.0
 10
112.3987614388596
 20
119.8761622541993
 30
0.0
 10
113.8144623042999
 20
133.3456562461539
 30
0.0
 10
115.2301631697414
 20
146.8151502381079
 30
0.0
 10
105.458633163203
 20
158.8819848581796
 30
0.0
 10
91.98913917124901
 20
160.2976857236199
 30
0.0
 10
78.52047632990949
 20
161.713299231611
 30
0.0
 10
66.454122346572
 20
151.9430301487854
 30
0.0
 10
65.03733348141117
 20
138.4744908943142
 30
0.0
  0
SPLINE
  5
1DF
330
1DA
100
AcDbEntity
  8
Sichtbar schmal (ISO)
 62
    18
420
        0
370
     5
100
AcDbSpline
210
0.0
220
0.0
230
1.0
 70
     8
 71
     3
 72
     8
 73
     4
 74
     0
 42
0.0000000001
 43
0.0000000001
 40
0.0
 40
0.0
 40
0.0
 40
0.0
 40
1.0
 40
1.0
 40
1.0
 40
1.0
 10
66.04871427272553
 20
135.9294097670942
 30
0.0
 10
66.04870240428299
 20
135.9158095371943
 30
0.0
 10
66.04870240428299
 20
135.9022092995299
 30
0.0
 10
66.04871427272553
 20
135.88860906963
 30
0.0
  0
SPLINE
  5
1E0
330
1DA
100
AcDbEntity
  8
Sichtbar schmal (ISO)
 62
    18
420
        0
370
     5
100
AcDbSpline
210
0.0
220
0.0
230
1.0
 70
     8
 71
     3
 72
    17
 73
    13
 74
     0
 42
0.0000000001
 43
0.0000000001
 40
0.0
 40
0.0
 40
0.0
 40
0.0
 40
1.0
 40
1.0
 40
1.0
 40
2.0
 40
2.0
 40
2.0
 40
3.0
 40
3.0
 40
3.0
 40
4.0
 40
4.0
 40
4.0
 40
4.0
 10
65.59034031730757
 20
135.888209062792
 30
0.0
 10
65.60182803648062
 20
122.72425590735
 30
0.0
 10
76.28263319917114
 20
112.0620760174564
 30
0.0
 10
89.44658635461312
 20
112.0735637366291
 30
0.0
 10
102.6105395100547
 20
112.0850514558025
 30
0.0
 10
113.2727193999484
 20
122.7658566184927
 30
0.0
 10
113.2612316807757
 20
135.9298097739347
 30
0.0
 10
113.2497439616017
 20
149.0937629293767
 30
0.0
 10
102.5689387989121
 20
159.7559428192703
 30
0.0
 10
89.40498564346981
 20
159.7444551000976
 30
0.0
 10
76.25727563748622
 20
159.7329815557499
 30
0.0
 10
65.60181386165172
 20
149.0775197799125
 30
0.0
 10
65.59034031730757
 20
135.9298097739289
 30
0.0
  0
LINE
  5
1E1
330
1DA
100
AcDbEntity
  8
Sichtbar schmal (ISO)
 62
    18
420
        0
370
     5
100
AcDbLine
 10
65.59034031730757
 20
135.8882090627888
 30
0.0
 11
66.04871427272553
 21
135.8886090696268
 31
0.0
  0
LINE
  5
1E2
330
1DA
100
AcDbEntity
  8
Sichtbar schmal (ISO)
 62
    18
420
        0
370
     5
100
AcDbLine
 10
65.59034031730307
 20
135.9298097739321
 30
0.0
 11
66.04871427271527
 21
135.9294097670942
 31
0.0
  0
SPLINE
  5
1E3
330
1DA
100
AcDbEntity
  8
Sichtbar schmal (ISO)
 62
    18
420
        0
370
     5
100
AcDbSpline
210
0.0
220
0.0
230
1.0
 70
     8
 71
     3
 72
    17
 73
    13
 74
     0
 42
0.0000000001
 43
0.0000000001
 40
0.0
 40
0.0
 40
0.0
 40
0.0
 40
1.0
 40
1.0
 40
1.0
 40
2.0
 40
2.0
 40
2.0
 40
3.0
 40
3.0
 40
3.0
 40
4.0
 40
4.0
 40
4.0
 40
4.0
 10
66.04871427272553
 20
135.8886090696306
 30
0.0
 10
66.05998107422067
 20
122.9778088594855
 30
0.0
 10
76.53538613762716
 20
112.5206708905504
 30
0.0
 10
89.44618634777226
 20
112.5319376920455
 30
0.0
 10
102.356986557917
 20
112.5432044935406
 30
0.0
 10
112.8141245268525
 20
123.0186095569471
 30
0.0
 10
112.8028577253567
 20
135.9294097670922
 30
0.0
 10
112.7915909238622
 20
148.8402099772373
 30
0.0
 10
102.3161858604557
 20
159.2973479461731
 30
0.0
 10
89.40538565031067
 20
159.2860811446774
 30
0.0
 10
76.51051622136535
 20
159.2748282454155
 30
0.0
 10
66.05996717198777
 20
148.8242791960379
 30
0.0
 10
66.04871427272553
 20
135.9294097670922
 30
0.0
  0
LINE
  5
1E4
330
1DA
100
AcDbEntity
  8
Sichtbar schmal (ISO)
 62
    18
420
        0
370
     5
100
AcDbLine
 10
113.2612407566435
 20
135.7944158858724
 30
0.0
 11
113.2612407566435
 21
136.0236029508498
 31
0.0
  0
LINE
  5
1E5
330
1DA
100
AcDbEntity
  8
Sichtbar schmal (ISO)
 62
    18
420
        0
370
     5
100
AcDbLine
 10
113.2609652898291
 20
136.0236029508498
 30
0.0
 11
113.2612407566435
 21
136.0236029508498
 31
0.0
  0
LINE
  5
1E6
330
1DA
100
AcDbEntity
  8
Sichtbar schmal (ISO)
 62
    18
420
        0
370
     5
100
AcDbLine
 10
113.2609652898291
 20
135.7944158858724
 30
0.0
 11
113.2612407566435
 21
135.7944158858724
 31
0.0
  0
LINE
  5
1E7
330
1DA
100
AcDbEntity
  8
Sichtbar schmal (ISO)
 62
    18
420
        0
370
     5
100
AcDbLine
 10
77.40895544340306
 20
115.3244354150263
 30
0.0
 11
77.40881770999618
 21
115.3241968537681
 31
0.0
  0
LINE
  5
1E8
330
1DA
100
AcDbEntity
  8
Sichtbar schmal (ISO)
 62
    18
420
        0
370
     5
100
AcDbLine
 10
77.40895544340306
 20
156.4935834216959
 30
0.0
 11
77.40881770999618
 21
156.4938219829541
 31
0.0
  0
LINE
  5
1E9
330
1DA
100
AcDbEntity
  8
Sichtbar schmal (ISO)
 62
    18
420
        0
370
     5
100
AcDbLine
 10
112.5487051216814
 20
139.346815393015
 30
0.0
 11
112.5278421487168
 21
139.346815393015
 31
0.0
  0
LINE
  5
1EA
330
1DA
100
AcDbEntity
  8
Sichtbar schmal (ISO)
 62
    18
420
        0
370
     5
100
AcDbLine
 10
112.5278421487168
 20
139.346815393015
 30
0.0
 11
112.5278421487168
 21
132.4712034437072
 31
0.0
  0
LINE
  5
1EB
330
1DA
100
AcDbEntity
  8
Sichtbar schmal (ISO)
 62
    18
420
        0
370
     5
100
AcDbLine
 10
112.5487051216814
 20
132.4712034437072
 30
0.0
 11
112.5278421487168
 21
132.4712034437072
 31
0.0
  0
LINE
  5
1EC
330
1DA
100
AcDbEntity
  8
Sichtbar schmal (ISO)
 62
    18
420
        0
370
     5
100
AcDbLine
 10
80.84155374505357
 20
114.1650710611741
 30
0.0
 11
80.85198523153591
 21
114.1831389257597
 31
0.0
  0
LINE
  5
1ED
330
1DA
100
AcDbEntity
  8
Sichtbar schmal (ISO)
 62
    18
420
        0
370
     5
100
AcDbLine
 10
80.85198523153591
 20
114.1831389257597
 30
0.0
 11
74.89753061687138
 21
117.6209449004145
 31
0.0
  0
LINE
  5
1EE
330
1DA
100
AcDbEntity
  8
Sichtbar schmal (ISO)
 62
    18
420
        0
370
     5
100
AcDbLine
 10
74.88709913038872
 20
117.6028770358283
 30
0.0
 11
74.89753061687138
 21
117.6209449004145
 31
0.0
  0
LINE
  5
1EF
330
1DA
100
AcDbEntity
  8
Sichtbar schmal (ISO)
 62
    18
420
        0
370
     5
100
AcDbLine
 10
74.88709913038872
 20
154.2151418008939
 30
0.0
 11
74.89753061687138
 21
154.1970739363083
 31
0.0
  0
LINE
  5
1F0
330
1DA
100
AcDbEntity
  8
Sichtbar schmal (ISO)
 62
    18
420
        0
370
     5
100
AcDbLine
 10
74.89753061687138
 20
154.1970739363083
 30
0.0
 11
80.85198523153591
 21
157.6348799109625
 31
0.0
  0
LINE
  5
1F1
330
1DA
100
AcDbEntity
  8
Sichtbar schmal (ISO)
 62
    18
420
        0
370
     5
100
AcDbLine
 10
80.84155374505357
 20
157.6529477755481
 30
0.0
 11
80.85198523153591
 21
157.6348799109625
 31
0.0
  0
SPLINE
  5
1F2
330
1DA
100
AcDbEntity
  8
Sichtbar schmal (ISO)
 62
    18
420
        0
370
     5
100
AcDbSpline
210
0.0
220
0.0
230
1.0
 70
     8
 71
     3
 72
     8
 73
     4
 74
     0
 42
0.0000000001
 43
0.0000000001
 40
0.0
 40
0.0
 40
0.0
 40
0.0
 40
1.0
 40
1.0
 40
1.0
 40
1.0
 10
100.5522171664535
 20
142.3063458630843
 30
0.0
 10
100.5512106686151
 20
142.3080963930138
 30
0.0
 10
100.5499772428833
 20
142.3097062325498
 30
0.0
 10
100.548548923392
 20
142.3111335714601
 30
0.0
  0
CIRCLE
  5
1F3
330
1DA
100
AcDbEntity
  8
Sichtbar schmal (ISO)
 62
    18
420
        0
370
     5
100
AcDbCircle
 10
89.42578599904154
 20
135.9090094183609
 30
0.0
 40
13.17825623617421
  0
CIRCLE
  5
1F4
330
1DA
100
AcDbEntity
  8
Sichtbar schmal (ISO)
 62
    18
420
        0
370
     5
100
AcDbCircle
 10
79.11236807507929
 20
125.5955914943988
 30
0.0
 40
0.4583741299540609
  0
CIRCLE
  5
1F5
330
1DA
100
AcDbEntity
  8
Sichtbar schmal (ISO)
 62
    18
420
        0
370
     5
100
AcDbCircle
 10
79.11236807507929
 20
146.2224273423234
 30
0.0
 40
0.4583741299540609
  0
CIRCLE
  5
1F6
330
1DA
100
AcDbEntity
  8
Sichtbar schmal (ISO)
 62
    18
420
        0
370
     5
100
AcDbCircle
 10
99.73920392300396
 20
146.2224273423234
 30
0.0
 40
0.4583741299539807
  0
CIRCLE
  5
1F7
330
1DA
100
AcDbEntity
  8
Sichtbar schmal (ISO)
 62
    18
420
        0
370
     5
100
AcDbCircle
 10
99.73920392300396
 20
125.5955914943988
 30
0.0
 40
0.4583741299539807
  0
LINE
  5
1F8
330
1DA
100
AcDbEntity
  8
Sichtbar schmal (ISO)
 62
    18
420
        0
370
     5
100
AcDbLine
 10
100.5360453325208
 20
142.3343904695481
 30
0.0
 11
100.5347460866077
 21
142.3361046682093
 31
0.0
  0
LINE
  5
1F9
330
1DA
100
AcDbEntity
  8
Sichtbar schmal (ISO)
 62
    18
420
        0
370
     5
100
AcDbLine
 10
100.5522171664539
 20
142.3063458630843
 30
0.0
 11
100.5515309304563
 21
142.3059499733533
 31
0.0
  0
CIRCLE
  5
1FA
330
1DA
100
AcDbEntity
  8
Sichtbar schmal (ISO)
 62
    18
420
        0
370
     5
100
AcDbCircle
 10
89.42578599904178
 20
135.9090094183609
 30
0.0
 40
12.78143038820995
  0
SPLINE
  5
1FB
330
1DA
100
AcDbEntity
  8
Sichtbar schmal (ISO)
 62
    18
420
        0
370
     5
100
AcDbSpline
210
0.0
220
0.0
230
1.0
 70
     8
 71
     3
 72
     8
 73
     4
 74
     0
 42
0.0000000001
 43
0.0000000001
 40
0.0
 40
0.0
 40
0.0
 40
0.0
 40
1.0
 40
1.0
 40
1.0
 40
1.0
 10
86.65271722904909
 20
135.5997421707826
 30
0.0
 10
86.65273048702578
 20
135.5618969726161
 30
0.0
 10
86.68589055211587
 20
135.5314405302797
 30
0.0
 10
86.72707650092752
 20
135.5314455956716
 30
0.0
  0
LINE
  5
1FC
330
1DA
100
AcDbEntity
  8
Sichtbar schmal (ISO)
 62
    18
420
        0
370
     5
100
AcDbLine
 10
86.65271722904909
 20
135.599742170721
 30
0.0
 11
86.65271722208794
 21
136.2182766658992
 31
0.0
  0
SPLINE
  5
1FD
330
1DA
100
AcDbEntity
  8
Sichtbar schmal (ISO)
 62
    18
420
        0
370
     5
100
AcDbSpline
210
0.0
220
0.0
230
1.0
 70
     8
 71
     3
 72
     8
 73
     4
 74
     0
 42
0.0000000001
 43
0.0000000001
 40
0.0
 40
0.0
 40
0.0
 40
0.0
 40
1.0
 40
1.0
 40
1.0
 40
1.0
 10
86.72707645913751
 20
136.2865732410506
 30
0.0
 10
86.68589383631776
 20
136.2865812787027
 30
0.0
 10
86.65272540020049
 20
136.2561171335579
 30
0.0
 10
86.65271722208826
 20
136.2182766658883
 30
0.0
  0
LINE
  5
1FE
330
1DA
100
AcDbEntity
  8
Sichtbar schmal (ISO)
 62
    18
420
        0
370
     5
100
AcDbLine
 10
86.72707645913751
 20
136.2865732410506
 30
0.0
 11
92.12449549715541
 21
136.2865732410506
 31
0.0
  0
SPLINE
  5
1FF
330
1DA
100
AcDbEntity
  8
Sichtbar schmal (ISO)
 62
    18
420
        0
370
     5
100
AcDbSpline
210
0.0
220
0.0
230
1.0
 70
     8
 71
     3
 72
     8
 73
     4
 74
     0
 42
0.0000000001
 43
0.0000000001
 40
0.0
 40
0.0
 40
0.0
 40
0.0
 40
1.0
 40
1.0
 40
1.0
 40
1.0
 10
92.19885476903384
 20
136.2182766659396
 30
0.0
 10
92.19884151105715
 20
136.2561218641061
 30
0.0
 10
92.16568144596704
 20
136.2865783064419
 30
0.0
 10
92.12449549715541
 20
136.2865732410506
 30
0.0
  0
LINE
  5
200
330
1DA
100
AcDbEntity
  8
Sichtbar schmal (ISO)
 62
    18
420
        0
370
     5
100
AcDbLine
 10
92.19885476903384
 20
136.2182766660012
 30
0.0
 11
92.19885477599467
 21
135.599742170823
 31
0.0
  0
SPLINE
  5
201
330
1DA
100
AcDbEntity
  8
Sichtbar schmal (ISO)
 62
    18
420
        0
370
     5
100
AcDbSpline
210
0.0
220
0.0
230
1.0
 70
     8
 71
     3
 72
     8
 73
     4
 74
     0
 42
0.0000000001
 43
0.0000000001
 40
0.0
 40
0.0
 40
0.0
 40
0.0
 40
1.0
 40
1.0
 40
1.0
 40
1.0
 10
92.12449553894542
 20
135.5314455956716
 30
0.0
 10
92.16567816176196
 20
135.5314375580164
 30
0.0
 10
92.19884659788339
 20
135.561901703165
 30
0.0
 10
92.19885477599467
 20
135.5997421708339
 30
0.0
  0
LINE
  5
202
330
1DA
100
AcDbEntity
  8
Sichtbar schmal (ISO)
 62
    18
420
        0
370
     5
100
AcDbLine
 10
92.12449553894542
 20
135.5314455956716
 30
0.0
 11
86.72707650092752
 21
135.5314455956716
 31
0.0
  0
ENDBLK
  5
1DD
330
1DA
100
AcDbEntity
  8
0
100
AcDbBlockEnd
  0
BLOCK
  5
205
330
203
100
AcDbEntity
  8
0
100
AcDbBlockBegin
  2
Block_17
 70
     0
 10
0.0
 20
0.0
 30
0.0
  3
Block_17
  1

  0
INSERT
  5
208
330
203
100
AcDbEntity
  8
Sichtbar schmal (ISO)
100
AcDbBlockReference
  2
Block_18
 10
0.0
 20
0.0
 30
0.0
  0
ENDBLK
  5
206
330
203
100
AcDbEntity
  8
0
100
AcDbBlockEnd
  0
BLOCK
  5
209
330
207
100
AcDbEntity
  8
0
100
AcDbBlockBegin
  2
Block_18
 70
     0
 10
0.0
 20
0.0
 30
0.0
  3
Block_18
  1

  0
LINE
  5
20B
330
207
100
AcDbEntity
  8
Sichtbar schmal (ISO)
 62
    18
420
        0
370
     5
100
AcDbLine
 10
131.0773781342771
 20
158.2377788571962
 30
0.0
 11
131.080511017984
 21
113.718995383761
 31
0.0
  0
INSERT
  5
20D
330
207
100
AcDbEntity
  8
Sichtbar schmal (ISO)
100
AcDbBlockReference
  2
Block_19
 10
0.0
 20
0.0
 30
0.0
  0
INSERT
  5
213
330
207
100
AcDbEntity
  8
Sichtbar schmal (ISO)
100
AcDbBlockReference
  2
Block_20
 10
0.0
 20
0.0
 30
0.0
  0
ENDBLK
  5
20A
330
207
100
AcDbEntity
  8
0
100
AcDbBlockEnd
  0
BLOCK
  5
20E
330
20C
100
AcDbEntity
  8
0
100
AcDbBlockBegin
  2
Block_19
 70
     0
 10
0.0
 20
0.0
 30
0.0
  3
Block_19
  1

  0
LWPOLYLINE
  5
210
330
20C
100
AcDbEntity
  8
Sichtbar schmal (ISO)
100
AcDbPolyline
 90
        3
 70
     1
 43
0.0
 10
130.8561168767369
 20
157.6053131557213
 10
131.0766137537163
 20
159.2865089865998
 10
131.2987362851278
 20
157.6053454534914
  0
HATCH
  5
211
330
20C
100
AcDbEntity
  8
Sichtbar schmal (ISO)
 62
    18
420
        0
440
 33554687
100
AcDbHatch
 10
0.0
 20
0.0
 30
0.0
210
0.0
220
0.0
230
1.0
  2
SOLID
 70
     1
 71
     1
 91
        1
 92
        1
 93
        3
 72
     1
 10
130.8561168767369
 20
157.6053131557213
 11
131.0766137537163
 21
159.2865089865998
 72
     1
 10
131.0766137537163
 20
159.2865089865998
 11
131.2987362851278
 21
157.6053454534914
 72
     1
 10
131.2987362851278
 20
157.6053454534914
 11
130.8561168767369
 21
157.6053131557213
 97
        1
330
210
 75
     2
 76
     1
 98
        1
 10
0.0
 20
0.0
450
        0
451
        0
460
0.0
461
0.0
452
        0
462
0.0
453
        0
470

  0
ENDBLK
  5
20F
330
20C
100
AcDbEntity
  8
0
100
AcDbBlockEnd
  0
BLOCK
  5
214
330
212
100
AcDbEntity
  8
0
100
AcDbBlockBegin
  2
Block_20
 70
     0
 10
0.0
 20
0.0
 30
0.0
  3
Block_20
  1

  0
LWPOLYLINE
  5
216
330
212
100
AcDbEntity
  8
Sichtbar schmal (ISO)
100
AcDbPolyline
 90
        3
 70
     1
 43
0.0
 10
130.8591528671333
 20
114.3514287874657
 10
131.0798973603507
 20
112.6702652543574
 10
131.3017722755241
 20
114.3514610852359
  0
HATCH
  5
217
330
212
100
AcDbEntity
  8
Sichtbar schmal (ISO)
 62
    18
420
        0
440
 33554687
100
AcDbHatch
 10
0.0
 20
0.0
 30
0.0
210
0.0
220
0.0
230
1.0
  2
SOLID
 70
     1
 71
     1
 91
        1
 92
        1
 93
        3
 72
     1
 10
130.8591528671333
 20
114.3514287874657
 11
131.0798973603507
 21
112.6702652543574
 72
     1
 10
131.0798973603507
 20
112.6702652543574
 11
131.3017722755241
 21
114.3514610852359
 72
     1
 10
131.3017722755241
 20
114.3514610852359
 11
130.8591528671333
 21
114.3514287874657
 97
        1
330
216
 75
     2
 76
     1
 98
        1
 10
0.0
 20
0.0
450
        0
451
        0
460
0.0
461
0.0
452
        0
462
0.0
453
        0
470

  0
ENDBLK
  5
215
330
212
100
AcDbEntity
  8
0
100
AcDbBlockEnd
  0
BLOCK
  5
21D
330
21B
100
AcDbEntity
  8
0
100
AcDbBlockBegin
  2
Block_21
 70
     0
 10
0.0
 20
0.0
 30
0.0
  3
Block_21
  1

  0
INSERT
  5
220
330
21B
100
AcDbEntity
  8
Sichtbar schmal (ISO)
100
AcDbBlockReference
  2
Block_22
 10
0.0
 20
0.0
 30
0.0
  0
ENDBLK
  5
21E
330
21B
100
AcDbEntity
  8
0
100
AcDbBlockEnd
  0
BLOCK
  5
221
330
21F
100
AcDbEntity
  8
0
100
AcDbBlockBegin
  2
Block_22
 70
     0
 10
0.0
 20
0.0
 30
0.0
  3
Block_22
  1

  0
LINE
  5
223
330
21F
100
AcDbEntity
  8
Sichtbar schmal (ISO)
 62
    18
420
        0
370
     5
100
AcDbLine
 10
138.1337411323231
 20
159.4101986804437
 30
0.0
 11
138.1259896674813
 21
112.4442992882952
 31
0.0
  0
INSERT
  5
225
330
21F
100
AcDbEntity
  8
Sichtbar schmal (ISO)
100
AcDbBlockReference
  2
Block_23
 10
0.0
 20
0.0
 30
0.0
  0
INSERT
  5
22B
330
21F
100
AcDbEntity
  8
Sichtbar schmal (ISO)
100
AcDbBlockReference
  2
Block_24
 10
0.0
 20
0.0
 30
0.0
  0
ENDBLK
  5
222
330
21F
100
AcDbEntity
  8
0
100
AcDbBlockEnd
  0
BLOCK
  5
226
330
224
100
AcDbEntity
  8
0
100
AcDbBlockBegin
  2
Block_23
 70
     0
 10
0.0
 20
0.0
 30
0.0
  3
Block_23
  1

  0
LWPOLYLINE
  5
228
330
224
100
AcDbEntity
  8
Sichtbar schmal (ISO)
100
AcDbPolyline
 90
        3
 70
     1
 43
0.0
 10
137.9123291518555
 20
158.7777868085857
 10
138.1332243680003
 20
160.4589288098473
 10
138.3549485602463
 20
158.777711447122
  0
HATCH
  5
229
330
224
100
AcDbEntity
  8
Sichtbar schmal (ISO)
 62
    18
420
        0
440
 33554687
100
AcDbHatch
 10
0.0
 20
0.0
 30
0.0
210
0.0
220
0.0
230
1.0
  2
SOLID
 70
     1
 71
     1
 91
        1
 92
        1
 93
        3
 72
     1
 10
137.9123291518555
 20
158.7777868085857
 11
138.1332243680003
 21
160.4589288098473
 72
     1
 10
138.1332243680003
 20
160.4589288098473
 11
138.3549485602463
 21
158.777711447122
 72
     1
 10
138.3549485602463
 20
158.777711447122
 11
137.9123291518555
 21
158.7777868085857
 97
        1
330
228
 75
     2
 76
     1
 98
        1
 10
0.0
 20
0.0
450
        0
451
        0
460
0.0
461
0.0
452
        0
462
0.0
453
        0
470

  0
ENDBLK
  5
227
330
224
100
AcDbEntity
  8
0
100
AcDbBlockEnd
  0
BLOCK
  5
22C
330
22A
100
AcDbEntity
  8
0
100
AcDbBlockBegin
  2
Block_24
 70
     0
 10
0.0
 20
0.0
 30
0.0
  3
Block_24
  1

  0
LWPOLYLINE
  5
22E
330
22A
100
AcDbEntity
  8
Sichtbar schmal (ISO)
100
AcDbPolyline
 90
        3
 70
     1
 43
0.0
 10
137.9047822395581
 20
113.0767865216169
 10
138.12512839361
 20
111.3955691588915
 10
138.3474016479489
 20
113.0767111601531
  0
HATCH
  5
22F
330
22A
100
AcDbEntity
  8
Sichtbar schmal (ISO)
 62
    18
420
        0
440
 33554687
100
AcDbHatch
 10
0.0
 20
0.0
 30
0.0
210
0.0
220
0.0
230
1.0
  2
SOLID
 70
     1
 71
     1
 91
        1
 92
        1
 93
        3
 72
     1
 10
137.9047822395581
 20
113.0767865216169
 11
138.12512839361
 21
111.3955691588915
 72
     1
 10
138.12512839361
 20
111.3955691588915
 11
138.3474016479489
 21
113.0767111601531
 72
     1
 10
138.3474016479489
 20
113.0767111601531
 11
137.9047822395581
 21
113.0767865216169
 97
        1
330
22E
 75
     2
 76
     1
 98
        1
 10
0.0
 20
0.0
450
        0
451
        0
460
0.0
461
0.0
452
        0
462
0.0
453
        0
470

  0
ENDBLK
  5
22D
330
22A
100
AcDbEntity
  8
0
100
AcDbBlockEnd
  0
BLOCK
  5
236
330
234
100
AcDbEntity
  8
0
100
AcDbBlockBegin
  2
Block_25
 70
     0
 10
0.0
 20
0.0
 30
0.0
  3
Block_25
  1

  0
INSERT
  5
239
330
234
100
AcDbEntity
  8
Sichtbar schmal (ISO)
100
AcDbBlockReference
  2
Block_26
 10
0.0
 20
0.0
 30
0.0
  0
ENDBLK
  5
237
330
234
100
AcDbEntity
  8
0
100
AcDbBlockEnd
  0
BLOCK
  5
23A
330
238
100
AcDbEntity
  8
0
100
AcDbBlockBegin
  2
Block_26
 70
     0
 10
0.0
 20
0.0
 30
0.0
  3
Block_26
  1

  0
LINE
  5
23C
330
238
100
AcDbEntity
  8
Sichtbar schmal (ISO)
 62
    18
420
        0
370
     5
100
AcDbLine
 10
124.1007583307912
 20
174.9024916317572
 30
0.0
 11
124.1010813084929
 21
171.2899322081544
 31
0.0
  0
INSERT
  5
23E
330
238
100
AcDbEntity
  8
Sichtbar schmal (ISO)
100
AcDbBlockReference
  2
Block_27
 10
0.0
 20
0.0
 30
0.0
  0
ENDBLK
  5
23B
330
238
100
AcDbEntity
  8
0
100
AcDbBlockEnd
  0
BLOCK
  5
23F
330
23D
100
AcDbEntity
  8
0
100
AcDbBlockBegin
  2
Block_27
 70
     0
 10
0.0
 20
0.0
 30
0.0
  3
Block_27
  1

  0
LWPOLYLINE
  5
241
330
23D
100
AcDbEntity
  8
Sichtbar schmal (ISO)
100
AcDbPolyline
 90
        3
 70
     1
 43
0.0
 10
123.8795078391744
 20
174.2700151643589
 10
124.099983184307
 20
175.9512217611608
 10
124.3221272475653
 20
174.2700582280525
  0
HATCH
  5
242
330
23D
100
AcDbEntity
  8
Sichtbar schmal (ISO)
 62
    18
420
        0
440
 33554687
100
AcDbHatch
 10
0.0
 20
0.0
 30
0.0
210
0.0
220
0.0
230
1.0
  2
SOLID
 70
     1
 71
     1
 91
        1
 92
        1
 93
        3
 72
     1
 10
123.8795078391744
 20
174.2700151643589
 11
124.099983184307
 21
175.9512217611608
 72
     1
 10
124.099983184307
 20
175.9512217611608
 11
124.3221272475653
 21
174.2700582280525
 72
     1
 10
124.3221272475653
 20
174.2700582280525
 11
123.8795078391744
 21
174.2700151643589
 97
        1
330
241
 75
     2
 76
     1
 98
        1
 10
0.0
 20
0.0
450
        0
451
        0
460
0.0
461
0.0
452
        0
462
0.0
453
        0
470

  0
ENDBLK
  5
240
330
23D
100
AcDbEntity
  8
0
100
AcDbBlockEnd
  0
BLOCK
  5
245
330
243
100
AcDbEntity
  8
0
100
AcDbBlockBegin
  2
Block_28
 70
     0
 10
0.0
 20
0.0
 30
0.0
  3
Block_28
  1

  0
INSERT
  5
248
330
243
100
AcDbEntity
  8
Sichtbar schmal (ISO)
100
AcDbBlockReference
  2
Block_29
 10
0.0
 20
0.0
 30
0.0
  0
ENDBLK
  5
246
330
243
100
AcDbEntity
  8
0
100
AcDbBlockEnd
  0
BLOCK
  5
249
330
247
100
AcDbEntity
  8
0
100
AcDbBlockBegin
  2
Block_29
 70
     0
 10
0.0
 20
0.0
 30
0.0
  3
Block_29
  1

  0
LINE
  5
24B
330
247
100
AcDbEntity
  8
Sichtbar schmal (ISO)
 62
    18
420
        0
370
     5
100
AcDbLine
 10
138.0855097955296
 20
163.876258978671
 30
0.0
 11
138.0677137241636
 21
179.4541194890994
 31
0.0
  0
INSERT
  5
24D
330
247
100
AcDbEntity
  8
Sichtbar schmal (ISO)
100
AcDbBlockReference
  2
Block_30
 10
0.0
 20
0.0
 30
0.0
  0
INSERT
  5
253
330
247
100
AcDbEntity
  8
Sichtbar schmal (ISO)
100
AcDbBlockReference
  2
Block_31
 10
0.0
 20
0.0
 30
0.0
  0
ENDBLK
  5
24A
330
247
100
AcDbEntity
  8
0
100
AcDbBlockEnd
  0
BLOCK
  5
24E
330
24C
100
AcDbEntity
  8
0
100
AcDbBlockBegin
  2
Block_30
 70
     0
 10
0.0
 20
0.0
 30
0.0
  3
Block_30
  1

  0
LWPOLYLINE
  5
250
330
24C
100
AcDbEntity
  8
Sichtbar schmal (ISO)
100
AcDbPolyline
 90
        3
 70
     1
 43
0.0
 10
138.3061035658195
 20
164.5089615304602
 10
138.0874045980465
 20
162.8275396151905
 10
137.8634841574287
 20
164.5084555320608
  0
HATCH
  5
251
330
24C
100
AcDbEntity
  8
Sichtbar schmal (ISO)
 62
    18
420
        0
440
 33554687
100
AcDbHatch
 10
0.0
 20
0.0
 30
0.0
210
0.0
220
0.0
230
1.0
  2
SOLID
 70
     1
 71
     1
 91
        1
 92
        1
 93
        3
 72
     1
 10
138.3061035658195
 20
164.5089615304602
 11
138.0874045980465
 21
162.8275396151905
 72
     1
 10
138.0874045980465
 20
162.8275396151905
 11
137.8634841574287
 21
164.5084555320608
 72
     1
 10
137.8634841574287
 20
164.5084555320608
 11
138.3061035658195
 21
164.5089615304602
 97
        1
330
250
 75
     2
 76
     1
 98
        1
 10
0.0
 20
0.0
450
        0
451
        0
460
0.0
461
0.0
452
        0
462
0.0
453
        0
470

  0
ENDBLK
  5
24F
330
24C
100
AcDbEntity
  8
0
100
AcDbBlockEnd
  0
BLOCK
  5
254
330
252
100
AcDbEntity
  8
0
100
AcDbBlockBegin
  2
Block_31
 70
     0
 10
0.0
 20
0.0
 30
0.0
  3
Block_31
  1

  0
LWPOLYLINE
  5
256
330
252
100
AcDbEntity
  8
Sichtbar schmal (ISO)
100
AcDbPolyline
 90
        3
 70
     1
 43
0.0
 10
138.289750128188
 20
178.8219121697856
 10
138.0672077257642
 20
180.5028388525794
 10
137.8471307197971
 20
178.8214061713862
  0
HATCH
  5
257
330
252
100
AcDbEntity
  8
Sichtbar schmal (ISO)
 62
    18
420
        0
440
 33554687
100
AcDbHatch
 10
0.0
 20
0.0
 30
0.0
210
0.0
220
0.0
230
1.0
  2
SOLID
 70
     1
 71
     1
 91
        1
 92
        1
 93
        3
 72
     1
 10
138.289750128188
 20
178.8219121697856
 11
138.0672077257642
 21
180.5028388525794
 72
     1
 10
138.0672077257642
 20
180.5028388525794
 11
137.8471307197971
 21
178.8214061713862
 72
     1
 10
137.8471307197971
 20
178.8214061713862
 11
138.289750128188
 21
178.8219121697856
 97
        1
330
256
 75
     2
 76
     1
 98
        1
 10
0.0
 20
0.0
450
        0
451
        0
460
0.0
461
0.0
452
        0
462
0.0
453
        0
470

  0
ENDBLK
  5
255
330
252
100
AcDbEntity
  8
0
100
AcDbBlockEnd
  0
BLOCK
  5
25A
330
258
100
AcDbEntity
  8
0
100
AcDbBlockBegin
  2
Block_32
 70
     0
 10
0.0
 20
0.0
 30
0.0
  3
Block_32
  1

  0
INSERT
  5
25D
330
258
100
AcDbEntity
  8
Sichtbar schmal (ISO)
100
AcDbBlockReference
  2
Block_33
 10
0.0
 20
0.0
 30
0.0
  0
ENDBLK
  5
25B
330
258
100
AcDbEntity
  8
0
100
AcDbBlockEnd
  0
BLOCK
  5
25E
330
25C
100
AcDbEntity
  8
0
100
AcDbBlockBegin
  2
Block_33
 70
     0
 10
0.0
 20
0.0
 30
0.0
  3
Block_33
  1

  0
SPLINE
  5
260
330
25C
100
AcDbEntity
  8
Sichtbar schmal (ISO)
100
AcDbSpline
210
0.0
220
0.0
230
1.0
 70
    11
 71
     3
 72
    26
 73
    22
 74
     0
 42
0.0000000001
 43
0.0000000001
 40
0.0
 40
0.0
 40
0.0
 40
0.0
 40
1.0
 40
1.0
 40
1.0
 40
2.0
 40
2.0
 40
2.0
 40
3.0
 40
3.0
 40
3.0
 40
4.0
 40
4.0
 40
4.0
 40
5.0
 40
5.0
 40
5.0
 40
6.0
 40
6.0
 40
6.0
 40
7.0
 40
7.0
 40
7.0
 40
7.0
 10
125.5006944130693
 20
171.9295572486843
 30
0.0
 10
125.5006944130693
 20
171.9295572486843
 30
0.0
 10
125.5006944130693
 20
171.4105536138314
 30
0.0
 10
125.5006944130693
 20
171.4105536138314
 30
0.0
 10
125.5006944130693
 20
171.4105536138314
 30
0.0
 10
125.3088025945408
 20
171.4105536138314
 30
0.0
 10
125.3088025945408
 20
171.4105536138314
 30
0.0
 10
125.3088025945408
 20
171.6840941953602
 30
0.0
 10
125.2385226466417
 20
171.9323133250725
 30
0.0
 10
124.9336316961971
 20
171.9858845598681
 30
0.0
 10
124.9336316961971
 20
171.9858845598681
 30
0.0
 10
124.9336316961971
 20
172.1693358944577
 30
0.0
 10
124.9336316961971
 20
172.1693358944577
 30
0.0
 10
124.9336316961971
 20
172.1693358944577
 30
0.0
 10
126.9335096253847
 20
172.1693358944577
 30
0.0
 10
126.9335096253847
 20
172.1693358944577
 30
0.0
 10
126.9335096253847
 20
172.1693358944577
 30
0.0
 10
126.9335096253847
 20
171.9295572486843
 30
0.0
 10
126.9335096253847
 20
171.9295572486843
 30
0.0
 10
126.9335096253847
 20
171.9295572486843
 30
0.0
 10
125.5006944130693
 20
171.9295572486843
 30
0.0
 10
125.5006944130693
 20
171.9295572486843
 30
0.0
  0
HATCH
  5
261
330
25C
100
AcDbEntity
  8
Sichtbar schmal (ISO)
 62
    18
420
        0
440
 33554687
100
AcDbHatch
 10
0.0
 20
0.0
 30
0.0
210
0.0
220
0.0
230
1.0
  2
SOLID
 70
     1
 71
     1
 91
        1
 92
        1
 93
        1
 72
     4
 94
        3
 73
     0
 74
     0
 95
       26
 96
       22
 40
0.0
 40
0.0
 40
0.0
 40
0.0
 40
1.0
 40
1.0
 40
1.0
 40
2.0
 40
2.0
 40
2.0
 40
3.0
 40
3.0
 40
3.0
 40
4.0
 40
4.0
 40
4.0
 40
5.0
 40
5.0
 40
5.0
 40
6.0
 40
6.0
 40
6.0
 40
7.0
 40
7.0
 40
7.0
 40
7.0
 10
125.5006944130693
 20
171.9295572486843
 10
125.5006944130693
 20
171.9295572486843
 10
125.5006944130693
 20
171.4105536138314
 10
125.5006944130693
 20
171.4105536138314
 10
125.5006944130693
 20
171.4105536138314
 10
125.3088025945408
 20
171.4105536138314
 10
125.3088025945408
 20
171.4105536138314
 10
125.3088025945408
 20
171.6840941953602
 10
125.2385226466417
 20
171.9323133250725
 10
124.9336316961971
 20
171.9858845598681
 10
124.9336316961971
 20
171.9858845598681
 10
124.9336316961971
 20
172.1693358944577
 10
124.9336316961971
 20
172.1693358944577
 10
124.9336316961971
 20
172.1693358944577
 10
126.9335096253847
 20
172.1693358944577
 10
126.9335096253847
 20
172.1693358944577
 10
126.9335096253847
 20
172.1693358944577
 10
126.9335096253847
 20
171.9295572486843
 10
126.9335096253847
 20
171.9295572486843
 10
126.9335096253847
 20
171.9295572486843
 10
125.5006944130693
 20
171.9295572486843
 10
125.5006944130693
 20
171.9295572486843
 97
        0
 97
        1
330
260
 75
     2
 76
     1
 98
        1
 10
0.0
 20
0.0
450
        0
451
        0
460
0.0
461
0.0
452
        0
462
0.0
453
        0
470

  0
SPLINE
  5
262
330
25C
100
AcDbEntity
  8
Sichtbar schmal (ISO)
100
AcDbSpline
210
0.0
220
0.0
230
1.0
 70
     9
 71
     3
 72
    53
 73
    49
 74
     0
 42
0.0000000001
 43
0.0000000001
 40
0.0
 40
0.0
 40
0.0
 40
0.0
 40
1.0
 40
1.0
 40
1.0
 40
2.0
 40
2.0
 40
2.0
 40
3.0
 40
3.0
 40
3.0
 40
4.0
 40
4.0
 40
4.0
 40
5.0
 40
5.0
 40
5.0
 40
6.0
 40
6.0
 40
6.0
 40
7.0
 40
7.0
 40
7.0
 40
8.0
 40
8.0
 40
8.0
 40
9.0
 40
9.0
 40
9.0
 40
10.0
 40
10.0
 40
10.0
 40
11.0
 40
11.0
 40
11.0
 40
12.0
 40
12.0
 40
12.0
 40
13.0
 40
13.0
 40
13.0
 40
14.0
 40
14.0
 40
14.0
 40
15.0
 40
15.0
 40
15.0
 40
16.0
 40
16.0
 40
16.0
 40
16.0
 10
126.3946966914916
 20
173.0728121854644
 30
0.0
 10
126.6007134015095
 20
173.0869370769539
 30
0.0
 10
126.7557426983458
 20
173.2533351888915
 30
0.0
 10
126.7557426983458
 20
173.4931138346649
 30
0.0
 10
126.7557426983458
 20
173.7215236653369
 30
0.0
 10
126.5979573251213
 20
173.9161715602536
 30
0.0
 10
126.2820420691239
 20
173.9161715602536
 30
0.0
 10
126.0195257931479
 20
173.9161715602536
 30
0.0
 10
125.827978484168
 20
173.7356485568265
 30
0.0
 10
125.827978484168
 20
173.4648640516859
 30
0.0
 10
125.827978484168
 20
173.3096625000754
 30
0.0
 10
125.904115094392
 20
173.1856390626064
 30
0.0
 10
126.0167697167597
 20
173.0926214845046
 30
0.0
 10
126.0167697167597
 20
173.0926214845046
 30
0.0
 10
126.0057454112069
 20
172.8866047744867
 30
0.0
 10
126.0057454112069
 20
172.8866047744867
 30
0.0
 10
126.0057454112069
 20
172.8866047744867
 30
0.0
 10
124.9677381415011
 20
173.0728121854644
 30
0.0
 10
124.9677381415011
 20
173.0728121854644
 30
0.0
 10
124.9677381415011
 20
173.0728121854644
 30
0.0
 10
124.9677381415011
 20
174.0600042967628
 30
0.0
 10
124.9677381415011
 20
174.0600042967628
 30
0.0
 10
124.9677381415011
 20
174.0600042967628
 30
0.0
 10
125.1792670042954
 20
174.0600042967628
 30
0.0
 10
125.1792670042954
 20
174.0600042967628
 30
0.0
 10
125.1792670042954
 20
174.0600042967628
 30
0.0
 10
125.1792670042954
 20
173.2533351888915
 30
0.0
 10
125.1792670042954
 20
173.2533351888915
 30
0.0
 10
125.1792670042954
 20
173.2533351888915
 30
0.0
 10
125.7545979503322
 20
173.1461927193002
 30
0.0
 10
125.7545979503322
 20
173.1461927193002
 30
0.0
 10
125.7545979503322
 20
173.1461927193002
 30
0.0
 10
125.7601101031086
 20
173.1518771268509
 30
0.0
 10
125.7601101031086
 20
173.1518771268509
 30
0.0
 10
125.6615803722304
 20
173.239210297402
 30
0.0
 10
125.6164496213737
 20
173.3887274414619
 30
0.0
 10
125.6164496213737
 20
173.5241196940322
 30
0.0
 10
125.6164496213737
 20
173.8794812933357
 30
0.0
 10
125.8421033756575
 20
174.1700750975165
 30
0.0
 10
126.3016791133898
 20
174.1700750975165
 30
0.0
 10
126.6403319995899
 20
174.1700750975165
 30
0.0
 10
126.9672715611401
 20
173.9359808592937
 30
0.0
 10
126.9672715611401
 20
173.4705484592365
 30
0.0
 10
126.9672715611401
 20
173.1236273438718
 30
0.0
 10
126.7557426983458
 20
172.8414740236299
 30
0.0
 10
126.3946966914916
 20
172.833033539691
 30
0.0
 10
126.3946966914916
 20
172.833033539691
 30
0.0
 10
126.3946966914916
 20
173.0728121854644
 30
0.0
 10
126.3946966914916
 20
173.0728121854644
 30
0.0
  0
HATCH
  5
263
330
25C
100
AcDbEntity
  8
Sichtbar schmal (ISO)
 62
    18
420
        0
440
 33554687
100
AcDbHatch
 10
0.0
 20
0.0
 30
0.0
210
0.0
220
0.0
230
1.0
  2
SOLID
 70
     1
 71
     1
 91
        1
 92
        1
 93
        1
 72
     4
 94
        3
 73
     0
 74
     0
 95
       53
 96
       49
 40
0.0
 40
0.0
 40
0.0
 40
0.0
 40
1.0
 40
1.0
 40
1.0
 40
2.0
 40
2.0
 40
2.0
 40
3.0
 40
3.0
 40
3.0
 40
4.0
 40
4.0
 40
4.0
 40
5.0
 40
5.0
 40
5.0
 40
6.0
 40
6.0
 40
6.0
 40
7.0
 40
7.0
 40
7.0
 40
8.0
 40
8.0
 40
8.0
 40
9.0
 40
9.0
 40
9.0
 40
10.0
 40
10.0
 40
10.0
 40
11.0
 40
11.0
 40
11.0
 40
12.0
 40
12.0
 40
12.0
 40
13.0
 40
13.0
 40
13.0
 40
14.0
 40
14.0
 40
14.0
 40
15.0
 40
15.0
 40
15.0
 40
16.0
 40
16.0
 40
16.0
 40
16.0
 10
126.3946966914916
 20
173.0728121854644
 10
126.6007134015095
 20
173.0869370769539
 10
126.7557426983458
 20
173.2533351888915
 10
126.7557426983458
 20
173.4931138346649
 10
126.7557426983458
 20
173.7215236653369
 10
126.5979573251213
 20
173.9161715602536
 10
126.2820420691239
 20
173.9161715602536
 10
126.0195257931479
 20
173.9161715602536
 10
125.827978484168
 20
173.7356485568265
 10
125.827978484168
 20
173.4648640516859
 10
125.827978484168
 20
173.3096625000754
 10
125.904115094392
 20
173.1856390626064
 10
126.0167697167597
 20
173.0926214845046
 10
126.0167697167597
 20
173.0926214845046
 10
126.0057454112069
 20
172.8866047744867
 10
126.0057454112069
 20
172.8866047744867
 10
126.0057454112069
 20
172.8866047744867
 10
124.9677381415011
 20
173.0728121854644
 10
124.9677381415011
 20
173.0728121854644
 10
124.9677381415011
 20
173.0728121854644
 10
124.9677381415011
 20
174.0600042967628
 10
124.9677381415011
 20
174.0600042967628
 10
124.9677381415011
 20
174.0600042967628
 10
125.1792670042954
 20
174.0600042967628
 10
125.1792670042954
 20
174.0600042967628
 10
125.1792670042954
 20
174.0600042967628
 10
125.1792670042954
 20
173.2533351888915
 10
125.1792670042954
 20
173.2533351888915
 10
125.1792670042954
 20
173.2533351888915
 10
125.7545979503322
 20
173.1461927193002
 10
125.7545979503322
 20
173.1461927193002
 10
125.7545979503322
 20
173.1461927193002
 10
125.7601101031086
 20
173.1518771268509
 10
125.7601101031086
 20
173.1518771268509
 10
125.6615803722304
 20
173.239210297402
 10
125.6164496213737
 20
173.3887274414619
 10
125.6164496213737
 20
173.5241196940322
 10
125.6164496213737
 20
173.8794812933357
 10
125.8421033756575
 20
174.1700750975165
 10
126.3016791133898
 20
174.1700750975165
 10
126.6403319995899
 20
174.1700750975165
 10
126.9672715611401
 20
173.9359808592937
 10
126.9672715611401
 20
173.4705484592365
 10
126.9672715611401
 20
173.1236273438718
 10
126.7557426983458
 20
172.8414740236299
 10
126.3946966914916
 20
172.833033539691
 10
126.3946966914916
 20
172.833033539691
 10
126.3946966914916
 20
173.0728121854644
 10
126.3946966914916
 20
173.0728121854644
 97
        0
 97
        1
330
262
 75
     2
 76
     1
 98
        1
 10
0.0
 20
0.0
450
        0
451
        0
460
0.0
461
0.0
452
        0
462
0.0
453
        0
470

  0
ENDBLK
  5
25F
330
25C
100
AcDbEntity
  8
0
100
AcDbBlockEnd
  0
BLOCK
  5
269
330
267
100
AcDbEntity
  8
0
100
AcDbBlockBegin
  2
Block_34
 70
     0
 10
0.0
 20
0.0
 30
0.0
  3
Block_34
  1

  0
INSERT
  5
26C
330
267
100
AcDbEntity
  8
Sichtbar schmal (ISO)
100
AcDbBlockReference
  2
Block_35
 10
0.0
 20
0.0
 30
0.0
  0
ENDBLK
  5
26A
330
267
100
AcDbEntity
  8
0
100
AcDbBlockEnd
  0
BLOCK
  5
26D
330
26B
100
AcDbEntity
  8
0
100
AcDbBlockBegin
  2
Block_35
 70
     0
 10
0.0
 20
0.0
 30
0.0
  3
Block_35
  1

  0
SPLINE
  5
26F
330
26B
100
AcDbEntity
  8
Sichtbar schmal (ISO)
100
AcDbSpline
210
0.0
220
0.0
230
1.0
 70
     9
 71
     3
 72
    17
 73
    13
 74
     0
 42
0.0000000001
 43
0.0000000001
 40
0.0
 40
0.0
 40
0.0
 40
0.0
 40
1.0
 40
1.0
 40
1.0
 40
2.0
 40
2.0
 40
2.0
 40
3.0
 40
3.0
 40
3.0
 40
4.0
 40
4.0
 40
4.0
 40
4.0
 10
140.8968261366508
 20
170.7580525289251
 30
0.0
 10
140.8968261366508
 20
170.9978311746984
 30
0.0
 10
140.7304280247132
 20
171.1671576177985
 30
0.0
 10
140.5075303468175
 20
171.1671576177985
 30
0.0
 10
140.293245407635
 20
171.1671576177985
 30
0.0
 10
140.1268472956974
 20
170.9809502068207
 30
0.0
 10
140.1268472956974
 20
170.7552964525368
 30
0.0
 10
140.1268472956974
 20
170.5184461379259
 30
0.0
 10
140.2763644397573
 20
170.3322387269482
 30
0.0
 10
140.5102864232057
 20
170.3322387269482
 30
0.0
 10
140.7500650689791
 20
170.3322387269482
 30
0.0
 10
140.8968261366508
 20
170.5098333992128
 30
0.0
 10
140.8968261366508
 20
170.7580525289251
 30
0.0
  0
SPLINE
  5
270
330
26B
100
AcDbEntity
  8
Sichtbar schmal (ISO)
100
AcDbSpline
210
0.0
220
0.0
230
1.0
 70
     9
 71
     3
 72
    17
 73
    13
 74
     0
 42
0.0000000001
 43
0.0000000001
 40
0.0
 40
0.0
 40
0.0
 40
0.0
 40
1.0
 40
1.0
 40
1.0
 40
2.0
 40
2.0
 40
2.0
 40
3.0
 40
3.0
 40
3.0
 40
4.0
 40
4.0
 40
4.0
 40
4.0
 10
139.5935465145808
 20
171.088092676412
 30
0.0
 10
139.3906303904996
 20
171.088092676412
 30
0.0
 10
139.2862439972965
 20
170.947016016291
 30
0.0
 10
139.2862439972965
 20
170.7525403761487
 30
0.0
 10
139.2862439972965
 20
170.5606485576202
 30
0.0
 10
139.3933864668877
 20
170.4026909296215
 30
0.0
 10
139.5935465145808
 20
170.4026909296215
 30
0.0
 10
139.8109320397
 20
170.4026909296215
 30
0.0
 10
139.9153184329031
 20
170.5635768887827
 30
0.0
 10
139.9153184329031
 20
170.7580525289251
 30
0.0
 10
139.9153184329031
 20
170.9499443474534
 30
0.0
 10
139.7968071482105
 20
171.088092676412
 30
0.0
 10
139.5935465145808
 20
171.088092676412
 30
0.0
  0
SPLINE
  5
271
330
26B
100
AcDbEntity
  8
Sichtbar schmal (ISO)
100
AcDbSpline
210
0.0
220
0.0
230
1.0
 70
     9
 71
     3
 72
    29
 73
    25
 74
     0
 42
0.0000000001
 43
0.0000000001
 40
0.0
 40
0.0
 40
0.0
 40
0.0
 40
1.0
 40
1.0
 40
1.0
 40
2.0
 40
2.0
 40
2.0
 40
3.0
 40
3.0
 40
3.0
 40
4.0
 40
4.0
 40
4.0
 40
5.0
 40
5.0
 40
5.0
 40
6.0
 40
6.0
 40
6.0
 40
7.0
 40
7.0
 40
7.0
 40
8.0
 40
8.0
 40
8.0
 40
8.0
 10
139.9997232722917
 20
170.4281846362124
 30
0.0
 10
139.9321994007808
 20
170.2588581931124
 30
0.0
 10
139.7658012888433
 20
170.1487873923586
 30
0.0
 10
139.5852782854162
 20
170.1487873923586
 30
0.0
 10
139.2579942143174
 20
170.1487873923586
 30
0.0
 10
139.0747151345021
 20
170.4281846362124
 30
0.0
 10
139.0747151345021
 20
170.7354871534967
 30
0.0
 10
139.0747151345021
 20
171.1726697705748
 30
0.0
 10
139.328618671765
 20
171.3419962136749
 30
0.0
 10
139.5852782854162
 20
171.3419962136749
 30
0.0
 10
139.7658012888433
 20
171.3419962136749
 30
0.0
 10
139.9235866620677
 20
171.2319254129211
 30
0.0
 10
139.9997232722917
 20
171.0655273009836
 30
0.0
 10
140.0758598825158
 20
171.305305946757
 30
0.0
 10
140.2508707331664
 20
171.4210611550614
 30
0.0
 10
140.4989176081044
 20
171.4210611550614
 30
0.0
 10
140.8854573215494
 20
171.4210611550614
 30
0.0
 10
141.1083549994451
 20
171.1275390197181
 30
0.0
 10
141.1083549994451
 20
170.7580525289251
 30
0.0
 10
141.1083549994451
 20
170.3744411466425
 30
0.0
 10
140.9050943658154
 20
170.0783351896852
 30
0.0
 10
140.4989176081044
 20
170.0783351896852
 30
0.0
 10
140.2622395482678
 20
170.0783351896852
 30
0.0
 10
140.0789604684525
 20
170.2025308819285
 30
0.0
 10
139.9997232722917
 20
170.4281846362124
 30
0.0
  0
HATCH
  5
272
330
26B
100
AcDbEntity
  8
Sichtbar schmal (ISO)
 62
    18
420
        0
440
 33554687
100
AcDbHatch
 10
0.0
 20
0.0
 30
0.0
210
0.0
220
0.0
230
1.0
  2
SOLID
 70
     1
 71
     1
 91
        3
 92
        1
 93
        1
 72
     4
 94
        3
 73
     0
 74
     0
 95
       17
 96
       13
 40
0.0
 40
0.0
 40
0.0
 40
0.0
 40
1.0
 40
1.0
 40
1.0
 40
2.0
 40
2.0
 40
2.0
 40
3.0
 40
3.0
 40
3.0
 40
4.0
 40
4.0
 40
4.0
 40
4.0
 10
140.8968261366508
 20
170.7580525289251
 10
140.8968261366508
 20
170.9978311746984
 10
140.7304280247132
 20
171.1671576177985
 10
140.5075303468175
 20
171.1671576177985
 10
140.293245407635
 20
171.1671576177985
 10
140.1268472956974
 20
170.9809502068207
 10
140.1268472956974
 20
170.7552964525368
 10
140.1268472956974
 20
170.5184461379259
 10
140.2763644397573
 20
170.3322387269482
 10
140.5102864232057
 20
170.3322387269482
 10
140.7500650689791
 20
170.3322387269482
 10
140.8968261366508
 20
170.5098333992128
 10
140.8968261366508
 20
170.7580525289251
 97
        0
 97
        1
330
26F
 92
        1
 93
        1
 72
     4
 94
        3
 73
     0
 74
     0
 95
       17
 96
       13
 40
0.0
 40
0.0
 40
0.0
 40
0.0
 40
1.0
 40
1.0
 40
1.0
 40
2.0
 40
2.0
 40
2.0
 40
3.0
 40
3.0
 40
3.0
 40
4.0
 40
4.0
 40
4.0
 40
4.0
 10
139.5935465145808
 20
171.088092676412
 10
139.3906303904996
 20
171.088092676412
 10
139.2862439972965
 20
170.947016016291
 10
139.2862439972965
 20
170.7525403761487
 10
139.2862439972965
 20
170.5606485576202
 10
139.3933864668877
 20
170.4026909296215
 10
139.5935465145808
 20
170.4026909296215
 10
139.8109320397
 20
170.4026909296215
 10
139.9153184329031
 20
170.5635768887827
 10
139.9153184329031
 20
170.7580525289251
 10
139.9153184329031
 20
170.9499443474534
 10
139.7968071482105
 20
171.088092676412
 10
139.5935465145808
 20
171.088092676412
 97
        0
 97
        1
330
270
 92
        1
 93
        1
 72
     4
 94
        3
 73
     0
 74
     0
 95
       29
 96
       25
 40
0.0
 40
0.0
 40
0.0
 40
0.0
 40
1.0
 40
1.0
 40
1.0
 40
2.0
 40
2.0
 40
2.0
 40
3.0
 40
3.0
 40
3.0
 40
4.0
 40
4.0
 40
4.0
 40
5.0
 40
5.0
 40
5.0
 40
6.0
 40
6.0
 40
6.0
 40
7.0
 40
7.0
 40
7.0
 40
8.0
 40
8.0
 40
8.0
 40
8.0
 10
139.9997232722917
 20
170.4281846362124
 10
139.9321994007808
 20
170.2588581931124
 10
139.7658012888433
 20
170.1487873923586
 10
139.5852782854162
 20
170.1487873923586
 10
139.2579942143174
 20
170.1487873923586
 10
139.0747151345021
 20
170.4281846362124
 10
139.0747151345021
 20
170.7354871534967
 10
139.0747151345021
 20
171.1726697705748
 10
139.328618671765
 20
171.3419962136749
 10
139.5852782854162
 20
171.3419962136749
 10
139.7658012888433
 20
171.3419962136749
 10
139.9235866620677
 20
171.2319254129211
 10
139.9997232722917
 20
171.0655273009836
 10
140.0758598825158
 20
171.305305946757
 10
140.2508707331664
 20
171.4210611550614
 10
140.4989176081044
 20
171.4210611550614
 10
140.8854573215494
 20
171.4210611550614
 10
141.1083549994451
 20
171.1275390197181
 10
141.1083549994451
 20
170.7580525289251
 10
141.1083549994451
 20
170.3744411466425
 10
140.9050943658154
 20
170.0783351896852
 10
140.4989176081044
 20
170.0783351896852
 10
140.2622395482678
 20
170.0783351896852
 10
140.0789604684525
 20
170.2025308819285
 10
139.9997232722917
 20
170.4281846362124
 97
        0
 97
        1
330
271
 75
     2
 76
     1
 98
        1
 10
0.0
 20
0.0
450
        0
451
        0
460
0.0
461
0.0
452
        0
462
0.0
453
        0
470

  0
SPLINE
  5
273
330
26B
100
AcDbEntity
  8
Sichtbar schmal (ISO)
100
AcDbSpline
210
0.0
220
0.0
230
1.0
 70
     9
 71
     3
 72
    26
 73
    22
 74
     0
 42
0.0000000001
 43
0.0000000001
 40
0.0
 40
0.0
 40
0.0
 40
0.0
 40
1.0
 40
1.0
 40
1.0
 40
2.0
 40
2.0
 40
2.0
 40
3.0
 40
3.0
 40
3.0
 40
4.0
 40
4.0
 40
4.0
 40
5.0
 40
5.0
 40
5.0
 40
6.0
 40
6.0
 40
6.0
 40
7.0
 40
7.0
 40
7.0
 40
7.0
 10
139.3341308245414
 20
172.7250297962284
 30
0.0
 10
139.3341308245414
 20
172.7250297962284
 30
0.0
 10
139.3341308245414
 20
171.6758259661956
 30
0.0
 10
139.3341308245414
 20
171.6758259661956
 30
0.0
 10
139.3341308245414
 20
171.6758259661956
 30
0.0
 10
139.1084770702576
 20
171.6758259661956
 30
0.0
 10
139.1084770702576
 20
171.6758259661956
 30
0.0
 10
139.1084770702576
 20
171.6758259661956
 30
0.0
 10
139.1084770702576
 20
172.9704928495525
 30
0.0
 10
139.1084770702576
 20
172.9704928495525
 30
0.0
 10
139.1084770702576
 20
172.9704928495525
 30
0.0
 10
139.3144937802755
 20
172.9704928495525
 30
0.0
 10
139.3144937802755
 20
172.9704928495525
 30
0.0
 10
139.7120577992733
 20
172.5670721682297
 30
0.0
 10
140.4510307808594
 20
172.2399603519053
 30
0.0
 10
141.0745930636897
 20
172.2032700849874
 30
0.0
 10
141.0745930636897
 20
172.2032700849874
 30
0.0
 10
141.0745930636897
 20
171.9352416562349
 30
0.0
 10
141.0745930636897
 20
171.9352416562349
 30
0.0
 10
140.3976318008381
 20
171.9803724070917
 30
0.0
 10
139.7768255943961
 20
172.304728147028
 30
0.0
 10
139.3341308245414
 20
172.7250297962284
 30
0.0
  0
HATCH
  5
274
330
26B
100
AcDbEntity
  8
Sichtbar schmal (ISO)
 62
    18
420
        0
440
 33554687
100
AcDbHatch
 10
0.0
 20
0.0
 30
0.0
210
0.0
220
0.0
230
1.0
  2
SOLID
 70
     1
 71
     1
 91
        1
 92
        1
 93
        1
 72
     4
 94
        3
 73
     0
 74
     0
 95
       26
 96
       22
 40
0.0
 40
0.0
 40
0.0
 40
0.0
 40
1.0
 40
1.0
 40
1.0
 40
2.0
 40
2.0
 40
2.0
 40
3.0
 40
3.0
 40
3.0
 40
4.0
 40
4.0
 40
4.0
 40
5.0
 40
5.0
 40
5.0
 40
6.0
 40
6.0
 40
6.0
 40
7.0
 40
7.0
 40
7.0
 40
7.0
 10
139.3341308245414
 20
172.7250297962284
 10
139.3341308245414
 20
172.7250297962284
 10
139.3341308245414
 20
171.6758259661956
 10
139.3341308245414
 20
171.6758259661956
 10
139.3341308245414
 20
171.6758259661956
 10
139.1084770702576
 20
171.6758259661956
 10
139.1084770702576
 20
171.6758259661956
 10
139.1084770702576
 20
171.6758259661956
 10
139.1084770702576
 20
172.9704928495525
 10
139.1084770702576
 20
172.9704928495525
 10
139.1084770702576
 20
172.9704928495525
 10
139.3144937802755
 20
172.9704928495525
 10
139.3144937802755
 20
172.9704928495525
 10
139.7120577992733
 20
172.5670721682297
 10
140.4510307808594
 20
172.2399603519053
 10
141.0745930636897
 20
172.2032700849874
 10
141.0745930636897
 20
172.2032700849874
 10
141.0745930636897
 20
171.9352416562349
 10
141.0745930636897
 20
171.9352416562349
 10
140.3976318008381
 20
171.9803724070917
 10
139.7768255943961
 20
172.304728147028
 10
139.3341308245414
 20
172.7250297962284
 97
        0
 97
        1
330
273
 75
     2
 76
     1
 98
        1
 10
0.0
 20
0.0
450
        0
451
        0
460
0.0
461
0.0
452
        0
462
0.0
453
        0
470

  0
ENDBLK
  5
26E
330
26B
100
AcDbEntity
  8
0
100
AcDbBlockEnd
  0
BLOCK
  5
277
330
275
100
AcDbEntity
  8
0
100
AcDbBlockBegin
  2
Block_36
 70
     0
 10
0.0
 20
0.0
 30
0.0
  3
Block_36
  1

  0
INSERT
  5
27A
330
275
100
AcDbEntity
  8
Sichtbar schmal (ISO)
100
AcDbBlockReference
  2
Block_37
 10
0.0
 20
0.0
 30
0.0
  0
ENDBLK
  5
278
330
275
100
AcDbEntity
  8
0
100
AcDbBlockEnd
  0
BLOCK
  5
27B
330
279
100
AcDbEntity
  8
0
100
AcDbBlockBegin
  2
Block_37
 70
     0
 10
0.0
 20
0.0
 30
0.0
  3
Block_37
  1

  0
SPLINE
  5
27D
330
279
100
AcDbEntity
  8
Sichtbar schmal (ISO)
100
AcDbSpline
210
0.0
220
0.0
230
1.0
 70
    11
 71
     3
 72
    26
 73
    22
 74
     0
 42
0.0000000001
 43
0.0000000001
 40
0.0
 40
0.0
 40
0.0
 40
0.0
 40
1.0
 40
1.0
 40
1.0
 40
2.0
 40
2.0
 40
2.0
 40
3.0
 40
3.0
 40
3.0
 40
4.0
 40
4.0
 40
4.0
 40
5.0
 40
5.0
 40
5.0
 40
6.0
 40
6.0
 40
6.0
 40
7.0
 40
7.0
 40
7.0
 40
7.0
 10
133.9043158302392
 20
133.72896047004
 30
0.0
 10
133.922574836311
 20
133.7820149405128
 30
0.0
 10
133.9315320845726
 20
133.8357584300827
 30
0.0
 10
133.9315320845726
 20
133.8908799578467
 30
0.0
 10
133.9315320845726
 20
134.0662353180459
 30
0.0
 10
133.8498833215722
 20
134.1906032650634
 30
0.0
 10
133.6862412860229
 20
134.2643283084478
 30
0.0
 10
133.5880560646932
 20
134.3087700402075
 30
0.0
 10
133.4750569327771
 20
134.3311631608616
 30
0.0
 10
133.3472438902743
 20
134.3311631608616
 30
0.0
 10
133.2645615986283
 20
134.3311631608616
 30
0.0
 10
133.1935926316321
 20
134.3242729698911
 30
0.0
 10
133.1336479701888
 20
134.3101480784016
 30
0.0
 10
133.101608582176
 20
134.302568868334
 30
0.0
 10
133.0640570413867
 20
134.2898220150386
 30
0.0
 10
133.0206488382726
 20
134.2719075185153
 30
0.0
 10
133.0206488382726
 20
134.2719075185153
 30
0.0
 10
133.7988959083905
 20
133.5811658737227
 30
0.0
 10
133.7988959083905
 20
133.5811658737227
 30
0.0
 10
133.8509168502178
 20
133.6269856436766
 30
0.0
 10
133.8860568241674
 20
133.6759059995671
 30
0.0
 10
133.9043158302392
 20
133.72896047004
 30
0.0
  0
SPLINE
  5
27E
330
279
100
AcDbEntity
  8
Sichtbar schmal (ISO)
100
AcDbSpline
210
0.0
220
0.0
230
1.0
 70
     9
 71
     3
 72
    26
 73
    22
 74
     0
 42
0.0000000001
 43
0.0000000001
 40
0.0
 40
0.0
 40
0.0
 40
0.0
 40
1.0
 40
1.0
 40
1.0
 40
2.0
 40
2.0
 40
2.0
 40
3.0
 40
3.0
 40
3.0
 40
4.0
 40
4.0
 40
4.0
 40
5.0
 40
5.0
 40
5.0
 40
6.0
 40
6.0
 40
6.0
 40
7.0
 40
7.0
 40
7.0
 40
7.0
 10
132.8301350579383
 20
134.0927625532823
 30
0.0
 10
132.8039523322504
 20
134.0352294586787
 30
0.0
 10
132.7905164598579
 20
133.971150682653
 30
0.0
 10
132.7905164598579
 20
133.9005262252054
 30
0.0
 10
132.7905164598579
 20
133.7658229917321
 30
0.0
 10
132.846327006719
 20
133.6579915030438
 30
0.0
 10
132.9582926099896
 20
133.5766872495919
 30
0.0
 10
133.0699137037117
 20
133.49538299614
 30
0.0
 10
133.2139186949951
 20
133.4547308694141
 30
0.0
 10
133.3896185647428
 20
133.4547308694141
 30
0.0
 10
133.4557643980597
 20
133.4547308694141
 30
0.0
 10
133.5191541549883
 20
133.4616210603846
 30
0.0
 10
133.5801323450772
 20
133.4760904614226
 30
0.0
 10
133.6138942808326
 20
133.4843586905872
 30
0.0
 10
133.6573024839468
 20
133.4988280916253
 30
0.0
 10
133.7096679353226
 20
133.5184651358912
 30
0.0
 10
133.7096679353226
 20
133.5184651358912
 30
0.0
 10
132.9279757697194
 20
134.2181640289454
 30
0.0
 10
132.9279757697194
 20
134.2181640289454
 30
0.0
 10
132.8893907002846
 20
134.1919813032575
 30
0.0
 10
132.8566622931747
 20
134.1506401574345
 30
0.0
 10
132.8301350579383
 20
134.0927625532823
 30
0.0
  0
SPLINE
  5
27F
330
279
100
AcDbEntity
  8
Sichtbar schmal (ISO)
100
AcDbSpline
210
0.0
220
0.0
230
1.0
 70
    11
 71
     3
 72
    59
 73
    55
 74
     0
 42
0.0000000001
 43
0.0000000001
 40
0.0
 40
0.0
 40
0.0
 40
0.0
 40
1.0
 40
1.0
 40
1.0
 40
2.0
 40
2.0
 40
2.0
 40
3.0
 40
3.0
 40
3.0
 40
4.0
 40
4.0
 40
4.0
 40
5.0
 40
5.0
 40
5.0
 40
6.0
 40
6.0
 40
6.0
 40
7.0
 40
7.0
 40
7.0
 40
8.0
 40
8.0
 40
8.0
 40
9.0
 40
9.0
 40
9.0
 40
10.0
 40
10.0
 40
10.0
 40
11.0
 40
11.0
 40
11.0
 40
12.0
 40
12.0
 40
12.0
 40
13.0
 40
13.0
 40
13.0
 40
14.0
 40
14.0
 40
14.0
 40
15.0
 40
15.0
 40
15.0
 40
16.0
 40
16.0
 40
16.0
 40
17.0
 40
17.0
 40
17.0
 40
18.0
 40
18.0
 40
18.0
 40
18.0
 10
134.0858723623119
 20
133.1708550014295
 30
0.0
 10
134.0858723623119
 20
133.1708550014295
 30
0.0
 10
133.9005262252054
 20
133.3479329093713
 30
0.0
 10
133.9005262252054
 20
133.3479329093713
 30
0.0
 10
133.832657844146
 20
133.301768629869
 30
0.0
 10
133.756521233922
 20
133.2659396368224
 30
0.0
 10
133.6721163945333
 20
133.2411349493286
 30
0.0
 10
133.5873670455962
 20
133.2163302618348
 30
0.0
 10
133.4874592765239
 20
133.2039279180879
 30
0.0
 10
133.3717040682195
 20
133.2039279180879
 30
0.0
 10
133.163275791362
 20
133.2039279180879
 30
0.0
 10
132.9779296542555
 20
133.2624945413371
 30
0.0
 10
132.8160101664488
 20
133.3796277878356
 30
0.0
 10
132.6537461690935
 20
133.4964165247856
 30
0.0
 10
132.5727864251901
 20
133.6669487513055
 30
0.0
 10
132.5727864251901
 20
133.8908799578467
 30
0.0
 10
132.5727864251901
 20
134.0073241852481
 30
0.0
 10
132.5938015076501
 20
134.1096435211601
 30
0.0
 10
132.6351426534731
 20
134.1974934560339
 30
0.0
 10
132.6596028314184
 20
134.2491698883127
 30
0.0
 10
132.6992214294988
 20
134.308425530659
 30
0.0
 10
132.7543429572628
 20
134.3752603830728
 30
0.0
 10
132.7543429572628
 20
134.3752603830728
 30
0.0
 10
132.5607285909917
 20
134.5502712337235
 30
0.0
 10
132.5607285909917
 20
134.5502712337235
 30
0.0
 10
132.5607285909917
 20
134.5502712337235
 30
0.0
 10
132.6306640293423
 20
134.6219292198167
 30
0.0
 10
132.6306640293423
 20
134.6219292198167
 30
0.0
 10
132.6306640293423
 20
134.6219292198167
 30
0.0
 10
132.8280680006471
 20
134.4448513118749
 30
0.0
 10
132.8280680006471
 20
134.4448513118749
 30
0.0
 10
132.9128173495843
 20
134.5027289160271
 30
0.0
 10
133.0096245327198
 20
134.5444145713986
 30
0.0
 10
133.1188340596022
 20
134.5695637684409
 30
0.0
 10
133.1894585170498
 20
134.5850666981245
 30
0.0
 10
133.260427484046
 20
134.5929904177406
 30
0.0
 10
133.3310519414936
 20
134.5929904177406
 30
0.0
 10
133.5680745108788
 20
134.5929904177406
 30
0.0
 10
133.7634114248925
 20
134.5285671321664
 30
0.0
 10
133.9170626835346
 20
134.3997205610181
 30
0.0
 10
134.0710584517253
 20
134.2708739898698
 30
0.0
 10
134.1478840810463
 20
134.0993082347043
 30
0.0
 10
134.1478840810463
 20
133.8850232955218
 30
0.0
 10
134.1478840810463
 20
133.7830484691584
 30
0.0
 10
134.1330701704598
 20
133.6924424578963
 30
0.0
 10
134.1034423492866
 20
133.6125162426385
 30
0.0
 10
134.0734700185649
 20
133.5325900273807
 30
0.0
 10
134.0331624013875
 20
133.4685112513551
 30
0.0
 10
133.9818304786573
 20
133.419246385916
 30
0.0
 10
133.9818304786573
 20
133.419246385916
 30
0.0
 10
134.157530348405
 20
133.2521592548814
 30
0.0
 10
134.157530348405
 20
133.2521592548814
 30
0.0
 10
134.157530348405
 20
133.2521592548814
 30
0.0
 10
134.0858723623119
 20
133.1708550014295
 30
0.0
 10
134.0858723623119
 20
133.1708550014295
 30
0.0
  0
HATCH
  5
280
330
279
100
AcDbEntity
  8
Sichtbar schmal (ISO)
 62
   250
420
  2039067
440
 33554687
100
AcDbHatch
 10
0.0
 20
0.0
 30
0.0
210
0.0
220
0.0
230
1.0
  2
SOLID
 70
     1
 71
     1
 91
        3
 92
        1
 93
        1
 72
     4
 94
        3
 73
     0
 74
     0
 95
       26
 96
       22
 40
0.0
 40
0.0
 40
0.0
 40
0.0
 40
1.0
 40
1.0
 40
1.0
 40
2.0
 40
2.0
 40
2.0
 40
3.0
 40
3.0
 40
3.0
 40
4.0
 40
4.0
 40
4.0
 40
5.0
 40
5.0
 40
5.0
 40
6.0
 40
6.0
 40
6.0
 40
7.0
 40
7.0
 40
7.0
 40
7.0
 10
133.9043158302392
 20
133.72896047004
 10
133.922574836311
 20
133.7820149405128
 10
133.9315320845726
 20
133.8357584300827
 10
133.9315320845726
 20
133.8908799578467
 10
133.9315320845726
 20
134.0662353180459
 10
133.8498833215722
 20
134.1906032650634
 10
133.6862412860229
 20
134.2643283084478
 10
133.5880560646932
 20
134.3087700402075
 10
133.4750569327771
 20
134.3311631608616
 10
133.3472438902743
 20
134.3311631608616
 10
133.2645615986283
 20
134.3311631608616
 10
133.1935926316321
 20
134.3242729698911
 10
133.1336479701888
 20
134.3101480784016
 10
133.101608582176
 20
134.302568868334
 10
133.0640570413867
 20
134.2898220150386
 10
133.0206488382726
 20
134.2719075185153
 10
133.0206488382726
 20
134.2719075185153
 10
133.7988959083905
 20
133.5811658737227
 10
133.7988959083905
 20
133.5811658737227
 10
133.8509168502178
 20
133.6269856436766
 10
133.8860568241674
 20
133.6759059995671
 10
133.9043158302392
 20
133.72896047004
 97
        0
 97
        1
330
27D
 92
        1
 93
        1
 72
     4
 94
        3
 73
     0
 74
     0
 95
       26
 96
       22
 40
0.0
 40
0.0
 40
0.0
 40
0.0
 40
1.0
 40
1.0
 40
1.0
 40
2.0
 40
2.0
 40
2.0
 40
3.0
 40
3.0
 40
3.0
 40
4.0
 40
4.0
 40
4.0
 40
5.0
 40
5.0
 40
5.0
 40
6.0
 40
6.0
 40
6.0
 40
7.0
 40
7.0
 40
7.0
 40
7.0
 10
132.8301350579383
 20
134.0927625532823
 10
132.8039523322504
 20
134.0352294586787
 10
132.7905164598579
 20
133.971150682653
 10
132.7905164598579
 20
133.9005262252054
 10
132.7905164598579
 20
133.7658229917321
 10
132.846327006719
 20
133.6579915030438
 10
132.9582926099896
 20
133.5766872495919
 10
133.0699137037117
 20
133.49538299614
 10
133.2139186949951
 20
133.4547308694141
 10
133.3896185647428
 20
133.4547308694141
 10
133.4557643980597
 20
133.4547308694141
 10
133.5191541549883
 20
133.4616210603846
 10
133.5801323450772
 20
133.4760904614226
 10
133.6138942808326
 20
133.4843586905872
 10
133.6573024839468
 20
133.4988280916253
 10
133.7096679353226
 20
133.5184651358912
 10
133.7096679353226
 20
133.5184651358912
 10
132.9279757697194
 20
134.2181640289454
 10
132.9279757697194
 20
134.2181640289454
 10
132.8893907002846
 20
134.1919813032575
 10
132.8566622931747
 20
134.1506401574345
 10
132.8301350579383
 20
134.0927625532823
 97
        0
 97
        1
330
27E
 92
        1
 93
        1
 72
     4
 94
        3
 73
     0
 74
     0
 95
       59
 96
       55
 40
0.0
 40
0.0
 40
0.0
 40
0.0
 40
1.0
 40
1.0
 40
1.0
 40
2.0
 40
2.0
 40
2.0
 40
3.0
 40
3.0
 40
3.0
 40
4.0
 40
4.0
 40
4.0
 40
5.0
 40
5.0
 40
5.0
 40
6.0
 40
6.0
 40
6.0
 40
7.0
 40
7.0
 40
7.0
 40
8.0
 40
8.0
 40
8.0
 40
9.0
 40
9.0
 40
9.0
 40
10.0
 40
10.0
 40
10.0
 40
11.0
 40
11.0
 40
11.0
 40
12.0
 40
12.0
 40
12.0
 40
13.0
 40
13.0
 40
13.0
 40
14.0
 40
14.0
 40
14.0
 40
15.0
 40
15.0
 40
15.0
 40
16.0
 40
16.0
 40
16.0
 40
17.0
 40
17.0
 40
17.0
 40
18.0
 40
18.0
 40
18.0
 40
18.0
 10
134.0858723623119
 20
133.1708550014295
 10
134.0858723623119
 20
133.1708550014295
 10
133.9005262252054
 20
133.3479329093713
 10
133.9005262252054
 20
133.3479329093713
 10
133.832657844146
 20
133.301768629869
 10
133.756521233922
 20
133.2659396368224
 10
133.6721163945333
 20
133.2411349493286
 10
133.5873670455962
 20
133.2163302618348
 10
133.4874592765239
 20
133.2039279180879
 10
133.3717040682195
 20
133.2039279180879
 10
133.163275791362
 20
133.2039279180879
 10
132.9779296542555
 20
133.2624945413371
 10
132.8160101664488
 20
133.3796277878356
 10
132.6537461690935
 20
133.4964165247856
 10
132.5727864251901
 20
133.6669487513055
 10
132.5727864251901
 20
133.8908799578467
 10
132.5727864251901
 20
134.0073241852481
 10
132.5938015076501
 20
134.1096435211601
 10
132.6351426534731
 20
134.1974934560339
 10
132.6596028314184
 20
134.2491698883127
 10
132.6992214294988
 20
134.308425530659
 10
132.7543429572628
 20
134.3752603830728
 10
132.7543429572628
 20
134.3752603830728
 10
132.5607285909917
 20
134.5502712337235
 10
132.5607285909917
 20
134.5502712337235
 10
132.5607285909917
 20
134.5502712337235
 10
132.6306640293423
 20
134.6219292198167
 10
132.6306640293423
 20
134.6219292198167
 10
132.6306640293423
 20
134.6219292198167
 10
132.8280680006471
 20
134.4448513118749
 10
132.8280680006471
 20
134.4448513118749
 10
132.9128173495843
 20
134.5027289160271
 10
133.0096245327198
 20
134.5444145713986
 10
133.1188340596022
 20
134.5695637684409
 10
133.1894585170498
 20
134.5850666981245
 10
133.260427484046
 20
134.5929904177406
 10
133.3310519414936
 20
134.5929904177406
 10
133.5680745108788
 20
134.5929904177406
 10
133.7634114248925
 20
134.5285671321664
 10
133.9170626835346
 20
134.3997205610181
 10
134.0710584517253
 20
134.2708739898698
 10
134.1478840810463
 20
134.0993082347043
 10
134.1478840810463
 20
133.8850232955218
 10
134.1478840810463
 20
133.7830484691584
 10
134.1330701704598
 20
133.6924424578963
 10
134.1034423492866
 20
133.6125162426385
 10
134.0734700185649
 20
133.5325900273807
 10
134.0331624013875
 20
133.4685112513551
 10
133.9818304786573
 20
133.419246385916
 10
133.9818304786573
 20
133.419246385916
 10
134.157530348405
 20
133.2521592548814
 10
134.157530348405
 20
133.2521592548814
 10
134.157530348405
 20
133.2521592548814
 10
134.0858723623119
 20
133.1708550014295
 10
134.0858723623119
 20
133.1708550014295
 97
        0
 97
        1
330
27F
 75
     2
 76
     1
 98
        1
 10
0.0
 20
0.0
450
        0
451
        0
460
0.0
461
0.0
452
        0
462
0.0
453
        0
470

  0
SPLINE
  5
281
330
279
100
AcDbEntity
  8
Sichtbar schmal (ISO)
100
AcDbSpline
210
0.0
220
0.0
230
1.0
 70
     9
 71
     3
 72
    41
 73
    37
 74
     0
 42
0.0000000001
 43
0.0000000001
 40
0.0
 40
0.0
 40
0.0
 40
0.0
 40
1.0
 40
1.0
 40
1.0
 40
2.0
 40
2.0
 40
2.0
 40
3.0
 40
3.0
 40
3.0
 40
4.0
 40
4.0
 40
4.0
 40
5.0
 40
5.0
 40
5.0
 40
6.0
 40
6.0
 40
6.0
 40
7.0
 40
7.0
 40
7.0
 40
8.0
 40
8.0
 40
8.0
 40
9.0
 40
9.0
 40
9.0
 40
10.0
 40
10.0
 40
10.0
 40
11.0
 40
11.0
 40
11.0
 40
12.0
 40
12.0
 40
12.0
 40
12.0
 10
133.27351884689
 20
135.3970757039979
 30
0.0
 10
133.0619899840956
 20
135.7353840806495
 30
0.0
 10
132.943478699403
 20
135.907638854912
 30
0.0
 10
132.6640814555492
 20
135.907638854912
 30
0.0
 10
132.4470404399785
 20
135.907638854912
 30
0.0
 10
132.3030354486951
 20
135.7326280042613
 30
0.0
 10
132.3030354486951
 20
135.5210991414669
 30
0.0
 10
132.3030354486951
 20
135.2420464071617
 30
0.0
 10
132.5596950623461
 20
135.1235351224691
 30
0.0
 10
132.7994737081196
 20
135.1318033516337
 30
0.0
 10
132.7994737081196
 20
135.1318033516337
 30
0.0
 10
132.7994737081196
 20
134.8920247058603
 30
0.0
 10
132.7994737081196
 20
134.8920247058603
 30
0.0
 10
132.3932969504086
 20
134.8696315852062
 30
0.0
 10
132.0915065859007
 20
135.1121663073678
 30
0.0
 10
132.0915065859007
 20
135.5352240329565
 30
0.0
 10
132.0915065859007
 20
135.8821451483211
 30
0.0
 10
132.2947672195305
 20
136.1611978826263
 30
0.0
 10
132.667182041486
 20
136.1611978826263
 30
0.0
 10
133.019615309627
 20
136.1611978826263
 30
0.0
 10
133.1946261602777
 20
135.9245198227897
 30
0.0
 10
133.3524115335022
 20
135.6761284383032
 30
0.0
 10
133.501928677562
 20
135.4280815633652
 30
0.0
 10
133.6345648537441
 20
135.1600531346128
 30
0.0
 10
133.8798556522939
 20
135.114922383756
 30
0.0
 10
133.8798556522939
 20
135.114922383756
 30
0.0
 10
133.8798556522939
 20
136.141905347909
 30
0.0
 10
133.8798556522939
 20
136.141905347909
 30
0.0
 10
133.8798556522939
 20
136.141905347909
 30
0.0
 10
134.0913845150882
 20
136.141905347909
 30
0.0
 10
134.0913845150882
 20
136.141905347909
 30
0.0
 10
134.0913845150882
 20
136.141905347909
 30
0.0
 10
134.0913845150882
 20
134.8355251399022
 30
0.0
 10
134.0913845150882
 20
134.8355251399022
 30
0.0
 10
133.6204399622546
 20
134.8723876615944
 30
0.0
 10
133.4426730352157
 20
135.114922383756
 30
0.0
 10
133.27351884689
 20
135.3970757039979
 30
0.0
  0
HATCH
  5
282
330
279
100
AcDbEntity
  8
Sichtbar schmal (ISO)
 62
    18
420
        0
440
 33554687
100
AcDbHatch
 10
0.0
 20
0.0
 30
0.0
210
0.0
220
0.0
230
1.0
  2
SOLID
 70
     1
 71
     1
 91
        1
 92
        1
 93
        1
 72
     4
 94
        3
 73
     0
 74
     0
 95
       41
 96
       37
 40
0.0
 40
0.0
 40
0.0
 40
0.0
 40
1.0
 40
1.0
 40
1.0
 40
2.0
 40
2.0
 40
2.0
 40
3.0
 40
3.0
 40
3.0
 40
4.0
 40
4.0
 40
4.0
 40
5.0
 40
5.0
 40
5.0
 40
6.0
 40
6.0
 40
6.0
 40
7.0
 40
7.0
 40
7.0
 40
8.0
 40
8.0
 40
8.0
 40
9.0
 40
9.0
 40
9.0
 40
10.0
 40
10.0
 40
10.0
 40
11.0
 40
11.0
 40
11.0
 40
12.0
 40
12.0
 40
12.0
 40
12.0
 10
133.27351884689
 20
135.3970757039979
 10
133.0619899840956
 20
135.7353840806495
 10
132.943478699403
 20
135.907638854912
 10
132.6640814555492
 20
135.907638854912
 10
132.4470404399785
 20
135.907638854912
 10
132.3030354486951
 20
135.7326280042613
 10
132.3030354486951
 20
135.5210991414669
 10
132.3030354486951
 20
135.2420464071617
 10
132.5596950623461
 20
135.1235351224691
 10
132.7994737081196
 20
135.1318033516337
 10
132.7994737081196
 20
135.1318033516337
 10
132.7994737081196
 20
134.8920247058603
 10
132.7994737081196
 20
134.8920247058603
 10
132.3932969504086
 20
134.8696315852062
 10
132.0915065859007
 20
135.1121663073678
 10
132.0915065859007
 20
135.5352240329565
 10
132.0915065859007
 20
135.8821451483211
 10
132.2947672195305
 20
136.1611978826263
 10
132.667182041486
 20
136.1611978826263
 10
133.019615309627
 20
136.1611978826263
 10
133.1946261602777
 20
135.9245198227897
 10
133.3524115335022
 20
135.6761284383032
 10
133.501928677562
 20
135.4280815633652
 10
133.6345648537441
 20
135.1600531346128
 10
133.8798556522939
 20
135.114922383756
 10
133.8798556522939
 20
135.114922383756
 10
133.8798556522939
 20
136.141905347909
 10
133.8798556522939
 20
136.141905347909
 10
133.8798556522939
 20
136.141905347909
 10
134.0913845150882
 20
136.141905347909
 10
134.0913845150882
 20
136.141905347909
 10
134.0913845150882
 20
136.141905347909
 10
134.0913845150882
 20
134.8355251399022
 10
134.0913845150882
 20
134.8355251399022
 10
133.6204399622546
 20
134.8723876615944
 10
133.4426730352157
 20
135.114922383756
 10
133.27351884689
 20
135.3970757039979
 97
        0
 97
        1
330
281
 75
     2
 76
     1
 98
        1
 10
0.0
 20
0.0
450
        0
451
        0
460
0.0
461
0.0
452
        0
462
0.0
453
        0
470

  0
SPLINE
  5
283
330
279
100
AcDbEntity
  8
Sichtbar schmal (ISO)
100
AcDbSpline
210
0.0
220
0.0
230
1.0
 70
     9
 71
     3
 72
    17
 73
    13
 74
     0
 42
0.0000000001
 43
0.0000000001
 40
0.0
 40
0.0
 40
0.0
 40
0.0
 40
1.0
 40
1.0
 40
1.0
 40
2.0
 40
2.0
 40
2.0
 40
3.0
 40
3.0
 40
3.0
 40
4.0
 40
4.0
 40
4.0
 40
4.0
 10
133.1071207349524
 20
137.5330349048528
 30
0.0
 10
132.8108425232209
 20
137.5330349048528
 30
0.0
 10
132.3030354486951
 20
137.5302788284646
 30
0.0
 10
132.3030354486951
 20
137.1213459943655
 30
0.0
 10
132.3030354486951
 20
136.7124131602663
 30
0.0
 10
132.8108425232209
 20
136.7096570838781
 30
0.0
 10
133.1071207349524
 20
136.7096570838781
 30
0.0
 10
133.406155023072
 20
136.7096570838781
 30
0.0
 10
133.9136175880494
 20
136.7124131602663
 30
0.0
 10
133.9136175880494
 20
137.1213459943655
 30
0.0
 10
133.9136175880494
 20
137.5302788284646
 30
0.0
 10
133.406155023072
 20
137.5330349048528
 30
0.0
 10
133.1071207349524
 20
137.5330349048528
 30
0.0
  0
SPLINE
  5
284
330
279
100
AcDbEntity
  8
Sichtbar schmal (ISO)
100
AcDbSpline
210
0.0
220
0.0
230
1.0
 70
    11
 71
     3
 72
    17
 73
    13
 74
     0
 42
0.0000000001
 43
0.0000000001
 40
0.0
 40
0.0
 40
0.0
 40
0.0
 40
1.0
 40
1.0
 40
1.0
 40
2.0
 40
2.0
 40
2.0
 40
3.0
 40
3.0
 40
3.0
 40
4.0
 40
4.0
 40
4.0
 40
4.0
 10
133.1098768113406
 20
136.4557535466152
 30
0.0
 10
132.6699381178741
 20
136.4557535466152
 30
0.0
 10
132.0915065859007
 20
136.4953721446956
 30
0.0
 10
132.0915065859007
 20
137.1213459943655
 30
0.0
 10
132.0915065859007
 20
137.7476643535839
 30
0.0
 10
132.6699381178741
 20
137.7872829516643
 30
0.0
 10
133.1098768113406
 20
137.7872829516643
 30
0.0
 10
133.549815504807
 20
137.7872829516643
 30
0.0
 10
134.1251464508437
 20
137.7476643535839
 30
0.0
 10
134.1251464508437
 20
137.1213459943655
 30
0.0
 10
134.1251464508437
 20
136.4953721446956
 30
0.0
 10
133.549815504807
 20
136.4557535466152
 30
0.0
 10
133.1098768113406
 20
136.4557535466152
 30
0.0
  0
HATCH
  5
285
330
279
100
AcDbEntity
  8
Sichtbar schmal (ISO)
 62
    18
420
        0
440
 33554687
100
AcDbHatch
 10
0.0
 20
0.0
 30
0.0
210
0.0
220
0.0
230
1.0
  2
SOLID
 70
     1
 71
     1
 91
        2
 92
        1
 93
        1
 72
     4
 94
        3
 73
     0
 74
     0
 95
       17
 96
       13
 40
0.0
 40
0.0
 40
0.0
 40
0.0
 40
1.0
 40
1.0
 40
1.0
 40
2.0
 40
2.0
 40
2.0
 40
3.0
 40
3.0
 40
3.0
 40
4.0
 40
4.0
 40
4.0
 40
4.0
 10
133.1071207349524
 20
137.5330349048528
 10
132.8108425232209
 20
137.5330349048528
 10
132.3030354486951
 20
137.5302788284646
 10
132.3030354486951
 20
137.1213459943655
 10
132.3030354486951
 20
136.7124131602663
 10
132.8108425232209
 20
136.7096570838781
 10
133.1071207349524
 20
136.7096570838781
 10
133.406155023072
 20
136.7096570838781
 10
133.9136175880494
 20
136.7124131602663
 10
133.9136175880494
 20
137.1213459943655
 10
133.9136175880494
 20
137.5302788284646
 10
133.406155023072
 20
137.5330349048528
 10
133.1071207349524
 20
137.5330349048528
 97
        0
 97
        1
330
283
 92
        1
 93
        1
 72
     4
 94
        3
 73
     0
 74
     0
 95
       17
 96
       13
 40
0.0
 40
0.0
 40
0.0
 40
0.0
 40
1.0
 40
1.0
 40
1.0
 40
2.0
 40
2.0
 40
2.0
 40
3.0
 40
3.0
 40
3.0
 40
4.0
 40
4.0
 40
4.0
 40
4.0
 10
133.1098768113406
 20
136.4557535466152
 10
132.6699381178741
 20
136.4557535466152
 10
132.0915065859007
 20
136.4953721446956
 10
132.0915065859007
 20
137.1213459943655
 10
132.0915065859007
 20
137.7476643535839
 10
132.6699381178741
 20
137.7872829516643
 10
133.1098768113406
 20
137.7872829516643
 10
133.549815504807
 20
137.7872829516643
 10
134.1251464508437
 20
137.7476643535839
 10
134.1251464508437
 20
137.1213459943655
 10
134.1251464508437
 20
136.4953721446956
 10
133.549815504807
 20
136.4557535466152
 10
133.1098768113406
 20
136.4557535466152
 97
        0
 97
        1
330
284
 75
     2
 76
     1
 98
        1
 10
0.0
 20
0.0
450
        0
451
        0
460
0.0
461
0.0
452
        0
462
0.0
453
        0
470

  0
SPLINE
  5
286
330
279
100
AcDbEntity
  8
Sichtbar schmal (ISO)
100
AcDbSpline
210
0.0
220
0.0
230
1.0
 70
    11
 71
     3
 72
    17
 73
    13
 74
     0
 42
0.0000000001
 43
0.0000000001
 40
0.0
 40
0.0
 40
0.0
 40
0.0
 40
1.0
 40
1.0
 40
1.0
 40
2.0
 40
2.0
 40
2.0
 40
3.0
 40
3.0
 40
3.0
 40
4.0
 40
4.0
 40
4.0
 40
4.0
 10
133.4116671758484
 20
138.8628417621593
 30
0.0
 10
133.4116671758484
 20
138.8628417621593
 30
0.0
 10
132.432915548489
 20
138.8628417621593
 30
0.0
 10
132.432915548489
 20
138.8628417621593
 30
0.0
 10
132.432915548489
 20
138.8628417621593
 30
0.0
 10
132.432915548489
 20
138.8569850998343
 30
0.0
 10
132.432915548489
 20
138.8569850998343
 30
0.0
 10
132.432915548489
 20
138.8569850998343
 30
0.0
 10
133.4116671758484
 20
138.1913926520841
 30
0.0
 10
133.4116671758484
 20
138.1913926520841
 30
0.0
 10
133.4116671758484
 20
138.1913926520841
 30
0.0
 10
133.4116671758484
 20
138.8628417621593
 30
0.0
 10
133.4116671758484
 20
138.8628417621593
 30
0.0
  0
SPLINE
  5
287
330
279
100
AcDbEntity
  8
Sichtbar schmal (ISO)
100
AcDbSpline
210
0.0
220
0.0
230
1.0
 70
    11
 71
     3
 72
    38
 73
    34
 74
     0
 42
0.0000000001
 43
0.0000000001
 40
0.0
 40
0.0
 40
0.0
 40
0.0
 40
1.0
 40
1.0
 40
1.0
 40
2.0
 40
2.0
 40
2.0
 40
3.0
 40
3.0
 40
3.0
 40
4.0
 40
4.0
 40
4.0
 40
5.0
 40
5.0
 40
5.0
 40
6.0
 40
6.0
 40
6.0
 40
7.0
 40
7.0
 40
7.0
 40
8.0
 40
8.0
 40
8.0
 40
9.0
 40
9.0
 40
9.0
 40
10.0
 40
10.0
 40
10.0
 40
11.0
 40
11.0
 40
11.0
 40
11.0
 10
133.3920301315825
 20
137.9853759420661
 30
0.0
 10
133.3920301315825
 20
137.9853759420661
 30
0.0
 10
132.0915065859007
 20
138.8966036979147
 30
0.0
 10
132.0915065859007
 20
138.8966036979147
 30
0.0
 10
132.0915065859007
 20
138.8966036979147
 30
0.0
 10
132.0915065859007
 20
139.0881510068946
 30
0.0
 10
132.0915065859007
 20
139.0881510068946
 30
0.0
 10
132.0915065859007
 20
139.0881510068946
 30
0.0
 10
133.4116671758484
 20
139.0881510068946
 30
0.0
 10
133.4116671758484
 20
139.0881510068946
 30
0.0
 10
133.4116671758484
 20
139.0881510068946
 30
0.0
 10
133.4116671758484
 20
139.3589355120352
 30
0.0
 10
133.4116671758484
 20
139.3589355120352
 30
0.0
 10
133.4116671758484
 20
139.3589355120352
 30
0.0
 10
133.6231960386428
 20
139.3589355120352
 30
0.0
 10
133.6231960386428
 20
139.3589355120352
 30
0.0
 10
133.6231960386428
 20
139.3589355120352
 30
0.0
 10
133.6231960386428
 20
139.0881510068946
 30
0.0
 10
133.6231960386428
 20
139.0881510068946
 30
0.0
 10
133.6231960386428
 20
139.0881510068946
 30
0.0
 10
134.0913845150882
 20
139.0881510068946
 30
0.0
 10
134.0913845150882
 20
139.0881510068946
 30
0.0
 10
134.0913845150882
 20
139.0881510068946
 30
0.0
 10
134.0913845150882
 20
138.8628417621593
 30
0.0
 10
134.0913845150882
 20
138.8628417621593
 30
0.0
 10
134.0913845150882
 20
138.8628417621593
 30
0.0
 10
133.6231960386428
 20
138.8628417621593
 30
0.0
 10
133.6231960386428
 20
138.8628417621593
 30
0.0
 10
133.6231960386428
 20
138.8628417621593
 30
0.0
 10
133.6231960386428
 20
137.9853759420661
 30
0.0
 10
133.6231960386428
 20
137.9853759420661
 30
0.0
 10
133.6231960386428
 20
137.9853759420661
 30
0.0
 10
133.3920301315825
 20
137.9853759420661
 30
0.0
 10
133.3920301315825
 20
137.9853759420661
 30
0.0
  0
HATCH
  5
288
330
279
100
AcDbEntity
  8
Sichtbar schmal (ISO)
 62
    18
420
        0
440
 33554687
100
AcDbHatch
 10
0.0
 20
0.0
 30
0.0
210
0.0
220
0.0
230
1.0
  2
SOLID
 70
     1
 71
     1
 91
        2
 92
        1
 93
        1
 72
     4
 94
        3
 73
     0
 74
     0
 95
       17
 96
       13
 40
0.0
 40
0.0
 40
0.0
 40
0.0
 40
1.0
 40
1.0
 40
1.0
 40
2.0
 40
2.0
 40
2.0
 40
3.0
 40
3.0
 40
3.0
 40
4.0
 40
4.0
 40
4.0
 40
4.0
 10
133.4116671758484
 20
138.8628417621593
 10
133.4116671758484
 20
138.8628417621593
 10
132.432915548489
 20
138.8628417621593
 10
132.432915548489
 20
138.8628417621593
 10
132.432915548489
 20
138.8628417621593
 10
132.432915548489
 20
138.8569850998343
 10
132.432915548489
 20
138.8569850998343
 10
132.432915548489
 20
138.8569850998343
 10
133.4116671758484
 20
138.1913926520841
 10
133.4116671758484
 20
138.1913926520841
 10
133.4116671758484
 20
138.1913926520841
 10
133.4116671758484
 20
138.8628417621593
 10
133.4116671758484
 20
138.8628417621593
 97
        0
 97
        1
330
286
 92
        1
 93
        1
 72
     4
 94
        3
 73
     0
 74
     0
 95
       38
 96
       34
 40
0.0
 40
0.0
 40
0.0
 40
0.0
 40
1.0
 40
1.0
 40
1.0
 40
2.0
 40
2.0
 40
2.0
 40
3.0
 40
3.0
 40
3.0
 40
4.0
 40
4.0
 40
4.0
 40
5.0
 40
5.0
 40
5.0
 40
6.0
 40
6.0
 40
6.0
 40
7.0
 40
7.0
 40
7.0
 40
8.0
 40
8.0
 40
8.0
 40
9.0
 40
9.0
 40
9.0
 40
10.0
 40
10.0
 40
10.0
 40
11.0
 40
11.0
 40
11.0
 40
11.0
 10
133.3920301315825
 20
137.9853759420661
 10
133.3920301315825
 20
137.9853759420661
 10
132.0915065859007
 20
138.8966036979147
 10
132.0915065859007
 20
138.8966036979147
 10
132.0915065859007
 20
138.8966036979147
 10
132.0915065859007
 20
139.0881510068946
 10
132.0915065859007
 20
139.0881510068946
 10
132.0915065859007
 20
139.0881510068946
 10
133.4116671758484
 20
139.0881510068946
 10
133.4116671758484
 20
139.0881510068946
 10
133.4116671758484
 20
139.0881510068946
 10
133.4116671758484
 20
139.3589355120352
 10
133.4116671758484
 20
139.3589355120352
 10
133.4116671758484
 20
139.3589355120352
 10
133.6231960386428
 20
139.3589355120352
 10
133.6231960386428
 20
139.3589355120352
 10
133.6231960386428
 20
139.3589355120352
 10
133.6231960386428
 20
139.0881510068946
 10
133.6231960386428
 20
139.0881510068946
 10
133.6231960386428
 20
139.0881510068946
 10
134.0913845150882
 20
139.0881510068946
 10
134.0913845150882
 20
139.0881510068946
 10
134.0913845150882
 20
139.0881510068946
 10
134.0913845150882
 20
138.8628417621593
 10
134.0913845150882
 20
138.8628417621593
 10
134.0913845150882
 20
138.8628417621593
 10
133.6231960386428
 20
138.8628417621593
 10
133.6231960386428
 20
138.8628417621593
 10
133.6231960386428
 20
138.8628417621593
 10
133.6231960386428
 20
137.9853759420661
 10
133.6231960386428
 20
137.9853759420661
 10
133.6231960386428
 20
137.9853759420661
 10
133.3920301315825
 20
137.9853759420661
 10
133.3920301315825
 20
137.9853759420661
 97
        0
 97
        1
330
287
 75
     2
 76
     1
 98
        1
 10
0.0
 20
0.0
450
        0
451
        0
460
0.0
461
0.0
452
        0
462
0.0
453
        0
470

  0
ENDBLK
  5
27C
330
279
100
AcDbEntity
  8
0
100
AcDbBlockEnd
  0
BLOCK
  5
28B
330
289
100
AcDbEntity
  8
0
100
AcDbBlockBegin
  2
Block_38
 70
     0
 10
0.0
 20
0.0
 30
0.0
  3
Block_38
  1

  0
INSERT
  5
28E
330
289
100
AcDbEntity
  8
Sichtbar schmal (ISO)
100
AcDbBlockReference
  2
Block_39
 10
0.0
 20
0.0
 30
0.0
  0
ENDBLK
  5
28C
330
289
100
AcDbEntity
  8
0
100
AcDbBlockEnd
  0
BLOCK
  5
28F
330
28D
100
AcDbEntity
  8
0
100
AcDbBlockBegin
  2
Block_39
 70
     0
 10
0.0
 20
0.0
 30
0.0
  3
Block_39
  1

  0
SPLINE
  5
291
330
28D
100
AcDbEntity
  8
Sichtbar schmal (ISO)
100
AcDbSpline
210
0.0
220
0.0
230
1.0
 70
    11
 71
     3
 72
    26
 73
    22
 74
     0
 42
0.0000000001
 43
0.0000000001
 40
0.0
 40
0.0
 40
0.0
 40
0.0
 40
1.0
 40
1.0
 40
1.0
 40
2.0
 40
2.0
 40
2.0
 40
3.0
 40
3.0
 40
3.0
 40
4.0
 40
4.0
 40
4.0
 40
5.0
 40
5.0
 40
5.0
 40
6.0
 40
6.0
 40
6.0
 40
7.0
 40
7.0
 40
7.0
 40
7.0
 10
140.9440239447987
 20
133.7420518328839
 30
0.0
 10
140.9622829508705
 20
133.7951063033568
 30
0.0
 10
140.9712401991322
 20
133.8488497929267
 30
0.0
 10
140.9712401991322
 20
133.9039713206907
 30
0.0
 10
140.9712401991322
 20
134.0793266808899
 30
0.0
 10
140.8895914361318
 20
134.2036946279074
 30
0.0
 10
140.7259494005824
 20
134.2774196712917
 30
0.0
 10
140.6277641792527
 20
134.3218614030515
 30
0.0
 10
140.5147650473366
 20
134.3442545237056
 30
0.0
 10
140.3869520048338
 20
134.3442545237056
 30
0.0
 10
140.3042697131878
 20
134.3442545237056
 30
0.0
 10
140.2333007461916
 20
134.3373643327351
 30
0.0
 10
140.1733560847483
 20
134.3232394412456
 30
0.0
 10
140.1413166967355
 20
134.315660231178
 30
0.0
 10
140.1037651559463
 20
134.3029133778826
 30
0.0
 10
140.0603569528321
 20
134.2849988813593
 30
0.0
 10
140.0603569528321
 20
134.2849988813593
 30
0.0
 10
140.83860402295
 20
133.5942572365667
 30
0.0
 10
140.83860402295
 20
133.5942572365667
 30
0.0
 10
140.8906249647773
 20
133.6400770065205
 30
0.0
 10
140.9257649387269
 20
133.6889973624111
 30
0.0
 10
140.9440239447987
 20
133.7420518328839
 30
0.0
  0
SPLINE
  5
292
330
28D
100
AcDbEntity
  8
Sichtbar schmal (ISO)
100
AcDbSpline
210
0.0
220
0.0
230
1.0
 70
     9
 71
     3
 72
    26
 73
    22
 74
     0
 42
0.0000000001
 43
0.0000000001
 40
0.0
 40
0.0
 40
0.0
 40
0.0
 40
1.0
 40
1.0
 40
1.0
 40
2.0
 40
2.0
 40
2.0
 40
3.0
 40
3.0
 40
3.0
 40
4.0
 40
4.0
 40
4.0
 40
5.0
 40
5.0
 40
5.0
 40
6.0
 40
6.0
 40
6.0
 40
7.0
 40
7.0
 40
7.0
 40
7.0
 10
139.8698431724978
 20
134.1058539161263
 30
0.0
 10
139.8436604468099
 20
134.0483208215226
 30
0.0
 10
139.8302245744174
 20
133.984242045497
 30
0.0
 10
139.8302245744174
 20
133.9136175880494
 30
0.0
 10
139.8302245744174
 20
133.7789143545761
 30
0.0
 10
139.8860351212785
 20
133.6710828658878
 30
0.0
 10
139.9980007245491
 20
133.5897786124359
 30
0.0
 10
140.1096218182712
 20
133.508474358984
 30
0.0
 10
140.2536268095546
 20
133.467822232258
 30
0.0
 10
140.4293266793024
 20
133.467822232258
 30
0.0
 10
140.4954725126192
 20
133.467822232258
 30
0.0
 10
140.5588622695478
 20
133.4747124232285
 30
0.0
 10
140.6198404596367
 20
133.4891818242666
 30
0.0
 10
140.6536023953921
 20
133.4974500534312
 30
0.0
 10
140.6970105985063
 20
133.5119194544692
 30
0.0
 10
140.7493760498821
 20
133.5315564987352
 30
0.0
 10
140.7493760498821
 20
133.5315564987352
 30
0.0
 10
139.9676838842789
 20
134.2312553917894
 30
0.0
 10
139.9676838842789
 20
134.2312553917894
 30
0.0
 10
139.9290988148441
 20
134.2050726661015
 30
0.0
 10
139.8963704077342
 20
134.1637315202785
 30
0.0
 10
139.8698431724978
 20
134.1058539161263
 30
0.0
  0
SPLINE
  5
293
330
28D
100
AcDbEntity
  8
Sichtbar schmal (ISO)
100
AcDbSpline
210
0.0
220
0.0
230
1.0
 70
    11
 71
     3
 72
    59
 73
    55
 74
     0
 42
0.0000000001
 43
0.0000000001
 40
0.0
 40
0.0
 40
0.0
 40
0.0
 40
1.0
 40
1.0
 40
1.0
 40
2.0
 40
2.0
 40
2.0
 40
3.0
 40
3.0
 40
3.0
 40
4.0
 40
4.0
 40
4.0
 40
5.0
 40
5.0
 40
5.0
 40
6.0
 40
6.0
 40
6.0
 40
7.0
 40
7.0
 40
7.0
 40
8.0
 40
8.0
 40
8.0
 40
9.0
 40
9.0
 40
9.0
 40
10.0
 40
10.0
 40
10.0
 40
11.0
 40
11.0
 40
11.0
 40
12.0
 40
12.0
 40
12.0
 40
13.0
 40
13.0
 40
13.0
 40
14.0
 40
14.0
 40
14.0
 40
15.0
 40
15.0
 40
15.0
 40
16.0
 40
16.0
 40
16.0
 40
17.0
 40
17.0
 40
17.0
 40
18.0
 40
18.0
 40
18.0
 40
18.0
 10
141.1255804768714
 20
133.1839463642734
 30
0.0
 10
141.1255804768714
 20
133.1839463642734
 30
0.0
 10
140.9402343397649
 20
133.3610242722153
 30
0.0
 10
140.9402343397649
 20
133.3610242722153
 30
0.0
 10
140.8723659587055
 20
133.3148599927129
 30
0.0
 10
140.7962293484815
 20
133.2790309996663
 30
0.0
 10
140.7118245090928
 20
133.2542263121725
 30
0.0
 10
140.6270751601557
 20
133.2294216246787
 30
0.0
 10
140.5271673910835
 20
133.2170192809318
 30
0.0
 10
140.4114121827791
 20
133.2170192809318
 30
0.0
 10
140.2029839059215
 20
133.2170192809318
 30
0.0
 10
140.017637768815
 20
133.2755859041811
 30
0.0
 10
139.8557182810083
 20
133.3927191506796
 30
0.0
 10
139.693454283653
 20
133.5095078876296
 30
0.0
 10
139.6124945397496
 20
133.6800401141494
 30
0.0
 10
139.6124945397496
 20
133.9039713206907
 30
0.0
 10
139.6124945397496
 20
134.0204155480921
 30
0.0
 10
139.6335096222097
 20
134.122734884004
 30
0.0
 10
139.6748507680326
 20
134.2105848188779
 30
0.0
 10
139.699310945978
 20
134.2622612511567
 30
0.0
 10
139.7389295440583
 20
134.321516893503
 30
0.0
 10
139.7940510718223
 20
134.3883517459168
 30
0.0
 10
139.7940510718223
 20
134.3883517459168
 30
0.0
 10
139.6004367055513
 20
134.5633625965675
 30
0.0
 10
139.6004367055513
 20
134.5633625965675
 30
0.0
 10
139.6004367055513
 20
134.5633625965675
 30
0.0
 10
139.6703721439018
 20
134.6350205826607
 30
0.0
 10
139.6703721439018
 20
134.6350205826607
 30
0.0
 10
139.6703721439018
 20
134.6350205826607
 30
0.0
 10
139.8677761152067
 20
134.4579426747188
 30
0.0
 10
139.8677761152067
 20
134.4579426747188
 30
0.0
 10
139.9525254641438
 20
134.515820278871
 30
0.0
 10
140.0493326472793
 20
134.5575059342426
 30
0.0
 10
140.1585421741617
 20
134.5826551312849
 30
0.0
 10
140.2291666316093
 20
134.5981580609685
 30
0.0
 10
140.3001355986055
 20
134.6060817805846
 30
0.0
 10
140.3707600560531
 20
134.6060817805846
 30
0.0
 10
140.6077826254383
 20
134.6060817805846
 30
0.0
 10
140.803119539452
 20
134.5416584950104
 30
0.0
 10
140.9567707980941
 20
134.412811923862
 30
0.0
 10
141.1107665662848
 20
134.2839653527137
 30
0.0
 10
141.1875921956059
 20
134.1123995975483
 30
0.0
 10
141.1875921956059
 20
133.8981146583657
 30
0.0
 10
141.1875921956059
 20
133.7961398320023
 30
0.0
 10
141.1727782850193
 20
133.7055338207403
 30
0.0
 10
141.1431504638461
 20
133.6256076054825
 30
0.0
 10
141.1131781331244
 20
133.5456813902247
 30
0.0
 10
141.0728705159471
 20
133.481602614199
 30
0.0
 10
141.0215385932168
 20
133.4323377487599
 30
0.0
 10
141.0215385932168
 20
133.4323377487599
 30
0.0
 10
141.1972384629645
 20
133.2652506177254
 30
0.0
 10
141.1972384629645
 20
133.2652506177254
 30
0.0
 10
141.1972384629645
 20
133.2652506177254
 30
0.0
 10
141.1255804768714
 20
133.1839463642734
 30
0.0
 10
141.1255804768714
 20
133.1839463642734
 30
0.0
  0
HATCH
  5
294
330
28D
100
AcDbEntity
  8
Sichtbar schmal (ISO)
 62
   250
420
  2039067
440
 33554687
100
AcDbHatch
 10
0.0
 20
0.0
 30
0.0
210
0.0
220
0.0
230
1.0
  2
SOLID
 70
     1
 71
     1
 91
        3
 92
        1
 93
        1
 72
     4
 94
        3
 73
     0
 74
     0
 95
       26
 96
       22
 40
0.0
 40
0.0
 40
0.0
 40
0.0
 40
1.0
 40
1.0
 40
1.0
 40
2.0
 40
2.0
 40
2.0
 40
3.0
 40
3.0
 40
3.0
 40
4.0
 40
4.0
 40
4.0
 40
5.0
 40
5.0
 40
5.0
 40
6.0
 40
6.0
 40
6.0
 40
7.0
 40
7.0
 40
7.0
 40
7.0
 10
140.9440239447987
 20
133.7420518328839
 10
140.9622829508705
 20
133.7951063033568
 10
140.9712401991322
 20
133.8488497929267
 10
140.9712401991322
 20
133.9039713206907
 10
140.9712401991322
 20
134.0793266808899
 10
140.8895914361318
 20
134.2036946279074
 10
140.7259494005824
 20
134.2774196712917
 10
140.6277641792527
 20
134.3218614030515
 10
140.5147650473366
 20
134.3442545237056
 10
140.3869520048338
 20
134.3442545237056
 10
140.3042697131878
 20
134.3442545237056
 10
140.2333007461916
 20
134.3373643327351
 10
140.1733560847483
 20
134.3232394412456
 10
140.1413166967355
 20
134.315660231178
 10
140.1037651559463
 20
134.3029133778826
 10
140.0603569528321
 20
134.2849988813593
 10
140.0603569528321
 20
134.2849988813593
 10
140.83860402295
 20
133.5942572365667
 10
140.83860402295
 20
133.5942572365667
 10
140.8906249647773
 20
133.6400770065205
 10
140.9257649387269
 20
133.6889973624111
 10
140.9440239447987
 20
133.7420518328839
 97
        0
 97
        1
330
291
 92
        1
 93
        1
 72
     4
 94
        3
 73
     0
 74
     0
 95
       26
 96
       22
 40
0.0
 40
0.0
 40
0.0
 40
0.0
 40
1.0
 40
1.0
 40
1.0
 40
2.0
 40
2.0
 40
2.0
 40
3.0
 40
3.0
 40
3.0
 40
4.0
 40
4.0
 40
4.0
 40
5.0
 40
5.0
 40
5.0
 40
6.0
 40
6.0
 40
6.0
 40
7.0
 40
7.0
 40
7.0
 40
7.0
 10
139.8698431724978
 20
134.1058539161263
 10
139.8436604468099
 20
134.0483208215226
 10
139.8302245744174
 20
133.984242045497
 10
139.8302245744174
 20
133.9136175880494
 10
139.8302245744174
 20
133.7789143545761
 10
139.8860351212785
 20
133.6710828658878
 10
139.9980007245491
 20
133.5897786124359
 10
140.1096218182712
 20
133.508474358984
 10
140.2536268095546
 20
133.467822232258
 10
140.4293266793024
 20
133.467822232258
 10
140.4954725126192
 20
133.467822232258
 10
140.5588622695478
 20
133.4747124232285
 10
140.6198404596367
 20
133.4891818242666
 10
140.6536023953921
 20
133.4974500534312
 10
140.6970105985063
 20
133.5119194544692
 10
140.7493760498821
 20
133.5315564987352
 10
140.7493760498821
 20
133.5315564987352
 10
139.9676838842789
 20
134.2312553917894
 10
139.9676838842789
 20
134.2312553917894
 10
139.9290988148441
 20
134.2050726661015
 10
139.8963704077342
 20
134.1637315202785
 10
139.8698431724978
 20
134.1058539161263
 97
        0
 97
        1
330
292
 92
        1
 93
        1
 72
     4
 94
        3
 73
     0
 74
     0
 95
       59
 96
       55
 40
0.0
 40
0.0
 40
0.0
 40
0.0
 40
1.0
 40
1.0
 40
1.0
 40
2.0
 40
2.0
 40
2.0
 40
3.0
 40
3.0
 40
3.0
 40
4.0
 40
4.0
 40
4.0
 40
5.0
 40
5.0
 40
5.0
 40
6.0
 40
6.0
 40
6.0
 40
7.0
 40
7.0
 40
7.0
 40
8.0
 40
8.0
 40
8.0
 40
9.0
 40
9.0
 40
9.0
 40
10.0
 40
10.0
 40
10.0
 40
11.0
 40
11.0
 40
11.0
 40
12.0
 40
12.0
 40
12.0
 40
13.0
 40
13.0
 40
13.0
 40
14.0
 40
14.0
 40
14.0
 40
15.0
 40
15.0
 40
15.0
 40
16.0
 40
16.0
 40
16.0
 40
17.0
 40
17.0
 40
17.0
 40
18.0
 40
18.0
 40
18.0
 40
18.0
 10
141.1255804768714
 20
133.1839463642734
 10
141.1255804768714
 20
133.1839463642734
 10
140.9402343397649
 20
133.3610242722153
 10
140.9402343397649
 20
133.3610242722153
 10
140.8723659587055
 20
133.3148599927129
 10
140.7962293484815
 20
133.2790309996663
 10
140.7118245090928
 20
133.2542263121725
 10
140.6270751601557
 20
133.2294216246787
 10
140.5271673910835
 20
133.2170192809318
 10
140.4114121827791
 20
133.2170192809318
 10
140.2029839059215
 20
133.2170192809318
 10
140.017637768815
 20
133.2755859041811
 10
139.8557182810083
 20
133.3927191506796
 10
139.693454283653
 20
133.5095078876296
 10
139.6124945397496
 20
133.6800401141494
 10
139.6124945397496
 20
133.9039713206907
 10
139.6124945397496
 20
134.0204155480921
 10
139.6335096222097
 20
134.122734884004
 10
139.6748507680326
 20
134.2105848188779
 10
139.699310945978
 20
134.2622612511567
 10
139.7389295440583
 20
134.321516893503
 10
139.7940510718223
 20
134.3883517459168
 10
139.7940510718223
 20
134.3883517459168
 10
139.6004367055513
 20
134.5633625965675
 10
139.6004367055513
 20
134.5633625965675
 10
139.6004367055513
 20
134.5633625965675
 10
139.6703721439018
 20
134.6350205826607
 10
139.6703721439018
 20
134.6350205826607
 10
139.6703721439018
 20
134.6350205826607
 10
139.8677761152067
 20
134.4579426747188
 10
139.8677761152067
 20
134.4579426747188
 10
139.9525254641438
 20
134.515820278871
 10
140.0493326472793
 20
134.5575059342426
 10
140.1585421741617
 20
134.5826551312849
 10
140.2291666316093
 20
134.5981580609685
 10
140.3001355986055
 20
134.6060817805846
 10
140.3707600560531
 20
134.6060817805846
 10
140.6077826254383
 20
134.6060817805846
 10
140.803119539452
 20
134.5416584950104
 10
140.9567707980941
 20
134.412811923862
 10
141.1107665662848
 20
134.2839653527137
 10
141.1875921956059
 20
134.1123995975483
 10
141.1875921956059
 20
133.8981146583657
 10
141.1875921956059
 20
133.7961398320023
 10
141.1727782850193
 20
133.7055338207403
 10
141.1431504638461
 20
133.6256076054825
 10
141.1131781331244
 20
133.5456813902247
 10
141.0728705159471
 20
133.481602614199
 10
141.0215385932168
 20
133.4323377487599
 10
141.0215385932168
 20
133.4323377487599
 10
141.1972384629645
 20
133.2652506177254
 10
141.1972384629645
 20
133.2652506177254
 10
141.1972384629645
 20
133.2652506177254
 10
141.1255804768714
 20
133.1839463642734
 10
141.1255804768714
 20
133.1839463642734
 97
        0
 97
        1
330
293
 75
     2
 76
     1
 98
        1
 10
0.0
 20
0.0
450
        0
451
        0
460
0.0
461
0.0
452
        0
462
0.0
453
        0
470

  0
SPLINE
  5
295
330
28D
100
AcDbEntity
  8
Sichtbar schmal (ISO)
100
AcDbSpline
210
0.0
220
0.0
230
1.0
 70
     9
 71
     3
 72
    41
 73
    37
 74
     0
 42
0.0000000001
 43
0.0000000001
 40
0.0
 40
0.0
 40
0.0
 40
0.0
 40
1.0
 40
1.0
 40
1.0
 40
2.0
 40
2.0
 40
2.0
 40
3.0
 40
3.0
 40
3.0
 40
4.0
 40
4.0
 40
4.0
 40
5.0
 40
5.0
 40
5.0
 40
6.0
 40
6.0
 40
6.0
 40
7.0
 40
7.0
 40
7.0
 40
8.0
 40
8.0
 40
8.0
 40
9.0
 40
9.0
 40
9.0
 40
10.0
 40
10.0
 40
10.0
 40
11.0
 40
11.0
 40
11.0
 40
12.0
 40
12.0
 40
12.0
 40
12.0
 10
140.3132269614495
 20
135.4101670668419
 30
0.0
 10
140.1016980986551
 20
135.7484754434934
 30
0.0
 10
139.9831868139625
 20
135.9207302177559
 30
0.0
 10
139.7037895701087
 20
135.9207302177559
 30
0.0
 10
139.486748554538
 20
135.9207302177559
 30
0.0
 10
139.3427435632546
 20
135.7457193671052
 30
0.0
 10
139.3427435632546
 20
135.5341905043109
 30
0.0
 10
139.3427435632546
 20
135.2551377700056
 30
0.0
 10
139.5994031769057
 20
135.136626485313
 30
0.0
 10
139.8391818226791
 20
135.1448947144776
 30
0.0
 10
139.8391818226791
 20
135.1448947144776
 30
0.0
 10
139.8391818226791
 20
134.9051160687043
 30
0.0
 10
139.8391818226791
 20
134.9051160687043
 30
0.0
 10
139.4330050649681
 20
134.8827229480501
 30
0.0
 10
139.1312147004602
 20
135.1252576702117
 30
0.0
 10
139.1312147004602
 20
135.5483153958004
 30
0.0
 10
139.1312147004602
 20
135.8952365111651
 30
0.0
 10
139.33447533409
 20
136.1742892454703
 30
0.0
 10
139.7068901560455
 20
136.1742892454703
 30
0.0
 10
140.0593234241865
 20
136.1742892454703
 30
0.0
 10
140.2343342748372
 20
135.9376111856336
 30
0.0
 10
140.3921196480617
 20
135.6892198011471
 30
0.0
 10
140.5416367921215
 20
135.4411729262091
 30
0.0
 10
140.6742729683036
 20
135.1731444974567
 30
0.0
 10
140.9195637668534
 20
135.1280137465999
 30
0.0
 10
140.9195637668534
 20
135.1280137465999
 30
0.0
 10
140.9195637668534
 20
136.1549967107529
 30
0.0
 10
140.9195637668534
 20
136.1549967107529
 30
0.0
 10
140.9195637668534
 20
136.1549967107529
 30
0.0
 10
141.1310926296478
 20
136.1549967107529
 30
0.0
 10
141.1310926296478
 20
136.1549967107529
 30
0.0
 10
141.1310926296478
 20
136.1549967107529
 30
0.0
 10
141.1310926296478
 20
134.8486165027461
 30
0.0
 10
141.1310926296478
 20
134.8486165027461
 30
0.0
 10
140.6601480768141
 20
134.8854790244383
 30
0.0
 10
140.4823811497752
 20
135.1280137465999
 30
0.0
 10
140.3132269614495
 20
135.4101670668419
 30
0.0
  0
HATCH
  5
296
330
28D
100
AcDbEntity
  8
Sichtbar schmal (ISO)
 62
    18
420
        0
440
 33554687
100
AcDbHatch
 10
0.0
 20
0.0
 30
0.0
210
0.0
220
0.0
230
1.0
  2
SOLID
 70
     1
 71
     1
 91
        1
 92
        1
 93
        1
 72
     4
 94
        3
 73
     0
 74
     0
 95
       41
 96
       37
 40
0.0
 40
0.0
 40
0.0
 40
0.0
 40
1.0
 40
1.0
 40
1.0
 40
2.0
 40
2.0
 40
2.0
 40
3.0
 40
3.0
 40
3.0
 40
4.0
 40
4.0
 40
4.0
 40
5.0
 40
5.0
 40
5.0
 40
6.0
 40
6.0
 40
6.0
 40
7.0
 40
7.0
 40
7.0
 40
8.0
 40
8.0
 40
8.0
 40
9.0
 40
9.0
 40
9.0
 40
10.0
 40
10.0
 40
10.0
 40
11.0
 40
11.0
 40
11.0
 40
12.0
 40
12.0
 40
12.0
 40
12.0
 10
140.3132269614495
 20
135.4101670668419
 10
140.1016980986551
 20
135.7484754434934
 10
139.9831868139625
 20
135.9207302177559
 10
139.7037895701087
 20
135.9207302177559
 10
139.486748554538
 20
135.9207302177559
 10
139.3427435632546
 20
135.7457193671052
 10
139.3427435632546
 20
135.5341905043109
 10
139.3427435632546
 20
135.2551377700056
 10
139.5994031769057
 20
135.136626485313
 10
139.8391818226791
 20
135.1448947144776
 10
139.8391818226791
 20
135.1448947144776
 10
139.8391818226791
 20
134.9051160687043
 10
139.8391818226791
 20
134.9051160687043
 10
139.4330050649681
 20
134.8827229480501
 10
139.1312147004602
 20
135.1252576702117
 10
139.1312147004602
 20
135.5483153958004
 10
139.1312147004602
 20
135.8952365111651
 10
139.33447533409
 20
136.1742892454703
 10
139.7068901560455
 20
136.1742892454703
 10
140.0593234241865
 20
136.1742892454703
 10
140.2343342748372
 20
135.9376111856336
 10
140.3921196480617
 20
135.6892198011471
 10
140.5416367921215
 20
135.4411729262091
 10
140.6742729683036
 20
135.1731444974567
 10
140.9195637668534
 20
135.1280137465999
 10
140.9195637668534
 20
135.1280137465999
 10
140.9195637668534
 20
136.1549967107529
 10
140.9195637668534
 20
136.1549967107529
 10
140.9195637668534
 20
136.1549967107529
 10
141.1310926296478
 20
136.1549967107529
 10
141.1310926296478
 20
136.1549967107529
 10
141.1310926296478
 20
136.1549967107529
 10
141.1310926296478
 20
134.8486165027461
 10
141.1310926296478
 20
134.8486165027461
 10
140.6601480768141
 20
134.8854790244383
 10
140.4823811497752
 20
135.1280137465999
 10
140.3132269614495
 20
135.4101670668419
 97
        0
 97
        1
330
295
 75
     2
 76
     1
 98
        1
 10
0.0
 20
0.0
450
        0
451
        0
460
0.0
461
0.0
452
        0
462
0.0
453
        0
470

  0
SPLINE
  5
297
330
28D
100
AcDbEntity
  8
Sichtbar schmal (ISO)
100
AcDbSpline
210
0.0
220
0.0
230
1.0
 70
    11
 71
     3
 72
    26
 73
    22
 74
     0
 42
0.0000000001
 43
0.0000000001
 40
0.0
 40
0.0
 40
0.0
 40
0.0
 40
1.0
 40
1.0
 40
1.0
 40
2.0
 40
2.0
 40
2.0
 40
3.0
 40
3.0
 40
3.0
 40
4.0
 40
4.0
 40
4.0
 40
5.0
 40
5.0
 40
5.0
 40
6.0
 40
6.0
 40
6.0
 40
7.0
 40
7.0
 40
7.0
 40
7.0
 10
139.6982774173324
 20
137.1148003129435
 30
0.0
 10
139.6982774173324
 20
137.1148003129435
 30
0.0
 10
139.6982774173324
 20
136.5959689328649
 30
0.0
 10
139.6982774173324
 20
136.5959689328649
 30
0.0
 10
139.6982774173324
 20
136.5959689328649
 30
0.0
 10
139.5063855988039
 20
136.5959689328649
 30
0.0
 10
139.5063855988039
 20
136.5959689328649
 30
0.0
 10
139.5063855988039
 20
136.8695095143937
 30
0.0
 10
139.4361056509048
 20
137.1175563893317
 30
0.0
 10
139.1312147004602
 20
137.1712998789016
 30
0.0
 10
139.1312147004602
 20
137.1712998789016
 30
0.0
 10
139.1312147004602
 20
137.3545789587169
 30
0.0
 10
139.1312147004602
 20
137.3545789587169
 30
0.0
 10
139.1312147004602
 20
137.3545789587169
 30
0.0
 10
141.1310926296478
 20
137.3545789587169
 30
0.0
 10
141.1310926296478
 20
137.3545789587169
 30
0.0
 10
141.1310926296478
 20
137.3545789587169
 30
0.0
 10
141.1310926296478
 20
137.1148003129435
 30
0.0
 10
141.1310926296478
 20
137.1148003129435
 30
0.0
 10
141.1310926296478
 20
137.1148003129435
 30
0.0
 10
139.6982774173324
 20
137.1148003129435
 30
0.0
 10
139.6982774173324
 20
137.1148003129435
 30
0.0
  0
HATCH
  5
298
330
28D
100
AcDbEntity
  8
Sichtbar schmal (ISO)
 62
    18
420
        0
440
 33554687
100
AcDbHatch
 10
0.0
 20
0.0
 30
0.0
210
0.0
220
0.0
230
1.0
  2
SOLID
 70
     1
 71
     1
 91
        1
 92
        1
 93
        1
 72
     4
 94
        3
 73
     0
 74
     0
 95
       26
 96
       22
 40
0.0
 40
0.0
 40
0.0
 40
0.0
 40
1.0
 40
1.0
 40
1.0
 40
2.0
 40
2.0
 40
2.0
 40
3.0
 40
3.0
 40
3.0
 40
4.0
 40
4.0
 40
4.0
 40
5.0
 40
5.0
 40
5.0
 40
6.0
 40
6.0
 40
6.0
 40
7.0
 40
7.0
 40
7.0
 40
7.0
 10
139.6982774173324
 20
137.1148003129435
 10
139.6982774173324
 20
137.1148003129435
 10
139.6982774173324
 20
136.5959689328649
 10
139.6982774173324
 20
136.5959689328649
 10
139.6982774173324
 20
136.5959689328649
 10
139.5063855988039
 20
136.5959689328649
 10
139.5063855988039
 20
136.5959689328649
 10
139.5063855988039
 20
136.8695095143937
 10
139.4361056509048
 20
137.1175563893317
 10
139.1312147004602
 20
137.1712998789016
 10
139.1312147004602
 20
137.1712998789016
 10
139.1312147004602
 20
137.3545789587169
 10
139.1312147004602
 20
137.3545789587169
 10
139.1312147004602
 20
137.3545789587169
 10
141.1310926296478
 20
137.3545789587169
 10
141.1310926296478
 20
137.3545789587169
 10
141.1310926296478
 20
137.3545789587169
 10
141.1310926296478
 20
137.1148003129435
 10
141.1310926296478
 20
137.1148003129435
 10
141.1310926296478
 20
137.1148003129435
 10
139.6982774173324
 20
137.1148003129435
 10
139.6982774173324
 20
137.1148003129435
 97
        0
 97
        1
330
297
 75
     2
 76
     1
 98
        1
 10
0.0
 20
0.0
450
        0
451
        0
460
0.0
461
0.0
452
        0
462
0.0
453
        0
470

  0
SPLINE
  5
299
330
28D
100
AcDbEntity
  8
Sichtbar schmal (ISO)
100
AcDbSpline
210
0.0
220
0.0
230
1.0
 70
    11
 71
     3
 72
    17
 73
    13
 74
     0
 42
0.0000000001
 43
0.0000000001
 40
0.0
 40
0.0
 40
0.0
 40
0.0
 40
1.0
 40
1.0
 40
1.0
 40
2.0
 40
2.0
 40
2.0
 40
3.0
 40
3.0
 40
3.0
 40
4.0
 40
4.0
 40
4.0
 40
4.0
 10
140.451375290408
 20
138.8759331250032
 30
0.0
 10
140.451375290408
 20
138.8759331250032
 30
0.0
 10
139.4726236630485
 20
138.8759331250032
 30
0.0
 10
139.4726236630485
 20
138.8759331250032
 30
0.0
 10
139.4726236630485
 20
138.8759331250032
 30
0.0
 10
139.4726236630485
 20
138.8700764626783
 30
0.0
 10
139.4726236630485
 20
138.8700764626783
 30
0.0
 10
139.4726236630485
 20
138.8700764626783
 30
0.0
 10
140.451375290408
 20
138.204484014928
 30
0.0
 10
140.451375290408
 20
138.204484014928
 30
0.0
 10
140.451375290408
 20
138.204484014928
 30
0.0
 10
140.451375290408
 20
138.8759331250032
 30
0.0
 10
140.451375290408
 20
138.8759331250032
 30
0.0
  0
SPLINE
  5
29A
330
28D
100
AcDbEntity
  8
Sichtbar schmal (ISO)
100
AcDbSpline
210
0.0
220
0.0
230
1.0
 70
    11
 71
     3
 72
    38
 73
    34
 74
     0
 42
0.0000000001
 43
0.0000000001
 40
0.0
 40
0.0
 40
0.0
 40
0.0
 40
1.0
 40
1.0
 40
1.0
 40
2.0
 40
2.0
 40
2.0
 40
3.0
 40
3.0
 40
3.0
 40
4.0
 40
4.0
 40
4.0
 40
5.0
 40
5.0
 40
5.0
 40
6.0
 40
6.0
 40
6.0
 40
7.0
 40
7.0
 40
7.0
 40
8.0
 40
8.0
 40
8.0
 40
9.0
 40
9.0
 40
9.0
 40
10.0
 40
10.0
 40
10.0
 40
11.0
 40
11.0
 40
11.0
 40
11.0
 10
140.431738246142
 20
137.9984673049101
 30
0.0
 10
140.431738246142
 20
137.9984673049101
 30
0.0
 10
139.1312147004602
 20
138.9096950607587
 30
0.0
 10
139.1312147004602
 20
138.9096950607587
 30
0.0
 10
139.1312147004602
 20
138.9096950607587
 30
0.0
 10
139.1312147004602
 20
139.1012423697385
 30
0.0
 10
139.1312147004602
 20
139.1012423697385
 30
0.0
 10
139.1312147004602
 20
139.1012423697385
 30
0.0
 10
140.451375290408
 20
139.1012423697385
 30
0.0
 10
140.451375290408
 20
139.1012423697385
 30
0.0
 10
140.451375290408
 20
139.1012423697385
 30
0.0
 10
140.451375290408
 20
139.3720268748792
 30
0.0
 10
140.451375290408
 20
139.3720268748792
 30
0.0
 10
140.451375290408
 20
139.3720268748792
 30
0.0
 10
140.6629041532023
 20
139.3720268748792
 30
0.0
 10
140.6629041532023
 20
139.3720268748792
 30
0.0
 10
140.6629041532023
 20
139.3720268748792
 30
0.0
 10
140.6629041532023
 20
139.1012423697385
 30
0.0
 10
140.6629041532023
 20
139.1012423697385
 30
0.0
 10
140.6629041532023
 20
139.1012423697385
 30
0.0
 10
141.1310926296478
 20
139.1012423697385
 30
0.0
 10
141.1310926296478
 20
139.1012423697385
 30
0.0
 10
141.1310926296478
 20
139.1012423697385
 30
0.0
 10
141.1310926296478
 20
138.8759331250032
 30
0.0
 10
141.1310926296478
 20
138.8759331250032
 30
0.0
 10
141.1310926296478
 20
138.8759331250032
 30
0.0
 10
140.6629041532023
 20
138.8759331250032
 30
0.0
 10
140.6629041532023
 20
138.8759331250032
 30
0.0
 10
140.6629041532023
 20
138.8759331250032
 30
0.0
 10
140.6629041532023
 20
137.9984673049101
 30
0.0
 10
140.6629041532023
 20
137.9984673049101
 30
0.0
 10
140.6629041532023
 20
137.9984673049101
 30
0.0
 10
140.431738246142
 20
137.9984673049101
 30
0.0
 10
140.431738246142
 20
137.9984673049101
 30
0.0
  0
HATCH
  5
29B
330
28D
100
AcDbEntity
  8
Sichtbar schmal (ISO)
 62
    18
420
        0
440
 33554687
100
AcDbHatch
 10
0.0
 20
0.0
 30
0.0
210
0.0
220
0.0
230
1.0
  2
SOLID
 70
     1
 71
     1
 91
        2
 92
        1
 93
        1
 72
     4
 94
        3
 73
     0
 74
     0
 95
       17
 96
       13
 40
0.0
 40
0.0
 40
0.0
 40
0.0
 40
1.0
 40
1.0
 40
1.0
 40
2.0
 40
2.0
 40
2.0
 40
3.0
 40
3.0
 40
3.0
 40
4.0
 40
4.0
 40
4.0
 40
4.0
 10
140.451375290408
 20
138.8759331250032
 10
140.451375290408
 20
138.8759331250032
 10
139.4726236630485
 20
138.8759331250032
 10
139.4726236630485
 20
138.8759331250032
 10
139.4726236630485
 20
138.8759331250032
 10
139.4726236630485
 20
138.8700764626783
 10
139.4726236630485
 20
138.8700764626783
 10
139.4726236630485
 20
138.8700764626783
 10
140.451375290408
 20
138.204484014928
 10
140.451375290408
 20
138.204484014928
 10
140.451375290408
 20
138.204484014928
 10
140.451375290408
 20
138.8759331250032
 10
140.451375290408
 20
138.8759331250032
 97
        0
 97
        1
330
299
 92
        1
 93
        1
 72
     4
 94
        3
 73
     0
 74
     0
 95
       38
 96
       34
 40
0.0
 40
0.0
 40
0.0
 40
0.0
 40
1.0
 40
1.0
 40
1.0
 40
2.0
 40
2.0
 40
2.0
 40
3.0
 40
3.0
 40
3.0
 40
4.0
 40
4.0
 40
4.0
 40
5.0
 40
5.0
 40
5.0
 40
6.0
 40
6.0
 40
6.0
 40
7.0
 40
7.0
 40
7.0
 40
8.0
 40
8.0
 40
8.0
 40
9.0
 40
9.0
 40
9.0
 40
10.0
 40
10.0
 40
10.0
 40
11.0
 40
11.0
 40
11.0
 40
11.0
 10
140.431738246142
 20
137.9984673049101
 10
140.431738246142
 20
137.9984673049101
 10
139.1312147004602
 20
138.9096950607587
 10
139.1312147004602
 20
138.9096950607587
 10
139.1312147004602
 20
138.9096950607587
 10
139.1312147004602
 20
139.1012423697385
 10
139.1312147004602
 20
139.1012423697385
 10
139.1312147004602
 20
139.1012423697385
 10
140.451375290408
 20
139.1012423697385
 10
140.451375290408
 20
139.1012423697385
 10
140.451375290408
 20
139.1012423697385
 10
140.451375290408
 20
139.3720268748792
 10
140.451375290408
 20
139.3720268748792
 10
140.451375290408
 20
139.3720268748792
 10
140.6629041532023
 20
139.3720268748792
 10
140.6629041532023
 20
139.3720268748792
 10
140.6629041532023
 20
139.3720268748792
 10
140.6629041532023
 20
139.1012423697385
 10
140.6629041532023
 20
139.1012423697385
 10
140.6629041532023
 20
139.1012423697385
 10
141.1310926296478
 20
139.1012423697385
 10
141.1310926296478
 20
139.1012423697385
 10
141.1310926296478
 20
139.1012423697385
 10
141.1310926296478
 20
138.8759331250032
 10
141.1310926296478
 20
138.8759331250032
 10
141.1310926296478
 20
138.8759331250032
 10
140.6629041532023
 20
138.8759331250032
 10
140.6629041532023
 20
138.8759331250032
 10
140.6629041532023
 20
138.8759331250032
 10
140.6629041532023
 20
137.9984673049101
 10
140.6629041532023
 20
137.9984673049101
 10
140.6629041532023
 20
137.9984673049101
 10
140.431738246142
 20
137.9984673049101
 10
140.431738246142
 20
137.9984673049101
 97
        0
 97
        1
330
29A
 75
     2
 76
     1
 98
        1
 10
0.0
 20
0.0
450
        0
451
        0
460
0.0
461
0.0
452
        0
462
0.0
453
        0
470

  0
ENDBLK
  5
290
330
28D
100
AcDbEntity
  8
0
100
AcDbBlockEnd
  0
BLOCK
  5
2A0
330
29E
100
AcDbEntity
  8
0
100
AcDbBlockBegin
  2
Block_40
 70
     0
 10
0.0
 20
0.0
 30
0.0
  3
Block_40
  1

  0
INSERT
  5
2A3
330
29E
100
AcDbEntity
  8
Sichtbar schmal (ISO)
100
AcDbBlockReference
  2
Block_41
 10
0.0
 20
0.0
 30
0.0
  0
ENDBLK
  5
2A1
330
29E
100
AcDbEntity
  8
0
100
AcDbBlockEnd
  0
BLOCK
  5
2A4
330
2A2
100
AcDbEntity
  8
0
100
AcDbBlockBegin
  2
Block_41
 70
     0
 10
0.0
 20
0.0
 30
0.0
  3
Block_41
  1

  0
LINE
  5
2A6
330
2A2
100
AcDbEntity
  8
Sichtbar schmal (ISO)
 62
    18
420
        0
370
     5
100
AcDbLine
 10
123.6072484025292
 20
148.0589105024004
 30
0.0
 11
123.6102736270021
 21
123.7738618329346
 31
0.0
  0
INSERT
  5
2A8
330
2A2
100
AcDbEntity
  8
Sichtbar schmal (ISO)
100
AcDbBlockReference
  2
Block_42
 10
0.0
 20
0.0
 30
0.0
  0
INSERT
  5
2AE
330
2A2
100
AcDbEntity
  8
Sichtbar schmal (ISO)
100
AcDbBlockReference
  2
Block_43
 10
0.0
 20
0.0
 30
0.0
  0
ENDBLK
  5
2A5
330
2A2
100
AcDbEntity
  8
0
100
AcDbBlockEnd
  0
BLOCK
  5
2A9
330
2A7
100
AcDbEntity
  8
0
100
AcDbBlockBegin
  2
Block_42
 70
     0
 10
0.0
 20
0.0
 30
0.0
  3
Block_42
  1

  0
LWPOLYLINE
  5
2AB
330
2A7
100
AcDbEntity
  8
Sichtbar schmal (ISO)
100
AcDbPolyline
 90
        3
 70
     1
 43
0.0
 10
123.3860194427592
 20
147.4264340350021
 10
123.6064301923514
 20
149.1076298658806
 10
123.82863885115
 20
147.426487864619
  0
HATCH
  5
2AC
330
2A7
100
AcDbEntity
  8
Sichtbar schmal (ISO)
 62
    18
420
        0
440
 33554687
100
AcDbHatch
 10
0.0
 20
0.0
 30
0.0
210
0.0
220
0.0
230
1.0
  2
SOLID
 70
     1
 71
     1
 91
        1
 92
        1
 93
        3
 72
     1
 10
123.3860194427592
 20
147.4264340350021
 11
123.6064301923514
 21
149.1076298658806
 72
     1
 10
123.6064301923514
 20
149.1076298658806
 11
123.82863885115
 21
147.426487864619
 72
     1
 10
123.82863885115
 20
147.426487864619
 11
123.3860194427592
 21
147.4264340350021
 97
        1
330
2AB
 75
     2
 76
     1
 98
        1
 10
0.0
 20
0.0
450
        0
451
        0
460
0.0
461
0.0
452
        0
462
0.0
453
        0
470

  0
ENDBLK
  5
2AA
330
2A7
100
AcDbEntity
  8
0
100
AcDbBlockEnd
  0
BLOCK
  5
2AF
330
2AD
100
AcDbEntity
  8
0
100
AcDbBlockBegin
  2
Block_43
 70
     0
 10
0.0
 20
0.0
 30
0.0
  3
Block_43
  1

  0
LWPOLYLINE
  5
2B1
330
2AD
100
AcDbEntity
  8
Sichtbar schmal (ISO)
100
AcDbPolyline
 90
        3
 70
     1
 43
0.0
 10
123.3888831783813
 20
124.4062844707159
 10
123.6097137989858
 20
122.7251317035309
 10
123.8315025867721
 20
124.4063383003328
  0
HATCH
  5
2B2
330
2AD
100
AcDbEntity
  8
Sichtbar schmal (ISO)
 62
    18
420
        0
440
 33554687
100
AcDbHatch
 10
0.0
 20
0.0
 30
0.0
210
0.0
220
0.0
230
1.0
  2
SOLID
 70
     1
 71
     1
 91
        1
 92
        1
 93
        3
 72
     1
 10
123.3888831783813
 20
124.4062844707159
 11
123.6097137989858
 21
122.7251317035309
 72
     1
 10
123.6097137989858
 20
122.7251317035309
 11
123.8315025867721
 21
124.4063383003328
 72
     1
 10
123.8315025867721
 20
124.4063383003328
 11
123.3888831783813
 21
124.4062844707159
 97
        1
330
2B1
 75
     2
 76
     1
 98
        1
 10
0.0
 20
0.0
450
        0
451
        0
460
0.0
461
0.0
452
        0
462
0.0
453
        0
470

  0
ENDBLK
  5
2B0
330
2AD
100
AcDbEntity
  8
0
100
AcDbBlockEnd
  0
BLOCK
  5
2B5
330
2B3
100
AcDbEntity
  8
0
100
AcDbBlockBegin
  2
Block_44
 70
     0
 10
0.0
 20
0.0
 30
0.0
  3
Block_44
  1

  0
INSERT
  5
2B8
330
2B3
100
AcDbEntity
  8
Sichtbar schmal (ISO)
100
AcDbBlockReference
  2
Block_45
 10
0.0
 20
0.0
 30
0.0
  0
ENDBLK
  5
2B6
330
2B3
100
AcDbEntity
  8
0
100
AcDbBlockEnd
  0
BLOCK
  5
2B9
330
2B7
100
AcDbEntity
  8
0
100
AcDbBlockBegin
  2
Block_45
 70
     0
 10
0.0
 20
0.0
 30
0.0
  3
Block_45
  1

  0
SPLINE
  5
2BB
330
2B7
100
AcDbEntity
  8
Sichtbar schmal (ISO)
100
AcDbSpline
210
0.0
220
0.0
230
1.0
 70
     9
 71
     3
 72
    26
 73
    22
 74
     0
 42
0.0000000001
 43
0.0000000001
 40
0.0
 40
0.0
 40
0.0
 40
0.0
 40
1.0
 40
1.0
 40
1.0
 40
2.0
 40
2.0
 40
2.0
 40
3.0
 40
3.0
 40
3.0
 40
4.0
 40
4.0
 40
4.0
 40
5.0
 40
5.0
 40
5.0
 40
6.0
 40
6.0
 40
6.0
 40
7.0
 40
7.0
 40
7.0
 40
7.0
 10
126.448095671513
 20
133.7089789162255
 30
0.0
 10
126.4663546775848
 20
133.7620333866984
 30
0.0
 10
126.475656435395
 20
133.8157768762682
 30
0.0
 10
126.475656435395
 20
133.8708984040323
 30
0.0
 10
126.475656435395
 20
134.0462537642315
 30
0.0
 10
126.393663162846
 20
134.170621711249
 30
0.0
 10
126.2303656368452
 20
134.2443467546333
 30
0.0
 10
126.131835905967
 20
134.2887884863931
 30
0.0
 10
126.0188367740508
 20
134.3111816070472
 30
0.0
 10
125.8913682410966
 20
134.3111816070472
 30
0.0
 10
125.8086859494506
 20
134.3111816070472
 30
0.0
 10
125.7373724729059
 20
134.3042914160767
 30
0.0
 10
125.6777723210111
 20
134.2901665245872
 30
0.0
 10
125.6453884234497
 20
134.2825873145196
 30
0.0
 10
125.6078368826605
 20
134.2698404612242
 30
0.0
 10
125.5647731890949
 20
134.2519259647009
 30
0.0
 10
125.5647731890949
 20
134.2519259647009
 30
0.0
 10
126.3430202592128
 20
133.5611843199083
 30
0.0
 10
126.3430202592128
 20
133.5611843199083
 30
0.0
 10
126.3950412010401
 20
133.6070040898621
 30
0.0
 10
126.4301811749897
 20
133.6559244457527
 30
0.0
 10
126.448095671513
 20
133.7089789162255
 30
0.0
  0
SPLINE
  5
2BC
330
2B7
100
AcDbEntity
  8
Sichtbar schmal (ISO)
100
AcDbSpline
210
0.0
220
0.0
230
1.0
 70
     9
 71
     3
 72
    26
 73
    22
 74
     0
 42
0.0000000001
 43
0.0000000001
 40
0.0
 40
0.0
 40
0.0
 40
0.0
 40
1.0
 40
1.0
 40
1.0
 40
2.0
 40
2.0
 40
2.0
 40
3.0
 40
3.0
 40
3.0
 40
4.0
 40
4.0
 40
4.0
 40
5.0
 40
5.0
 40
5.0
 40
6.0
 40
6.0
 40
6.0
 40
7.0
 40
7.0
 40
7.0
 40
7.0
 10
125.3742594087606
 20
134.0727809994679
 30
0.0
 10
125.3477321735241
 20
134.0152479048642
 30
0.0
 10
125.3346408106802
 20
133.9511691288386
 30
0.0
 10
125.3346408106802
 20
133.880544671391
 30
0.0
 10
125.3346408106802
 20
133.7458414379177
 30
0.0
 10
125.3904513575412
 20
133.6380099492294
 30
0.0
 10
125.5024169608119
 20
133.5567056957775
 30
0.0
 10
125.614038054534
 20
133.4754014423256
 30
0.0
 10
125.7576985362689
 20
133.4347493155996
 30
0.0
 10
125.9333984060166
 20
133.4347493155996
 30
0.0
 10
125.9998887488819
 20
133.4347493155996
 30
0.0
 10
126.0632785058106
 20
133.4416395065701
 30
0.0
 10
126.1239121863509
 20
133.4561089076082
 30
0.0
 10
126.1580186316549
 20
133.4643771367728
 30
0.0
 10
126.2010823252206
 20
133.4788465378108
 30
0.0
 10
126.2537922861449
 20
133.4984835820767
 30
0.0
 10
126.2537922861449
 20
133.4984835820767
 30
0.0
 10
125.4717556109932
 20
134.198182475131
 30
0.0
 10
125.4717556109932
 20
134.198182475131
 30
0.0
 10
125.4331705415584
 20
134.1719997494431
 30
0.0
 10
125.400786643997
 20
134.1306586036201
 30
0.0
 10
125.3742594087606
 20
134.0727809994679
 30
0.0
  0
SPLINE
  5
2BD
330
2B7
100
AcDbEntity
  8
Sichtbar schmal (ISO)
100
AcDbSpline
210
0.0
220
0.0
230
1.0
 70
    11
 71
     3
 72
    59
 73
    55
 74
     0
 42
0.0000000001
 43
0.0000000001
 40
0.0
 40
0.0
 40
0.0
 40
0.0
 40
1.0
 40
1.0
 40
1.0
 40
2.0
 40
2.0
 40
2.0
 40
3.0
 40
3.0
 40
3.0
 40
4.0
 40
4.0
 40
4.0
 40
5.0
 40
5.0
 40
5.0
 40
6.0
 40
6.0
 40
6.0
 40
7.0
 40
7.0
 40
7.0
 40
8.0
 40
8.0
 40
8.0
 40
9.0
 40
9.0
 40
9.0
 40
10.0
 40
10.0
 40
10.0
 40
11.0
 40
11.0
 40
11.0
 40
12.0
 40
12.0
 40
12.0
 40
13.0
 40
13.0
 40
13.0
 40
14.0
 40
14.0
 40
14.0
 40
15.0
 40
15.0
 40
15.0
 40
16.0
 40
16.0
 40
16.0
 40
17.0
 40
17.0
 40
17.0
 40
18.0
 40
18.0
 40
18.0
 40
18.0
 10
126.6299967131341
 20
133.150873447615
 30
0.0
 10
126.6299967131341
 20
133.150873447615
 30
0.0
 10
126.4446505760277
 20
133.3279513555569
 30
0.0
 10
126.4446505760277
 20
133.3279513555569
 30
0.0
 10
126.3767821949683
 20
133.2817870760546
 30
0.0
 10
126.3003010751957
 20
133.2459580830079
 30
0.0
 10
126.2158962358071
 20
133.2211533955141
 30
0.0
 10
126.1314913964185
 20
133.1963487080203
 30
0.0
 10
126.0312391177977
 20
133.1839463642734
 30
0.0
 10
125.9158284190419
 20
133.1839463642734
 30
0.0
 10
125.7074001421842
 20
133.1839463642734
 30
0.0
 10
125.5220540050778
 20
133.2425129875227
 30
0.0
 10
125.3597900077225
 20
133.3596462340212
 30
0.0
 10
125.1978705199158
 20
133.4764349709712
 30
0.0
 10
125.1169107760124
 20
133.646967197491
 30
0.0
 10
125.1169107760124
 20
133.8708984040323
 30
0.0
 10
125.1169107760124
 20
133.9873426314337
 30
0.0
 10
125.1375813489239
 20
134.0896619673456
 30
0.0
 10
125.1792670042954
 20
134.1775119022195
 30
0.0
 10
125.2037271822407
 20
134.2291883344983
 30
0.0
 10
125.2433457803211
 20
134.2884439768446
 30
0.0
 10
125.2984673080851
 20
134.3552788292584
 30
0.0
 10
125.2984673080851
 20
134.3552788292584
 30
0.0
 10
125.1045084322655
 20
134.5302896799091
 30
0.0
 10
125.1045084322655
 20
134.5302896799091
 30
0.0
 10
125.1045084322655
 20
134.5302896799091
 30
0.0
 10
125.1747883801646
 20
134.6019476660023
 30
0.0
 10
125.1747883801646
 20
134.6019476660023
 30
0.0
 10
125.1747883801646
 20
134.6019476660023
 30
0.0
 10
125.3721923514694
 20
134.4248697580604
 30
0.0
 10
125.3721923514694
 20
134.4248697580604
 30
0.0
 10
125.4565971908581
 20
134.4827473622126
 30
0.0
 10
125.5534043739936
 20
134.5244330175842
 30
0.0
 10
125.6629584104245
 20
134.5495822146265
 30
0.0
 10
125.7335828678721
 20
134.5650851443101
 30
0.0
 10
125.8042073253198
 20
134.5730088639262
 30
0.0
 10
125.8748317827674
 20
134.5730088639262
 30
0.0
 10
126.1118543521526
 20
134.5730088639262
 30
0.0
 10
126.3071912661662
 20
134.508585578352
 30
0.0
 10
126.4611870343569
 20
134.3797390072037
 30
0.0
 10
126.6151828025476
 20
134.2508924360553
 30
0.0
 10
126.6920084318686
 20
134.0793266808899
 30
0.0
 10
126.6920084318686
 20
133.8650417417073
 30
0.0
 10
126.6920084318686
 20
133.7630669153439
 30
0.0
 10
126.6771945212821
 20
133.6724609040819
 30
0.0
 10
126.6472221905604
 20
133.5925346888241
 30
0.0
 10
126.6175943693873
 20
133.5126084735663
 30
0.0
 10
126.5769422426613
 20
133.4485296975406
 30
0.0
 10
126.5256103199311
 20
133.3992648321016
 30
0.0
 10
126.5256103199311
 20
133.3992648321016
 30
0.0
 10
126.7016546992274
 20
133.2321777010669
 30
0.0
 10
126.7016546992274
 20
133.2321777010669
 30
0.0
 10
126.7016546992274
 20
133.2321777010669
 30
0.0
 10
126.6299967131341
 20
133.150873447615
 30
0.0
 10
126.6299967131341
 20
133.150873447615
 30
0.0
  0
HATCH
  5
2BE
330
2B7
100
AcDbEntity
  8
Sichtbar schmal (ISO)
 62
   250
420
  2039067
440
 33554687
100
AcDbHatch
 10
0.0
 20
0.0
 30
0.0
210
0.0
220
0.0
230
1.0
  2
SOLID
 70
     1
 71
     1
 91
        3
 92
        1
 93
        1
 72
     4
 94
        3
 73
     0
 74
     0
 95
       26
 96
       22
 40
0.0
 40
0.0
 40
0.0
 40
0.0
 40
1.0
 40
1.0
 40
1.0
 40
2.0
 40
2.0
 40
2.0
 40
3.0
 40
3.0
 40
3.0
 40
4.0
 40
4.0
 40
4.0
 40
5.0
 40
5.0
 40
5.0
 40
6.0
 40
6.0
 40
6.0
 40
7.0
 40
7.0
 40
7.0
 40
7.0
 10
126.448095671513
 20
133.7089789162255
 10
126.4663546775848
 20
133.7620333866984
 10
126.475656435395
 20
133.8157768762682
 10
126.475656435395
 20
133.8708984040323
 10
126.475656435395
 20
134.0462537642315
 10
126.393663162846
 20
134.170621711249
 10
126.2303656368452
 20
134.2443467546333
 10
126.131835905967
 20
134.2887884863931
 10
126.0188367740508
 20
134.3111816070472
 10
125.8913682410966
 20
134.3111816070472
 10
125.8086859494506
 20
134.3111816070472
 10
125.7373724729059
 20
134.3042914160767
 10
125.6777723210111
 20
134.2901665245872
 10
125.6453884234497
 20
134.2825873145196
 10
125.6078368826605
 20
134.2698404612242
 10
125.5647731890949
 20
134.2519259647009
 10
125.5647731890949
 20
134.2519259647009
 10
126.3430202592128
 20
133.5611843199083
 10
126.3430202592128
 20
133.5611843199083
 10
126.3950412010401
 20
133.6070040898621
 10
126.4301811749897
 20
133.6559244457527
 10
126.448095671513
 20
133.7089789162255
 97
        0
 97
        1
330
2BB
 92
        1
 93
        1
 72
     4
 94
        3
 73
     0
 74
     0
 95
       26
 96
       22
 40
0.0
 40
0.0
 40
0.0
 40
0.0
 40
1.0
 40
1.0
 40
1.0
 40
2.0
 40
2.0
 40
2.0
 40
3.0
 40
3.0
 40
3.0
 40
4.0
 40
4.0
 40
4.0
 40
5.0
 40
5.0
 40
5.0
 40
6.0
 40
6.0
 40
6.0
 40
7.0
 40
7.0
 40
7.0
 40
7.0
 10
125.3742594087606
 20
134.0727809994679
 10
125.3477321735241
 20
134.0152479048642
 10
125.3346408106802
 20
133.9511691288386
 10
125.3346408106802
 20
133.880544671391
 10
125.3346408106802
 20
133.7458414379177
 10
125.3904513575412
 20
133.6380099492294
 10
125.5024169608119
 20
133.5567056957775
 10
125.614038054534
 20
133.4754014423256
 10
125.7576985362689
 20
133.4347493155996
 10
125.9333984060166
 20
133.4347493155996
 10
125.9998887488819
 20
133.4347493155996
 10
126.0632785058106
 20
133.4416395065701
 10
126.1239121863509
 20
133.4561089076082
 10
126.1580186316549
 20
133.4643771367728
 10
126.2010823252206
 20
133.4788465378108
 10
126.2537922861449
 20
133.4984835820767
 10
126.2537922861449
 20
133.4984835820767
 10
125.4717556109932
 20
134.198182475131
 10
125.4717556109932
 20
134.198182475131
 10
125.4331705415584
 20
134.1719997494431
 10
125.400786643997
 20
134.1306586036201
 10
125.3742594087606
 20
134.0727809994679
 97
        0
 97
        1
330
2BC
 92
        1
 93
        1
 72
     4
 94
        3
 73
     0
 74
     0
 95
       59
 96
       55
 40
0.0
 40
0.0
 40
0.0
 40
0.0
 40
1.0
 40
1.0
 40
1.0
 40
2.0
 40
2.0
 40
2.0
 40
3.0
 40
3.0
 40
3.0
 40
4.0
 40
4.0
 40
4.0
 40
5.0
 40
5.0
 40
5.0
 40
6.0
 40
6.0
 40
6.0
 40
7.0
 40
7.0
 40
7.0
 40
8.0
 40
8.0
 40
8.0
 40
9.0
 40
9.0
 40
9.0
 40
10.0
 40
10.0
 40
10.0
 40
11.0
 40
11.0
 40
11.0
 40
12.0
 40
12.0
 40
12.0
 40
13.0
 40
13.0
 40
13.0
 40
14.0
 40
14.0
 40
14.0
 40
15.0
 40
15.0
 40
15.0
 40
16.0
 40
16.0
 40
16.0
 40
17.0
 40
17.0
 40
17.0
 40
18.0
 40
18.0
 40
18.0
 40
18.0
 10
126.6299967131341
 20
133.150873447615
 10
126.6299967131341
 20
133.150873447615
 10
126.4446505760277
 20
133.3279513555569
 10
126.4446505760277
 20
133.3279513555569
 10
126.3767821949683
 20
133.2817870760546
 10
126.3003010751957
 20
133.2459580830079
 10
126.2158962358071
 20
133.2211533955141
 10
126.1314913964185
 20
133.1963487080203
 10
126.0312391177977
 20
133.1839463642734
 10
125.9158284190419
 20
133.1839463642734
 10
125.7074001421842
 20
133.1839463642734
 10
125.5220540050778
 20
133.2425129875227
 10
125.3597900077225
 20
133.3596462340212
 10
125.1978705199158
 20
133.4764349709712
 10
125.1169107760124
 20
133.646967197491
 10
125.1169107760124
 20
133.8708984040323
 10
125.1169107760124
 20
133.9873426314337
 10
125.1375813489239
 20
134.0896619673456
 10
125.1792670042954
 20
134.1775119022195
 10
125.2037271822407
 20
134.2291883344983
 10
125.2433457803211
 20
134.2884439768446
 10
125.2984673080851
 20
134.3552788292584
 10
125.2984673080851
 20
134.3552788292584
 10
125.1045084322655
 20
134.5302896799091
 10
125.1045084322655
 20
134.5302896799091
 10
125.1045084322655
 20
134.5302896799091
 10
125.1747883801646
 20
134.6019476660023
 10
125.1747883801646
 20
134.6019476660023
 10
125.1747883801646
 20
134.6019476660023
 10
125.3721923514694
 20
134.4248697580604
 10
125.3721923514694
 20
134.4248697580604
 10
125.4565971908581
 20
134.4827473622126
 10
125.5534043739936
 20
134.5244330175842
 10
125.6629584104245
 20
134.5495822146265
 10
125.7335828678721
 20
134.5650851443101
 10
125.8042073253198
 20
134.5730088639262
 10
125.8748317827674
 20
134.5730088639262
 10
126.1118543521526
 20
134.5730088639262
 10
126.3071912661662
 20
134.508585578352
 10
126.4611870343569
 20
134.3797390072037
 10
126.6151828025476
 20
134.2508924360553
 10
126.6920084318686
 20
134.0793266808899
 10
126.6920084318686
 20
133.8650417417073
 10
126.6920084318686
 20
133.7630669153439
 10
126.6771945212821
 20
133.6724609040819
 10
126.6472221905604
 20
133.5925346888241
 10
126.6175943693873
 20
133.5126084735663
 10
126.5769422426613
 20
133.4485296975406
 10
126.5256103199311
 20
133.3992648321016
 10
126.5256103199311
 20
133.3992648321016
 10
126.7016546992274
 20
133.2321777010669
 10
126.7016546992274
 20
133.2321777010669
 10
126.7016546992274
 20
133.2321777010669
 10
126.6299967131341
 20
133.150873447615
 10
126.6299967131341
 20
133.150873447615
 97
        0
 97
        1
330
2BD
 75
     2
 76
     1
 98
        1
 10
0.0
 20
0.0
450
        0
451
        0
460
0.0
461
0.0
452
        0
462
0.0
453
        0
470

  0
SPLINE
  5
2BF
330
2B7
100
AcDbEntity
  8
Sichtbar schmal (ISO)
100
AcDbSpline
210
0.0
220
0.0
230
1.0
 70
    11
 71
     3
 72
    26
 73
    22
 74
     0
 42
0.0000000001
 43
0.0000000001
 40
0.0
 40
0.0
 40
0.0
 40
0.0
 40
1.0
 40
1.0
 40
1.0
 40
2.0
 40
2.0
 40
2.0
 40
3.0
 40
3.0
 40
3.0
 40
4.0
 40
4.0
 40
4.0
 40
5.0
 40
5.0
 40
5.0
 40
6.0
 40
6.0
 40
6.0
 40
7.0
 40
7.0
 40
7.0
 40
7.0
 10
125.2026936535951
 20
135.5124864027538
 30
0.0
 10
125.2026936535951
 20
135.5124864027538
 30
0.0
 10
125.2026936535951
 20
134.9933105131267
 30
0.0
 10
125.2026936535951
 20
134.9933105131267
 30
0.0
 10
125.2026936535951
 20
134.9933105131267
 30
0.0
 10
125.0108018350667
 20
134.9933105131267
 30
0.0
 10
125.0108018350667
 20
134.9933105131267
 30
0.0
 10
125.0108018350667
 20
135.2668510946555
 30
0.0
 10
124.9401773776191
 20
135.515242479142
 30
0.0
 10
124.635630936723
 20
135.5686414591634
 30
0.0
 10
124.635630936723
 20
135.5686414591634
 30
0.0
 10
124.635630936723
 20
135.7522650485272
 30
0.0
 10
124.635630936723
 20
135.7522650485272
 30
0.0
 10
124.635630936723
 20
135.7522650485272
 30
0.0
 10
126.6355088659105
 20
135.7522650485272
 30
0.0
 10
126.6355088659105
 20
135.7522650485272
 30
0.0
 10
126.6355088659105
 20
135.7522650485272
 30
0.0
 10
126.6355088659105
 20
135.5124864027538
 30
0.0
 10
126.6355088659105
 20
135.5124864027538
 30
0.0
 10
126.6355088659105
 20
135.5124864027538
 30
0.0
 10
125.2026936535951
 20
135.5124864027538
 30
0.0
 10
125.2026936535951
 20
135.5124864027538
 30
0.0
  0
HATCH
  5
2C0
330
2B7
100
AcDbEntity
  8
Sichtbar schmal (ISO)
 62
    18
420
        0
440
 33554687
100
AcDbHatch
 10
0.0
 20
0.0
 30
0.0
210
0.0
220
0.0
230
1.0
  2
SOLID
 70
     1
 71
     1
 91
        1
 92
        1
 93
        1
 72
     4
 94
        3
 73
     0
 74
     0
 95
       26
 96
       22
 40
0.0
 40
0.0
 40
0.0
 40
0.0
 40
1.0
 40
1.0
 40
1.0
 40
2.0
 40
2.0
 40
2.0
 40
3.0
 40
3.0
 40
3.0
 40
4.0
 40
4.0
 40
4.0
 40
5.0
 40
5.0
 40
5.0
 40
6.0
 40
6.0
 40
6.0
 40
7.0
 40
7.0
 40
7.0
 40
7.0
 10
125.2026936535951
 20
135.5124864027538
 10
125.2026936535951
 20
135.5124864027538
 10
125.2026936535951
 20
134.9933105131267
 10
125.2026936535951
 20
134.9933105131267
 10
125.2026936535951
 20
134.9933105131267
 10
125.0108018350667
 20
134.9933105131267
 10
125.0108018350667
 20
134.9933105131267
 10
125.0108018350667
 20
135.2668510946555
 10
124.9401773776191
 20
135.515242479142
 10
124.635630936723
 20
135.5686414591634
 10
124.635630936723
 20
135.5686414591634
 10
124.635630936723
 20
135.7522650485272
 10
124.635630936723
 20
135.7522650485272
 10
124.635630936723
 20
135.7522650485272
 10
126.6355088659105
 20
135.7522650485272
 10
126.6355088659105
 20
135.7522650485272
 10
126.6355088659105
 20
135.7522650485272
 10
126.6355088659105
 20
135.5124864027538
 10
126.6355088659105
 20
135.5124864027538
 10
126.6355088659105
 20
135.5124864027538
 10
125.2026936535951
 20
135.5124864027538
 10
125.2026936535951
 20
135.5124864027538
 97
        0
 97
        1
330
2BF
 75
     2
 76
     1
 98
        1
 10
0.0
 20
0.0
450
        0
451
        0
460
0.0
461
0.0
452
        0
462
0.0
453
        0
470

  0
SPLINE
  5
2C1
330
2B7
100
AcDbEntity
  8
Sichtbar schmal (ISO)
100
AcDbSpline
210
0.0
220
0.0
230
1.0
 70
    11
 71
     3
 72
    26
 73
    22
 74
     0
 42
0.0000000001
 43
0.0000000001
 40
0.0
 40
0.0
 40
0.0
 40
0.0
 40
1.0
 40
1.0
 40
1.0
 40
2.0
 40
2.0
 40
2.0
 40
3.0
 40
3.0
 40
3.0
 40
4.0
 40
4.0
 40
4.0
 40
5.0
 40
5.0
 40
5.0
 40
6.0
 40
6.0
 40
6.0
 40
7.0
 40
7.0
 40
7.0
 40
7.0
 10
125.2026936535951
 20
137.0817273962851
 30
0.0
 10
125.2026936535951
 20
137.0817273962851
 30
0.0
 10
125.2026936535951
 20
136.5628960162065
 30
0.0
 10
125.2026936535951
 20
136.5628960162065
 30
0.0
 10
125.2026936535951
 20
136.5628960162065
 30
0.0
 10
125.0108018350667
 20
136.5628960162065
 30
0.0
 10
125.0108018350667
 20
136.5628960162065
 30
0.0
 10
125.0108018350667
 20
136.8364365977353
 30
0.0
 10
124.9401773776191
 20
137.0844834726733
 30
0.0
 10
124.635630936723
 20
137.1382269622432
 30
0.0
 10
124.635630936723
 20
137.1382269622432
 30
0.0
 10
124.635630936723
 20
137.3215060420585
 30
0.0
 10
124.635630936723
 20
137.3215060420585
 30
0.0
 10
124.635630936723
 20
137.3215060420585
 30
0.0
 10
126.6355088659105
 20
137.3215060420585
 30
0.0
 10
126.6355088659105
 20
137.3215060420585
 30
0.0
 10
126.6355088659105
 20
137.3215060420585
 30
0.0
 10
126.6355088659105
 20
137.0817273962851
 30
0.0
 10
126.6355088659105
 20
137.0817273962851
 30
0.0
 10
126.6355088659105
 20
137.0817273962851
 30
0.0
 10
125.2026936535951
 20
137.0817273962851
 30
0.0
 10
125.2026936535951
 20
137.0817273962851
 30
0.0
  0
HATCH
  5
2C2
330
2B7
100
AcDbEntity
  8
Sichtbar schmal (ISO)
 62
    18
420
        0
440
 33554687
100
AcDbHatch
 10
0.0
 20
0.0
 30
0.0
210
0.0
220
0.0
230
1.0
  2
SOLID
 70
     1
 71
     1
 91
        1
 92
        1
 93
        1
 72
     4
 94
        3
 73
     0
 74
     0
 95
       26
 96
       22
 40
0.0
 40
0.0
 40
0.0
 40
0.0
 40
1.0
 40
1.0
 40
1.0
 40
2.0
 40
2.0
 40
2.0
 40
3.0
 40
3.0
 40
3.0
 40
4.0
 40
4.0
 40
4.0
 40
5.0
 40
5.0
 40
5.0
 40
6.0
 40
6.0
 40
6.0
 40
7.0
 40
7.0
 40
7.0
 40
7.0
 10
125.2026936535951
 20
137.0817273962851
 10
125.2026936535951
 20
137.0817273962851
 10
125.2026936535951
 20
136.5628960162065
 10
125.2026936535951
 20
136.5628960162065
 10
125.2026936535951
 20
136.5628960162065
 10
125.0108018350667
 20
136.5628960162065
 10
125.0108018350667
 20
136.5628960162065
 10
125.0108018350667
 20
136.8364365977353
 10
124.9401773776191
 20
137.0844834726733
 10
124.635630936723
 20
137.1382269622432
 10
124.635630936723
 20
137.1382269622432
 10
124.635630936723
 20
137.3215060420585
 10
124.635630936723
 20
137.3215060420585
 10
124.635630936723
 20
137.3215060420585
 10
126.6355088659105
 20
137.3215060420585
 10
126.6355088659105
 20
137.3215060420585
 10
126.6355088659105
 20
137.3215060420585
 10
126.6355088659105
 20
137.0817273962851
 10
126.6355088659105
 20
137.0817273962851
 10
126.6355088659105
 20
137.0817273962851
 10
125.2026936535951
 20
137.0817273962851
 10
125.2026936535951
 20
137.0817273962851
 97
        0
 97
        1
330
2C1
 75
     2
 76
     1
 98
        1
 10
0.0
 20
0.0
450
        0
451
        0
460
0.0
461
0.0
452
        0
462
0.0
453
        0
470

  0
SPLINE
  5
2C3
330
2B7
100
AcDbEntity
  8
Sichtbar schmal (ISO)
100
AcDbSpline
210
0.0
220
0.0
230
1.0
 70
     9
 71
     3
 72
    53
 73
    49
 74
     0
 42
0.0000000001
 43
0.0000000001
 40
0.0
 40
0.0
 40
0.0
 40
0.0
 40
1.0
 40
1.0
 40
1.0
 40
2.0
 40
2.0
 40
2.0
 40
3.0
 40
3.0
 40
3.0
 40
4.0
 40
4.0
 40
4.0
 40
5.0
 40
5.0
 40
5.0
 40
6.0
 40
6.0
 40
6.0
 40
7.0
 40
7.0
 40
7.0
 40
8.0
 40
8.0
 40
8.0
 40
9.0
 40
9.0
 40
9.0
 40
10.0
 40
10.0
 40
10.0
 40
11.0
 40
11.0
 40
11.0
 40
12.0
 40
12.0
 40
12.0
 40
13.0
 40
13.0
 40
13.0
 40
14.0
 40
14.0
 40
14.0
 40
15.0
 40
15.0
 40
15.0
 40
16.0
 40
16.0
 40
16.0
 40
16.0
 10
126.0966959320175
 20
138.224810078291
 30
0.0
 10
126.3027126420354
 20
138.2392794793291
 30
0.0
 10
126.4577419388716
 20
138.4053330817181
 30
0.0
 10
126.4577419388716
 20
138.6451117274915
 30
0.0
 10
126.4577419388716
 20
138.8738660677121
 30
0.0
 10
126.2996120560987
 20
139.0681694530802
 30
0.0
 10
125.9836968001013
 20
139.0681694530802
 30
0.0
 10
125.7215250336738
 20
139.0681694530802
 30
0.0
 10
125.5296332151454
 20
138.8876464496531
 30
0.0
 10
125.5296332151454
 20
138.6168619445124
 30
0.0
 10
125.5296332151454
 20
138.4618326476762
 30
0.0
 10
125.6057698253694
 20
138.3378092102072
 30
0.0
 10
125.7187689572856
 20
138.2447916321055
 30
0.0
 10
125.7187689572856
 20
138.2447916321055
 30
0.0
 10
125.7074001421842
 20
138.0387749220875
 30
0.0
 10
125.7074001421842
 20
138.0387749220875
 30
0.0
 10
125.7074001421842
 20
138.0387749220875
 30
0.0
 10
124.6693928724785
 20
138.224810078291
 30
0.0
 10
124.6693928724785
 20
138.224810078291
 30
0.0
 10
124.6693928724785
 20
138.224810078291
 30
0.0
 10
124.6693928724785
 20
139.2121744443636
 30
0.0
 10
124.6693928724785
 20
139.2121744443636
 30
0.0
 10
124.6693928724785
 20
139.2121744443636
 30
0.0
 10
124.8809217352728
 20
139.2121744443636
 30
0.0
 10
124.8809217352728
 20
139.2121744443636
 30
0.0
 10
124.8809217352728
 20
139.2121744443636
 30
0.0
 10
124.8809217352728
 20
138.4053330817181
 30
0.0
 10
124.8809217352728
 20
138.4053330817181
 30
0.0
 10
124.8809217352728
 20
138.4053330817181
 30
0.0
 10
125.4562526813095
 20
138.2985351216754
 30
0.0
 10
125.4562526813095
 20
138.2985351216754
 30
0.0
 10
125.4562526813095
 20
138.2985351216754
 30
0.0
 10
125.4621093436345
 20
138.3040472744517
 30
0.0
 10
125.4621093436345
 20
138.3040472744517
 30
0.0
 10
125.3632351032078
 20
138.3915526997771
 30
0.0
 10
125.318104352351
 20
138.5410698438369
 30
0.0
 10
125.318104352351
 20
138.6761175868587
 30
0.0
 10
125.318104352351
 20
139.0316514409365
 30
0.0
 10
125.5437581066349
 20
139.3224174998916
 30
0.0
 10
126.0036783539157
 20
139.3224174998916
 30
0.0
 10
126.3419867305673
 20
139.3224174998916
 30
0.0
 10
126.669270801666
 20
139.0881510068946
 30
0.0
 10
126.669270801666
 20
138.6227186068374
 30
0.0
 10
126.669270801666
 20
138.2757974914727
 30
0.0
 10
126.4577419388716
 20
137.9936441712307
 30
0.0
 10
126.0966959320175
 20
137.9850314325176
 30
0.0
 10
126.0966959320175
 20
137.9850314325176
 30
0.0
 10
126.0966959320175
 20
138.224810078291
 30
0.0
 10
126.0966959320175
 20
138.224810078291
 30
0.0
  0
HATCH
  5
2C4
330
2B7
100
AcDbEntity
  8
Sichtbar schmal (ISO)
 62
    18
420
        0
440
 33554687
100
AcDbHatch
 10
0.0
 20
0.0
 30
0.0
210
0.0
220
0.0
230
1.0
  2
SOLID
 70
     1
 71
     1
 91
        1
 92
        1
 93
        1
 72
     4
 94
        3
 73
     0
 74
     0
 95
       53
 96
       49
 40
0.0
 40
0.0
 40
0.0
 40
0.0
 40
1.0
 40
1.0
 40
1.0
 40
2.0
 40
2.0
 40
2.0
 40
3.0
 40
3.0
 40
3.0
 40
4.0
 40
4.0
 40
4.0
 40
5.0
 40
5.0
 40
5.0
 40
6.0
 40
6.0
 40
6.0
 40
7.0
 40
7.0
 40
7.0
 40
8.0
 40
8.0
 40
8.0
 40
9.0
 40
9.0
 40
9.0
 40
10.0
 40
10.0
 40
10.0
 40
11.0
 40
11.0
 40
11.0
 40
12.0
 40
12.0
 40
12.0
 40
13.0
 40
13.0
 40
13.0
 40
14.0
 40
14.0
 40
14.0
 40
15.0
 40
15.0
 40
15.0
 40
16.0
 40
16.0
 40
16.0
 40
16.0
 10
126.0966959320175
 20
138.224810078291
 10
126.3027126420354
 20
138.2392794793291
 10
126.4577419388716
 20
138.4053330817181
 10
126.4577419388716
 20
138.6451117274915
 10
126.4577419388716
 20
138.8738660677121
 10
126.2996120560987
 20
139.0681694530802
 10
125.9836968001013
 20
139.0681694530802
 10
125.7215250336738
 20
139.0681694530802
 10
125.5296332151454
 20
138.8876464496531
 10
125.5296332151454
 20
138.6168619445124
 10
125.5296332151454
 20
138.4618326476762
 10
125.6057698253694
 20
138.3378092102072
 10
125.7187689572856
 20
138.2447916321055
 10
125.7187689572856
 20
138.2447916321055
 10
125.7074001421842
 20
138.0387749220875
 10
125.7074001421842
 20
138.0387749220875
 10
125.7074001421842
 20
138.0387749220875
 10
124.6693928724785
 20
138.224810078291
 10
124.6693928724785
 20
138.224810078291
 10
124.6693928724785
 20
138.224810078291
 10
124.6693928724785
 20
139.2121744443636
 10
124.6693928724785
 20
139.2121744443636
 10
124.6693928724785
 20
139.2121744443636
 10
124.8809217352728
 20
139.2121744443636
 10
124.8809217352728
 20
139.2121744443636
 10
124.8809217352728
 20
139.2121744443636
 10
124.8809217352728
 20
138.4053330817181
 10
124.8809217352728
 20
138.4053330817181
 10
124.8809217352728
 20
138.4053330817181
 10
125.4562526813095
 20
138.2985351216754
 10
125.4562526813095
 20
138.2985351216754
 10
125.4562526813095
 20
138.2985351216754
 10
125.4621093436345
 20
138.3040472744517
 10
125.4621093436345
 20
138.3040472744517
 10
125.3632351032078
 20
138.3915526997771
 10
125.318104352351
 20
138.5410698438369
 10
125.318104352351
 20
138.6761175868587
 10
125.318104352351
 20
139.0316514409365
 10
125.5437581066349
 20
139.3224174998916
 10
126.0036783539157
 20
139.3224174998916
 10
126.3419867305673
 20
139.3224174998916
 10
126.669270801666
 20
139.0881510068946
 10
126.669270801666
 20
138.6227186068374
 10
126.669270801666
 20
138.2757974914727
 10
126.4577419388716
 20
137.9936441712307
 10
126.0966959320175
 20
137.9850314325176
 10
126.0966959320175
 20
137.9850314325176
 10
126.0966959320175
 20
138.224810078291
 10
126.0966959320175
 20
138.224810078291
 97
        0
 97
        1
330
2C3
 75
     2
 76
     1
 98
        1
 10
0.0
 20
0.0
450
        0
451
        0
460
0.0
461
0.0
452
        0
462
0.0
453
        0
470

  0
ENDBLK
  5
2BA
330
2B7
100
AcDbEntity
  8
0
100
AcDbBlockEnd
  0
ENDSEC
  0
SECTION
  2
ENTITIES
  0
INSERT
  5
79
330
70
100
AcDbEntity
  8
0
100
AcDbBlockReference
  2
Block_0
 10
0.0
 20
0.0
 30
0.0
  0
INSERT
  5
7D
330
70
100
AcDbEntity
  8
0
100
AcDbBlockReference
  2
Block_1
 10
0.0
 20
0.0
 30
0.0
  0
INSERT
  5
81
330
70
100
AcDbEntity
  8
0
100
AcDbBlockReference
  2
Block_2
 10
0.0
 20
0.0
 30
0.0
  0
INSERT
  5
85
330
70
100
AcDbEntity
  8
0
100
AcDbBlockReference
  2
Block_3
 10
0.0
 20
0.0
 30
0.0
  0
INSERT
  5
89
330
70
100
AcDbEntity
  8
0
100
AcDbBlockReference
  2
Block_4
 10
0.0
 20
0.0
 30
0.0
  0
INSERT
  5
8F
330
70
100
AcDbEntity
  8
Titel (ISO)
100
AcDbBlockReference
  2
Block_5
 10
0.0
 20
0.0
 30
0.0
  0
INSERT
  5
93
330
70
100
AcDbEntity
  8
Titel (ISO)
100
AcDbBlockReference
  2
Block_6
 10
0.0
 20
0.0
 30
0.0
  0
INSERT
  5
97
330
70
100
AcDbEntity
  8
Titel (ISO)
100
AcDbBlockReference
  2
Block_7
 10
0.0
 20
0.0
 30
0.0
  0
INSERT
  5
9B
330
70
100
AcDbEntity
  8
Titel (ISO)
100
AcDbBlockReference
  2
Block_8
 10
0.0
 20
0.0
 30
0.0
  0
INSERT
  5
9F
330
70
100
AcDbEntity
  8
Titel (ISO)
100
AcDbBlockReference
  2
Block_9
 10
0.0
 20
0.0
 30
0.0
  0
INSERT
  5
A3
330
70
100
AcDbEntity
  8
Titel (ISO)
100
AcDbBlockReference
  2
Block_10
 10
0.0
 20
0.0
 30
0.0
  0
INSERT
  5
A7
330
70
100
AcDbEntity
  8
Titel (ISO)
100
AcDbBlockReference
  2
Block_11
 10
0.0
 20
0.0
 30
0.0
  0
INSERT
  5
AB
330
70
100
AcDbEntity
  8
Titel (ISO)
100
AcDbBlockReference
  2
Block_12
 10
0.0
 20
0.0
 30
0.0
  0
INSERT
  5
AF
330
70
100
AcDbEntity
  8
Titel (ISO)
100
AcDbBlockReference
  2
Block_13
 10
0.0
 20
0.0
 30
0.0
  0
INSERT
  5
B5
330
70
100
AcDbEntity
  8
Sichtbar schmal (ISO)
100
AcDbBlockReference
  2
Block_14
 10
0.0
 20
0.0
 30
0.0
  0
INSERT
  5
BB
330
70
100
AcDbEntity
  8
Sichtbar schmal (ISO)
100
AcDbBlockReference
  2
Block_15
 10
0.0
 20
0.0
 30
0.0
  0
INSERT
  5
1DB
330
70
100
AcDbEntity
  8
Sichtbar schmal (ISO)
100
AcDbBlockReference
  2
Block_16
 10
0.0
 20
0.0
 30
0.0
  0
INSERT
  5
204
330
70
100
AcDbEntity
  8
Sichtbar schmal (ISO)
100
AcDbBlockReference
  2
Block_17
 10
0.0
 20
0.0
 30
0.0
  0
LINE
  5
218
330
70
100
AcDbEntity
  8
Sichtbar schmal (ISO)
 62
    18
420
        0
370
     5
100
AcDbLine
 10
89.42579063612461
 20
112.5319285962292
 30
0.0
 11
133.1525996560351
 21
112.6771510879347
 31
0.0
  0
LINE
  5
219
330
70
100
AcDbEntity
  8
Sichtbar schmal (ISO)
 62
    18
420
        0
370
     5
100
AcDbLine
 10
89.82426956592837
 20
159.282915936265
 30
0.0
 11
133.1437808802215
 21
159.2983886470924
 31
0.0
  0
LINE
  5
21A
330
70
100
AcDbEntity
  8
Sichtbar schmal (ISO)
 62
    18
420
        0
370
     5
100
AcDbLine
 10
89.77419211253202
 20
111.3840094244916
 30
0.0
 11
140.1005796665472
 21
111.3958477359679
 31
0.0
  0
INSERT
  5
21C
330
70
100
AcDbEntity
  8
Sichtbar schmal (ISO)
100
AcDbBlockReference
  2
Block_21
 10
0.0
 20
0.0
 30
0.0
  0
LINE
  5
230
330
70
100
AcDbEntity
  8
Sichtbar schmal (ISO)
 62
    18
420
        0
370
     5
100
AcDbLine
 10
89.75741460771038
 20
160.4318116445044
 30
0.0
 11
140.1114663717292
 21
160.405525328303
 31
0.0
  0
LINE
  5
231
330
70
100
AcDbEntity
  8
Sichtbar schmal (ISO)
 62
    18
420
        0
370
     5
100
AcDbLine
 10
113.5903062079967
 20
162.8210904164677
 30
0.0
 11
140.1596816765115
 21
162.8267743835157
 31
0.0
  0
LINE
  5
232
330
70
100
AcDbEntity
  8
Sichtbar schmal (ISO)
  6
AI-Linetype-0
 62
    18
420
        0
370
     5
100
AcDbLine
 10
126.0884186929485
 20
175.9817221967577
 30
0.0
 11
112.0980303505925
 21
175.9392121097982
 31
0.0
  0
INSERT
  5
235
330
70
100
AcDbEntity
  8
Sichtbar schmal (ISO)
100
AcDbBlockReference
  2
Block_25
 10
0.0
 20
0.0
 30
0.0
  0
INSERT
  5
244
330
70
100
AcDbEntity
  8
Sichtbar schmal (ISO)
100
AcDbBlockReference
  2
Block_28
 10
0.0
 20
0.0
 30
0.0
  0
INSERT
  5
259
330
70
100
AcDbEntity
  8
Sichtbar schmal (ISO)
100
AcDbBlockReference
  2
Block_32
 10
0.0
 20
0.0
 30
0.0
  0
LINE
  5
264
330
70
100
AcDbEntity
  8
Sichtbar schmal (ISO)
 62
    18
420
        0
370
     5
100
AcDbLine
 10
114.1633202265454
 20
180.4827761759488
 30
0.0
 11
140.2172574126927
 21
180.5020761222339
 31
0.0
  0
LINE
  5
265
330
70
100
AcDbEntity
  8
Sichtbar schmal (ISO)
  6
AI-Linetype-1
 62
    18
420
        0
370
     5
100
AcDbLine
 10
124.1049560850152
 20
180.4604671521532
 30
0.0
 11
124.1013150373069
 21
176.0150947075211
 31
0.0
  0
INSERT
  5
268
330
70
100
AcDbEntity
  8
Sichtbar schmal (ISO)
100
AcDbBlockReference
  2
Block_34
 10
0.0
 20
0.0
 30
0.0
  0
INSERT
  5
276
330
70
100
AcDbEntity
  8
Sichtbar schmal (ISO)
100
AcDbBlockReference
  2
Block_36
 10
0.0
 20
0.0
 30
0.0
  0
INSERT
  5
28A
330
70
100
AcDbEntity
  8
Sichtbar schmal (ISO)
100
AcDbBlockReference
  2
Block_38
 10
0.0
 20
0.0
 30
0.0
  0
LINE
  5
29C
330
70
100
AcDbEntity
  8
Sichtbar schmal (ISO)
 62
    18
420
        0
370
     5
100
AcDbLine
 10
89.42579063612461
 20
149.0859143189666
 30
0.0
 11
125.6072607942003
 21
149.1072170973152
 31
0.0
  0
LINE
  5
29D
330
70
100
AcDbEntity
  8
Sichtbar schmal (ISO)
 62
    18
420
        0
370
     5
100
AcDbLine
 10
89.81798503031091
 20
122.7205367582296
 30
0.0
 11
125.6072607942003
 21
122.725136255004
 31
0.0
  0
INSERT
  5
29F
330
70
100
AcDbEntity
  8
Sichtbar schmal (ISO)
100
AcDbBlockReference
  2
Block_40
 10
0.0
 20
0.0
 30
0.0
  0
INSERT
  5
2B4
330
70
100
AcDbEntity
  8
Sichtbar schmal (ISO)
100
AcDbBlockReference
  2
Block_44
 10
0.0
 20
0.0
 30
0.0
  0
ENDSEC
  0
SECTION
  2
OBJECTS
  0
DICTIONARY
  5
C
330
0
100
AcDbDictionary
281
     1
  3
ACAD_COLOR
350
63
  3
ACAD_DETAILVIEWSTYLE
350
6A
  3
ACAD_GROUP
350
D
  3
ACAD_LAYOUT
350
62
  3
ACAD_MATERIAL
350
10
  3
ACAD_MLEADERSTYLE
350
66
  3
ACAD_MLINESTYLE
350
5F
  3
ACAD_PLOTSETTINGS
350
61
  3
ACAD_PLOTSTYLENAME
350
E
  3
ACAD_SCALELIST
350
42
  3
ACAD_SECTIONVIEWSTYLE
350
68
  3
ACAD_TABLESTYLE
350
64
  3
ACAD_VISUALSTYLE
350
29
  3
ACDB_RECOMPOSE_DATA
350
2CD
  3
AcDbVariableDictionary
350
2C5
  0
DICTIONARY
  5
63
102
{ACAD_REACTORS
330
C
102
}
330
C
100
AcDbDictionary
281
     1
  0
DICTIONARY
  5
6A
102
{ACAD_REACTORS
330
C
102
}
330
C
100
AcDbDictionary
281
     1
  3
Imperial24
350
6B
  0
DICTIONARY
  5
D
102
{ACAD_REACTORS
330
C
102
}
330
C
100
AcDbDictionary
281
     1
  0
DICTIONARY
  5
62
102
{ACAD_REACTORS
330
C
102
}
330
C
100
AcDbDictionary
281
     1
  3
Layout1
350
6F
  3
Layout2
350
77
  3
Model
350
73
  0
DICTIONARY
  5
10
102
{ACAD_REACTORS
330
C
102
}
330
C
100
AcDbDictionary
281
     1
  3
ByBlock
350
19
  3
ByLayer
350
11
  3
Global
350
21
  0
DICTIONARY
  5
66
102
{ACAD_REACTORS
330
C
102
}
330
C
100
AcDbDictionary
281
     1
  3
Standard
350
67
  0
DICTIONARY
  5
5F
102
{ACAD_REACTORS
330
C
102
}
330
C
100
AcDbDictionary
281
     1
  3
Standard
350
60
  0
DICTIONARY
  5
61
102
{ACAD_REACTORS
330
C
102
}
330
C
100
AcDbDictionary
281
     1
  0
ACDBDICTIONARYWDFLT
  5
E
102
{ACAD_REACTORS
330
C
102
}
330
C
100
AcDbDictionary
281
     1
  3
Normal
350
F
100
AcDbDictionaryWithDefault
340
F
  0
DICTIONARY
  5
42
102
{ACAD_REACTORS
330
C
102
}
330
C
100
AcDbDictionary
281
     1
  3
A0
350
43
  3
A1
350
44
  3
A2
350
45
  3
A3
350
46
  3
A4
350
47
  3
A5
350
48
  3
A6
350
49
  3
A7
350
4A
  3
A8
350
4B
  3
A9
350
4C
  3
B0
350
4D
  3
B1
350
4E
  3
B2
350
4F
  3
B3
350
50
  3
B4
350
51
  3
B5
350
52
  3
B6
350
53
  0
DICTIONARY
  5
68
102
{ACAD_REACTORS
330
C
102
}
330
C
100
AcDbDictionary
281
     1
  3
Imperial24
350
69
  0
DICTIONARY
  5
64
102
{ACAD_REACTORS
330
C
102
}
330
C
100
AcDbDictionary
281
     1
  3
Standard
350
65
  0
DICTIONARY
  5
29
102
{ACAD_REACTORS
330
C
102
}
330
C
100
AcDbDictionary
281
     1
  3
2dWireframe
350
2F
  3
Basic
350
2E
  3
Brighten
350
35
  3
ColorChange
350
39
  3
Conceptual
350
32
  3
Dim
350
34
  3
EdgeColorOff
350
41
  3
Facepattern
350
38
  3
Flat
350
2A
  3
FlatWithEdges
350
2B
  3
Gouraud
350
2C
  3
GouraudWithEdges
350
2D
  3
Hidden
350
31
  3
JitterOff
350
3F
  3
Linepattern
350
37
  3
OverhangOff
350
40
  3
Realistic
350
33
  3
Shaded
350
3E
  3
Shaded with edges
350
3D
  3
Shades of Gray
350
3A
  3
Sketchy
350
3B
  3
Thicken
350
36
  3
Wireframe
350
30
  3
X-Ray
350
3C
  0
XRECORD
  5
2CD
102
{ACAD_REACTORS
330
C
102
}
330
C
100
AcDbXrecord
280
     1
 90
        1
330
65
  0
DICTIONARY
  5
2C5
102
{ACAD_REACTORS
330
C
102
}
330
C
100
AcDbDictionary
281
     1
  3
CANNOSCALE
350
2CA
  3
CMLEADERSTYLE
350
2C7
  3
CTABLESTYLE
350
2C6
  3
CVIEWDETAILSTYLE
350
2C8
  3
CVIEWSECTIONSTYLE
350
2C9
  0
ACDBDETAILVIEWSTYLE
  5
6B
102
{ACAD_REACTORS
330
6A
102
}
330
6A
100
AcDbModelDocViewStyle
 70
     0
  3
Imperial24
290
     1
300
Imperial24
 90
        0
100
AcDbDetailViewStyle
 70
     0
 71
     0
 90
        3
 71
     1
340
55
 62
   256
 40
0.24
340
0
 62
   256
 40
0.24
300

 40
0.36
280
     3
 71
     2
340
5D
 90
       25
 62
   256
 71
     3
340
55
 62
   256
 40
0.24
 90
        1
 40
0.75
 90
        1
300
%<\AcVar ViewType \f "%tc1">% %<\AcVar ViewDetailId>%\PSCALE %<\AcVar ViewScale \f "%sn">%
 71
     4
340
5D
 90
       25
 62
   256
340
5D
 90
       25
 62
   256
280
     0
  0
LAYOUT
  5
6F
102
{ACAD_REACTORS
330
62
102
}
330
62
100
AcDbPlotSettings
  1

  2

  4

  6

 40
0.0
 41
0.0
 42
0.0
 43
0.0
 44
0.0
 45
0.0
 46
0.0
 47
0.0
 48
0.0
 49
0.0
140
0.0
141
0.0
142
1.0
143
1.0
 70
   688
 72
     0
 73
     0
 74
     5
  7

 75
    16
147
1.0
 76
     0
 77
     2
 78
   300
148
0.0
149
0.0
100
AcDbLayout
  1
Layout1
 70
     1
 71
     1
 10
0.0
 20
0.0
 11
12.0
 21
9.0
 12
0.0
 22
0.0
 32
0.0
 14
0.0
 24
0.0
 34
0.0
 15
0.0
 25
0.0
 35
0.0
146
0.0
 13
0.0
 23
0.0
 33
0.0
 16
1.0
 26
0.0
 36
0.0
 17
0.0
 27
1.0
 37
0.0
 76
     0
330
6C
  0
LAYOUT
  5
77
102
{ACAD_REACTORS
330
62
102
}
330
62
100
AcDbPlotSettings
  1

  2

  4

  6

 40
0.0
 41
0.0
 42
0.0
 43
0.0
 44
0.0
 45
0.0
 46
0.0
 47
0.0
 48
0.0
 49
0.0
140
0.0
141
0.0
142
1.0
143
1.0
 70
   688
 72
     0
 73
     0
 74
     5
  7

 75
    16
147
1.0
 76
     0
 77
     2
 78
   300
148
0.0
149
0.0
100
AcDbLayout
  1
Layout2
 70
     1
 71
     2
 10
0.0
 20
0.0
 11
12.0
 21
9.0
 12
0.0
 22
0.0
 32
0.0
 14
0.0
 24
0.0
 34
0.0
 15
0.0
 25
0.0
 35
0.0
146
0.0
 13
0.0
 23
0.0
 33
0.0
 16
1.0
 26
0.0
 36
0.0
 17
0.0
 27
1.0
 37
0.0
 76
     0
330
74
  0
LAYOUT
  5
73
102
{ACAD_REACTORS
330
62
102
}
330
62
100
AcDbPlotSettings
  1

  2

  4

  6

 40
0.0
 41
0.0
 42
0.0
 43
0.0
 44
0.0
 45
0.0
 46
0.0
 47
0.0
 48
0.0
 49
0.0
140
0.0
141
0.0
142
1.0
143
1.0
 70
  1712
 72
     0
 73
     0
 74
     0
  7

 75
     0
147
1.0
 76
     0
 77
     2
 78
   300
148
0.0
149
0.0
100
AcDbLayout
  1
Model
 70
     1
 71
     0
 10
0.0
 20
0.0
 11
12.0
 21
9.0
 12
0.0
 22
0.0
 32
0.0
 14
0.0
 24
0.0
 34
0.0
 15
0.0
 25
0.0
 35
0.0
146
0.0
 13
0.0
 23
0.0
 33
0.0
 16
1.0
 26
0.0
 36
0.0
 17
0.0
 27
1.0
 37
0.0
 76
     0
330
70
  0
MATERIAL
  5
19
102
{ACAD_XDICTIONARY
360
1A
102
}
102
{ACAD_REACTORS
330
10
102
}
330
10
100
AcDbMaterial
  1
ByBlock
 72
     0
 43
0.0208333333333333
 43
0.0
 43
0.0
 43
0.0
 43
0.0
 43
0.0208333333333333
 43
0.0
 43
0.0
 43
0.0
 43
0.0
 43
1.0
 43
0.0
 43
0.0
 43
0.0
 43
0.0
 43
1.0
 77
     0
 47
0.0208333333333333
 47
0.0
 47
0.0
 47
0.0
 47
0.0
 47
0.0208333333333333
 47
0.0
 47
0.0
 47
0.0
 47
0.0
 47
1.0
 47
0.0
 47
0.0
 47
0.0
 47
0.0
 47
1.0
171
     0
 49
0.0208333333333333
 49
0.0
 49
0.0
 49
0.0
 49
0.0
 49
0.0208333333333333
 49
0.0
 49
0.0
 49
0.0
 49
0.0
 49
1.0
 49
0.0
 49
0.0
 49
0.0
 49
0.0
 49
1.0
175
     0
142
0.0208333333333333
142
0.0
142
0.0
142
0.0
142
0.0
142
0.0208333333333333
142
0.0
142
0.0
142
0.0
142
0.0
142
1.0
142
0.0
142
0.0
142
0.0
142
0.0
142
1.0
179
     0
144
0.0208333333333333
144
0.0
144
0.0
144
0.0
144
0.0
144
0.0208333333333333
144
0.0
144
0.0
144
0.0
144
0.0
144
1.0
144
0.0
144
0.0
144
0.0
144
0.0
144
1.0
147
0.0208333333333333
147
0.0
147
0.0
147
0.0
147
0.0
147
0.0208333333333333
147
0.0
147
0.0
147
0.0
147
0.0
147
1.0
147
0.0
147
0.0
147
0.0
147
0.0
147
1.0
  0
MATERIAL
  5
11
102
{ACAD_XDICTIONARY
360
12
102
}
102
{ACAD_REACTORS
330
10
102
}
330
10
100
AcDbMaterial
  1
ByLayer
 72
     0
 43
0.0208333333333333
 43
0.0
 43
0.0
 43
0.0
 43
0.0
 43
0.0208333333333333
 43
0.0
 43
0.0
 43
0.0
 43
0.0
 43
1.0
 43
0.0
 43
0.0
 43
0.0
 43
0.0
 43
1.0
 77
     0
 47
0.0208333333333333
 47
0.0
 47
0.0
 47
0.0
 47
0.0
 47
0.0208333333333333
 47
0.0
 47
0.0
 47
0.0
 47
0.0
 47
1.0
 47
0.0
 47
0.0
 47
0.0
 47
0.0
 47
1.0
171
     0
 49
0.0208333333333333
 49
0.0
 49
0.0
 49
0.0
 49
0.0
 49
0.0208333333333333
 49
0.0
 49
0.0
 49
0.0
 49
0.0
 49
1.0
 49
0.0
 49
0.0
 49
0.0
 49
0.0
 49
1.0
175
     0
142
0.0208333333333333
142
0.0
142
0.0
142
0.0
142
0.0
142
0.0208333333333333
142
0.0
142
0.0
142
0.0
142
0.0
142
1.0
142
0.0
142
0.0
142
0.0
142
0.0
142
1.0
179
     0
144
0.0208333333333333
144
0.0
144
0.0
144
0.0
144
0.0
144
0.0208333333333333
144
0.0
144
0.0
144
0.0
144
0.0
144
1.0
144
0.0
144
0.0
144
0.0
144
0.0
144
1.0
147
0.0208333333333333
147
0.0
147
0.0
147
0.0
147
0.0
147
0.0208333333333333
147
0.0
147
0.0
147
0.0
147
0.0
147
1.0
147
0.0
147
0.0
147
0.0
147
0.0
147
1.0
  0
MATERIAL
  5
21
102
{ACAD_XDICTIONARY
360
22
102
}
102
{ACAD_REACTORS
330
10
102
}
330
10
100
AcDbMaterial
  1
Global
 72
     0
 43
0.0208333333333333
 43
0.0
 43
0.0
 43
0.0
 43
0.0
 43
0.0208333333333333
 43
0.0
 43
0.0
 43
0.0
 43
0.0
 43
1.0
 43
0.0
 43
0.0
 43
0.0
 43
0.0
 43
1.0
 77
     0
 47
0.0208333333333333
 47
0.0
 47
0.0
 47
0.0
 47
0.0
 47
0.0208333333333333
 47
0.0
 47
0.0
 47
0.0
 47
0.0
 47
1.0
 47
0.0
 47
0.0
 47
0.0
 47
0.0
 47
1.0
171
     0
 49
0.0208333333333333
 49
0.0
 49
0.0
 49
0.0
 49
0.0
 49
0.0208333333333333
 49
0.0
 49
0.0
 49
0.0
 49
0.0
 49
1.0
 49
0.0
 49
0.0
 49
0.0
 49
0.0
 49
1.0
175
     0
142
0.0208333333333333
142
0.0
142
0.0
142
0.0
142
0.0
142
0.0208333333333333
142
0.0
142
0.0
142
0.0
142
0.0
142
1.0
142
0.0
142
0.0
142
0.0
142
0.0
142
1.0
179
     0
144
0.0208333333333333
144
0.0
144
0.0
144
0.0
144
0.0
144
0.0208333333333333
144
0.0
144
0.0
144
0.0
144
0.0
144
1.0
144
0.0
144
0.0
144
0.0
144
0.0
144
1.0
147
0.0208333333333333
147
0.0
147
0.0
147
0.0
147
0.0
147
0.0208333333333333
147
0.0
147
0.0
147
0.0
147
0.0
147
1.0
147
0.0
147
0.0
147
0.0
147
0.0
147
1.0
  0
MLEADERSTYLE
  5
67
102
{ACAD_REACTORS
330
66
102
}
330
66
100
AcDbMLeaderStyle
179
     2
170
     2
171
     1
172
     0
 90
        2
 40
0.0
 41
0.0
173
     1
 91
-1056964608
340
5B
 92
       -2
290
     1
 42
0.09
291
     1
 43
0.36
  3
Standard
 44
0.18
300

342
55
174
     1
178
     6
175
     1
176
     0
 93
-1056964608
 45
0.18
292
     0
297
     0
 46
0.18
 94
-1056964608
 47
1.0
 49
1.0
140
1.0
293
     1
141
0.0
294
     1
177
     0
142
1.0
295
     1
296
     0
143
0.125
271
     0
272
     9
273
     9
298
     1
  0
MLINESTYLE
  5
60
102
{ACAD_REACTORS
330
5F
102
}
330
5F
100
AcDbMlineStyle
  2
STANDARD
 70
     0
  3

 62
   256
 51
90.0
 52
90.0
 71
     2
 49
0.5
 62
   256
  6
BYLAYER
 49
-0.5
 62
   256
  6
BYLAYER
  0
ACDBPLACEHOLDER
  5
F
102
{ACAD_REACTORS
330
E
102
}
330
E
  0
SCALE
  5
43
102
{ACAD_REACTORS
330
42
102
}
330
42
100
AcDbScale
 70
     0
300
1:1
140
1.0
141
1.0
290
     1
  0
SCALE
  5
44
102
{ACAD_REACTORS
330
42
102
}
330
42
100
AcDbScale
 70
     0
300
1/128" = 1'-0"
140
0.0078125
141
12.0
290
     0
  0
SCALE
  5
45
102
{ACAD_REACTORS
330
42
102
}
330
42
100
AcDbScale
 70
     0
300
1/64" = 1'-0"
140
0.015625
141
12.0
290
     0
  0
SCALE
  5
46
102
{ACAD_REACTORS
330
42
102
}
330
42
100
AcDbScale
 70
     0
300
1/32" = 1'-0"
140
0.03125
141
12.0
290
     0
  0
SCALE
  5
47
102
{ACAD_REACTORS
330
42
102
}
330
42
100
AcDbScale
 70
     0
300
1/16" = 1'-0"
140
0.0625
141
12.0
290
     0
  0
SCALE
  5
48
102
{ACAD_REACTORS
330
42
102
}
330
42
100
AcDbScale
 70
     0
300
3/32" = 1'-0"
140
0.09375
141
12.0
290
     0
  0
SCALE
  5
49
102
{ACAD_REACTORS
330
42
102
}
330
42
100
AcDbScale
 70
     0
300
1/8" = 1'-0"
140
0.125
141
12.0
290
     0
  0
SCALE
  5
4A
102
{ACAD_REACTORS
330
42
102
}
330
42
100
AcDbScale
 70
     0
300
3/16" = 1'-0"
140
0.1875
141
12.0
290
     0
  0
SCALE
  5
4B
102
{ACAD_REACTORS
330
42
102
}
330
42
100
AcDbScale
 70
     0
300
1/4" = 1'-0"
140
0.25
141
12.0
290
     0
  0
SCALE
  5
4C
102
{ACAD_REACTORS
330
42
102
}
330
42
100
AcDbScale
 70
     0
300
3/8" = 1'-0"
140
0.375
141
12.0
290
     0
  0
SCALE
  5
4D
102
{ACAD_REACTORS
330
42
102
}
330
42
100
AcDbScale
 70
     0
300
1/2" = 1'-0"
140
0.5
141
12.0
290
     0
  0
SCALE
  5
4E
102
{ACAD_REACTORS
330
42
102
}
330
42
100
AcDbScale
 70
     0
300
3/4" = 1'-0"
140
0.75
141
12.0
290
     0
  0
SCALE
  5
4F
102
{ACAD_REACTORS
330
42
102
}
330
42
100
AcDbScale
 70
     0
300
1" = 1'-0"
140
1.0
141
12.0
290
     0
  0
SCALE
  5
50
102
{ACAD_REACTORS
330
42
102
}
330
42
100
AcDbScale
 70
     0
300
1-1/2" = 1'-0"
140
1.5
141
12.0
290
     0
  0
SCALE
  5
51
102
{ACAD_REACTORS
330
42
102
}
330
42
100
AcDbScale
 70
     0
300
3" = 1'-0"
140
3.0
141
12.0
290
     0
  0
SCALE
  5
52
102
{ACAD_REACTORS
330
42
102
}
330
42
100
AcDbScale
 70
     0
300
6" = 1'-0"
140
6.0
141
12.0
290
     0
  0
SCALE
  5
53
102
{ACAD_REACTORS
330
42
102
}
330
42
100
AcDbScale
 70
     0
300
1'-0" = 1'-0"
140
12.0
141
12.0
290
     0
  0
ACDBSECTIONVIEWSTYLE
  5
69
102
{ACAD_REACTORS
330
68
102
}
330
68
100
AcDbModelDocViewStyle
 70
     0
  3
Imperial24
290
     1
300
Imperial24
 90
        0
100
AcDbSectionViewStyle
 70
     0
 71
     0
 90
       78
 71
     1
340
55
 62
   256
 40
0.24
340
0
340
0
 62
   256
 40
0.24
300
I, O, Q, S, X, Z
 40
0.48
 90
        3
 40
0.18
 90
        1
 71
     2
340
5D
 90
       25
 62
   256
340
5D
 90
       50
 62
   256
 40
0.24
 40
0.0
 40
0.24
 71
     3
340
55
 62
   256
 40
0.24
 90
        1
 40
0.75
 90
        1
300
%<\AcVar ViewType \f "%tc1">% %<\AcVar ViewSectionStartId>%-%<\AcVar ViewSectionEndId>%\PSCALE %<\AcVar ViewScale \f "%sn">%
 71
     4
 62
   256
 62
   257
300
ANSI31
 40
1.0
 90
        0
290
     0
290
     0
 90
        6
 40
0.0
 40
1.570796326794896
 40
0.2617993877991494
 40
1.308996938995747
 40
-0.2617993877991494
 40
1.832595714594046
  0
TABLESTYLE
  5
65
102
{ACAD_XDICTIONARY
360
2CB
102
}
102
{ACAD_REACTORS
330
64
102
}
330
64
100
AcDbTableStyle
280
     0
  3
Standard
 70
     0
 71
     0
 40
0.06
 41
0.06
280
     0
281
     0
  7
Standard
140
0.18
170
     2
 62
     0
 63
     7
283
     0
 90
      512
 91
        0
  1

274
    -2
284
     1
 64
     0
275
    -2
285
     1
 65
     0
276
    -2
286
     1
 66
     0
277
    -2
287
     1
 67
     0
278
    -2
288
     1
 68
     0
279
    -2
289
     1
 69
     0
  7
Standard
140
0.25
170
     5
 62
     0
 63
     7
283
     0
 90
      512
 91
        0
  1

274
    -2
284
     1
 64
     0
275
    -2
285
     1
 65
     0
276
    -2
286
     1
 66
     0
277
    -2
287
     1
 67
     0
278
    -2
288
     1
 68
     0
279
    -2
289
     1
 69
     0
  7
Standard
140
0.18
170
     5
 62
     0
 63
     7
283
     0
 90
      512
 91
        0
  1

274
    -2
284
     1
 64
     0
275
    -2
285
     1
 65
     0
276
    -2
286
     1
 66
     0
277
    -2
287
     1
 67
     0
278
    -2
288
     1
 68
     0
279
    -2
289
     1
 69
     0
  0
VISUALSTYLE
  5
2F
102
{ACAD_REACTORS
330
29
102
}
330
29
100
AcDbVisualStyle
  2
2dWireframe
 70
     4
177
     3
291
     0
 70
    58
 90
        0
176
     1
 90
        2
176
     1
 90
        0
176
     1
 90
        0
176
     1
 40
0.6
176
     1
 40
30.0
176
     1
 62
     7
420
 16777215
176
     1
 90
        1
176
     1
 90
        4
176
     1
 62
     7
176
     1
 62
   257
176
     1
 90
        1
176
     1
 90
        1
176
     1
 40
1.0
176
     1
 90
        0
176
     1
 62
   257
176
     1
 40
1.0
176
     1
 90
        1
176
     1
 90
        6
176
     1
 90
        2
176
     1
 62
     7
176
     1
 90
        5
176
     1
 90
        0
176
     1
 90
        0
176
     1
290
     0
176
     1
 90
        1
176
     1
 40
0.0
176
     1
 90
        0
176
     1
290
     1
176
     1
290
     1
176
     1
290
     0
176
     1
290
     0
176
     1
290
     0
176
     1
290
     0
176
     1
290
     0
176
     1
290
     0
176
     1
290
     0
176
     1
 90
       50
176
     1
 40
0.0
176
     1
 40
1.0
176
     1
 90
        0
176
     1
 62
    18
420
        0
176
     1
 90
       50
176
     1
 90
        3
176
     1
 62
     5
420
      255
176
     1
290
     0
176
     1
 90
       50
176
     1
 90
       50
176
     1
 90
       50
176
     1
290
     0
176
     1
 90
       50
176
     1
 62
   256
176
     0
 40
1.0
176
     0
 90
        2
176
     1
  1
strokes_ogs.tif
176
     1
290
     0
176
     1
 40
1.0
176
     1
 40
1.0
176
     1
  0
VISUALSTYLE
  5
2E
102
{ACAD_REACTORS
330
29
102
}
330
29
100
AcDbVisualStyle
  2
Basic
 70
     7
177
     3
291
     1
 70
    58
 90
        1
176
     1
 90
        0
176
     1
 90
        1
176
     1
 90
        0
176
     1
 40
0.6
176
     1
 40
30.0
176
     1
 62
     7
420
 16777215
176
     1
 90
        0
176
     1
 90
        4
176
     1
 62
     7
176
     1
 62
   257
176
     1
 90
        1
176
     1
 90
        1
176
     1
 40
1.0
176
     1
 90
        8
176
     1
 62
     7
176
     1
 40
1.0
176
     1
 90
        1
176
     1
 90
        6
176
     1
 90
        2
176
     1
 62
     7
176
     1
 90
        5
176
     1
 90
        0
176
     1
 90
        0
176
     1
290
     0
176
     1
 90
        1
176
     1
 40
0.0
176
     1
 90
        0
176
     1
290
     0
176
     1
290
     1
176
     1
290
     1
176
     1
290
     0
176
     1
290
     0
176
     1
290
     0
176
     1
290
     0
176
     1
290
     0
176
     1
290
     0
176
     1
 90
       50
176
     1
 40
0.0
176
     1
 40
1.0
176
     1
 90
        0
176
     1
 62
    18
420
        0
176
     1
 90
       50
176
     1
 90
        3
176
     1
 62
     5
420
      255
176
     1
290
     0
176
     1
 90
       50
176
     1
 90
       50
176
     1
 90
       50
176
     1
290
     0
176
     1
 90
       50
176
     1
 62
   256
176
     0
 40
1.0
176
     0
 90
        2
176
     1
  1
strokes_ogs.tif
176
     1
290
     0
176
     1
 40
1.0
176
     1
 40
1.0
176
     1
  0
VISUALSTYLE
  5
35
102
{ACAD_REACTORS
330
29
102
}
330
29
100
AcDbVisualStyle
  2
Brighten
 70
    12
177
     3
291
     1
 70
    58
 90
        2
176
     1
 90
        2
176
     1
 90
        0
176
     1
 90
        0
176
     1
 40
0.6
176
     1
 40
30.0
176
     1
 62
     7
420
 16777215
176
     1
 90
        1
176
     1
 90
        4
176
     1
 62
     7
176
     1
 62
   257
176
     1
 90
        1
176
     1
 90
        1
176
     1
 40
1.0
176
     1
 90
        8
176
     1
 62
     7
176
     1
 40
1.0
176
     1
 90
        1
176
     1
 90
        6
176
     1
 90
        2
176
     1
 62
     7
176
     1
 90
        5
176
     1
 90
        0
176
     1
 90
        0
176
     1
290
     0
176
     1
 90
        1
176
     1
 40
50.0
176
     1
 90
        0
176
     1
290
     0
176
     1
290
     1
176
     1
290
     1
176
     1
290
     0
176
     1
290
     0
176
     1
290
     0
176
     1
290
     0
176
     1
290
     0
176
     1
290
     0
176
     1
 90
       50
176
     1
 40
0.0
176
     1
 40
1.0
176
     1
 90
        0
176
     1
 62
    18
420
        0
176
     1
 90
       50
176
     1
 90
        3
176
     1
 62
     5
420
      255
176
     1
290
     0
176
     1
 90
       50
176
     1
 90
       50
176
     1
 90
       50
176
     1
290
     0
176
     1
 90
       50
176
     1
 62
   256
176
     0
 40
1.0
176
     0
 90
        2
176
     1
  1
strokes_ogs.tif
176
     1
290
     0
176
     1
 40
1.0
176
     1
 40
1.0
176
     1
  0
VISUALSTYLE
  5
39
102
{ACAD_REACTORS
330
29
102
}
330
29
100
AcDbVisualStyle
  2
ColorChange
 70
    16
177
     3
291
     1
 70
    58
 90
        2
176
     1
 90
        2
176
     1
 90
        3
176
     1
 90
        0
176
     1
 40
0.6
176
     1
 40
30.0
176
     1
 62
     8
420
  8421504
176
     1
 90
        1
176
     1
 90
        4
176
     1
 62
     7
176
     1
 62
   257
176
     1
 90
        1
176
     1
 90
        1
176
     1
 40
1.0
176
     1
 90
        8
176
     1
 62
     8
420
  8421504
176
     1
 40
1.0
176
     1
 90
        1
176
     1
 90
        6
176
     1
 90
        2
176
     1
 62
     7
176
     1
 90
        5
176
     1
 90
        0
176
     1
 90
        0
176
     1
290
     0
176
     1
 90
        1
176
     1
 40
0.0
176
     1
 90
        0
176
     1
290
     0
176
     1
290
     1
176
     1
290
     1
176
     1
290
     0
176
     1
290
     0
176
     1
290
     0
176
     1
290
     0
176
     1
290
     0
176
     1
290
     0
176
     1
 90
       50
176
     1
 40
0.0
176
     1
 40
1.0
176
     1
 90
        0
176
     1
 62
    18
420
        0
176
     1
 90
       50
176
     1
 90
        3
176
     1
 62
     5
420
      255
176
     1
290
     0
176
     1
 90
       50
176
     1
 90
       50
176
     1
 90
       50
176
     1
290
     0
176
     1
 90
       50
176
     1
 62
   256
176
     0
 40
1.0
176
     0
 90
        2
176
     1
  1
strokes_ogs.tif
176
     1
290
     0
176
     1
 40
1.0
176
     1
 40
1.0
176
     1
  0
VISUALSTYLE
  5
32
102
{ACAD_REACTORS
330
29
102
}
330
29
100
AcDbVisualStyle
  2
Conceptual
 70
     9
177
     3
291
     0
 70
    58
 90
        3
176
     1
 90
        2
176
     1
 90
        0
176
     1
 90
        0
176
     1
 40
0.6
176
     1
 40
30.0
176
     1
 62
     7
420
 16777215
176
     1
 90
        2
176
     1
 90
        2
176
     1
 62
     7
176
     1
 62
   257
176
     1
 90
        1
176
     1
 90
        1
176
     1
 40
179.0
176
     1
 90
        8
176
     1
 62
     7
176
     1
 40
1.0
176
     1
 90
        1
176
     1
 90
        6
176
     1
 90
        2
176
     1
 62
     7
176
     1
 90
        3
176
     1
 90
        0
176
     1
 90
        0
176
     1
290
     0
176
     1
 90
        1
176
     1
 40
0.0
176
     1
 90
        0
176
     1
290
     0
176
     1
290
     1
176
     1
290
     1
176
     1
290
     0
176
     1
290
     0
176
     1
290
     0
176
     1
290
     0
176
     1
290
     0
176
     1
290
     0
176
     1
 90
       50
176
     1
 40
0.0
176
     1
 40
1.0
176
     1
 90
        0
176
     1
 62
    18
420
        0
176
     1
 90
       50
176
     1
 90
        3
176
     1
 62
     5
420
      255
176
     1
290
     0
176
     1
 90
       50
176
     1
 90
       50
176
     1
 90
       50
176
     1
290
     0
176
     1
 90
       50
176
     1
 62
   256
176
     0
 40
1.0
176
     0
 90
        2
176
     1
  1
strokes_ogs.tif
176
     1
290
     0
176
     1
 40
1.0
176
     1
 40
1.0
176
     1
  0
VISUALSTYLE
  5
34
102
{ACAD_REACTORS
330
29
102
}
330
29
100
AcDbVisualStyle
  2
Dim
 70
    11
177
     3
291
     1
 70
    58
 90
        2
176
     1
 90
        2
176
     1
 90
        0
176
     1
 90
        0
176
     1
 40
0.6
176
     1
 40
30.0
176
     1
 62
     7
420
 16777215
176
     1
 90
        1
176
     1
 90
        4
176
     1
 62
     7
176
     1
 62
   257
176
     1
 90
        1
176
     1
 90
        1
176
     1
 40
1.0
176
     1
 90
        8
176
     1
 62
     7
176
     1
 40
1.0
176
     1
 90
        1
176
     1
 90
        6
176
     1
 90
        2
176
     1
 62
     7
176
     1
 90
        5
176
     1
 90
        0
176
     1
 90
        0
176
     1
290
     0
176
     1
 90
        1
176
     1
 40
-50.0
176
     1
 90
        0
176
     1
290
     0
176
     1
290
     1
176
     1
290
     1
176
     1
290
     0
176
     1
290
     0
176
     1
290
     0
176
     1
290
     0
176
     1
290
     0
176
     1
290
     0
176
     1
 90
       50
176
     1
 40
0.0
176
     1
 40
1.0
176
     1
 90
        0
176
     1
 62
    18
420
        0
176
     1
 90
       50
176
     1
 90
        3
176
     1
 62
     5
420
      255
176
     1
290
     0
176
     1
 90
       50
176
     1
 90
       50
176
     1
 90
       50
176
     1
290
     0
176
     1
 90
       50
176
     1
 62
   256
176
     0
 40
1.0
176
     0
 90
        2
176
     1
  1
strokes_ogs.tif
176
     1
290
     0
176
     1
 40
1.0
176
     1
 40
1.0
176
     1
  0
VISUALSTYLE
  5
41
102
{ACAD_REACTORS
330
29
102
}
330
29
100
AcDbVisualStyle
  2
EdgeColorOff
 70
    22
177
     3
291
     1
 70
    58
 90
        2
176
     0
 90
        2
176
     0
 90
        0
176
     0
 90
        0
176
     0
 40
0.6
176
     0
 40
30.0
176
     0
 62
     7
420
 16777215
176
     0
 90
        1
176
     0
 90
        4
176
     0
 62
     7
176
     0
 62
   257
176
     0
 90
        1
176
     0
 90
        1
176
     0
 40
1.0
176
     0
 90
        8
176
     2
 62
     7
176
     0
 40
1.0
176
     0
 90
        1
176
     0
 90
        6
176
     0
 90
        2
176
     0
 62
     7
176
     0
 90
        5
176
     0
 90
        0
176
     0
 90
        0
176
     0
290
     0
176
     0
 90
        1
176
     0
 40
0.0
176
     0
 90
        0
176
     0
290
     0
176
     0
290
     1
176
     0
290
     1
176
     0
290
     0
176
     0
290
     0
176
     0
290
     0
176
     0
290
     0
176
     0
290
     0
176
     0
290
     0
176
     0
 90
       50
176
     0
 40
0.0
176
     0
 40
1.0
176
     0
 90
        0
176
     0
 62
    18
420
        0
176
     0
 90
       50
176
     0
 90
        3
176
     0
 62
     5
420
      255
176
     0
290
     0
176
     0
 90
       50
176
     0
 90
       50
176
     0
 90
       50
176
     0
290
     0
176
     0
 90
       50
176
     0
 62
   256
176
     0
 40
1.0
176
     0
 90
        2
176
     0
  1
strokes_ogs.tif
176
     0
290
     0
176
     0
 40
1.0
176
     0
 40
1.0
176
     0
  0
VISUALSTYLE
  5
38
102
{ACAD_REACTORS
330
29
102
}
330
29
100
AcDbVisualStyle
  2
Facepattern
 70
    15
177
     3
291
     1
 70
    58
 90
        2
176
     1
 90
        2
176
     1
 90
        0
176
     1
 90
        0
176
     1
 40
0.6
176
     1
 40
30.0
176
     1
 62
     7
420
 16777215
176
     1
 90
        1
176
     1
 90
        4
176
     1
 62
     7
176
     1
 62
   257
176
     1
 90
        1
176
     1
 90
        1
176
     1
 40
1.0
176
     1
 90
        8
176
     1
 62
     7
176
     1
 40
1.0
176
     1
 90
        1
176
     1
 90
        6
176
     1
 90
        2
176
     1
 62
     7
176
     1
 90
        5
176
     1
 90
        0
176
     1
 90
        0
176
     1
290
     0
176
     1
 90
        1
176
     1
 40
0.0
176
     1
 90
        0
176
     1
290
     0
176
     1
290
     1
176
     1
290
     1
176
     1
290
     0
176
     1
290
     0
176
     1
290
     0
176
     1
290
     0
176
     1
290
     0
176
     1
290
     0
176
     1
 90
       50
176
     1
 40
0.0
176
     1
 40
1.0
176
     1
 90
        0
176
     1
 62
    18
420
        0
176
     1
 90
       50
176
     1
 90
        3
176
     1
 62
     5
420
      255
176
     1
290
     0
176
     1
 90
       50
176
     1
 90
       50
176
     1
 90
       50
176
     1
290
     0
176
     1
 90
       50
176
     1
 62
   256
176
     0
 40
1.0
176
     0
 90
        2
176
     1
  1
strokes_ogs.tif
176
     1
290
     0
176
     1
 40
1.0
176
     1
 40
1.0
176
     1
  0
VISUALSTYLE
  5
2A
102
{ACAD_REACTORS
330
29
102
}
330
29
100
AcDbVisualStyle
  2
Flat
 70
     0
177
     3
291
     1
 70
    58
 90
        2
176
     1
 90
        1
176
     1
 90
        1
176
     1
 90
        2
176
     1
 40
0.6
176
     1
 40
30.0
176
     1
 62
     7
420
 16777215
176
     1
 90
        0
176
     1
 90
        0
176
     1
 62
     7
176
     1
 62
   257
176
     1
 90
        1
176
     1
 90
        1
176
     1
 40
1.0
176
     1
 90
        8
176
     1
 62
     7
176
     1
 40
1.0
176
     1
 90
        1
176
     1
 90
        6
176
     1
 90
        2
176
     1
 62
     7
176
     1
 90
        5
176
     1
 90
        0
176
     1
 90
        0
176
     1
290
     0
176
     1
 90
       13
176
     1
 40
0.0
176
     1
 90
        0
176
     1
290
     0
176
     1
290
     1
176
     1
290
     1
176
     1
290
     0
176
     1
290
     0
176
     1
290
     0
176
     1
290
     0
176
     1
290
     0
176
     1
290
     0
176
     1
 90
       50
176
     1
 40
0.0
176
     1
 40
1.0
176
     1
 90
        0
176
     1
 62
    18
420
        0
176
     1
 90
       50
176
     1
 90
        3
176
     1
 62
     5
420
      255
176
     1
290
     0
176
     1
 90
       50
176
     1
 90
       50
176
     1
 90
       50
176
     1
290
     0
176
     1
 90
       50
176
     1
 62
   256
176
     0
 40
1.0
176
     0
 90
        2
176
     1
  1
strokes_ogs.tif
176
     1
290
     0
176
     1
 40
1.0
176
     1
 40
1.0
176
     1
  0
VISUALSTYLE
  5
2B
102
{ACAD_REACTORS
330
29
102
}
330
29
100
AcDbVisualStyle
  2
FlatWithEdges
 70
     1
177
     3
291
     1
 70
    58
 90
        2
176
     1
 90
        1
176
     1
 90
        1
176
     1
 90
        2
176
     1
 40
0.6
176
     1
 40
30.0
176
     1
 62
     7
420
 16777215
176
     1
 90
        1
176
     1
 90
        0
176
     1
 62
     7
176
     1
 62
   257
176
     1
 90
        1
176
     1
 90
        1
176
     1
 40
1.0
176
     1
 90
        0
176
     1
 62
   257
176
     1
 40
1.0
176
     1
 90
        1
176
     1
 90
        6
176
     1
 90
        2
176
     1
 62
     7
176
     1
 90
        5
176
     1
 90
        0
176
     1
 90
        0
176
     1
290
     0
176
     1
 90
       13
176
     1
 40
0.0
176
     1
 90
        0
176
     1
290
     0
176
     1
290
     1
176
     1
290
     1
176
     1
290
     0
176
     1
290
     0
176
     1
290
     0
176
     1
290
     0
176
     1
290
     0
176
     1
290
     0
176
     1
 90
       50
176
     1
 40
0.0
176
     1
 40
1.0
176
     1
 90
        0
176
     1
 62
    18
420
        0
176
     1
 90
       50
176
     1
 90
        3
176
     1
 62
     5
420
      255
176
     1
290
     0
176
     1
 90
       50
176
     1
 90
       50
176
     1
 90
       50
176
     1
290
     0
176
     1
 90
       50
176
     1
 62
   256
176
     0
 40
1.0
176
     0
 90
        2
176
     1
  1
strokes_ogs.tif
176
     1
290
     0
176
     1
 40
1.0
176
     1
 40
1.0
176
     1
  0
VISUALSTYLE
  5
2C
102
{ACAD_REACTORS
330
29
102
}
330
29
100
AcDbVisualStyle
  2
Gouraud
 70
     2
177
     3
291
     1
 70
    58
 90
        2
176
     1
 90
        2
176
     1
 90
        1
176
     1
 90
        2
176
     1
 40
0.6
176
     1
 40
30.0
176
     1
 62
     7
420
 16777215
176
     1
 90
        0
176
     1
 90
        0
176
     1
 62
     7
176
     1
 62
   257
176
     1
 90
        1
176
     1
 90
        1
176
     1
 40
1.0
176
     1
 90
        0
176
     1
 62
     7
176
     1
 40
1.0
176
     1
 90
        1
176
     1
 90
        6
176
     1
 90
        2
176
     1
 62
     7
176
     1
 90
        5
176
     1
 90
        0
176
     1
 90
        0
176
     1
290
     0
176
     1
 90
       13
176
     1
 40
0.0
176
     1
 90
        0
176
     1
290
     0
176
     1
290
     1
176
     1
290
     1
176
     1
290
     0
176
     1
290
     0
176
     1
290
     0
176
     1
290
     0
176
     1
290
     0
176
     1
290
     0
176
     1
 90
       50
176
     1
 40
0.0
176
     1
 40
1.0
176
     1
 90
        0
176
     1
 62
    18
420
        0
176
     1
 90
       50
176
     1
 90
        3
176
     1
 62
     5
420
      255
176
     1
290
     0
176
     1
 90
       50
176
     1
 90
       50
176
     1
 90
       50
176
     1
290
     0
176
     1
 90
       50
176
     1
 62
   256
176
     0
 40
1.0
176
     0
 90
        2
176
     1
  1
strokes_ogs.tif
176
     1
290
     0
176
     1
 40
1.0
176
     1
 40
1.0
176
     1
  0
VISUALSTYLE
  5
2D
102
{ACAD_REACTORS
330
29
102
}
330
29
100
AcDbVisualStyle
  2
GouraudWithEdges
 70
     3
177
     3
291
     1
 70
    58
 90
        2
176
     1
 90
        2
176
     1
 90
        1
176
     1
 90
        2
176
     1
 40
0.6
176
     1
 40
30.0
176
     1
 62
     7
420
 16777215
176
     1
 90
        1
176
     1
 90
        0
176
     1
 62
     7
176
     1
 62
   257
176
     1
 90
        1
176
     1
 90
        1
176
     1
 40
1.0
176
     1
 90
        0
176
     1
 62
   257
176
     1
 40
1.0
176
     1
 90
        1
176
     1
 90
        6
176
     1
 90
        2
176
     1
 62
     7
176
     1
 90
        5
176
     1
 90
        0
176
     1
 90
        0
176
     1
290
     0
176
     1
 90
       13
176
     1
 40
0.0
176
     1
 90
        0
176
     1
290
     0
176
     1
290
     1
176
     1
290
     1
176
     1
290
     0
176
     1
290
     0
176
     1
290
     0
176
     1
290
     0
176
     1
290
     0
176
     1
290
     0
176
     1
 90
       50
176
     1
 40
0.0
176
     1
 40
1.0
176
     1
 90
        0
176
     1
 62
    18
420
        0
176
     1
 90
       50
176
     1
 90
        3
176
     1
 62
     5
420
      255
176
     1
290
     0
176
     1
 90
       50
176
     1
 90
       50
176
     1
 90
       50
176
     1
290
     0
176
     1
 90
       50
176
     1
 62
   256
176
     0
 40
1.0
176
     0
 90
        2
176
     1
  1
strokes_ogs.tif
176
     1
290
     0
176
     1
 40
1.0
176
     1
 40
1.0
176
     1
  0
VISUALSTYLE
  5
31
102
{ACAD_REACTORS
330
29
102
}
330
29
100
AcDbVisualStyle
  2
Hidden
 70
     6
177
     3
291
     0
 70
    58
 90
        1
176
     1
 90
        2
176
     1
 90
        2
176
     1
 90
        0
176
     1
 40
0.6
176
     1
 40
30.0
176
     1
 62
     7
420
 16777215
176
     1
 90
        2
176
     1
 90
        2
176
     1
 62
     7
176
     1
 62
   257
176
     1
 90
        2
176
     1
 90
        1
176
     1
 40
40.0
176
     1
 90
        0
176
     1
 62
   257
176
     1
 40
1.0
176
     1
 90
        1
176
     1
 90
        6
176
     1
 90
        2
176
     1
 62
     7
176
     1
 90
        3
176
     1
 90
        0
176
     1
 90
        0
176
     1
290
     0
176
     1
 90
        1
176
     1
 40
0.0
176
     1
 90
        0
176
     1
290
     0
176
     1
290
     1
176
     1
290
     1
176
     1
290
     0
176
     1
290
     0
176
     1
290
     0
176
     1
290
     0
176
     1
290
     0
176
     1
290
     0
176
     1
 90
       50
176
     1
 40
0.0
176
     1
 40
1.0
176
     1
 90
        0
176
     1
 62
    18
420
        0
176
     1
 90
       50
176
     1
 90
        3
176
     1
 62
     5
420
      255
176
     1
290
     0
176
     1
 90
       50
176
     1
 90
       50
176
     1
 90
       50
176
     1
290
     0
176
     1
 90
       50
176
     1
 62
   256
176
     0
 40
1.0
176
     0
 90
        2
176
     1
  1
strokes_ogs.tif
176
     1
290
     0
176
     1
 40
1.0
176
     1
 40
1.0
176
     1
  0
VISUALSTYLE
  5
3F
102
{ACAD_REACTORS
330
29
102
}
330
29
100
AcDbVisualStyle
  2
JitterOff
 70
    20
177
     3
291
     1
 70
    58
 90
        2
176
     0
 90
        2
176
     0
 90
        0
176
     0
 90
        0
176
     0
 40
0.6
176
     0
 40
30.0
176
     0
 62
     7
420
 16777215
176
     0
 90
        1
176
     0
 90
        4
176
     0
 62
     7
176
     0
 62
   257
176
     0
 90
        1
176
     0
 90
        1
176
     0
 40
1.0
176
     0
 90
       10
176
     2
 62
     7
176
     0
 40
1.0
176
     0
 90
        1
176
     0
 90
        6
176
     0
 90
        2
176
     0
 62
     7
176
     0
 90
        5
176
     0
 90
        0
176
     0
 90
        0
176
     0
290
     0
176
     0
 90
        1
176
     0
 40
0.0
176
     0
 90
        0
176
     0
290
     0
176
     0
290
     1
176
     0
290
     1
176
     0
290
     0
176
     0
290
     0
176
     0
290
     0
176
     0
290
     0
176
     0
290
     0
176
     0
290
     0
176
     0
 90
       50
176
     0
 40
0.0
176
     0
 40
1.0
176
     0
 90
        0
176
     0
 62
    18
420
        0
176
     0
 90
       50
176
     0
 90
        3
176
     0
 62
     5
420
      255
176
     0
290
     0
176
     0
 90
       50
176
     0
 90
       50
176
     0
 90
       50
176
     0
290
     0
176
     0
 90
       50
176
     0
 62
   256
176
     0
 40
1.0
176
     0
 90
        2
176
     0
  1
strokes_ogs.tif
176
     0
290
     0
176
     0
 40
1.0
176
     0
 40
1.0
176
     0
  0
VISUALSTYLE
  5
37
102
{ACAD_REACTORS
330
29
102
}
330
29
100
AcDbVisualStyle
  2
Linepattern
 70
    14
177
     3
291
     1
 70
    58
 90
        2
176
     1
 90
        2
176
     1
 90
        0
176
     1
 90
        0
176
     1
 40
0.6
176
     1
 40
30.0
176
     1
 62
     7
420
 16777215
176
     1
 90
        1
176
     1
 90
        4
176
     1
 62
     7
176
     1
 62
   257
176
     1
 90
        7
176
     1
 90
        7
176
     1
 40
1.0
176
     1
 90
        8
176
     1
 62
     7
176
     1
 40
1.0
176
     1
 90
        1
176
     1
 90
        6
176
     1
 90
        2
176
     1
 62
     7
176
     1
 90
        5
176
     1
 90
        0
176
     1
 90
        0
176
     1
290
     0
176
     1
 90
        1
176
     1
 40
0.0
176
     1
 90
        0
176
     1
290
     0
176
     1
290
     1
176
     1
290
     1
176
     1
290
     0
176
     1
290
     0
176
     1
290
     0
176
     1
290
     0
176
     1
290
     0
176
     1
290
     0
176
     1
 90
       50
176
     1
 40
0.0
176
     1
 40
1.0
176
     1
 90
        0
176
     1
 62
    18
420
        0
176
     1
 90
       50
176
     1
 90
        3
176
     1
 62
     5
420
      255
176
     1
290
     0
176
     1
 90
       50
176
     1
 90
       50
176
     1
 90
       50
176
     1
290
     0
176
     1
 90
       50
176
     1
 62
   256
176
     0
 40
1.0
176
     0
 90
        2
176
     1
  1
strokes_ogs.tif
176
     1
290
     0
176
     1
 40
1.0
176
     1
 40
1.0
176
     1
  0
VISUALSTYLE
  5
40
102
{ACAD_REACTORS
330
29
102
}
330
29
100
AcDbVisualStyle
  2
OverhangOff
 70
    21
177
     3
291
     1
 70
    58
 90
        2
176
     0
 90
        2
176
     0
 90
        0
176
     0
 90
        0
176
     0
 40
0.6
176
     0
 40
30.0
176
     0
 62
     7
420
 16777215
176
     0
 90
        1
176
     0
 90
        4
176
     0
 62
     7
176
     0
 62
   257
176
     0
 90
        1
176
     0
 90
        1
176
     0
 40
1.0
176
     0
 90
        9
176
     2
 62
     7
176
     0
 40
1.0
176
     0
 90
        1
176
     0
 90
        6
176
     0
 90
        2
176
     0
 62
     7
176
     0
 90
        5
176
     0
 90
        0
176
     0
 90
        0
176
     0
290
     0
176
     0
 90
        1
176
     0
 40
0.0
176
     0
 90
        0
176
     0
290
     0
176
     0
290
     1
176
     0
290
     1
176
     0
290
     0
176
     0
290
     0
176
     0
290
     0
176
     0
290
     0
176
     0
290
     0
176
     0
290
     0
176
     0
 90
       50
176
     0
 40
0.0
176
     0
 40
1.0
176
     0
 90
        0
176
     0
 62
    18
420
        0
176
     0
 90
       50
176
     0
 90
        3
176
     0
 62
     5
420
      255
176
     0
290
     0
176
     0
 90
       50
176
     0
 90
       50
176
     0
 90
       50
176
     0
290
     0
176
     0
 90
       50
176
     0
 62
   256
176
     0
 40
1.0
176
     0
 90
        2
176
     0
  1
strokes_ogs.tif
176
     0
290
     0
176
     0
 40
1.0
176
     0
 40
1.0
176
     0
  0
VISUALSTYLE
  5
33
102
{ACAD_REACTORS
330
29
102
}
330
29
100
AcDbVisualStyle
  2
Realistic
 70
     8
177
     3
291
     0
 70
    58
 90
        2
176
     1
 90
        3
176
     1
 90
        0
176
     1
 90
        2
176
     1
 40
0.6
176
     1
 40
30.0
176
     1
 62
     7
420
 16777215
176
     1
 90
        0
176
     1
 90
        0
176
     1
 62
     7
176
     1
 62
   257
176
     1
 90
        1
176
     1
 90
        1
176
     1
 40
1.0
176
     1
 90
        8
176
     1
 62
   257
176
     1
 40
1.0
176
     1
 90
        1
176
     1
 90
        6
176
     1
 90
        2
176
     1
 62
     7
176
     1
 90
        3
176
     1
 90
        0
176
     1
 90
        0
176
     1
290
     0
176
     1
 90
       13
176
     1
 40
0.0
176
     1
 90
        0
176
     1
290
     0
176
     1
290
     1
176
     1
290
     1
176
     1
290
     0
176
     1
290
     0
176
     1
290
     0
176
     1
290
     0
176
     1
290
     0
176
     1
290
     0
176
     1
 90
       50
176
     1
 40
0.0
176
     1
 40
1.0
176
     1
 90
        0
176
     1
 62
    18
420
        0
176
     1
 90
       50
176
     1
 90
        3
176
     1
 62
     5
420
      255
176
     1
290
     0
176
     1
 90
       50
176
     1
 90
       50
176
     1
 90
       50
176
     1
290
     0
176
     1
 90
       50
176
     1
 62
   256
176
     0
 40
1.0
176
     0
 90
        2
176
     1
  1
strokes_ogs.tif
176
     1
290
     0
176
     1
 40
1.0
176
     1
 40
1.0
176
     1
  0
VISUALSTYLE
  5
3E
102
{ACAD_REACTORS
330
29
102
}
330
29
100
AcDbVisualStyle
  2
Shaded
 70
    27
177
     3
291
     0
 70
    58
 90
        2
176
     1
 90
        2
176
     1
 90
        1
176
     1
 90
        2
176
     1
 40
0.6
176
     1
 40
30.0
176
     1
 62
     7
420
 16777215
176
     1
 90
        0
176
     1
 90
        4
176
     1
 62
     7
176
     1
 62
   257
176
     1
 90
        1
176
     1
 90
        1
176
     1
 40
1.0
176
     1
 90
        8
176
     1
 62
   257
176
     1
 40
1.0
176
     1
 90
        1
176
     1
 90
        6
176
     1
 90
        2
176
     1
 62
     8
420
  7895160
176
     1
 90
        3
176
     1
 90
        0
176
     1
 90
        0
176
     1
290
     0
176
     1
 90
        5
176
     1
 40
0.0
176
     1
 90
        0
176
     1
290
     0
176
     1
290
     1
176
     1
290
     1
176
     1
290
     0
176
     1
290
     0
176
     1
290
     0
176
     1
290
     0
176
     1
290
     0
176
     1
290
     0
176
     1
 90
       50
176
     1
 40
0.0
176
     1
 40
1.0
176
     1
 90
        0
176
     1
 62
    18
420
        0
176
     1
 90
       50
176
     1
 90
        3
176
     1
 62
     5
420
      255
176
     1
290
     0
176
     1
 90
       50
176
     1
 90
       50
176
     1
 90
       50
176
     1
290
     0
176
     1
 90
       50
176
     1
 62
   256
176
     0
 40
1.0
176
     0
 90
        2
176
     1
  1
strokes_ogs.tif
176
     1
290
     0
176
     1
 40
1.0
176
     1
 40
1.0
176
     1
  0
VISUALSTYLE
  5
3D
102
{ACAD_REACTORS
330
29
102
}
330
29
100
AcDbVisualStyle
  2
Shaded with edges
 70
    26
177
     3
291
     0
 70
    58
 90
        2
176
     1
 90
        2
176
     1
 90
        1
176
     1
 90
        2
176
     1
 40
0.6
176
     1
 40
30.0
176
     1
 62
     7
420
 16777215
176
     1
 90
        1
176
     1
 90
        2
176
     1
 62
     7
176
     1
 62
   257
176
     1
 90
        2
176
     1
 90
        1
176
     1
 40
1.0
176
     1
 90
        8
176
     1
 62
   257
176
     1
 40
1.0
176
     1
 90
        1
176
     1
 90
        6
176
     1
 90
        2
176
     1
 62
     7
176
     1
 90
        3
176
     1
 90
        0
176
     1
 90
        0
176
     1
290
     0
176
     1
 90
        5
176
     1
 40
0.0
176
     1
 90
        0
176
     1
290
     0
176
     1
290
     1
176
     1
290
     1
176
     1
290
     0
176
     1
290
     0
176
     1
290
     0
176
     1
290
     0
176
     1
290
     0
176
     1
290
     0
176
     1
 90
       50
176
     1
 40
0.0
176
     1
 40
1.0
176
     1
 90
        0
176
     1
 62
    18
420
        0
176
     1
 90
       50
176
     1
 90
        3
176
     1
 62
     5
420
      255
176
     1
290
     0
176
     1
 90
       50
176
     1
 90
       50
176
     1
 90
       50
176
     1
290
     0
176
     1
 90
       50
176
     1
 62
   256
176
     0
 40
1.0
176
     0
 90
        2
176
     1
  1
strokes_ogs.tif
176
     1
290
     0
176
     1
 40
1.0
176
     1
 40
1.0
176
     1
  0
VISUALSTYLE
  5
3A
102
{ACAD_REACTORS
330
29
102
}
330
29
100
AcDbVisualStyle
  2
Shades of Gray
 70
    23
177
     3
291
     0
 70
    58
 90
        2
176
     1
 90
        2
176
     1
 90
        3
176
     1
 90
        0
176
     1
 40
0.6
176
     1
 40
30.0
176
     1
 62
     7
420
 16777215
176
     1
 90
        2
176
     1
 90
        2
176
     1
 62
     7
176
     1
 62
     7
176
     1
 90
        1
176
     1
 90
        1
176
     1
 40
40.0
176
     1
 90
        8
176
     1
 62
     7
176
     1
 40
1.0
176
     1
 90
        1
176
     1
 90
        6
176
     1
 90
        2
176
     1
 62
     7
176
     1
 90
        3
176
     1
 90
        0
176
     1
 90
        0
176
     1
290
     0
176
     1
 90
        1
176
     1
 40
0.0
176
     1
 90
        0
176
     1
290
     0
176
     1
290
     1
176
     1
290
     1
176
     1
290
     0
176
     1
290
     0
176
     1
290
     0
176
     1
290
     0
176
     1
290
     0
176
     1
290
     0
176
     1
 90
       50
176
     1
 40
0.0
176
     1
 40
1.0
176
     1
 90
        0
176
     1
 62
    18
420
        0
176
     1
 90
       50
176
     1
 90
        3
176
     1
 62
     5
420
      255
176
     1
290
     0
176
     1
 90
       50
176
     1
 90
       50
176
     1
 90
       50
176
     1
290
     0
176
     1
 90
       50
176
     1
 62
   256
176
     0
 40
1.0
176
     0
 90
        2
176
     1
  1
strokes_ogs.tif
176
     1
290
     0
176
     1
 40
1.0
176
     1
 40
1.0
176
     1
  0
VISUALSTYLE
  5
3B
102
{ACAD_REACTORS
330
29
102
}
330
29
100
AcDbVisualStyle
  2
Sketchy
 70
    24
177
     3
291
     0
 70
    58
 90
        1
176
     1
 90
        2
176
     1
 90
        2
176
     1
 90
        0
176
     1
 40
0.6
176
     1
 40
30.0
176
     1
 62
     7
420
 16777215
176
     1
 90
        2
176
     1
 90
        2
176
     1
 62
     7
176
     1
 62
     7
176
     1
 90
        1
176
     1
 90
        1
176
     1
 40
40.0
176
     1
 90
       11
176
     1
 62
     7
176
     1
 40
1.0
176
     1
 90
        1
176
     1
 90
        6
176
     1
 90
        2
176
     1
 62
     7
176
     1
 90
        6
176
     1
 90
        0
176
     1
 90
        0
176
     1
290
     0
176
     1
 90
        1
176
     1
 40
0.0
176
     1
 90
        0
176
     1
290
     0
176
     1
290
     1
176
     1
290
     1
176
     1
290
     0
176
     1
290
     0
176
     1
290
     0
176
     1
290
     0
176
     1
290
     0
176
     1
290
     0
176
     1
 90
       50
176
     1
 40
0.0
176
     1
 40
1.0
176
     1
 90
        0
176
     1
 62
    18
420
        0
176
     1
 90
       50
176
     1
 90
        3
176
     1
 62
     5
420
      255
176
     1
290
     0
176
     1
 90
       50
176
     1
 90
       50
176
     1
 90
       50
176
     1
290
     0
176
     1
 90
       50
176
     1
 62
   256
176
     0
 40
1.0
176
     0
 90
        2
176
     1
  1
strokes_ogs.tif
176
     1
290
     0
176
     1
 40
1.0
176
     1
 40
1.0
176
     1
  0
VISUALSTYLE
  5
36
102
{ACAD_REACTORS
330
29
102
}
330
29
100
AcDbVisualStyle
  2
Thicken
 70
    13
177
     3
291
     1
 70
    58
 90
        2
176
     1
 90
        2
176
     1
 90
        0
176
     1
 90
        0
176
     1
 40
0.6
176
     1
 40
30.0
176
     1
 62
     7
420
 16777215
176
     1
 90
        1
176
     1
 90
        4
176
     1
 62
     7
176
     1
 62
   257
176
     1
 90
        1
176
     1
 90
        1
176
     1
 40
1.0
176
     1
 90
       12
176
     1
 62
     7
176
     1
 40
1.0
176
     1
 90
        1
176
     1
 90
        6
176
     1
 90
        2
176
     1
 62
     7
176
     1
 90
        5
176
     1
 90
        0
176
     1
 90
        0
176
     1
290
     0
176
     1
 90
        1
176
     1
 40
0.0
176
     1
 90
        0
176
     1
290
     0
176
     1
290
     1
176
     1
290
     1
176
     1
290
     0
176
     1
290
     0
176
     1
290
     0
176
     1
290
     0
176
     1
290
     0
176
     1
290
     0
176
     1
 90
       50
176
     1
 40
0.0
176
     1
 40
1.0
176
     1
 90
        0
176
     1
 62
    18
420
        0
176
     1
 90
       50
176
     1
 90
        3
176
     1
 62
     5
420
      255
176
     1
290
     0
176
     1
 90
       50
176
     1
 90
       50
176
     1
 90
       50
176
     1
290
     0
176
     1
 90
       50
176
     1
 62
   256
176
     0
 40
1.0
176
     0
 90
        2
176
     1
  1
strokes_ogs.tif
176
     1
290
     0
176
     1
 40
1.0
176
     1
 40
1.0
176
     1
  0
VISUALSTYLE
  5
30
102
{ACAD_REACTORS
330
29
102
}
330
29
100
AcDbVisualStyle
  2
Wireframe
 70
     5
177
     3
291
     0
 70
    58
 90
        0
176
     1
 90
        2
176
     1
 90
        0
176
     1
 90
        0
176
     1
 40
0.6
176
     1
 40
30.0
176
     1
 62
     7
420
 16777215
176
     1
 90
        1
176
     1
 90
        4
176
     1
 62
     7
176
     1
 62
   257
176
     1
 90
        1
176
     1
 90
        1
176
     1
 40
1.0
176
     1
 90
        0
176
     1
 62
   257
176
     1
 40
1.0
176
     1
 90
        1
176
     1
 90
        6
176
     1
 90
        2
176
     1
 62
     7
176
     1
 90
        3
176
     1
 90
        0
176
     1
 90
        0
176
     1
290
     0
176
     1
 90
        1
176
     1
 40
0.0
176
     1
 90
        0
176
     1
290
     0
176
     1
290
     1
176
     1
290
     1
176
     1
290
     0
176
     1
290
     0
176
     1
290
     0
176
     1
290
     0
176
     1
290
     0
176
     1
290
     0
176
     1
 90
       50
176
     1
 40
0.0
176
     1
 40
1.0
176
     1
 90
        0
176
     1
 62
    18
420
        0
176
     1
 90
       50
176
     1
 90
        3
176
     1
 62
     5
420
      255
176
     1
290
     0
176
     1
 90
       50
176
     1
 90
       50
176
     1
 90
       50
176
     1
290
     0
176
     1
 90
       50
176
     1
 62
   256
176
     0
 40
1.0
176
     0
 90
        2
176
     1
  1
strokes_ogs.tif
176
     1
290
     0
176
     1
 40
1.0
176
     1
 40
1.0
176
     1
  0
VISUALSTYLE
  5
3C
102
{ACAD_REACTORS
330
29
102
}
330
29
100
AcDbVisualStyle
  2
X-Ray
 70
    25
177
     3
291
     0
 70
    58
 90
        2
176
     1
 90
        2
176
     1
 90
        1
176
     1
 90
        1
176
     1
 40
0.5
176
     1
 40
30.0
176
     1
 62
     7
420
 16777215
176
     1
 90
        1
176
     1
 90
        0
176
     1
 62
     7
176
     1
 62
   257
176
     1
 90
        1
176
     1
 90
        1
176
     1
 40
1.0
176
     1
 90
        8
176
     1
 62
     7
176
     1
 40
1.0
176
     1
 90
        1
176
     1
 90
        6
176
     1
 90
        2
176
     1
 62
     7
176
     1
 90
        3
176
     1
 90
        0
176
     1
 90
        0
176
     1
290
     0
176
     1
 90
       13
176
     1
 40
0.0
176
     1
 90
        0
176
     1
290
     0
176
     1
290
     1
176
     1
290
     1
176
     1
290
     0
176
     1
290
     0
176
     1
290
     0
176
     1
290
     0
176
     1
290
     0
176
     1
290
     0
176
     1
 90
       50
176
     1
 40
0.0
176
     1
 40
1.0
176
     1
 90
        0
176
     1
 62
    18
420
        0
176
     1
 90
       50
176
     1
 90
        3
176
     1
 62
     5
420
      255
176
     1
290
     0
176
     1
 90
       50
176
     1
 90
       50
176
     1
 90
       50
176
     1
290
     0
176
     1
 90
       50
176
     1
 62
   256
176
     0
 40
1.0
176
     0
 90
        2
176
     1
  1
strokes_ogs.tif
176
     1
290
     0
176
     1
 40
1.0
176
     1
 40
1.0
176
     1
  0
DICTIONARYVAR
  5
2CA
102
{ACAD_REACTORS
330
2C5
102
}
330
2C5
100
DictionaryVariables
280
     0
  1
1:1
  0
DICTIONARYVAR
  5
2C7
102
{ACAD_REACTORS
330
2C5
102
}
330
2C5
100
DictionaryVariables
280
     0
  1
STANDARD
  0
DICTIONARYVAR
  5
2C6
102
{ACAD_REACTORS
330
2C5
102
}
330
2C5
100
DictionaryVariables
280
     0
  1
STANDARD
  0
DICTIONARYVAR
  5
2C8
102
{ACAD_REACTORS
330
2C5
102
}
330
2C5
100
DictionaryVariables
280
     0
  1
Imperial24
  0
DICTIONARYVAR
  5
2C9
102
{ACAD_REACTORS
330
2C5
102
}
330
2C5
100
DictionaryVariables
280
     0
  1
Imperial24
  0
DICTIONARY
  5
1A
330
19
100
AcDbDictionary
280
     1
281
     1
  3
BUMPTILE
360
1C
  3
DIFFUSETILE
360
1B
  3
OPACITYTILE
360
1F
  3
REFLECTIONTILE
360
1E
  3
REFRACTIONTILE
360
20
  3
SPECULARTILE
360
1D
  0
DICTIONARY
  5
12
330
11
100
AcDbDictionary
280
     1
281
     1
  3
BUMPTILE
360
14
  3
DIFFUSETILE
360
13
  3
OPACITYTILE
360
17
  3
REFLECTIONTILE
360
16
  3
REFRACTIONTILE
360
18
  3
SPECULARTILE
360
15
  0
DICTIONARY
  5
22
330
21
100
AcDbDictionary
280
     1
281
     1
  3
BUMPTILE
360
24
  3
DIFFUSETILE
360
23
  3
OPACITYTILE
360
27
  3
REFLECTIONTILE
360
26
  3
REFRACTIONTILE
360
28
  3
SPECULARTILE
360
25
  0
DICTIONARY
  5
2CB
330
65
100
AcDbDictionary
280
     1
281
     1
  3
ACAD_ROUNDTRIP_2008_TABLESTYLE_CELLSTYLEMAP
360
2CC
  0
XRECORD
  5
1C
102
{ACAD_REACTORS
330
1A
102
}
330
1A
100
AcDbXrecord
280
     1
270
     1
271
     1
  0
XRECORD
  5
1B
102
{ACAD_REACTORS
330
1A
102
}
330
1A
100
AcDbXrecord
280
     1
270
     1
271
     1
  0
XRECORD
  5
1F
102
{ACAD_REACTORS
330
1A
102
}
330
1A
100
AcDbXrecord
280
     1
270
     1
271
     1
  0
XRECORD
  5
1E
102
{ACAD_REACTORS
330
1A
102
}
330
1A
100
AcDbXrecord
280
     1
270
     1
271
     1
  0
XRECORD
  5
20
102
{ACAD_REACTORS
330
1A
102
}
330
1A
100
AcDbXrecord
280
     1
270
     1
271
     1
  0
XRECORD
  5
1D
102
{ACAD_REACTORS
330
1A
102
}
330
1A
100
AcDbXrecord
280
     1
270
     1
271
     1
  0
XRECORD
  5
14
102
{ACAD_REACTORS
330
12
102
}
330
12
100
AcDbXrecord
280
     1
270
     1
271
     1
  0
XRECORD
  5
13
102
{ACAD_REACTORS
330
12
102
}
330
12
100
AcDbXrecord
280
     1
270
     1
271
     1
  0
XRECORD
  5
17
102
{ACAD_REACTORS
330
12
102
}
330
12
100
AcDbXrecord
280
     1
270
     1
271
     1
  0
XRECORD
  5
16
102
{ACAD_REACTORS
330
12
102
}
330
12
100
AcDbXrecord
280
     1
270
     1
271
     1
  0
XRECORD
  5
18
102
{ACAD_REACTORS
330
12
102
}
330
12
100
AcDbXrecord
280
     1
270
     1
271
     1
  0
XRECORD
  5
15
102
{ACAD_REACTORS
330
12
102
}
330
12
100
AcDbXrecord
280
     1
270
     1
271
     1
  0
XRECORD
  5
24
102
{ACAD_REACTORS
330
22
102
}
330
22
100
AcDbXrecord
280
     1
270
     1
271
     1
  0
XRECORD
  5
23
102
{ACAD_REACTORS
330
22
102
}
330
22
100
AcDbXrecord
280
     1
270
     1
271
     1
  0
XRECORD
  5
27
102
{ACAD_REACTORS
330
22
102
}
330
22
100
AcDbXrecord
280
     1
270
     1
271
     1
  0
XRECORD
  5
26
102
{ACAD_REACTORS
330
22
102
}
330
22
100
AcDbXrecord
280
     1
270
     1
271
     1
  0
XRECORD
  5
28
102
{ACAD_REACTORS
330
22
102
}
330
22
100
AcDbXrecord
280
     1
270
     1
271
     1
  0
XRECORD
  5
25
102
{ACAD_REACTORS
330
22
102
}
330
22
100
AcDbXrecord
280
     1
270
     1
271
     1
  0
CELLSTYLEMAP
  5
2CC
102
{ACAD_REACTORS
330
2CB
102
}
330
2CB
100
AcDbCellStyleMap
 90
        3
300
CELLSTYLE
  1
TABLEFORMAT_BEGIN
 90
        5
170
     1
 91
        0
 92
    32768
 62
   257
 93
        1
300
CONTENTFORMAT
  1
CONTENTFORMAT_BEGIN
 90
        0
 91
        0
 92
      512
 93
        0
300

 40
0.0
140
1.0
 94
        5
 62
     0
340
55
144
0.25
309
CONTENTFORMAT_END
171
     0
 94
        0
309
TABLEFORMAT_END
  1
CELLSTYLE_BEGIN
 90
        1
 91
        1
300
_TITLE
309
CELLSTYLE_END
300
CELLSTYLE
  1
TABLEFORMAT_BEGIN
 90
        5
170
     1
 91
        0
 92
        0
 62
   257
 93
        1
300
CONTENTFORMAT
  1
CONTENTFORMAT_BEGIN
 90
        0
 91
        0
 92
      512
 93
        0
300

 40
0.0
140
1.0
 94
        5
 62
     0
340
55
144
0.18
309
CONTENTFORMAT_END
171
     0
 94
        0
309
TABLEFORMAT_END
  1
CELLSTYLE_BEGIN
 90
        2
 91
        1
300
_HEADER
309
CELLSTYLE_END
300
CELLSTYLE
  1
TABLEFORMAT_BEGIN
 90
        5
170
     1
 91
        0
 92
        0
 62
   257
 93
        1
300
CONTENTFORMAT
  1
CONTENTFORMAT_BEGIN
 90
        0
 91
        0
 92
      512
 93
        0
300

 40
0.0
140
1.0
 94
        2
 62
     0
340
55
144
0.18
309
CONTENTFORMAT_END
171
     0
 94
        0
309
TABLEFORMAT_END
  1
CELLSTYLE_BEGIN
 90
        3
 91
        2
300
_DATA
309
CELLSTYLE_END
  0
ENDSEC
  0
EOF
