  0
SECTION
  2
HEADER
  9
$ACADVER
  1
AC1032
  9
$ACADMAINTVER
 90
      251
  9
$DWGCODEPAGE
  3
ANSI_1252
  9
$REQUIREDVERSIONS
160
                 0
  9
$INSBASE
 10
0.0
 20
0.0
 30
0.0
  9
$EXTMIN
 10
1.000000000000000E+20
 20
1.000000000000000E+20
 30
1.000000000000000E+20
  9
$EXTMAX
 10
-1.000000000000000E+20
 20
-1.000000000000000E+20
 30
-1.000000000000000E+20
  9
$LIMMIN
 10
0.0
 20
0.0
  9
$LIMMAX
 10
12.0
 20
9.0
  9
$ORTHOMODE
 70
     0
  9
$REGENMODE
 70
     1
  9
$FILLMODE
 70
     1
  9
$QTEXTMODE
 70
     0
  9
$MIRRTEXT
 70
     0
  9
$LTSCALE
 40
1.0
  9
$ATTMODE
 70
     1
  9
$TEXTSIZE
 40
0.2
  9
$TRACEWID
 40
0.05
  9
$TEXTSTYLE
  7
Standard
  9
$CLAYER
  8
0
  9
$CELTYPE
  6
ByLayer
  9
$CECOLOR
 62
   256
  9
$CELTSCALE
 40
1.0
  9
$DISPSILH
 70
     0
  9
$DIMSCALE
 40
1.0
  9
$DIMASZ
 40
0.18
  9
$DIMEXO
 40
0.0625
  9
$DIMDLI
 40
0.38
  9
$DIMRND
 40
0.0
  9
$DIMDLE
 40
0.0
  9
$DIMEXE
 40
0.18
  9
$DIMTP
 40
0.0
  9
$DIMTM
 40
0.0
  9
$DIMTXT
 40
0.18
  9
$DIMCEN
 40
0.09
  9
$DIMTSZ
 40
0.0
  9
$DIMTOL
 70
     0
  9
$DIMLIM
 70
     0
  9
$DIMTIH
 70
     1
  9
$DIMTOH
 70
     1
  9
$DIMSE1
 70
     0
  9
$DIMSE2
 70
     0
  9
$DIMTAD
 70
     0
  9
$DIMZIN
 70
     0
  9
$DIMBLK
  1

  9
$DIMASO
 70
     1
  9
$DIMSHO
 70
     1
  9
$DIMPOST
  1

  9
$DIMAPOST
  1

  9
$DIMALT
 70
     0
  9
$DIMALTD
 70
     2
  9
$DIMALTF
 40
25.4
  9
$DIMLFAC
 40
1.0
  9
$DIMTOFL
 70
     0
  9
$DIMTVP
 40
0.0
  9
$DIMTIX
 70
     0
  9
$DIMSOXD
 70
     0
  9
$DIMSAH
 70
     0
  9
$DIMBLK1
  1

  9
$DIMBLK2
  1

  9
$DIMSTYLE
  2
Standard
  9
$DIMCLRD
 70
     0
  9
$DIMCLRE
 70
     0
  9
$DIMCLRT
 70
     0
  9
$DIMTFAC
 40
1.0
  9
$DIMGAP
 40
0.09
  9
$DIMJUST
 70
     0
  9
$DIMSD1
 70
     0
  9
$DIMSD2
 70
     0
  9
$DIMTOLJ
 70
     1
  9
$DIMTZIN
 70
     0
  9
$DIMALTZ
 70
     0
  9
$DIMALTTZ
 70
     0
  9
$DIMUPT
 70
     0
  9
$DIMDEC
 70
     4
  9
$DIMTDEC
 70
     4
  9
$DIMALTU
 70
     2
  9
$DIMALTTD
 70
     2
  9
$DIMTXSTY
  7
Standard
  9
$DIMAUNIT
 70
     0
  9
$DIMADEC
 70
     0
  9
$DIMALTRND
 40
0.0
  9
$DIMAZIN
 70
     0
  9
$DIMDSEP
 70
    46
  9
$DIMATFIT
 70
     3
  9
$DIMFRAC
 70
     0
  9
$DIMLDRBLK
  1

  9
$DIMLUNIT
 70
     2
  9
$DIMLWD
 70
    -2
  9
$DIMLWE
 70
    -2
  9
$DIMTMOVE
 70
     0
  9
$DIMFXL
 40
1.0
  9
$DIMFXLON
 70
     0
  9
$DIMJOGANG
 40
0.7853981633974483
  9
$DIMTFILL
 70
     0
  9
$DIMTFILLCLR
 70
     0
  9
$DIMARCSYM
 70
     0
  9
$DIMLTYPE
  6

  9
$DIMLTEX1
  6

  9
$DIMLTEX2
  6

  9
$DIMTXTDIRECTION
 70
     0
  9
$LUNITS
 70
     2
  9
$LUPREC
 70
     4
  9
$SKETCHINC
 40
0.1
  9
$FILLETRAD
 40
0.0
  9
$AUNITS
 70
     0
  9
$AUPREC
 70
     0
  9
$MENU
  1
.
  9
$ELEVATION
 40
0.0
  9
$PELEVATION
 40
0.0
  9
$THICKNESS
 40
0.0
  9
$LIMCHECK
 70
     0
  9
$CHAMFERA
 40
0.0
  9
$CHAMFERB
 40
0.0
  9
$CHAMFERC
 40
0.0
  9
$CHAMFERD
 40
0.0
  9
$SKPOLY
 70
     0
  9
$TDCREATE
 40
2459963.395752315
  9
$TDUCREATE
 40
2459963.354085648
  9
$TDUPDATE
 40
2459963.395752315
  9
$TDUUPDATE
 40
2459963.354085648
  9
$TDINDWG
 40
0.0000000000
  9
$TDUSRTIMER
 40
0.0000000000
  9
$USRTIMER
 70
     1
  9
$ANGBASE
 50
0.0
  9
$ANGDIR
 70
     0
  9
$PDMODE
 70
     0
  9
$PDSIZE
 40
0.0
  9
$PLINEWID
 40
0.0
  9
$SPLFRAME
 70
     0
  9
$SPLINETYPE
 70
     6
  9
$SPLINESEGS
 70
     8
  9
$HANDSEED
  5
2DA
  9
$SURFTAB1
 70
     6
  9
$SURFTAB2
 70
     6
  9
$SURFTYPE
 70
     6
  9
$SURFU
 70
     6
  9
$SURFV
 70
     6
  9
$UCSBASE
  2

  9
$UCSNAME
  2

  9
$UCSORG
 10
0.0
 20
0.0
 30
0.0
  9
$UCSXDIR
 10
1.0
 20
0.0
 30
0.0
  9
$UCSYDIR
 10
0.0
 20
1.0
 30
0.0
  9
$UCSORTHOREF
  2

  9
$UCSORTHOVIEW
 70
     0
  9
$UCSORGTOP
 10
0.0
 20
0.0
 30
0.0
  9
$UCSORGBOTTOM
 10
0.0
 20
0.0
 30
0.0
  9
$UCSORGLEFT
 10
0.0
 20
0.0
 30
0.0
  9
$UCSORGRIGHT
 10
0.0
 20
0.0
 30
0.0
  9
$UCSORGFRONT
 10
0.0
 20
0.0
 30
0.0
  9
$UCSORGBACK
 10
0.0
 20
0.0
 30
0.0
  9
$PUCSBASE
  2

  9
$PUCSNAME
  2

  9
$PUCSORG
 10
0.0
 20
0.0
 30
0.0
  9
$PUCSXDIR
 10
1.0
 20
0.0
 30
0.0
  9
$PUCSYDIR
 10
0.0
 20
1.0
 30
0.0
  9
$PUCSORTHOREF
  2

  9
$PUCSORTHOVIEW
 70
     0
  9
$PUCSORGTOP
 10
0.0
 20
0.0
 30
0.0
  9
$PUCSORGBOTTOM
 10
0.0
 20
0.0
 30
0.0
  9
$PUCSORGLEFT
 10
0.0
 20
0.0
 30
0.0
  9
$PUCSORGRIGHT
 10
0.0
 20
0.0
 30
0.0
  9
$PUCSORGFRONT
 10
0.0
 20
0.0
 30
0.0
  9
$PUCSORGBACK
 10
0.0
 20
0.0
 30
0.0
  9
$USERI1
 70
     0
  9
$USERI2
 70
     0
  9
$USERI3
 70
     0
  9
$USERI4
 70
     0
  9
$USERI5
 70
     0
  9
$USERR1
 40
0.0
  9
$USERR2
 40
0.0
  9
$USERR3
 40
0.0
  9
$USERR4
 40
0.0
  9
$USERR5
 40
0.0
  9
$WORLDVIEW
 70
     1
  9
$SHADEDGE
 70
     3
  9
$SHADEDIF
 70
    70
  9
$TILEMODE
 70
     1
  9
$MAXACTVP
 70
    64
  9
$PINSBASE
 10
0.0
 20
0.0
 30
0.0
  9
$PLIMCHECK
 70
     0
  9
$PEXTMIN
 10
1.000000000000000E+20
 20
1.000000000000000E+20
 30
1.000000000000000E+20
  9
$PEXTMAX
 10
-1.000000000000000E+20
 20
-1.000000000000000E+20
 30
-1.000000000000000E+20
  9
$PLIMMIN
 10
0.0
 20
0.0
  9
$PLIMMAX
 10
12.0
 20
9.0
  9
$UNITMODE
 70
     0
  9
$VISRETAIN
 70
     1
  9
$PLINEGEN
 70
     0
  9
$PSLTSCALE
 70
     1
  9
$TREEDEPTH
 70
  3020
  9
$CMLSTYLE
  2
Standard
  9
$CMLJUST
 70
     0
  9
$CMLSCALE
 40
1.0
  9
$PROXYGRAPHICS
 70
     1
  9
$MEASUREMENT
 70
     0
  9
$CELWEIGHT
370
    -1
  9
$ENDCAPS
280
     0
  9
$JOINSTYLE
280
     0
  9
$LWDISPLAY
290
     1
  9
$INSUNITS
 70
     4
  9
$HYPERLINKBASE
  1

  9
$STYLESHEET
  1

  9
$XEDIT
290
     1
  9
$CEPSNTYPE
380
     0
  9
$PSTYLEMODE
290
     1
  9
$FINGERPRINTGUID
  2
{1379F352-5441-D24F-8CF4-7D566E8BBEB7}
  9
$VERSIONGUID
  2
{44961136-AE2E-E94E-B1BE-1BA5A15FE648}
  9
$EXTNAMES
290
     1
  9
$PSVPSCALE
 40
0.0
  9
$OLESTARTUP
290
     0
  9
$SORTENTS
280
   127
  9
$INDEXCTL
280
     0
  9
$HIDETEXT
280
     1
  9
$XCLIPFRAME
280
     2
  9
$HALOGAP
280
     0
  9
$OBSCOLOR
 70
   257
  9
$OBSLTYPE
280
     0
  9
$INTERSECTIONDISPLAY
280
     0
  9
$INTERSECTIONCOLOR
 70
   257
  9
$DIMASSOC
280
     2
  9
$PROJECTNAME
  1

  9
$CAMERADISPLAY
290
     0
  9
$LENSLENGTH
 40
50.0
  9
$CAMERAHEIGHT
 40
0.0
  9
$STEPSPERSEC
 40
2.0
  9
$STEPSIZE
 40
6.0
  9
$3DDWFPREC
 40
2.0
  9
$PSOLWIDTH
 40
0.25
  9
$PSOLHEIGHT
 40
4.0
  9
$LOFTANG1
 40
1.570796326794896
  9
$LOFTANG2
 40
1.570796326794896
  9
$LOFTMAG1
 40
0.0
  9
$LOFTMAG2
 40
0.0
  9
$LOFTPARAM
 70
     7
  9
$LOFTNORMALS
280
     1
  9
$LATITUDE
 40
37.795
  9
$LONGITUDE
 40
-122.394
  9
$NORTHDIRECTION
 40
0.0
  9
$TIMEZONE
 70
 -8000
  9
$LIGHTGLYPHDISPLAY
280
     1
  9
$TILEMODELIGHTSYNCH
280
     1
  9
$CMATERIAL
347
11
  9
$SOLIDHIST
280
     0
  9
$SHOWHIST
280
     1
  9
$DWFFRAME
280
     2
  9
$DGNFRAME
280
     0
  9
$REALWORLDSCALE
290
     1
  9
$INTERFERECOLOR
 62
     1
  9
$INTERFEREOBJVS
345
33
  9
$INTERFEREVPVS
346
30
  9
$CSHADOW
280
     0
  9
$SHADOWPLANELOCATION
 40
0.0
  0
ENDSEC
  0
SECTION
  2
CLASSES
  0
CLASS
  1
ACDBDICTIONARYWDFLT
  2
AcDbDictionaryWithDefault
  3
ObjectDBX Classes
 90
        0
 91
        1
280
     0
281
     0
  0
CLASS
  1
MATERIAL
  2
AcDbMaterial
  3
ObjectDBX Classes
 90
     1153
 91
        3
280
     0
281
     0
  0
CLASS
  1
VISUALSTYLE
  2
AcDbVisualStyle
  3
ObjectDBX Classes
 90
     4095
 91
       24
280
     0
281
     0
  0
CLASS
  1
SCALE
  2
AcDbScale
  3
ObjectDBX Classes
 90
     1153
 91
       17
280
     0
281
     0
  0
CLASS
  1
TABLESTYLE
  2
AcDbTableStyle
  3
ObjectDBX Classes
 90
     4095
 91
        1
280
     0
281
     0
  0
CLASS
  1
MLEADERSTYLE
  2
AcDbMLeaderStyle
  3
ACDB_MLEADERSTYLE_CLASS
 90
     4095
 91
        1
280
     0
281
     0
  0
CLASS
  1
ACDBSECTIONVIEWSTYLE
  2
AcDbSectionViewStyle
  3
ObjectDBX Classes
 90
     1025
 91
        1
280
     0
281
     0
  0
CLASS
  1
ACDBDETAILVIEWSTYLE
  2
AcDbDetailViewStyle
  3
ObjectDBX Classes
 90
     1025
 91
        1
280
     0
281
     0
  0
CLASS
  1
DICTIONARYVAR
  2
AcDbDictionaryVar
  3
ObjectDBX Classes
 90
        0
 91
        5
280
     0
281
     0
  0
CLASS
  1
CELLSTYLEMAP
  2
AcDbCellStyleMap
  3
ObjectDBX Classes
 90
     1152
 91
        1
280
     0
281
     0
  0
ENDSEC
  0
SECTION
  2
TABLES
  0
TABLE
  2
VPORT
  5
8
330
0
100
AcDbSymbolTable
 70
     1
  0
VPORT
  5
57
330
8
100
AcDbSymbolTableRecord
100
AcDbViewportTableRecord
  2
*Active
 70
     0
 10
0.0
 20
0.0
 11
1.0
 21
1.0
 12
0.0
 22
0.0
 13
0.0
 23
0.0
 14
1.0
 24
1.0
 15
0.0
 25
0.0
 16
0.0
 26
0.0
 36
1.0
 17
105.0000721959721
 27
148.5000416295418
 37
0.0
 40
89.75999997755987
 41
1.0
 42
50.0
 43
0.0
 44
0.0
 50
0.0
 51
0.0
 71
     0
 72
   100
 73
     1
 74
     1
 75
     0
 76
     0
 77
     0
 78
     0
281
     0
 65
     1
110
0.0
120
0.0
130
0.0
111
1.0
121
0.0
131
0.0
112
0.0
122
1.0
132
0.0
 79
     0
146
0.0
 60
     3
 61
     5
292
     1
282
     1
141
0.0
142
0.0
 63
   250
421
  3355443
  0
ENDTAB
  0
TABLE
  2
LTYPE
  5
5
330
0
100
AcDbSymbolTable
 70
     2
  0
LTYPE
  5
5B
330
5
100
AcDbSymbolTableRecord
100
AcDbLinetypeTableRecord
  2
ByBlock
 70
     0
  3

 72
    65
 73
     0
 40
0.0
  0
LTYPE
  5
5C
330
5
100
AcDbSymbolTableRecord
100
AcDbLinetypeTableRecord
  2
ByLayer
 70
     0
  3

 72
    65
 73
     0
 40
0.0
  0
LTYPE
  5
5D
330
5
100
AcDbSymbolTableRecord
100
AcDbLinetypeTableRecord
  2
Continuous
 70
     0
  3
Solid line
 72
    65
 73
     0
 40
0.0
  0
LTYPE
  5
28A
330
5
100
AcDbSymbolTableRecord
100
AcDbLinetypeTableRecord
  2
AI-Linetype-0
 70
     0
  3
Adobe Illustrator Linetype No. 0
 72
    65
 73
     2
 40
1.411111110758333
 49
0.7055555553791667
 74
     0
 49
-0.7055555553791667
 74
     0
  0
ENDTAB
  0
TABLE
  2
LAYER
  5
2
330
0
100
AcDbSymbolTable
 70
     5
  0
LAYER
  5
54
330
2
100
AcDbSymbolTableRecord
100
AcDbLayerTableRecord
  2
0
 70
     0
 62
     7
  6
Continuous
370
     0
390
F
347
21
348
0
  0
LAYER
  5
8C
330
2
100
AcDbSymbolTableRecord
100
AcDbLayerTableRecord
  2
Rahmen (ISO)
 70
     0
 62
     7
  6
Continuous
370
     0
390
F
347
21
348
0
  0
LAYER
  5
8D
330
2
100
AcDbSymbolTableRecord
100
AcDbLayerTableRecord
  2
Titel (ISO)
 70
     0
 62
     7
  6
Continuous
370
     0
390
F
347
21
348
0
  0
LAYER
  5
B2
330
2
100
AcDbSymbolTableRecord
100
AcDbLayerTableRecord
  2
Sichtbar (ISO)
 70
     0
 62
     7
  6
Continuous
370
     0
390
F
347
21
348
0
  0
LAYER
  5
B3
330
2
100
AcDbSymbolTableRecord
100
AcDbLayerTableRecord
  2
Sichtbar schmal (ISO)
 70
     0
 62
     7
  6
Continuous
370
     0
390
F
347
21
348
0
  0
ENDTAB
  0
TABLE
  2
STYLE
  5
3
330
0
100
AcDbSymbolTable
 70
     2
  0
STYLE
  5
55
330
3
100
AcDbSymbolTableRecord
100
AcDbTextStyleTableRecord
  2
Standard
 70
     0
 40
0.0
 41
1.0
 50
0.0
 71
     0
 42
0.2
  3
txt
  4

  0
STYLE
  5
5A
330
3
100
AcDbSymbolTableRecord
100
AcDbTextStyleTableRecord
  2
Annotative
 70
     0
 40
0.0
 41
1.0
 50
0.0
 71
     0
 42
0.2
  3
txt
  4

1001
AcadAnnotative
1000
AnnotativeData
1002
{
1070
     1
1070
     1
1002
}
  0
ENDTAB
  0
TABLE
  2
VIEW
  5
6
330
0
100
AcDbSymbolTable
 70
     0
  0
ENDTAB
  0
TABLE
  2
UCS
  5
7
330
0
100
AcDbSymbolTable
 70
     0
  0
ENDTAB
  0
TABLE
  2
APPID
  5
9
330
0
100
AcDbSymbolTable
 70
     2
  0
APPID
  5
56
330
9
100
AcDbSymbolTableRecord
100
AcDbRegAppTableRecord
  2
ACAD
 70
     0
  0
APPID
  5
5E
330
9
100
AcDbSymbolTableRecord
100
AcDbRegAppTableRecord
  2
AcadAnnotative
 70
     0
  0
ENDTAB
  0
TABLE
  2
DIMSTYLE
  5
A
330
0
100
AcDbSymbolTable
 70
     2
100
AcDbDimStyleTable
 71
     0
  0
DIMSTYLE
105
58
330
A
100
AcDbSymbolTableRecord
100
AcDbDimStyleTableRecord
  2
Standard
 70
     0
340
55
  0
DIMSTYLE
105
59
330
A
100
AcDbSymbolTableRecord
100
AcDbDimStyleTableRecord
  2
Annotative
 70
     0
340
55
1001
AcadAnnotative
1000
AnnotativeData
1002
{
1070
     1
1070
     1
1002
}
  0
ENDTAB
  0
TABLE
  2
BLOCK_RECORD
  5
1
330
0
100
AcDbSymbolTable
 70
    48
  0
BLOCK_RECORD
  5
70
330
1
100
AcDbSymbolTableRecord
100
AcDbBlockTableRecord
  2
*Model_Space
340
73
 70
     0
280
     1
281
     0
  0
BLOCK_RECORD
  5
6C
330
1
100
AcDbSymbolTableRecord
100
AcDbBlockTableRecord
  2
*Paper_Space
340
6F
 70
     0
280
     1
281
     0
  0
BLOCK_RECORD
  5
74
330
1
100
AcDbSymbolTableRecord
100
AcDbBlockTableRecord
  2
*Paper_Space0
340
77
 70
     0
280
     1
281
     0
  0
BLOCK_RECORD
  5
78
330
1
100
AcDbSymbolTableRecord
100
AcDbBlockTableRecord
  2
Block_0
340
0
102
{BLKREFS
331
79
102
}
 70
     0
280
     1
281
     0
  0
BLOCK_RECORD
  5
7C
330
1
100
AcDbSymbolTableRecord
100
AcDbBlockTableRecord
  2
Block_1
340
0
102
{BLKREFS
331
7D
102
}
 70
     0
280
     1
281
     0
  0
BLOCK_RECORD
  5
80
330
1
100
AcDbSymbolTableRecord
100
AcDbBlockTableRecord
  2
Block_2
340
0
102
{BLKREFS
331
81
102
}
 70
     0
280
     1
281
     0
  0
BLOCK_RECORD
  5
84
330
1
100
AcDbSymbolTableRecord
100
AcDbBlockTableRecord
  2
Block_3
340
0
102
{BLKREFS
331
85
102
}
 70
     0
280
     1
281
     0
  0
BLOCK_RECORD
  5
88
330
1
100
AcDbSymbolTableRecord
100
AcDbBlockTableRecord
  2
Block_4
340
0
102
{BLKREFS
331
89
102
}
 70
     0
280
     1
281
     0
  0
BLOCK_RECORD
  5
8E
330
1
100
AcDbSymbolTableRecord
100
AcDbBlockTableRecord
  2
Block_5
340
0
102
{BLKREFS
331
8F
102
}
 70
     0
280
     1
281
     0
  0
BLOCK_RECORD
  5
92
330
1
100
AcDbSymbolTableRecord
100
AcDbBlockTableRecord
  2
Block_6
340
0
102
{BLKREFS
331
93
102
}
 70
     0
280
     1
281
     0
  0
BLOCK_RECORD
  5
96
330
1
100
AcDbSymbolTableRecord
100
AcDbBlockTableRecord
  2
Block_7
340
0
102
{BLKREFS
331
97
102
}
 70
     0
280
     1
281
     0
  0
BLOCK_RECORD
  5
9A
330
1
100
AcDbSymbolTableRecord
100
AcDbBlockTableRecord
  2
Block_8
340
0
102
{BLKREFS
331
9B
102
}
 70
     0
280
     1
281
     0
  0
BLOCK_RECORD
  5
9E
330
1
100
AcDbSymbolTableRecord
100
AcDbBlockTableRecord
  2
Block_9
340
0
102
{BLKREFS
331
9F
102
}
 70
     0
280
     1
281
     0
  0
BLOCK_RECORD
  5
A2
330
1
100
AcDbSymbolTableRecord
100
AcDbBlockTableRecord
  2
Block_10
340
0
102
{BLKREFS
331
A3
102
}
 70
     0
280
     1
281
     0
  0
BLOCK_RECORD
  5
A6
330
1
100
AcDbSymbolTableRecord
100
AcDbBlockTableRecord
  2
Block_11
340
0
102
{BLKREFS
331
A7
102
}
 70
     0
280
     1
281
     0
  0
BLOCK_RECORD
  5
AA
330
1
100
AcDbSymbolTableRecord
100
AcDbBlockTableRecord
  2
Block_12
340
0
102
{BLKREFS
331
AB
102
}
 70
     0
280
     1
281
     0
  0
BLOCK_RECORD
  5
AE
330
1
100
AcDbSymbolTableRecord
100
AcDbBlockTableRecord
  2
Block_13
340
0
102
{BLKREFS
331
AF
102
}
 70
     0
280
     1
281
     0
  0
BLOCK_RECORD
  5
B4
330
1
100
AcDbSymbolTableRecord
100
AcDbBlockTableRecord
  2
Block_14
340
0
102
{BLKREFS
331
B5
102
}
 70
     0
280
     1
281
     0
  0
BLOCK_RECORD
  5
BA
330
1
100
AcDbSymbolTableRecord
100
AcDbBlockTableRecord
  2
Block_15
340
0
102
{BLKREFS
331
BB
102
}
 70
     0
280
     1
281
     0
  0
BLOCK_RECORD
  5
1DA
330
1
100
AcDbSymbolTableRecord
100
AcDbBlockTableRecord
  2
Block_16
340
0
102
{BLKREFS
331
1DB
102
}
 70
     0
280
     1
281
     0
  0
BLOCK_RECORD
  5
207
330
1
100
AcDbSymbolTableRecord
100
AcDbBlockTableRecord
  2
Block_17
340
0
102
{BLKREFS
331
208
102
}
 70
     0
280
     1
281
     0
  0
BLOCK_RECORD
  5
20B
330
1
100
AcDbSymbolTableRecord
100
AcDbBlockTableRecord
  2
Block_18
340
0
102
{BLKREFS
331
20C
102
}
 70
     0
280
     1
281
     0
  0
BLOCK_RECORD
  5
210
330
1
100
AcDbSymbolTableRecord
100
AcDbBlockTableRecord
  2
Block_19
340
0
102
{BLKREFS
331
211
102
}
 70
     0
280
     1
281
     0
  0
BLOCK_RECORD
  5
216
330
1
100
AcDbSymbolTableRecord
100
AcDbBlockTableRecord
  2
Block_20
340
0
102
{BLKREFS
331
217
102
}
 70
     0
280
     1
281
     0
  0
BLOCK_RECORD
  5
21F
330
1
100
AcDbSymbolTableRecord
100
AcDbBlockTableRecord
  2
Block_21
340
0
102
{BLKREFS
331
220
102
}
 70
     0
280
     1
281
     0
  0
BLOCK_RECORD
  5
223
330
1
100
AcDbSymbolTableRecord
100
AcDbBlockTableRecord
  2
Block_22
340
0
102
{BLKREFS
331
224
102
}
 70
     0
280
     1
281
     0
  0
BLOCK_RECORD
  5
228
330
1
100
AcDbSymbolTableRecord
100
AcDbBlockTableRecord
  2
Block_23
340
0
102
{BLKREFS
331
229
102
}
 70
     0
280
     1
281
     0
  0
BLOCK_RECORD
  5
22E
330
1
100
AcDbSymbolTableRecord
100
AcDbBlockTableRecord
  2
Block_24
340
0
102
{BLKREFS
331
22F
102
}
 70
     0
280
     1
281
     0
  0
BLOCK_RECORD
  5
238
330
1
100
AcDbSymbolTableRecord
100
AcDbBlockTableRecord
  2
Block_25
340
0
102
{BLKREFS
331
239
102
}
 70
     0
280
     1
281
     0
  0
BLOCK_RECORD
  5
23C
330
1
100
AcDbSymbolTableRecord
100
AcDbBlockTableRecord
  2
Block_26
340
0
102
{BLKREFS
331
23D
102
}
 70
     0
280
     1
281
     0
  0
BLOCK_RECORD
  5
241
330
1
100
AcDbSymbolTableRecord
100
AcDbBlockTableRecord
  2
Block_27
340
0
102
{BLKREFS
331
242
102
}
 70
     0
280
     1
281
     0
  0
BLOCK_RECORD
  5
247
330
1
100
AcDbSymbolTableRecord
100
AcDbBlockTableRecord
  2
Block_28
340
0
102
{BLKREFS
331
248
102
}
 70
     0
280
     1
281
     0
  0
BLOCK_RECORD
  5
24D
330
1
100
AcDbSymbolTableRecord
100
AcDbBlockTableRecord
  2
Block_29
340
0
102
{BLKREFS
331
24E
102
}
 70
     0
280
     1
281
     0
  0
BLOCK_RECORD
  5
251
330
1
100
AcDbSymbolTableRecord
100
AcDbBlockTableRecord
  2
Block_30
340
0
102
{BLKREFS
331
252
102
}
 70
     0
280
     1
281
     0
  0
BLOCK_RECORD
  5
25F
330
1
100
AcDbSymbolTableRecord
100
AcDbBlockTableRecord
  2
Block_31
340
0
102
{BLKREFS
331
260
102
}
 70
     0
280
     1
281
     0
  0
BLOCK_RECORD
  5
263
330
1
100
AcDbSymbolTableRecord
100
AcDbBlockTableRecord
  2
Block_32
340
0
102
{BLKREFS
331
264
102
}
 70
     0
280
     1
281
     0
  0
BLOCK_RECORD
  5
273
330
1
100
AcDbSymbolTableRecord
100
AcDbBlockTableRecord
  2
Block_33
340
0
102
{BLKREFS
331
274
102
}
 70
     0
280
     1
281
     0
  0
BLOCK_RECORD
  5
277
330
1
100
AcDbSymbolTableRecord
100
AcDbBlockTableRecord
  2
Block_34
340
0
102
{BLKREFS
331
278
102
}
 70
     0
280
     1
281
     0
  0
BLOCK_RECORD
  5
28B
330
1
100
AcDbSymbolTableRecord
100
AcDbBlockTableRecord
  2
Block_35
340
0
102
{BLKREFS
331
28C
102
}
 70
     0
280
     1
281
     0
  0
BLOCK_RECORD
  5
28F
330
1
100
AcDbSymbolTableRecord
100
AcDbBlockTableRecord
  2
Block_36
340
0
102
{BLKREFS
331
290
102
}
 70
     0
280
     1
281
     0
  0
BLOCK_RECORD
  5
294
330
1
100
AcDbSymbolTableRecord
100
AcDbBlockTableRecord
  2
Block_37
340
0
102
{BLKREFS
331
295
102
}
 70
     0
280
     1
281
     0
  0
BLOCK_RECORD
  5
29A
330
1
100
AcDbSymbolTableRecord
100
AcDbBlockTableRecord
  2
Block_38
340
0
102
{BLKREFS
331
29B
102
}
 70
     0
280
     1
281
     0
  0
BLOCK_RECORD
  5
2A1
330
1
100
AcDbSymbolTableRecord
100
AcDbBlockTableRecord
  2
Block_39
340
0
102
{BLKREFS
331
2A2
102
}
 70
     0
280
     1
281
     0
  0
BLOCK_RECORD
  5
2A5
330
1
100
AcDbSymbolTableRecord
100
AcDbBlockTableRecord
  2
Block_40
340
0
102
{BLKREFS
331
2A6
102
}
 70
     0
280
     1
281
     0
  0
BLOCK_RECORD
  5
2AA
330
1
100
AcDbSymbolTableRecord
100
AcDbBlockTableRecord
  2
Block_41
340
0
102
{BLKREFS
331
2AB
102
}
 70
     0
280
     1
281
     0
  0
BLOCK_RECORD
  5
2B0
330
1
100
AcDbSymbolTableRecord
100
AcDbBlockTableRecord
  2
Block_42
340
0
102
{BLKREFS
331
2B1
102
}
 70
     0
280
     1
281
     0
  0
BLOCK_RECORD
  5
2B6
330
1
100
AcDbSymbolTableRecord
100
AcDbBlockTableRecord
  2
Block_43
340
0
102
{BLKREFS
331
2B7
102
}
 70
     0
280
     1
281
     0
  0
BLOCK_RECORD
  5
2BA
330
1
100
AcDbSymbolTableRecord
100
AcDbBlockTableRecord
  2
Block_44
340
0
102
{BLKREFS
331
2BB
102
}
 70
     0
280
     1
281
     0
  0
BLOCK_RECORD
  5
2C4
330
1
100
AcDbSymbolTableRecord
100
AcDbBlockTableRecord
  2
Block_45
340
0
102
{BLKREFS
331
2C5
102
}
 70
     0
280
     1
281
     0
  0
BLOCK_RECORD
  5
2C8
330
1
100
AcDbSymbolTableRecord
100
AcDbBlockTableRecord
  2
Block_46
340
0
102
{BLKREFS
331
2C9
102
}
 70
     0
280
     1
281
     0
  0
ENDTAB
  0
ENDSEC
  0
SECTION
  2
BLOCKS
  0
BLOCK
  5
71
330
70
100
AcDbEntity
  8
0
100
AcDbBlockBegin
  2
*Model_Space
 70
     0
 10
0.0
 20
0.0
 30
0.0
  3
*Model_Space
  1

  0
ENDBLK
  5
72
330
70
100
AcDbEntity
  8
0
100
AcDbBlockEnd
  0
BLOCK
  5
6D
330
6C
100
AcDbEntity
 67
     1
  8
0
100
AcDbBlockBegin
  2
*Paper_Space
 70
     0
 10
0.0
 20
0.0
 30
0.0
  3
*Paper_Space
  1

  0
ENDBLK
  5
6E
330
6C
100
AcDbEntity
 67
     1
  8
0
100
AcDbBlockEnd
  0
BLOCK
  5
75
330
74
100
AcDbEntity
 67
     1
  8
0
100
AcDbBlockBegin
  2
*Paper_Space0
 70
     0
 10
0.0
 20
0.0
 30
0.0
  3
*Paper_Space0
  1

  0
ENDBLK
  5
76
330
74
100
AcDbEntity
 67
     1
  8
0
100
AcDbBlockEnd
  0
BLOCK
  5
7A
330
78
100
AcDbEntity
  8
0
100
AcDbBlockBegin
  2
Block_0
 70
     0
 10
0.0
 20
0.0
 30
0.0
  3
Block_0
  1

  0
ENDBLK
  5
7B
330
78
100
AcDbEntity
  8
0
100
AcDbBlockEnd
  0
BLOCK
  5
7E
330
7C
100
AcDbEntity
  8
0
100
AcDbBlockBegin
  2
Block_1
 70
     0
 10
0.0
 20
0.0
 30
0.0
  3
Block_1
  1

  0
ENDBLK
  5
7F
330
7C
100
AcDbEntity
  8
0
100
AcDbBlockEnd
  0
BLOCK
  5
82
330
80
100
AcDbEntity
  8
0
100
AcDbBlockBegin
  2
Block_2
 70
     0
 10
0.0
 20
0.0
 30
0.0
  3
Block_2
  1

  0
ENDBLK
  5
83
330
80
100
AcDbEntity
  8
0
100
AcDbBlockEnd
  0
BLOCK
  5
86
330
84
100
AcDbEntity
  8
0
100
AcDbBlockBegin
  2
Block_3
 70
     0
 10
0.0
 20
0.0
 30
0.0
  3
Block_3
  1

  0
ENDBLK
  5
87
330
84
100
AcDbEntity
  8
0
100
AcDbBlockEnd
  0
BLOCK
  5
8A
330
88
100
AcDbEntity
  8
0
100
AcDbBlockBegin
  2
Block_4
 70
     0
 10
0.0
 20
0.0
 30
0.0
  3
Block_4
  1

  0
ENDBLK
  5
8B
330
88
100
AcDbEntity
  8
0
100
AcDbBlockEnd
  0
BLOCK
  5
90
330
8E
100
AcDbEntity
  8
0
100
AcDbBlockBegin
  2
Block_5
 70
     0
 10
0.0
 20
0.0
 30
0.0
  3
Block_5
  1

  0
ENDBLK
  5
91
330
8E
100
AcDbEntity
  8
0
100
AcDbBlockEnd
  0
BLOCK
  5
94
330
92
100
AcDbEntity
  8
0
100
AcDbBlockBegin
  2
Block_6
 70
     0
 10
0.0
 20
0.0
 30
0.0
  3
Block_6
  1

  0
ENDBLK
  5
95
330
92
100
AcDbEntity
  8
0
100
AcDbBlockEnd
  0
BLOCK
  5
98
330
96
100
AcDbEntity
  8
0
100
AcDbBlockBegin
  2
Block_7
 70
     0
 10
0.0
 20
0.0
 30
0.0
  3
Block_7
  1

  0
ENDBLK
  5
99
330
96
100
AcDbEntity
  8
0
100
AcDbBlockEnd
  0
BLOCK
  5
9C
330
9A
100
AcDbEntity
  8
0
100
AcDbBlockBegin
  2
Block_8
 70
     0
 10
0.0
 20
0.0
 30
0.0
  3
Block_8
  1

  0
ENDBLK
  5
9D
330
9A
100
AcDbEntity
  8
0
100
AcDbBlockEnd
  0
BLOCK
  5
A0
330
9E
100
AcDbEntity
  8
0
100
AcDbBlockBegin
  2
Block_9
 70
     0
 10
0.0
 20
0.0
 30
0.0
  3
Block_9
  1

  0
ENDBLK
  5
A1
330
9E
100
AcDbEntity
  8
0
100
AcDbBlockEnd
  0
BLOCK
  5
A4
330
A2
100
AcDbEntity
  8
0
100
AcDbBlockBegin
  2
Block_10
 70
     0
 10
0.0
 20
0.0
 30
0.0
  3
Block_10
  1

  0
ENDBLK
  5
A5
330
A2
100
AcDbEntity
  8
0
100
AcDbBlockEnd
  0
BLOCK
  5
A8
330
A6
100
AcDbEntity
  8
0
100
AcDbBlockBegin
  2
Block_11
 70
     0
 10
0.0
 20
0.0
 30
0.0
  3
Block_11
  1

  0
ENDBLK
  5
A9
330
A6
100
AcDbEntity
  8
0
100
AcDbBlockEnd
  0
BLOCK
  5
AC
330
AA
100
AcDbEntity
  8
0
100
AcDbBlockBegin
  2
Block_12
 70
     0
 10
0.0
 20
0.0
 30
0.0
  3
Block_12
  1

  0
ENDBLK
  5
AD
330
AA
100
AcDbEntity
  8
0
100
AcDbBlockEnd
  0
BLOCK
  5
B0
330
AE
100
AcDbEntity
  8
0
100
AcDbBlockBegin
  2
Block_13
 70
     0
 10
0.0
 20
0.0
 30
0.0
  3
Block_13
  1

  0
ENDBLK
  5
B1
330
AE
100
AcDbEntity
  8
0
100
AcDbBlockEnd
  0
BLOCK
  5
B6
330
B4
100
AcDbEntity
  8
0
100
AcDbBlockBegin
  2
Block_14
 70
     0
 10
0.0
 20
0.0
 30
0.0
  3
Block_14
  1

  0
SPLINE
  5
B8
330
B4
100
AcDbEntity
  8
Sichtbar schmal (ISO)
100
AcDbSpline
210
0.0
220
0.0
230
1.0
 70
     8
 71
     3
 72
    38
 73
    34
 74
     0
 42
0.0000000001
 43
0.0000000001
 40
0.0
 40
0.0
 40
0.0
 40
0.0
 40
1.0
 40
1.0
 40
1.0
 40
2.0
 40
2.0
 40
2.0
 40
3.0
 40
3.0
 40
3.0
 40
4.0
 40
4.0
 40
4.0
 40
5.0
 40
5.0
 40
5.0
 40
6.0
 40
6.0
 40
6.0
 40
7.0
 40
7.0
 40
7.0
 40
8.0
 40
8.0
 40
8.0
 40
9.0
 40
9.0
 40
9.0
 40
10.0
 40
10.0
 40
10.0
 40
11.0
 40
11.0
 40
11.0
 40
11.0
 10
113.146904278305
 20
179.3002379734329
 30
0.0
 10
113.146904278305
 20
179.3002379734329
 30
0.0
 10
113.6167952586924
 20
179.3002379734329
 30
0.0
 10
113.6167952586924
 20
179.3002379734329
 30
0.0
 10
113.6167952586924
 20
179.3002379734329
 30
0.0
 10
113.6167952586924
 20
175.3757040670431
 30
0.0
 10
113.6167952586924
 20
175.3757040670431
 30
0.0
 10
113.6167952586924
 20
175.3757040670431
 30
0.0
 10
113.6167952586924
 20
174.9820561563315
 30
0.0
 10
113.6167952586924
 20
174.9820561563315
 30
0.0
 10
113.6167952586924
 20
174.6054983724494
 30
0.0
 10
113.3012292219391
 20
174.3002379746827
 30
0.0
 10
112.9119587881125
 20
174.3002379746827
 30
0.0
 10
112.9119587881125
 20
174.3002379746827
 30
0.0
 10
67.56747918082388
 20
174.3002379746827
 30
0.0
 10
67.56747918082388
 20
174.3002379746827
 30
0.0
 10
67.1782087469989
 20
174.3002379746827
 30
0.0
 10
66.86264271024365
 20
174.6054983724494
 30
0.0
 10
66.86264271024365
 20
174.9820561563315
 30
0.0
 10
66.86264271024365
 20
174.9820561563315
 30
0.0
 10
66.86264271024365
 20
175.3757040670431
 30
0.0
 10
66.86264271024365
 20
175.3757040670431
 30
0.0
 10
66.86264271024365
 20
175.3757040670431
 30
0.0
 10
66.86264271024365
 20
179.3002379734329
 30
0.0
 10
66.86264271024365
 20
179.3002379734329
 30
0.0
 10
66.86264271024365
 20
179.3002379734329
 30
0.0
 10
67.33253369063111
 20
179.3002379734329
 30
0.0
 10
67.33253369063111
 20
179.3002379734329
 30
0.0
 10
67.33253369063111
 20
179.3002379734329
 30
0.0
 10
67.3560282396501
 20
179.3002379734329
 30
0.0
 10
67.3560282396501
 20
179.3002379734329
 30
0.0
 10
67.3560282396501
 20
179.3002379734329
 30
0.0
 10
113.123409729286
 20
179.3002379734329
 30
0.0
 10
113.123409729286
 20
179.3002379734329
 30
0.0
  0
HATCH
  5
B9
330
B4
100
AcDbEntity
  8
Sichtbar schmal (ISO)
 62
   254
420
 14606046
440
 33554687
100
AcDbHatch
 10
0.0
 20
0.0
 30
0.0
210
0.0
220
0.0
230
1.0
  2
SOLID
 70
     1
 71
     1
 91
        1
 92
        1
 93
        2
 72
     4
 94
        3
 73
     0
 74
     0
 95
       38
 96
       34
 40
0.0
 40
0.0
 40
0.0
 40
0.0
 40
1.0
 40
1.0
 40
1.0
 40
2.0
 40
2.0
 40
2.0
 40
3.0
 40
3.0
 40
3.0
 40
4.0
 40
4.0
 40
4.0
 40
5.0
 40
5.0
 40
5.0
 40
6.0
 40
6.0
 40
6.0
 40
7.0
 40
7.0
 40
7.0
 40
8.0
 40
8.0
 40
8.0
 40
9.0
 40
9.0
 40
9.0
 40
10.0
 40
10.0
 40
10.0
 40
11.0
 40
11.0
 40
11.0
 40
11.0
 10
113.146904278305
 20
179.3002379734329
 10
113.146904278305
 20
179.3002379734329
 10
113.6167952586924
 20
179.3002379734329
 10
113.6167952586924
 20
179.3002379734329
 10
113.6167952586924
 20
179.3002379734329
 10
113.6167952586924
 20
175.3757040670431
 10
113.6167952586924
 20
175.3757040670431
 10
113.6167952586924
 20
175.3757040670431
 10
113.6167952586924
 20
174.9820561563315
 10
113.6167952586924
 20
174.9820561563315
 10
113.6167952586924
 20
174.6054983724494
 10
113.3012292219391
 20
174.3002379746827
 10
112.9119587881125
 20
174.3002379746827
 10
112.9119587881125
 20
174.3002379746827
 10
67.56747918082388
 20
174.3002379746827
 10
67.56747918082388
 20
174.3002379746827
 10
67.1782087469989
 20
174.3002379746827
 10
66.86264271024365
 20
174.6054983724494
 10
66.86264271024365
 20
174.9820561563315
 10
66.86264271024365
 20
174.9820561563315
 10
66.86264271024365
 20
175.3757040670431
 10
66.86264271024365
 20
175.3757040670431
 10
66.86264271024365
 20
175.3757040670431
 10
66.86264271024365
 20
179.3002379734329
 10
66.86264271024365
 20
179.3002379734329
 10
66.86264271024365
 20
179.3002379734329
 10
67.33253369063111
 20
179.3002379734329
 10
67.33253369063111
 20
179.3002379734329
 10
67.33253369063111
 20
179.3002379734329
 10
67.3560282396501
 20
179.3002379734329
 10
67.3560282396501
 20
179.3002379734329
 10
67.3560282396501
 20
179.3002379734329
 10
113.123409729286
 20
179.3002379734329
 10
113.123409729286
 20
179.3002379734329
 97
        0
 72
     1
 10
113.123409729286
 20
179.3002379734329
 11
113.146904278305
 21
179.3002379734329
 97
        0
 75
     2
 76
     1
 98
        1
 10
0.0
 20
0.0
450
        0
451
        0
460
0.0
461
0.0
452
        0
462
0.0
453
        0
470

  0
ENDBLK
  5
B7
330
B4
100
AcDbEntity
  8
0
100
AcDbBlockEnd
  0
BLOCK
  5
BC
330
BA
100
AcDbEntity
  8
0
100
AcDbBlockBegin
  2
Block_15
 70
     0
 10
0.0
 20
0.0
 30
0.0
  3
Block_15
  1

  0
LINE
  5
BE
330
BA
100
AcDbEntity
  8
Sichtbar schmal (ISO)
 62
    18
420
        0
370
     5
100
AcDbLine
 10
72.24707425414139
 20
171.477341068172
 30
0.0
 11
72.24707425414139
 21
171.295413233166
 31
0.0
  0
SPLINE
  5
BF
330
BA
100
AcDbEntity
  8
Sichtbar schmal (ISO)
 62
    18
420
        0
370
     5
100
AcDbSpline
210
0.0
220
0.0
230
1.0
 70
     8
 71
     3
 72
     8
 73
     4
 74
     0
 42
0.0000000001
 43
0.0000000001
 40
0.0
 40
0.0
 40
0.0
 40
0.0
 40
1.0
 40
1.0
 40
1.0
 40
1.0
 10
72.24707425414139
 20
171.477341068172
 30
0.0
 10
72.24707425414139
 20
171.5778170370149
 30
0.0
 10
72.14445540827529
 20
171.6592689031782
 30
0.0
 10
72.01786864672199
 20
171.6592689031782
 30
0.0
  0
LINE
  5
C0
330
BA
100
AcDbEntity
  8
Sichtbar schmal (ISO)
 62
    18
420
        0
370
     5
100
AcDbLine
 10
65.71471444269038
 20
171.6592689031782
 30
0.0
 11
114.7647144304281
 21
171.6592689031782
 31
0.0
  0
LINE
  5
C1
330
BA
100
AcDbEntity
  8
Sichtbar schmal (ISO)
 62
    18
420
        0
370
     5
100
AcDbLine
 10
65.71471444269038
 20
179.3002379734329
 30
0.0
 11
114.7647144304281
 21
179.3002379734329
 31
0.0
  0
LINE
  5
C2
330
BA
100
AcDbEntity
  8
Sichtbar schmal (ISO)
 62
    18
420
        0
370
     5
100
AcDbLine
 10
114.7647144304281
 20
179.3002379734329
 30
0.0
 11
114.7647144304281
 21
171.6592689031782
 31
0.0
  0
LINE
  5
C3
330
BA
100
AcDbEntity
  8
Sichtbar schmal (ISO)
 62
    18
420
        0
370
     5
100
AcDbLine
 10
65.71471444269038
 20
179.3002379734329
 30
0.0
 11
65.71471444269038
 21
171.6592689031782
 31
0.0
  0
LINE
  5
C4
330
BA
100
AcDbEntity
  8
Sichtbar schmal (ISO)
 62
    18
420
        0
370
     5
100
AcDbLine
 10
88.86448079204312
 20
161.6532379778443
 30
0.0
 11
91.61494808107505
 21
161.6532379778443
 31
0.0
  0
LINE
  5
C5
330
BA
100
AcDbEntity
  8
Sichtbar schmal (ISO)
 62
    18
420
        0
370
     5
100
AcDbLine
 10
91.61494808107505
 20
171.6592689031782
 30
0.0
 11
91.61494808107505
 21
161.6532379778443
 31
0.0
  0
LINE
  5
C6
330
BA
100
AcDbEntity
  8
Sichtbar schmal (ISO)
 62
    18
420
        0
370
     5
100
AcDbLine
 10
88.86448079204312
 20
171.6592689031782
 30
0.0
 11
88.86448079204312
 21
161.6532379778443
 31
0.0
  0
LINE
  5
C7
330
BA
100
AcDbEntity
  8
Sichtbar schmal (ISO)
 62
    18
420
        0
370
     5
100
AcDbLine
 10
66.28772846123874
 20
161.6532379778443
 30
0.0
 11
69.03819575027066
 21
161.6532379778443
 31
0.0
  0
LINE
  5
C8
330
BA
100
AcDbEntity
  8
Sichtbar schmal (ISO)
 62
    18
420
        0
370
     5
100
AcDbLine
 10
69.03819575027066
 20
171.6592689031782
 30
0.0
 11
69.03819575027066
 21
161.6532379778443
 31
0.0
  0
LINE
  5
C9
330
BA
100
AcDbEntity
  8
Sichtbar schmal (ISO)
 62
    18
420
        0
370
     5
100
AcDbLine
 10
66.28772846123874
 20
171.6592689031782
 30
0.0
 11
66.28772846123874
 21
161.6532379778443
 31
0.0
  0
LINE
  5
CA
330
BA
100
AcDbEntity
  8
Sichtbar schmal (ISO)
 62
    18
420
        0
370
     5
100
AcDbLine
 10
111.4412331228478
 20
161.6532379778443
 30
0.0
 11
114.1917004118794
 21
161.6532379778443
 31
0.0
  0
LINE
  5
CB
330
BA
100
AcDbEntity
  8
Sichtbar schmal (ISO)
 62
    18
420
        0
370
     5
100
AcDbLine
 10
114.1917004118794
 20
171.6592689031782
 30
0.0
 11
114.1917004118794
 21
161.6532379778443
 31
0.0
  0
LINE
  5
CC
330
BA
100
AcDbEntity
  8
Sichtbar schmal (ISO)
 62
    18
420
        0
370
     5
100
AcDbLine
 10
111.4412331228478
 20
171.6592689031782
 30
0.0
 11
111.4412331228478
 21
161.6532379778443
 31
0.0
  0
LINE
  5
CD
330
BA
100
AcDbEntity
  8
Sichtbar schmal (ISO)
 62
    18
420
        0
370
     5
100
AcDbLine
 10
80.85284192568298
 20
169.8399905531172
 30
0.0
 11
80.85284192568298
 21
170.3857740581355
 31
0.0
  0
LINE
  5
CE
330
BA
100
AcDbEntity
  8
Sichtbar schmal (ISO)
 62
    18
420
        0
370
     5
100
AcDbLine
 10
80.956887336076
 20
169.8399905531172
 30
0.0
 11
80.956887336076
 21
169.9309544706203
 31
0.0
  0
LINE
  5
CF
330
BA
100
AcDbEntity
  8
Sichtbar schmal (ISO)
 62
    18
420
        0
370
     5
100
AcDbLine
 10
80.95688733607566
 20
169.9309544706203
 30
0.0
 11
81.29013835388775
 21
169.9309544706203
 31
0.0
  0
LINE
  5
D0
330
BA
100
AcDbEntity
  8
Sichtbar schmal (ISO)
 62
    18
420
        0
370
     5
100
AcDbLine
 10
81.29013835388839
 20
169.9309544706203
 30
0.0
 11
81.29013835388839
 21
170.3857740581355
 31
0.0
  0
LINE
  5
D1
330
BA
100
AcDbEntity
  8
Sichtbar schmal (ISO)
 62
    18
420
        0
370
     5
100
AcDbLine
 10
87.26004154010759
 20
170.3857740581355
 30
0.0
 11
86.1140135030112
 21
170.3857740581355
 31
0.0
  0
LINE
  5
D2
330
BA
100
AcDbEntity
  8
Sichtbar schmal (ISO)
 62
    18
420
        0
370
     5
100
AcDbLine
 10
85.19719107333356
 20
170.3857740581355
 30
0.0
 11
78.17433126200526
 21
170.3857740581355
 31
0.0
  0
LINE
  5
D3
330
BA
100
AcDbEntity
  8
Sichtbar schmal (ISO)
 62
    18
420
        0
370
     5
100
AcDbLine
 10
78.17433126200526
 20
170.3857740581355
 30
0.0
 11
77.83052285087631
 21
170.3857740581355
 31
0.0
  0
LINE
  5
D4
330
BA
100
AcDbEntity
  8
Sichtbar schmal (ISO)
 62
    18
420
        0
370
     5
100
AcDbLine
 10
88.47483125943005
 20
164.2002276679296
 30
0.0
 11
88.17686396978491
 21
164.2002276679296
 31
0.0
  0
LINE
  5
D5
330
BA
100
AcDbEntity
  8
Sichtbar schmal (ISO)
 62
    18
420
        0
370
     5
100
AcDbLine
 10
76.78534528104413
 20
170.3857740581355
 30
0.0
 11
76.78534528104413
 21
164.2002276679296
 31
0.0
  0
LINE
  5
D6
330
BA
100
AcDbEntity
  8
Sichtbar schmal (ISO)
 62
    18
420
        0
370
     5
100
AcDbLine
 10
77.40420042107629
 20
170.3857740581355
 30
0.0
 11
77.40420042107629
 21
164.2002276679296
 31
0.0
  0
LINE
  5
D7
330
BA
100
AcDbEntity
  8
Sichtbar schmal (ISO)
 62
    18
420
        0
370
     5
100
AcDbLine
 10
85.19719107333356
 20
164.2002276679296
 30
0.0
 11
77.40420042107629
 21
164.2002276679296
 31
0.0
  0
LINE
  5
D8
330
BA
100
AcDbEntity
  8
Sichtbar schmal (ISO)
 62
    18
420
        0
370
     5
100
AcDbLine
 10
82.3321209805921
 20
169.9309544706203
 30
0.0
 11
81.29013835388839
 21
169.9309544706203
 31
0.0
  0
LINE
  5
D9
330
BA
100
AcDbEntity
  8
Sichtbar schmal (ISO)
 62
    18
420
        0
370
     5
100
AcDbLine
 10
82.3321209805921
 20
169.7490266356139
 30
0.0
 11
82.3321209805921
 21
169.9309544706203
 31
0.0
  0
LINE
  5
DA
330
BA
100
AcDbEntity
  8
Sichtbar schmal (ISO)
 62
    18
420
        0
370
     5
100
AcDbLine
 10
84.85338266220463
 20
169.7490266356139
 30
0.0
 11
82.3321209805921
 21
169.7490266356139
 31
0.0
  0
SPLINE
  5
DB
330
BA
100
AcDbEntity
  8
Sichtbar schmal (ISO)
 62
    18
420
        0
370
     5
100
AcDbSpline
210
0.0
220
0.0
230
1.0
 70
     8
 71
     3
 72
     8
 73
     4
 74
     0
 42
0.0000000001
 43
0.0000000001
 40
0.0
 40
0.0
 40
0.0
 40
0.0
 40
1.0
 40
1.0
 40
1.0
 40
1.0
 10
85.08258826962403
 20
169.5670988006081
 30
0.0
 10
85.08258826962403
 20
169.6675747694518
 30
0.0
 10
84.97996942375824
 20
169.7490266356139
 30
0.0
 10
84.85338266220463
 20
169.7490266356139
 30
0.0
  0
LINE
  5
DC
330
BA
100
AcDbEntity
  8
Sichtbar schmal (ISO)
 62
    18
420
        0
370
     5
100
AcDbLine
 10
85.08258826962403
 20
169.4124601408528
 30
0.0
 11
85.08258826962403
 21
169.5670988006081
 31
0.0
  0
SPLINE
  5
DD
330
BA
100
AcDbEntity
  8
Sichtbar schmal (ISO)
 62
    18
420
        0
370
     5
100
AcDbSpline
210
0.0
220
0.0
230
1.0
 70
     8
 71
     3
 72
     8
 73
     4
 74
     0
 42
0.0000000001
 43
0.0000000001
 40
0.0
 40
0.0
 40
0.0
 40
0.0
 40
1.0
 40
1.0
 40
1.0
 40
1.0
 10
84.85338266220463
 20
169.2305323058467
 30
0.0
 10
84.97996942375824
 20
169.2305323058467
 30
0.0
 10
85.08258826962403
 20
169.3119841720097
 30
0.0
 10
85.08258826962403
 20
169.4124601408528
 30
0.0
  0
LINE
  5
DE
330
BA
100
AcDbEntity
  8
Sichtbar schmal (ISO)
 62
    18
420
        0
370
     5
100
AcDbLine
 10
82.34358126096291
 20
169.2305323058467
 30
0.0
 11
84.85338266220463
 21
169.2305323058467
 31
0.0
  0
LINE
  5
DF
330
BA
100
AcDbEntity
  8
Sichtbar schmal (ISO)
 62
    18
420
        0
370
     5
100
AcDbLine
 10
82.34358126096291
 20
169.4124601408528
 30
0.0
 11
82.34358126096291
 21
169.2305323058467
 31
0.0
  0
LINE
  5
E0
330
BA
100
AcDbEntity
  8
Sichtbar schmal (ISO)
 62
    18
420
        0
370
     5
100
AcDbLine
 10
80.94542705570519
 20
169.4124601408528
 30
0.0
 11
82.34358126096291
 21
169.4124601408528
 31
0.0
  0
LINE
  5
E1
330
BA
100
AcDbEntity
  8
Sichtbar schmal (ISO)
 62
    18
420
        0
370
     5
100
AcDbLine
 10
80.94542705570519
 20
169.2305323058467
 30
0.0
 11
80.94542705570519
 21
169.4124601408528
 31
0.0
  0
LINE
  5
E2
330
BA
100
AcDbEntity
  8
Sichtbar schmal (ISO)
 62
    18
420
        0
370
     5
100
AcDbLine
 10
78.43562565446347
 20
169.2305323058467
 30
0.0
 11
80.94542705570519
 21
169.2305323058467
 31
0.0
  0
SPLINE
  5
E3
330
BA
100
AcDbEntity
  8
Sichtbar schmal (ISO)
 62
    18
420
        0
370
     5
100
AcDbSpline
210
0.0
220
0.0
230
1.0
 70
     8
 71
     3
 72
     8
 73
     4
 74
     0
 42
0.0000000001
 43
0.0000000001
 40
0.0
 40
0.0
 40
0.0
 40
0.0
 40
1.0
 40
1.0
 40
1.0
 40
1.0
 10
78.20642004704406
 20
169.4124601408528
 30
0.0
 10
78.20642004704406
 20
169.3119841720097
 30
0.0
 10
78.30903889291018
 20
169.2305323058467
 30
0.0
 10
78.43562565446347
 20
169.2305323058467
 30
0.0
  0
LINE
  5
E4
330
BA
100
AcDbEntity
  8
Sichtbar schmal (ISO)
 62
    18
420
        0
370
     5
100
AcDbLine
 10
78.20642004704406
 20
169.5670988006081
 30
0.0
 11
78.20642004704406
 21
169.4124601408528
 31
0.0
  0
SPLINE
  5
E5
330
BA
100
AcDbEntity
  8
Sichtbar schmal (ISO)
 62
    18
420
        0
370
     5
100
AcDbSpline
210
0.0
220
0.0
230
1.0
 70
     8
 71
     3
 72
     8
 73
     4
 74
     0
 42
0.0000000001
 43
0.0000000001
 40
0.0
 40
0.0
 40
0.0
 40
0.0
 40
1.0
 40
1.0
 40
1.0
 40
1.0
 10
78.43562565446347
 20
169.7490266356139
 30
0.0
 10
78.30903889291018
 20
169.7490266356139
 30
0.0
 10
78.20642004704406
 20
169.6675747694518
 30
0.0
 10
78.20642004704406
 20
169.5670988006081
 30
0.0
  0
LINE
  5
E6
330
BA
100
AcDbEntity
  8
Sichtbar schmal (ISO)
 62
    18
420
        0
370
     5
100
AcDbLine
 10
80.956887336076
 20
169.7490266356139
 30
0.0
 11
78.43562565446347
 21
169.7490266356139
 31
0.0
  0
LINE
  5
E7
330
BA
100
AcDbEntity
  8
Sichtbar schmal (ISO)
 62
    18
420
        0
370
     5
100
AcDbLine
 10
80.956887336076
 20
169.8399905531172
 30
0.0
 11
80.956887336076
 21
169.7490266356139
 31
0.0
  0
LINE
  5
E8
330
BA
100
AcDbEntity
  8
Sichtbar schmal (ISO)
 62
    18
420
        0
370
     5
100
AcDbLine
 10
80.85284192568298
 20
169.8399905531172
 30
0.0
 11
80.956887336076
 21
169.8399905531172
 31
0.0
  0
LINE
  5
E9
330
BA
100
AcDbEntity
  8
Sichtbar schmal (ISO)
 62
    18
420
        0
370
     5
100
AcDbLine
 10
76.4554218367809
 20
171.5683049856748
 30
0.0
 11
76.4554218367809
 21
171.6592689031782
 31
0.0
  0
LINE
  5
EA
330
BA
100
AcDbEntity
  8
Sichtbar schmal (ISO)
 62
    18
420
        0
370
     5
100
AcDbLine
 10
76.4554218367809
 20
171.5683049856748
 30
0.0
 11
76.4554218367809
 21
164.2002276679296
 31
0.0
  0
LINE
  5
EB
330
BA
100
AcDbEntity
  8
Sichtbar schmal (ISO)
 62
    18
420
        0
370
     5
100
AcDbLine
 10
76.78534528104413
 20
164.2002276679296
 30
0.0
 11
76.4554218367809
 21
164.2002276679296
 31
0.0
  0
LINE
  5
EC
330
BA
100
AcDbEntity
  8
Sichtbar schmal (ISO)
 62
    18
420
        0
370
     5
100
AcDbLine
 10
82.34358126096291
 20
165.0461921007079
 30
0.0
 11
82.34358126096291
 21
164.8642642657018
 31
0.0
  0
LINE
  5
ED
330
BA
100
AcDbEntity
  8
Sichtbar schmal (ISO)
 62
    18
420
        0
370
     5
100
AcDbLine
 10
80.94542705570519
 20
165.0461921007079
 30
0.0
 11
82.34358126096291
 21
165.0461921007079
 31
0.0
  0
LINE
  5
EE
330
BA
100
AcDbEntity
  8
Sichtbar schmal (ISO)
 62
    18
420
        0
370
     5
100
AcDbLine
 10
80.94542705570519
 20
164.8642642657018
 30
0.0
 11
80.94542705570519
 21
165.0461921007079
 31
0.0
  0
LINE
  5
EF
330
BA
100
AcDbEntity
  8
Sichtbar schmal (ISO)
 62
    18
420
        0
370
     5
100
AcDbLine
 10
78.43562565446347
 20
164.8642642657018
 30
0.0
 11
80.94542705570519
 21
164.8642642657018
 31
0.0
  0
SPLINE
  5
F0
330
BA
100
AcDbEntity
  8
Sichtbar schmal (ISO)
 62
    18
420
        0
370
     5
100
AcDbSpline
210
0.0
220
0.0
230
1.0
 70
     8
 71
     3
 72
     8
 73
     4
 74
     0
 42
0.0000000001
 43
0.0000000001
 40
0.0
 40
0.0
 40
0.0
 40
0.0
 40
1.0
 40
1.0
 40
1.0
 40
1.0
 10
78.20642004704406
 20
165.0461921007079
 30
0.0
 10
78.20642004704406
 20
164.9457161318641
 30
0.0
 10
78.30903889291018
 20
164.8642642657018
 30
0.0
 10
78.43562565446347
 20
164.8642642657018
 30
0.0
  0
LINE
  5
F1
330
BA
100
AcDbEntity
  8
Sichtbar schmal (ISO)
 62
    18
420
        0
370
     5
100
AcDbLine
 10
78.20642004704406
 20
165.2008307604624
 30
0.0
 11
78.20642004704406
 21
165.0461921007079
 31
0.0
  0
SPLINE
  5
F2
330
BA
100
AcDbEntity
  8
Sichtbar schmal (ISO)
 62
    18
420
        0
370
     5
100
AcDbSpline
210
0.0
220
0.0
230
1.0
 70
     8
 71
     3
 72
     8
 73
     4
 74
     0
 42
0.0000000001
 43
0.0000000001
 40
0.0
 40
0.0
 40
0.0
 40
0.0
 40
1.0
 40
1.0
 40
1.0
 40
1.0
 10
78.43562565446347
 20
165.3827585954686
 30
0.0
 10
78.30903889291018
 20
165.3827585954686
 30
0.0
 10
78.20642004704406
 20
165.3013067293063
 30
0.0
 10
78.20642004704406
 20
165.2008307604624
 30
0.0
  0
LINE
  5
F3
330
BA
100
AcDbEntity
  8
Sichtbar schmal (ISO)
 62
    18
420
        0
370
     5
100
AcDbLine
 10
80.956887336076
 20
165.3827585954686
 30
0.0
 11
78.43562565446347
 21
165.3827585954686
 31
0.0
  0
LINE
  5
F4
330
BA
100
AcDbEntity
  8
Sichtbar schmal (ISO)
 62
    18
420
        0
370
     5
100
AcDbLine
 10
80.956887336076
 20
165.5646864304746
 30
0.0
 11
80.956887336076
 21
165.3827585954686
 31
0.0
  0
LINE
  5
F5
330
BA
100
AcDbEntity
  8
Sichtbar schmal (ISO)
 62
    18
420
        0
370
     5
100
AcDbLine
 10
82.3321209805921
 20
165.5646864304746
 30
0.0
 11
80.956887336076
 21
165.5646864304746
 31
0.0
  0
LINE
  5
F6
330
BA
100
AcDbEntity
  8
Sichtbar schmal (ISO)
 62
    18
420
        0
370
     5
100
AcDbLine
 10
82.3321209805921
 20
165.3827585954686
 30
0.0
 11
82.3321209805921
 21
165.5646864304746
 31
0.0
  0
LINE
  5
F7
330
BA
100
AcDbEntity
  8
Sichtbar schmal (ISO)
 62
    18
420
        0
370
     5
100
AcDbLine
 10
84.85338266220463
 20
165.3827585954686
 30
0.0
 11
82.3321209805921
 21
165.3827585954686
 31
0.0
  0
SPLINE
  5
F8
330
BA
100
AcDbEntity
  8
Sichtbar schmal (ISO)
 62
    18
420
        0
370
     5
100
AcDbSpline
210
0.0
220
0.0
230
1.0
 70
     8
 71
     3
 72
     8
 73
     4
 74
     0
 42
0.0000000001
 43
0.0000000001
 40
0.0
 40
0.0
 40
0.0
 40
0.0
 40
1.0
 40
1.0
 40
1.0
 40
1.0
 10
85.08258826962403
 20
165.2008307604624
 30
0.0
 10
85.08258826962403
 20
165.3013067293063
 30
0.0
 10
84.97996942375824
 20
165.3827585954686
 30
0.0
 10
84.85338266220463
 20
165.3827585954686
 30
0.0
  0
LINE
  5
F9
330
BA
100
AcDbEntity
  8
Sichtbar schmal (ISO)
 62
    18
420
        0
370
     5
100
AcDbLine
 10
85.08258826962403
 20
165.0461921007079
 30
0.0
 11
85.08258826962403
 21
165.2008307604624
 31
0.0
  0
SPLINE
  5
FA
330
BA
100
AcDbEntity
  8
Sichtbar schmal (ISO)
 62
    18
420
        0
370
     5
100
AcDbSpline
210
0.0
220
0.0
230
1.0
 70
     8
 71
     3
 72
     8
 73
     4
 74
     0
 42
0.0000000001
 43
0.0000000001
 40
0.0
 40
0.0
 40
0.0
 40
0.0
 40
1.0
 40
1.0
 40
1.0
 40
1.0
 10
84.85338266220463
 20
164.8642642657018
 30
0.0
 10
84.97996942375824
 20
164.8642642657018
 30
0.0
 10
85.08258826962403
 20
164.9457161318641
 30
0.0
 10
85.08258826962403
 20
165.0461921007079
 30
0.0
  0
LINE
  5
FB
330
BA
100
AcDbEntity
  8
Sichtbar schmal (ISO)
 62
    18
420
        0
370
     5
100
AcDbLine
 10
82.34358126096291
 20
164.8642642657018
 30
0.0
 11
84.85338266220463
 21
164.8642642657018
 31
0.0
  0
LINE
  5
FC
330
BA
100
AcDbEntity
  8
Sichtbar schmal (ISO)
 62
    18
420
        0
370
     5
100
AcDbLine
 10
82.34358126096291
 20
166.1377591107438
 30
0.0
 11
82.34358126096291
 21
165.9558312757374
 31
0.0
  0
LINE
  5
FD
330
BA
100
AcDbEntity
  8
Sichtbar schmal (ISO)
 62
    18
420
        0
370
     5
100
AcDbLine
 10
80.94542705570519
 20
166.1377591107438
 30
0.0
 11
82.34358126096291
 21
166.1377591107438
 31
0.0
  0
LINE
  5
FE
330
BA
100
AcDbEntity
  8
Sichtbar schmal (ISO)
 62
    18
420
        0
370
     5
100
AcDbLine
 10
80.94542705570519
 20
165.9558312757374
 30
0.0
 11
80.94542705570519
 21
166.1377591107438
 31
0.0
  0
LINE
  5
FF
330
BA
100
AcDbEntity
  8
Sichtbar schmal (ISO)
 62
    18
420
        0
370
     5
100
AcDbLine
 10
78.43562565446347
 20
165.9558312757374
 30
0.0
 11
80.94542705570519
 21
165.9558312757374
 31
0.0
  0
SPLINE
  5
100
330
BA
100
AcDbEntity
  8
Sichtbar schmal (ISO)
 62
    18
420
        0
370
     5
100
AcDbSpline
210
0.0
220
0.0
230
1.0
 70
     8
 71
     3
 72
     8
 73
     4
 74
     0
 42
0.0000000001
 43
0.0000000001
 40
0.0
 40
0.0
 40
0.0
 40
0.0
 40
1.0
 40
1.0
 40
1.0
 40
1.0
 10
78.20642004704406
 20
166.1377591107438
 30
0.0
 10
78.20642004704406
 20
166.0372831419006
 30
0.0
 10
78.30903889291018
 20
165.9558312757374
 30
0.0
 10
78.43562565446347
 20
165.9558312757374
 30
0.0
  0
LINE
  5
101
330
BA
100
AcDbEntity
  8
Sichtbar schmal (ISO)
 62
    18
420
        0
370
     5
100
AcDbLine
 10
78.20642004704406
 20
166.292397770499
 30
0.0
 11
78.20642004704406
 21
166.1377591107438
 31
0.0
  0
SPLINE
  5
102
330
BA
100
AcDbEntity
  8
Sichtbar schmal (ISO)
 62
    18
420
        0
370
     5
100
AcDbSpline
210
0.0
220
0.0
230
1.0
 70
     8
 71
     3
 72
     8
 73
     4
 74
     0
 42
0.0000000001
 43
0.0000000001
 40
0.0
 40
0.0
 40
0.0
 40
0.0
 40
1.0
 40
1.0
 40
1.0
 40
1.0
 10
78.43562565446347
 20
166.4743256055051
 30
0.0
 10
78.30903889291018
 20
166.4743256055051
 30
0.0
 10
78.20642004704406
 20
166.3928737393428
 30
0.0
 10
78.20642004704406
 20
166.292397770499
 30
0.0
  0
LINE
  5
103
330
BA
100
AcDbEntity
  8
Sichtbar schmal (ISO)
 62
    18
420
        0
370
     5
100
AcDbLine
 10
80.956887336076
 20
166.4743256055051
 30
0.0
 11
78.43562565446347
 21
166.4743256055051
 31
0.0
  0
LINE
  5
104
330
BA
100
AcDbEntity
  8
Sichtbar schmal (ISO)
 62
    18
420
        0
370
     5
100
AcDbLine
 10
80.956887336076
 20
166.6562534405112
 30
0.0
 11
80.956887336076
 21
166.4743256055051
 31
0.0
  0
LINE
  5
105
330
BA
100
AcDbEntity
  8
Sichtbar schmal (ISO)
 62
    18
420
        0
370
     5
100
AcDbLine
 10
82.3321209805921
 20
166.6562534405112
 30
0.0
 11
80.956887336076
 21
166.6562534405112
 31
0.0
  0
LINE
  5
106
330
BA
100
AcDbEntity
  8
Sichtbar schmal (ISO)
 62
    18
420
        0
370
     5
100
AcDbLine
 10
82.3321209805921
 20
166.4743256055051
 30
0.0
 11
82.3321209805921
 21
166.6562534405112
 31
0.0
  0
LINE
  5
107
330
BA
100
AcDbEntity
  8
Sichtbar schmal (ISO)
 62
    18
420
        0
370
     5
100
AcDbLine
 10
84.85338266220463
 20
166.4743256055051
 30
0.0
 11
82.3321209805921
 21
166.4743256055051
 31
0.0
  0
SPLINE
  5
108
330
BA
100
AcDbEntity
  8
Sichtbar schmal (ISO)
 62
    18
420
        0
370
     5
100
AcDbSpline
210
0.0
220
0.0
230
1.0
 70
     8
 71
     3
 72
     8
 73
     4
 74
     0
 42
0.0000000001
 43
0.0000000001
 40
0.0
 40
0.0
 40
0.0
 40
0.0
 40
1.0
 40
1.0
 40
1.0
 40
1.0
 10
85.08258826962403
 20
166.292397770499
 30
0.0
 10
85.08258826962403
 20
166.3928737393428
 30
0.0
 10
84.97996942375824
 20
166.4743256055051
 30
0.0
 10
84.85338266220463
 20
166.4743256055051
 30
0.0
  0
LINE
  5
109
330
BA
100
AcDbEntity
  8
Sichtbar schmal (ISO)
 62
    18
420
        0
370
     5
100
AcDbLine
 10
85.08258826962403
 20
166.1377591107438
 30
0.0
 11
85.08258826962403
 21
166.292397770499
 31
0.0
  0
SPLINE
  5
10A
330
BA
100
AcDbEntity
  8
Sichtbar schmal (ISO)
 62
    18
420
        0
370
     5
100
AcDbSpline
210
0.0
220
0.0
230
1.0
 70
     8
 71
     3
 72
     8
 73
     4
 74
     0
 42
0.0000000001
 43
0.0000000001
 40
0.0
 40
0.0
 40
0.0
 40
0.0
 40
1.0
 40
1.0
 40
1.0
 40
1.0
 10
84.85338266220463
 20
165.9558312757374
 30
0.0
 10
84.97996942375824
 20
165.9558312757374
 30
0.0
 10
85.08258826962403
 20
166.0372831419006
 30
0.0
 10
85.08258826962403
 20
166.1377591107438
 30
0.0
  0
LINE
  5
10B
330
BA
100
AcDbEntity
  8
Sichtbar schmal (ISO)
 62
    18
420
        0
370
     5
100
AcDbLine
 10
82.34358126096291
 20
165.9558312757374
 30
0.0
 11
84.85338266220463
 21
165.9558312757374
 31
0.0
  0
LINE
  5
10C
330
BA
100
AcDbEntity
  8
Sichtbar schmal (ISO)
 62
    18
420
        0
370
     5
100
AcDbLine
 10
82.34358126096291
 20
167.2293261207803
 30
0.0
 11
82.34358126096291
 21
167.0473982857739
 31
0.0
  0
LINE
  5
10D
330
BA
100
AcDbEntity
  8
Sichtbar schmal (ISO)
 62
    18
420
        0
370
     5
100
AcDbLine
 10
80.94542705570519
 20
167.2293261207803
 30
0.0
 11
82.34358126096291
 21
167.2293261207803
 31
0.0
  0
LINE
  5
10E
330
BA
100
AcDbEntity
  8
Sichtbar schmal (ISO)
 62
    18
420
        0
370
     5
100
AcDbLine
 10
80.94542705570519
 20
167.0473982857739
 30
0.0
 11
80.94542705570519
 21
167.2293261207803
 31
0.0
  0
LINE
  5
10F
330
BA
100
AcDbEntity
  8
Sichtbar schmal (ISO)
 62
    18
420
        0
370
     5
100
AcDbLine
 10
78.43562565446347
 20
167.0473982857739
 30
0.0
 11
80.94542705570519
 21
167.0473982857739
 31
0.0
  0
SPLINE
  5
110
330
BA
100
AcDbEntity
  8
Sichtbar schmal (ISO)
 62
    18
420
        0
370
     5
100
AcDbSpline
210
0.0
220
0.0
230
1.0
 70
     8
 71
     3
 72
     8
 73
     4
 74
     0
 42
0.0000000001
 43
0.0000000001
 40
0.0
 40
0.0
 40
0.0
 40
0.0
 40
1.0
 40
1.0
 40
1.0
 40
1.0
 10
78.20642004704406
 20
167.2293261207803
 30
0.0
 10
78.20642004704406
 20
167.1288501519365
 30
0.0
 10
78.30903889291018
 20
167.0473982857739
 30
0.0
 10
78.43562565446347
 20
167.0473982857739
 30
0.0
  0
LINE
  5
111
330
BA
100
AcDbEntity
  8
Sichtbar schmal (ISO)
 62
    18
420
        0
370
     5
100
AcDbLine
 10
78.20642004704406
 20
167.3839647805356
 30
0.0
 11
78.20642004704406
 21
167.2293261207803
 31
0.0
  0
SPLINE
  5
112
330
BA
100
AcDbEntity
  8
Sichtbar schmal (ISO)
 62
    18
420
        0
370
     5
100
AcDbSpline
210
0.0
220
0.0
230
1.0
 70
     8
 71
     3
 72
     8
 73
     4
 74
     0
 42
0.0000000001
 43
0.0000000001
 40
0.0
 40
0.0
 40
0.0
 40
0.0
 40
1.0
 40
1.0
 40
1.0
 40
1.0
 10
78.43562565446347
 20
167.5658926155417
 30
0.0
 10
78.30903889291018
 20
167.5658926155417
 30
0.0
 10
78.20642004704406
 20
167.4844407493794
 30
0.0
 10
78.20642004704406
 20
167.3839647805356
 30
0.0
  0
LINE
  5
113
330
BA
100
AcDbEntity
  8
Sichtbar schmal (ISO)
 62
    18
420
        0
370
     5
100
AcDbLine
 10
80.956887336076
 20
167.5658926155417
 30
0.0
 11
78.43562565446347
 21
167.5658926155417
 31
0.0
  0
LINE
  5
114
330
BA
100
AcDbEntity
  8
Sichtbar schmal (ISO)
 62
    18
420
        0
370
     5
100
AcDbLine
 10
80.956887336076
 20
167.7478204505478
 30
0.0
 11
80.956887336076
 21
167.5658926155417
 31
0.0
  0
LINE
  5
115
330
BA
100
AcDbEntity
  8
Sichtbar schmal (ISO)
 62
    18
420
        0
370
     5
100
AcDbLine
 10
82.3321209805921
 20
167.7478204505478
 30
0.0
 11
80.956887336076
 21
167.7478204505478
 31
0.0
  0
LINE
  5
116
330
BA
100
AcDbEntity
  8
Sichtbar schmal (ISO)
 62
    18
420
        0
370
     5
100
AcDbLine
 10
82.3321209805921
 20
167.5658926155417
 30
0.0
 11
82.3321209805921
 21
167.7478204505478
 31
0.0
  0
LINE
  5
117
330
BA
100
AcDbEntity
  8
Sichtbar schmal (ISO)
 62
    18
420
        0
370
     5
100
AcDbLine
 10
84.85338266220463
 20
167.5658926155417
 30
0.0
 11
82.3321209805921
 21
167.5658926155417
 31
0.0
  0
SPLINE
  5
118
330
BA
100
AcDbEntity
  8
Sichtbar schmal (ISO)
 62
    18
420
        0
370
     5
100
AcDbSpline
210
0.0
220
0.0
230
1.0
 70
     8
 71
     3
 72
     8
 73
     4
 74
     0
 42
0.0000000001
 43
0.0000000001
 40
0.0
 40
0.0
 40
0.0
 40
0.0
 40
1.0
 40
1.0
 40
1.0
 40
1.0
 10
85.08258826962403
 20
167.3839647805356
 30
0.0
 10
85.08258826962403
 20
167.4844407493794
 30
0.0
 10
84.97996942375824
 20
167.5658926155417
 30
0.0
 10
84.85338266220463
 20
167.5658926155417
 30
0.0
  0
LINE
  5
119
330
BA
100
AcDbEntity
  8
Sichtbar schmal (ISO)
 62
    18
420
        0
370
     5
100
AcDbLine
 10
85.08258826962403
 20
167.2293261207803
 30
0.0
 11
85.08258826962403
 21
167.3839647805356
 31
0.0
  0
SPLINE
  5
11A
330
BA
100
AcDbEntity
  8
Sichtbar schmal (ISO)
 62
    18
420
        0
370
     5
100
AcDbSpline
210
0.0
220
0.0
230
1.0
 70
     8
 71
     3
 72
     8
 73
     4
 74
     0
 42
0.0000000001
 43
0.0000000001
 40
0.0
 40
0.0
 40
0.0
 40
0.0
 40
1.0
 40
1.0
 40
1.0
 40
1.0
 10
84.85338266220463
 20
167.0473982857739
 30
0.0
 10
84.97996942375824
 20
167.0473982857739
 30
0.0
 10
85.08258826962403
 20
167.1288501519365
 30
0.0
 10
85.08258826962403
 20
167.2293261207803
 30
0.0
  0
LINE
  5
11B
330
BA
100
AcDbEntity
  8
Sichtbar schmal (ISO)
 62
    18
420
        0
370
     5
100
AcDbLine
 10
82.34358126096291
 20
167.0473982857739
 30
0.0
 11
84.85338266220463
 21
167.0473982857739
 31
0.0
  0
LINE
  5
11C
330
BA
100
AcDbEntity
  8
Sichtbar schmal (ISO)
 62
    18
420
        0
370
     5
100
AcDbLine
 10
82.34358126096291
 20
168.3208931308169
 30
0.0
 11
82.34358126096291
 21
168.1389652958105
 31
0.0
  0
LINE
  5
11D
330
BA
100
AcDbEntity
  8
Sichtbar schmal (ISO)
 62
    18
420
        0
370
     5
100
AcDbLine
 10
80.94542705570519
 20
168.3208931308169
 30
0.0
 11
82.34358126096291
 21
168.3208931308169
 31
0.0
  0
LINE
  5
11E
330
BA
100
AcDbEntity
  8
Sichtbar schmal (ISO)
 62
    18
420
        0
370
     5
100
AcDbLine
 10
80.94542705570519
 20
168.1389652958105
 30
0.0
 11
80.94542705570519
 21
168.3208931308169
 31
0.0
  0
LINE
  5
11F
330
BA
100
AcDbEntity
  8
Sichtbar schmal (ISO)
 62
    18
420
        0
370
     5
100
AcDbLine
 10
78.43562565446347
 20
168.1389652958105
 30
0.0
 11
80.94542705570519
 21
168.1389652958105
 31
0.0
  0
SPLINE
  5
120
330
BA
100
AcDbEntity
  8
Sichtbar schmal (ISO)
 62
    18
420
        0
370
     5
100
AcDbSpline
210
0.0
220
0.0
230
1.0
 70
     8
 71
     3
 72
     8
 73
     4
 74
     0
 42
0.0000000001
 43
0.0000000001
 40
0.0
 40
0.0
 40
0.0
 40
0.0
 40
1.0
 40
1.0
 40
1.0
 40
1.0
 10
78.20642004704406
 20
168.3208931308169
 30
0.0
 10
78.20642004704406
 20
168.2204171619731
 30
0.0
 10
78.30903889291018
 20
168.1389652958105
 30
0.0
 10
78.43562565446347
 20
168.1389652958105
 30
0.0
  0
LINE
  5
121
330
BA
100
AcDbEntity
  8
Sichtbar schmal (ISO)
 62
    18
420
        0
370
     5
100
AcDbLine
 10
78.20642004704406
 20
168.4755317905722
 30
0.0
 11
78.20642004704406
 21
168.3208931308169
 31
0.0
  0
SPLINE
  5
122
330
BA
100
AcDbEntity
  8
Sichtbar schmal (ISO)
 62
    18
420
        0
370
     5
100
AcDbSpline
210
0.0
220
0.0
230
1.0
 70
     8
 71
     3
 72
     8
 73
     4
 74
     0
 42
0.0000000001
 43
0.0000000001
 40
0.0
 40
0.0
 40
0.0
 40
0.0
 40
1.0
 40
1.0
 40
1.0
 40
1.0
 10
78.43562565446347
 20
168.6574596255782
 30
0.0
 10
78.30903889291018
 20
168.6574596255782
 30
0.0
 10
78.20642004704406
 20
168.5760077594153
 30
0.0
 10
78.20642004704406
 20
168.4755317905722
 30
0.0
  0
LINE
  5
123
330
BA
100
AcDbEntity
  8
Sichtbar schmal (ISO)
 62
    18
420
        0
370
     5
100
AcDbLine
 10
80.956887336076
 20
168.6574596255782
 30
0.0
 11
78.43562565446347
 21
168.6574596255782
 31
0.0
  0
LINE
  5
124
330
BA
100
AcDbEntity
  8
Sichtbar schmal (ISO)
 62
    18
420
        0
370
     5
100
AcDbLine
 10
80.956887336076
 20
168.8393874605843
 30
0.0
 11
80.956887336076
 21
168.6574596255782
 31
0.0
  0
LINE
  5
125
330
BA
100
AcDbEntity
  8
Sichtbar schmal (ISO)
 62
    18
420
        0
370
     5
100
AcDbLine
 10
82.3321209805921
 20
168.8393874605843
 30
0.0
 11
80.956887336076
 21
168.8393874605843
 31
0.0
  0
LINE
  5
126
330
BA
100
AcDbEntity
  8
Sichtbar schmal (ISO)
 62
    18
420
        0
370
     5
100
AcDbLine
 10
82.3321209805921
 20
168.6574596255782
 30
0.0
 11
82.3321209805921
 21
168.8393874605843
 31
0.0
  0
LINE
  5
127
330
BA
100
AcDbEntity
  8
Sichtbar schmal (ISO)
 62
    18
420
        0
370
     5
100
AcDbLine
 10
84.85338266220463
 20
168.6574596255782
 30
0.0
 11
82.3321209805921
 21
168.6574596255782
 31
0.0
  0
SPLINE
  5
128
330
BA
100
AcDbEntity
  8
Sichtbar schmal (ISO)
 62
    18
420
        0
370
     5
100
AcDbSpline
210
0.0
220
0.0
230
1.0
 70
     8
 71
     3
 72
     8
 73
     4
 74
     0
 42
0.0000000001
 43
0.0000000001
 40
0.0
 40
0.0
 40
0.0
 40
0.0
 40
1.0
 40
1.0
 40
1.0
 40
1.0
 10
85.08258826962403
 20
168.4755317905722
 30
0.0
 10
85.08258826962403
 20
168.5760077594153
 30
0.0
 10
84.97996942375824
 20
168.6574596255782
 30
0.0
 10
84.85338266220463
 20
168.6574596255782
 30
0.0
  0
LINE
  5
129
330
BA
100
AcDbEntity
  8
Sichtbar schmal (ISO)
 62
    18
420
        0
370
     5
100
AcDbLine
 10
85.08258826962403
 20
168.3208931308169
 30
0.0
 11
85.08258826962403
 21
168.4755317905722
 31
0.0
  0
SPLINE
  5
12A
330
BA
100
AcDbEntity
  8
Sichtbar schmal (ISO)
 62
    18
420
        0
370
     5
100
AcDbSpline
210
0.0
220
0.0
230
1.0
 70
     8
 71
     3
 72
     8
 73
     4
 74
     0
 42
0.0000000001
 43
0.0000000001
 40
0.0
 40
0.0
 40
0.0
 40
0.0
 40
1.0
 40
1.0
 40
1.0
 40
1.0
 10
84.85338266220463
 20
168.1389652958105
 30
0.0
 10
84.97996942375824
 20
168.1389652958105
 30
0.0
 10
85.08258826962403
 20
168.2204171619731
 30
0.0
 10
85.08258826962403
 20
168.3208931308169
 30
0.0
  0
LINE
  5
12B
330
BA
100
AcDbEntity
  8
Sichtbar schmal (ISO)
 62
    18
420
        0
370
     5
100
AcDbLine
 10
82.34358126096291
 20
168.1389652958105
 30
0.0
 11
84.85338266220463
 21
168.1389652958105
 31
0.0
  0
LINE
  5
12C
330
BA
100
AcDbEntity
  8
Sichtbar schmal (ISO)
 62
    18
420
        0
370
     5
100
AcDbLine
 10
87.26004154010759
 20
166.5289039560068
 30
0.0
 11
86.1140135030112
 21
166.5289039560068
 31
0.0
  0
LINE
  5
12D
330
BA
100
AcDbEntity
  8
Sichtbar schmal (ISO)
 62
    18
420
        0
370
     5
100
AcDbLine
 10
86.1140135030112
 20
165.073481275959
 30
0.0
 11
87.26004154010759
 21
165.073481275959
 31
0.0
  0
LINE
  5
12E
330
BA
100
AcDbEntity
  8
Sichtbar schmal (ISO)
 62
    18
420
        0
370
     5
100
AcDbLine
 10
87.26004154010759
 20
164.2002276679296
 30
0.0
 11
86.1140135030112
 21
164.2002276679296
 31
0.0
  0
LINE
  5
12F
330
BA
100
AcDbEntity
  8
Sichtbar schmal (ISO)
 62
    18
420
        0
370
     5
100
AcDbLine
 10
94.36541537010697
 20
165.073481275959
 30
0.0
 11
93.21938733301058
 21
165.073481275959
 31
0.0
  0
LINE
  5
130
330
BA
100
AcDbEntity
  8
Sichtbar schmal (ISO)
 62
    18
420
        0
370
     5
100
AcDbLine
 10
93.21938733301058
 20
164.2002276679296
 30
0.0
 11
94.36541537010697
 21
164.2002276679296
 31
0.0
  0
LINE
  5
131
330
BA
100
AcDbEntity
  8
Sichtbar schmal (ISO)
 62
    18
420
        0
370
     5
100
AcDbLine
 10
93.21938733301058
 20
166.5289039560068
 30
0.0
 11
94.36541537010697
 21
166.5289039560068
 31
0.0
  0
LINE
  5
132
330
BA
100
AcDbEntity
  8
Sichtbar schmal (ISO)
 62
    18
420
        0
370
     5
100
AcDbLine
 10
103.694083592074
 20
170.3857740581355
 30
0.0
 11
103.694083592074
 21
164.2002276679296
 31
0.0
  0
LINE
  5
133
330
BA
100
AcDbEntity
  8
Sichtbar schmal (ISO)
 62
    18
420
        0
370
     5
100
AcDbLine
 10
103.694083592074
 20
164.2002276679296
 30
0.0
 11
104.0240070363369
 21
164.2002276679296
 31
0.0
  0
LINE
  5
134
330
BA
100
AcDbEntity
  8
Sichtbar schmal (ISO)
 62
    18
420
        0
370
     5
100
AcDbLine
 10
104.0240070363369
 20
171.5683049856748
 30
0.0
 11
104.0240070363369
 21
164.2002276679296
 31
0.0
  0
LINE
  5
135
330
BA
100
AcDbEntity
  8
Sichtbar schmal (ISO)
 62
    18
420
        0
370
     5
100
AcDbLine
 10
104.0240070363369
 20
171.5683049856748
 30
0.0
 11
104.0240070363369
 21
171.6592689031782
 31
0.0
  0
LINE
  5
136
330
BA
100
AcDbEntity
  8
Sichtbar schmal (ISO)
 62
    18
420
        0
370
     5
100
AcDbLine
 10
99.62658694743488
 20
169.8399905531172
 30
0.0
 11
99.62658694743488
 21
170.3857740581355
 31
0.0
  0
LINE
  5
137
330
BA
100
AcDbEntity
  8
Sichtbar schmal (ISO)
 62
    18
420
        0
370
     5
100
AcDbLine
 10
99.62658694743488
 20
169.8399905531172
 30
0.0
 11
99.5225415370422
 21
169.8399905531172
 31
0.0
  0
LINE
  5
138
330
BA
100
AcDbEntity
  8
Sichtbar schmal (ISO)
 62
    18
420
        0
370
     5
100
AcDbLine
 10
99.5225415370422
 20
169.8399905531172
 30
0.0
 11
99.5225415370422
 21
169.7490266356139
 31
0.0
  0
LINE
  5
139
330
BA
100
AcDbEntity
  8
Sichtbar schmal (ISO)
 62
    18
420
        0
370
     5
100
AcDbLine
 10
99.5225415370422
 20
169.7490266356139
 30
0.0
 11
102.0438032186547
 21
169.7490266356139
 31
0.0
  0
SPLINE
  5
13A
330
BA
100
AcDbEntity
  8
Sichtbar schmal (ISO)
 62
    18
420
        0
370
     5
100
AcDbSpline
210
0.0
220
0.0
230
1.0
 70
     8
 71
     3
 72
     8
 73
     4
 74
     0
 42
0.0000000001
 43
0.0000000001
 40
0.0
 40
0.0
 40
0.0
 40
0.0
 40
1.0
 40
1.0
 40
1.0
 40
1.0
 10
102.2730088260741
 20
169.5670988006081
 30
0.0
 10
102.2730088260741
 20
169.6675747694518
 30
0.0
 10
102.1703899802083
 20
169.7490266356139
 30
0.0
 10
102.0438032186547
 20
169.7490266356139
 30
0.0
  0
LINE
  5
13B
330
BA
100
AcDbEntity
  8
Sichtbar schmal (ISO)
 62
    18
420
        0
370
     5
100
AcDbLine
 10
102.2730088260741
 20
169.5670988006081
 30
0.0
 11
102.2730088260741
 21
169.4124601408528
 31
0.0
  0
SPLINE
  5
13C
330
BA
100
AcDbEntity
  8
Sichtbar schmal (ISO)
 62
    18
420
        0
370
     5
100
AcDbSpline
210
0.0
220
0.0
230
1.0
 70
     8
 71
     3
 72
     8
 73
     4
 74
     0
 42
0.0000000001
 43
0.0000000001
 40
0.0
 40
0.0
 40
0.0
 40
0.0
 40
1.0
 40
1.0
 40
1.0
 40
1.0
 10
102.0438032186547
 20
169.2305323058467
 30
0.0
 10
102.1703899802083
 20
169.2305323058467
 30
0.0
 10
102.2730088260741
 20
169.3119841720097
 30
0.0
 10
102.2730088260741
 20
169.4124601408528
 30
0.0
  0
LINE
  5
13D
330
BA
100
AcDbEntity
  8
Sichtbar schmal (ISO)
 62
    18
420
        0
370
     5
100
AcDbLine
 10
102.0438032186547
 20
169.2305323058467
 30
0.0
 11
99.53400181741299
 21
169.2305323058467
 31
0.0
  0
LINE
  5
13E
330
BA
100
AcDbEntity
  8
Sichtbar schmal (ISO)
 62
    18
420
        0
370
     5
100
AcDbLine
 10
99.53400181741299
 20
169.2305323058467
 30
0.0
 11
99.53400181741299
 21
169.4124601408528
 31
0.0
  0
LINE
  5
13F
330
BA
100
AcDbEntity
  8
Sichtbar schmal (ISO)
 62
    18
420
        0
370
     5
100
AcDbLine
 10
99.53400181741299
 20
169.4124601408528
 30
0.0
 11
98.13584761215496
 21
169.4124601408528
 31
0.0
  0
LINE
  5
140
330
BA
100
AcDbEntity
  8
Sichtbar schmal (ISO)
 62
    18
420
        0
370
     5
100
AcDbLine
 10
98.13584761215496
 20
169.4124601408528
 30
0.0
 11
98.13584761215496
 21
169.2305323058467
 31
0.0
  0
LINE
  5
141
330
BA
100
AcDbEntity
  8
Sichtbar schmal (ISO)
 62
    18
420
        0
370
     5
100
AcDbLine
 10
98.13584761215496
 20
169.2305323058467
 30
0.0
 11
95.62604621091356
 21
169.2305323058467
 31
0.0
  0
SPLINE
  5
142
330
BA
100
AcDbEntity
  8
Sichtbar schmal (ISO)
 62
    18
420
        0
370
     5
100
AcDbSpline
210
0.0
220
0.0
230
1.0
 70
     8
 71
     3
 72
     8
 73
     4
 74
     0
 42
0.0000000001
 43
0.0000000001
 40
0.0
 40
0.0
 40
0.0
 40
0.0
 40
1.0
 40
1.0
 40
1.0
 40
1.0
 10
95.39684060349415
 20
169.4124601408528
 30
0.0
 10
95.39684060349415
 20
169.3119841720097
 30
0.0
 10
95.49945944935995
 20
169.2305323058467
 30
0.0
 10
95.62604621091356
 20
169.2305323058467
 30
0.0
  0
LINE
  5
143
330
BA
100
AcDbEntity
  8
Sichtbar schmal (ISO)
 62
    18
420
        0
370
     5
100
AcDbLine
 10
95.39684060349415
 20
169.4124601408528
 30
0.0
 11
95.39684060349415
 21
169.5670988006081
 31
0.0
  0
SPLINE
  5
144
330
BA
100
AcDbEntity
  8
Sichtbar schmal (ISO)
 62
    18
420
        0
370
     5
100
AcDbSpline
210
0.0
220
0.0
230
1.0
 70
     8
 71
     3
 72
     8
 73
     4
 74
     0
 42
0.0000000001
 43
0.0000000001
 40
0.0
 40
0.0
 40
0.0
 40
0.0
 40
1.0
 40
1.0
 40
1.0
 40
1.0
 10
95.62604621091356
 20
169.7490266356139
 30
0.0
 10
95.49945944935995
 20
169.7490266356139
 30
0.0
 10
95.39684060349415
 20
169.6675747694518
 30
0.0
 10
95.39684060349415
 20
169.5670988006081
 30
0.0
  0
LINE
  5
145
330
BA
100
AcDbEntity
  8
Sichtbar schmal (ISO)
 62
    18
420
        0
370
     5
100
AcDbLine
 10
95.62604621091356
 20
169.7490266356139
 30
0.0
 11
98.14730789252607
 21
169.7490266356139
 31
0.0
  0
LINE
  5
146
330
BA
100
AcDbEntity
  8
Sichtbar schmal (ISO)
 62
    18
420
        0
370
     5
100
AcDbLine
 10
98.14730789252607
 20
169.7490266356139
 30
0.0
 11
98.14730789252607
 21
169.9309544706203
 31
0.0
  0
LINE
  5
147
330
BA
100
AcDbEntity
  8
Sichtbar schmal (ISO)
 62
    18
420
        0
370
     5
100
AcDbLine
 10
98.14730789252607
 20
169.9309544706203
 30
0.0
 11
99.1892905192298
 21
169.9309544706203
 31
0.0
  0
LINE
  5
148
330
BA
100
AcDbEntity
  8
Sichtbar schmal (ISO)
 62
    18
420
        0
370
     5
100
AcDbLine
 10
99.1892905192298
 20
169.9309544706203
 30
0.0
 11
99.1892905192298
 21
170.3857740581355
 31
0.0
  0
LINE
  5
149
330
BA
100
AcDbEntity
  8
Sichtbar schmal (ISO)
 62
    18
420
        0
370
     5
100
AcDbLine
 10
95.28223779978429
 20
164.2002276679296
 30
0.0
 11
103.0752284520419
 21
164.2002276679296
 31
0.0
  0
LINE
  5
14A
330
BA
100
AcDbEntity
  8
Sichtbar schmal (ISO)
 62
    18
420
        0
370
     5
100
AcDbLine
 10
103.0752284520419
 20
170.3857740581355
 30
0.0
 11
103.0752284520419
 21
164.2002276679296
 31
0.0
  0
LINE
  5
14B
330
BA
100
AcDbEntity
  8
Sichtbar schmal (ISO)
 62
    18
420
        0
370
     5
100
AcDbLine
 10
98.13584761215496
 20
168.3208931308169
 30
0.0
 11
98.13584761215496
 21
168.1389652958105
 31
0.0
  0
LINE
  5
14C
330
BA
100
AcDbEntity
  8
Sichtbar schmal (ISO)
 62
    18
420
        0
370
     5
100
AcDbLine
 10
98.13584761215496
 20
168.1389652958105
 30
0.0
 11
95.62604621091356
 21
168.1389652958105
 31
0.0
  0
SPLINE
  5
14D
330
BA
100
AcDbEntity
  8
Sichtbar schmal (ISO)
 62
    18
420
        0
370
     5
100
AcDbSpline
210
0.0
220
0.0
230
1.0
 70
     8
 71
     3
 72
     8
 73
     4
 74
     0
 42
0.0000000001
 43
0.0000000001
 40
0.0
 40
0.0
 40
0.0
 40
0.0
 40
1.0
 40
1.0
 40
1.0
 40
1.0
 10
95.39684060349415
 20
168.3208931308169
 30
0.0
 10
95.39684060349415
 20
168.2204171619731
 30
0.0
 10
95.49945944935995
 20
168.1389652958105
 30
0.0
 10
95.62604621091356
 20
168.1389652958105
 30
0.0
  0
LINE
  5
14E
330
BA
100
AcDbEntity
  8
Sichtbar schmal (ISO)
 62
    18
420
        0
370
     5
100
AcDbLine
 10
95.39684060349415
 20
168.3208931308169
 30
0.0
 11
95.39684060349415
 21
168.4755317905722
 31
0.0
  0
SPLINE
  5
14F
330
BA
100
AcDbEntity
  8
Sichtbar schmal (ISO)
 62
    18
420
        0
370
     5
100
AcDbSpline
210
0.0
220
0.0
230
1.0
 70
     8
 71
     3
 72
     8
 73
     4
 74
     0
 42
0.0000000001
 43
0.0000000001
 40
0.0
 40
0.0
 40
0.0
 40
0.0
 40
1.0
 40
1.0
 40
1.0
 40
1.0
 10
95.62604621091356
 20
168.6574596255782
 30
0.0
 10
95.49945944935995
 20
168.6574596255782
 30
0.0
 10
95.39684060349415
 20
168.5760077594153
 30
0.0
 10
95.39684060349415
 20
168.4755317905722
 30
0.0
  0
LINE
  5
150
330
BA
100
AcDbEntity
  8
Sichtbar schmal (ISO)
 62
    18
420
        0
370
     5
100
AcDbLine
 10
95.62604621091356
 20
168.6574596255782
 30
0.0
 11
98.14730789252607
 21
168.6574596255782
 31
0.0
  0
LINE
  5
151
330
BA
100
AcDbEntity
  8
Sichtbar schmal (ISO)
 62
    18
420
        0
370
     5
100
AcDbLine
 10
98.14730789252607
 20
168.6574596255782
 30
0.0
 11
98.14730789252607
 21
168.8393874605837
 31
0.0
  0
LINE
  5
152
330
BA
100
AcDbEntity
  8
Sichtbar schmal (ISO)
 62
    18
420
        0
370
     5
100
AcDbLine
 10
98.14730789252607
 20
168.8393874605837
 30
0.0
 11
99.5225415370422
 21
168.8393874605837
 31
0.0
  0
LINE
  5
153
330
BA
100
AcDbEntity
  8
Sichtbar schmal (ISO)
 62
    18
420
        0
370
     5
100
AcDbLine
 10
99.5225415370422
 20
168.8393874605837
 30
0.0
 11
99.5225415370422
 21
168.6574596255782
 31
0.0
  0
LINE
  5
154
330
BA
100
AcDbEntity
  8
Sichtbar schmal (ISO)
 62
    18
420
        0
370
     5
100
AcDbLine
 10
99.5225415370422
 20
168.6574596255782
 30
0.0
 11
102.0438032186547
 21
168.6574596255782
 31
0.0
  0
SPLINE
  5
155
330
BA
100
AcDbEntity
  8
Sichtbar schmal (ISO)
 62
    18
420
        0
370
     5
100
AcDbSpline
210
0.0
220
0.0
230
1.0
 70
     8
 71
     3
 72
     8
 73
     4
 74
     0
 42
0.0000000001
 43
0.0000000001
 40
0.0
 40
0.0
 40
0.0
 40
0.0
 40
1.0
 40
1.0
 40
1.0
 40
1.0
 10
102.2730088260741
 20
168.4755317905722
 30
0.0
 10
102.2730088260741
 20
168.5760077594153
 30
0.0
 10
102.1703899802083
 20
168.6574596255782
 30
0.0
 10
102.0438032186547
 20
168.6574596255782
 30
0.0
  0
LINE
  5
156
330
BA
100
AcDbEntity
  8
Sichtbar schmal (ISO)
 62
    18
420
        0
370
     5
100
AcDbLine
 10
102.2730088260741
 20
168.4755317905722
 30
0.0
 11
102.2730088260741
 21
168.3208931308169
 31
0.0
  0
SPLINE
  5
157
330
BA
100
AcDbEntity
  8
Sichtbar schmal (ISO)
 62
    18
420
        0
370
     5
100
AcDbSpline
210
0.0
220
0.0
230
1.0
 70
     8
 71
     3
 72
     8
 73
     4
 74
     0
 42
0.0000000001
 43
0.0000000001
 40
0.0
 40
0.0
 40
0.0
 40
0.0
 40
1.0
 40
1.0
 40
1.0
 40
1.0
 10
102.0438032186547
 20
168.1389652958105
 30
0.0
 10
102.1703899802083
 20
168.1389652958105
 30
0.0
 10
102.2730088260741
 20
168.2204171619731
 30
0.0
 10
102.2730088260741
 20
168.3208931308169
 30
0.0
  0
LINE
  5
158
330
BA
100
AcDbEntity
  8
Sichtbar schmal (ISO)
 62
    18
420
        0
370
     5
100
AcDbLine
 10
102.0438032186547
 20
168.1389652958105
 30
0.0
 11
99.53400181741299
 21
168.1389652958105
 31
0.0
  0
LINE
  5
159
330
BA
100
AcDbEntity
  8
Sichtbar schmal (ISO)
 62
    18
420
        0
370
     5
100
AcDbLine
 10
99.53400181741299
 20
168.1389652958105
 30
0.0
 11
99.53400181741299
 21
168.3208931308169
 31
0.0
  0
LINE
  5
15A
330
BA
100
AcDbEntity
  8
Sichtbar schmal (ISO)
 62
    18
420
        0
370
     5
100
AcDbLine
 10
99.53400181741299
 20
168.3208931308169
 30
0.0
 11
98.13584761215496
 21
168.3208931308169
 31
0.0
  0
LINE
  5
15B
330
BA
100
AcDbEntity
  8
Sichtbar schmal (ISO)
 62
    18
420
        0
370
     5
100
AcDbLine
 10
98.13584761215496
 20
167.2293261207803
 30
0.0
 11
98.13584761215496
 21
167.0473982857739
 31
0.0
  0
LINE
  5
15C
330
BA
100
AcDbEntity
  8
Sichtbar schmal (ISO)
 62
    18
420
        0
370
     5
100
AcDbLine
 10
98.13584761215496
 20
167.0473982857739
 30
0.0
 11
95.62604621091356
 21
167.0473982857739
 31
0.0
  0
SPLINE
  5
15D
330
BA
100
AcDbEntity
  8
Sichtbar schmal (ISO)
 62
    18
420
        0
370
     5
100
AcDbSpline
210
0.0
220
0.0
230
1.0
 70
     8
 71
     3
 72
     8
 73
     4
 74
     0
 42
0.0000000001
 43
0.0000000001
 40
0.0
 40
0.0
 40
0.0
 40
0.0
 40
1.0
 40
1.0
 40
1.0
 40
1.0
 10
95.39684060349415
 20
167.2293261207803
 30
0.0
 10
95.39684060349415
 20
167.1288501519365
 30
0.0
 10
95.49945944935995
 20
167.0473982857739
 30
0.0
 10
95.62604621091356
 20
167.0473982857739
 30
0.0
  0
LINE
  5
15E
330
BA
100
AcDbEntity
  8
Sichtbar schmal (ISO)
 62
    18
420
        0
370
     5
100
AcDbLine
 10
95.39684060349415
 20
167.2293261207803
 30
0.0
 11
95.39684060349415
 21
167.3839647805356
 31
0.0
  0
SPLINE
  5
15F
330
BA
100
AcDbEntity
  8
Sichtbar schmal (ISO)
 62
    18
420
        0
370
     5
100
AcDbSpline
210
0.0
220
0.0
230
1.0
 70
     8
 71
     3
 72
     8
 73
     4
 74
     0
 42
0.0000000001
 43
0.0000000001
 40
0.0
 40
0.0
 40
0.0
 40
0.0
 40
1.0
 40
1.0
 40
1.0
 40
1.0
 10
95.62604621091356
 20
167.5658926155417
 30
0.0
 10
95.49945944935995
 20
167.5658926155417
 30
0.0
 10
95.39684060349415
 20
167.4844407493794
 30
0.0
 10
95.39684060349415
 20
167.3839647805356
 30
0.0
  0
LINE
  5
160
330
BA
100
AcDbEntity
  8
Sichtbar schmal (ISO)
 62
    18
420
        0
370
     5
100
AcDbLine
 10
95.62604621091356
 20
167.5658926155417
 30
0.0
 11
98.14730789252607
 21
167.5658926155417
 31
0.0
  0
LINE
  5
161
330
BA
100
AcDbEntity
  8
Sichtbar schmal (ISO)
 62
    18
420
        0
370
     5
100
AcDbLine
 10
98.14730789252607
 20
167.5658926155417
 30
0.0
 11
98.14730789252607
 21
167.7478204505478
 31
0.0
  0
LINE
  5
162
330
BA
100
AcDbEntity
  8
Sichtbar schmal (ISO)
 62
    18
420
        0
370
     5
100
AcDbLine
 10
98.14730789252607
 20
167.7478204505478
 30
0.0
 11
99.5225415370422
 21
167.7478204505478
 31
0.0
  0
LINE
  5
163
330
BA
100
AcDbEntity
  8
Sichtbar schmal (ISO)
 62
    18
420
        0
370
     5
100
AcDbLine
 10
99.5225415370422
 20
167.7478204505478
 30
0.0
 11
99.5225415370422
 21
167.5658926155417
 31
0.0
  0
LINE
  5
164
330
BA
100
AcDbEntity
  8
Sichtbar schmal (ISO)
 62
    18
420
        0
370
     5
100
AcDbLine
 10
99.5225415370422
 20
167.5658926155417
 30
0.0
 11
102.0438032186547
 21
167.5658926155417
 31
0.0
  0
SPLINE
  5
165
330
BA
100
AcDbEntity
  8
Sichtbar schmal (ISO)
 62
    18
420
        0
370
     5
100
AcDbSpline
210
0.0
220
0.0
230
1.0
 70
     8
 71
     3
 72
     8
 73
     4
 74
     0
 42
0.0000000001
 43
0.0000000001
 40
0.0
 40
0.0
 40
0.0
 40
0.0
 40
1.0
 40
1.0
 40
1.0
 40
1.0
 10
102.2730088260741
 20
167.3839647805356
 30
0.0
 10
102.2730088260741
 20
167.4844407493794
 30
0.0
 10
102.1703899802083
 20
167.5658926155417
 30
0.0
 10
102.0438032186547
 20
167.5658926155417
 30
0.0
  0
LINE
  5
166
330
BA
100
AcDbEntity
  8
Sichtbar schmal (ISO)
 62
    18
420
        0
370
     5
100
AcDbLine
 10
102.2730088260741
 20
167.3839647805356
 30
0.0
 11
102.2730088260741
 21
167.2293261207803
 31
0.0
  0
SPLINE
  5
167
330
BA
100
AcDbEntity
  8
Sichtbar schmal (ISO)
 62
    18
420
        0
370
     5
100
AcDbSpline
210
0.0
220
0.0
230
1.0
 70
     8
 71
     3
 72
     8
 73
     4
 74
     0
 42
0.0000000001
 43
0.0000000001
 40
0.0
 40
0.0
 40
0.0
 40
0.0
 40
1.0
 40
1.0
 40
1.0
 40
1.0
 10
102.0438032186547
 20
167.0473982857739
 30
0.0
 10
102.1703899802083
 20
167.0473982857739
 30
0.0
 10
102.2730088260741
 20
167.1288501519365
 30
0.0
 10
102.2730088260741
 20
167.2293261207803
 30
0.0
  0
LINE
  5
168
330
BA
100
AcDbEntity
  8
Sichtbar schmal (ISO)
 62
    18
420
        0
370
     5
100
AcDbLine
 10
102.0438032186547
 20
167.0473982857739
 30
0.0
 11
99.53400181741299
 21
167.0473982857739
 31
0.0
  0
LINE
  5
169
330
BA
100
AcDbEntity
  8
Sichtbar schmal (ISO)
 62
    18
420
        0
370
     5
100
AcDbLine
 10
99.53400181741299
 20
167.0473982857739
 30
0.0
 11
99.53400181741299
 21
167.2293261207803
 31
0.0
  0
LINE
  5
16A
330
BA
100
AcDbEntity
  8
Sichtbar schmal (ISO)
 62
    18
420
        0
370
     5
100
AcDbLine
 10
99.53400181741299
 20
167.2293261207803
 30
0.0
 11
98.13584761215496
 21
167.2293261207803
 31
0.0
  0
LINE
  5
16B
330
BA
100
AcDbEntity
  8
Sichtbar schmal (ISO)
 62
    18
420
        0
370
     5
100
AcDbLine
 10
98.13584761215496
 20
166.1377591107438
 30
0.0
 11
98.13584761215496
 21
165.9558312757374
 31
0.0
  0
LINE
  5
16C
330
BA
100
AcDbEntity
  8
Sichtbar schmal (ISO)
 62
    18
420
        0
370
     5
100
AcDbLine
 10
98.13584761215496
 20
165.9558312757374
 30
0.0
 11
95.62604621091356
 21
165.9558312757374
 31
0.0
  0
SPLINE
  5
16D
330
BA
100
AcDbEntity
  8
Sichtbar schmal (ISO)
 62
    18
420
        0
370
     5
100
AcDbSpline
210
0.0
220
0.0
230
1.0
 70
     8
 71
     3
 72
     8
 73
     4
 74
     0
 42
0.0000000001
 43
0.0000000001
 40
0.0
 40
0.0
 40
0.0
 40
0.0
 40
1.0
 40
1.0
 40
1.0
 40
1.0
 10
95.39684060349415
 20
166.1377591107438
 30
0.0
 10
95.39684060349415
 20
166.0372831419006
 30
0.0
 10
95.49945944935995
 20
165.9558312757374
 30
0.0
 10
95.62604621091356
 20
165.9558312757374
 30
0.0
  0
LINE
  5
16E
330
BA
100
AcDbEntity
  8
Sichtbar schmal (ISO)
 62
    18
420
        0
370
     5
100
AcDbLine
 10
95.39684060349415
 20
166.1377591107438
 30
0.0
 11
95.39684060349415
 21
166.292397770499
 31
0.0
  0
SPLINE
  5
16F
330
BA
100
AcDbEntity
  8
Sichtbar schmal (ISO)
 62
    18
420
        0
370
     5
100
AcDbSpline
210
0.0
220
0.0
230
1.0
 70
     8
 71
     3
 72
     8
 73
     4
 74
     0
 42
0.0000000001
 43
0.0000000001
 40
0.0
 40
0.0
 40
0.0
 40
0.0
 40
1.0
 40
1.0
 40
1.0
 40
1.0
 10
95.62604621091356
 20
166.4743256055051
 30
0.0
 10
95.49945944935995
 20
166.4743256055051
 30
0.0
 10
95.39684060349415
 20
166.3928737393428
 30
0.0
 10
95.39684060349415
 20
166.292397770499
 30
0.0
  0
LINE
  5
170
330
BA
100
AcDbEntity
  8
Sichtbar schmal (ISO)
 62
    18
420
        0
370
     5
100
AcDbLine
 10
95.62604621091356
 20
166.4743256055051
 30
0.0
 11
98.14730789252607
 21
166.4743256055051
 31
0.0
  0
LINE
  5
171
330
BA
100
AcDbEntity
  8
Sichtbar schmal (ISO)
 62
    18
420
        0
370
     5
100
AcDbLine
 10
98.14730789252607
 20
166.4743256055051
 30
0.0
 11
98.14730789252607
 21
166.6562534405112
 31
0.0
  0
LINE
  5
172
330
BA
100
AcDbEntity
  8
Sichtbar schmal (ISO)
 62
    18
420
        0
370
     5
100
AcDbLine
 10
98.14730789252607
 20
166.6562534405112
 30
0.0
 11
99.5225415370422
 21
166.6562534405112
 31
0.0
  0
LINE
  5
173
330
BA
100
AcDbEntity
  8
Sichtbar schmal (ISO)
 62
    18
420
        0
370
     5
100
AcDbLine
 10
99.5225415370422
 20
166.6562534405112
 30
0.0
 11
99.5225415370422
 21
166.4743256055051
 31
0.0
  0
LINE
  5
174
330
BA
100
AcDbEntity
  8
Sichtbar schmal (ISO)
 62
    18
420
        0
370
     5
100
AcDbLine
 10
99.5225415370422
 20
166.4743256055051
 30
0.0
 11
102.0438032186547
 21
166.4743256055051
 31
0.0
  0
SPLINE
  5
175
330
BA
100
AcDbEntity
  8
Sichtbar schmal (ISO)
 62
    18
420
        0
370
     5
100
AcDbSpline
210
0.0
220
0.0
230
1.0
 70
     8
 71
     3
 72
     8
 73
     4
 74
     0
 42
0.0000000001
 43
0.0000000001
 40
0.0
 40
0.0
 40
0.0
 40
0.0
 40
1.0
 40
1.0
 40
1.0
 40
1.0
 10
102.2730088260741
 20
166.292397770499
 30
0.0
 10
102.2730088260741
 20
166.3928737393428
 30
0.0
 10
102.1703899802083
 20
166.4743256055051
 30
0.0
 10
102.0438032186547
 20
166.4743256055051
 30
0.0
  0
LINE
  5
176
330
BA
100
AcDbEntity
  8
Sichtbar schmal (ISO)
 62
    18
420
        0
370
     5
100
AcDbLine
 10
102.2730088260741
 20
166.292397770499
 30
0.0
 11
102.2730088260741
 21
166.1377591107438
 31
0.0
  0
SPLINE
  5
177
330
BA
100
AcDbEntity
  8
Sichtbar schmal (ISO)
 62
    18
420
        0
370
     5
100
AcDbSpline
210
0.0
220
0.0
230
1.0
 70
     8
 71
     3
 72
     8
 73
     4
 74
     0
 42
0.0000000001
 43
0.0000000001
 40
0.0
 40
0.0
 40
0.0
 40
0.0
 40
1.0
 40
1.0
 40
1.0
 40
1.0
 10
102.0438032186547
 20
165.9558312757374
 30
0.0
 10
102.1703899802083
 20
165.9558312757374
 30
0.0
 10
102.2730088260741
 20
166.0372831419006
 30
0.0
 10
102.2730088260741
 20
166.1377591107438
 30
0.0
  0
LINE
  5
178
330
BA
100
AcDbEntity
  8
Sichtbar schmal (ISO)
 62
    18
420
        0
370
     5
100
AcDbLine
 10
102.0438032186547
 20
165.9558312757374
 30
0.0
 11
99.53400181741299
 21
165.9558312757374
 31
0.0
  0
LINE
  5
179
330
BA
100
AcDbEntity
  8
Sichtbar schmal (ISO)
 62
    18
420
        0
370
     5
100
AcDbLine
 10
99.53400181741299
 20
165.9558312757374
 30
0.0
 11
99.53400181741299
 21
166.1377591107438
 31
0.0
  0
LINE
  5
17A
330
BA
100
AcDbEntity
  8
Sichtbar schmal (ISO)
 62
    18
420
        0
370
     5
100
AcDbLine
 10
99.53400181741299
 20
166.1377591107438
 30
0.0
 11
98.13584761215496
 21
166.1377591107438
 31
0.0
  0
LINE
  5
17B
330
BA
100
AcDbEntity
  8
Sichtbar schmal (ISO)
 62
    18
420
        0
370
     5
100
AcDbLine
 10
98.13584761215496
 20
165.0461921007079
 30
0.0
 11
98.13584761215496
 21
164.8642642657018
 31
0.0
  0
LINE
  5
17C
330
BA
100
AcDbEntity
  8
Sichtbar schmal (ISO)
 62
    18
420
        0
370
     5
100
AcDbLine
 10
98.13584761215496
 20
164.8642642657018
 30
0.0
 11
95.62604621091356
 21
164.8642642657018
 31
0.0
  0
SPLINE
  5
17D
330
BA
100
AcDbEntity
  8
Sichtbar schmal (ISO)
 62
    18
420
        0
370
     5
100
AcDbSpline
210
0.0
220
0.0
230
1.0
 70
     8
 71
     3
 72
     8
 73
     4
 74
     0
 42
0.0000000001
 43
0.0000000001
 40
0.0
 40
0.0
 40
0.0
 40
0.0
 40
1.0
 40
1.0
 40
1.0
 40
1.0
 10
95.39684060349415
 20
165.0461921007079
 30
0.0
 10
95.39684060349415
 20
164.9457161318641
 30
0.0
 10
95.49945944935995
 20
164.8642642657018
 30
0.0
 10
95.62604621091356
 20
164.8642642657018
 30
0.0
  0
LINE
  5
17E
330
BA
100
AcDbEntity
  8
Sichtbar schmal (ISO)
 62
    18
420
        0
370
     5
100
AcDbLine
 10
95.39684060349415
 20
165.0461921007079
 30
0.0
 11
95.39684060349415
 21
165.2008307604624
 31
0.0
  0
SPLINE
  5
17F
330
BA
100
AcDbEntity
  8
Sichtbar schmal (ISO)
 62
    18
420
        0
370
     5
100
AcDbSpline
210
0.0
220
0.0
230
1.0
 70
     8
 71
     3
 72
     8
 73
     4
 74
     0
 42
0.0000000001
 43
0.0000000001
 40
0.0
 40
0.0
 40
0.0
 40
0.0
 40
1.0
 40
1.0
 40
1.0
 40
1.0
 10
95.62604621091356
 20
165.3827585954686
 30
0.0
 10
95.49945944935995
 20
165.3827585954686
 30
0.0
 10
95.39684060349415
 20
165.3013067293063
 30
0.0
 10
95.39684060349415
 20
165.2008307604624
 30
0.0
  0
LINE
  5
180
330
BA
100
AcDbEntity
  8
Sichtbar schmal (ISO)
 62
    18
420
        0
370
     5
100
AcDbLine
 10
95.62604621091356
 20
165.3827585954686
 30
0.0
 11
98.14730789252607
 21
165.3827585954686
 31
0.0
  0
LINE
  5
181
330
BA
100
AcDbEntity
  8
Sichtbar schmal (ISO)
 62
    18
420
        0
370
     5
100
AcDbLine
 10
98.14730789252607
 20
165.3827585954686
 30
0.0
 11
98.14730789252607
 21
165.5646864304746
 31
0.0
  0
LINE
  5
182
330
BA
100
AcDbEntity
  8
Sichtbar schmal (ISO)
 62
    18
420
        0
370
     5
100
AcDbLine
 10
98.14730789252607
 20
165.5646864304746
 30
0.0
 11
99.5225415370422
 21
165.5646864304746
 31
0.0
  0
LINE
  5
183
330
BA
100
AcDbEntity
  8
Sichtbar schmal (ISO)
 62
    18
420
        0
370
     5
100
AcDbLine
 10
99.5225415370422
 20
165.5646864304746
 30
0.0
 11
99.5225415370422
 21
165.3827585954686
 31
0.0
  0
LINE
  5
184
330
BA
100
AcDbEntity
  8
Sichtbar schmal (ISO)
 62
    18
420
        0
370
     5
100
AcDbLine
 10
99.5225415370422
 20
165.3827585954686
 30
0.0
 11
102.0438032186547
 21
165.3827585954686
 31
0.0
  0
SPLINE
  5
185
330
BA
100
AcDbEntity
  8
Sichtbar schmal (ISO)
 62
    18
420
        0
370
     5
100
AcDbSpline
210
0.0
220
0.0
230
1.0
 70
     8
 71
     3
 72
     8
 73
     4
 74
     0
 42
0.0000000001
 43
0.0000000001
 40
0.0
 40
0.0
 40
0.0
 40
0.0
 40
1.0
 40
1.0
 40
1.0
 40
1.0
 10
102.2730088260741
 20
165.2008307604624
 30
0.0
 10
102.2730088260741
 20
165.3013067293063
 30
0.0
 10
102.1703899802083
 20
165.3827585954686
 30
0.0
 10
102.0438032186547
 20
165.3827585954686
 30
0.0
  0
LINE
  5
186
330
BA
100
AcDbEntity
  8
Sichtbar schmal (ISO)
 62
    18
420
        0
370
     5
100
AcDbLine
 10
102.2730088260741
 20
165.2008307604624
 30
0.0
 11
102.2730088260741
 21
165.0461921007079
 31
0.0
  0
SPLINE
  5
187
330
BA
100
AcDbEntity
  8
Sichtbar schmal (ISO)
 62
    18
420
        0
370
     5
100
AcDbSpline
210
0.0
220
0.0
230
1.0
 70
     8
 71
     3
 72
     8
 73
     4
 74
     0
 42
0.0000000001
 43
0.0000000001
 40
0.0
 40
0.0
 40
0.0
 40
0.0
 40
1.0
 40
1.0
 40
1.0
 40
1.0
 10
102.0438032186547
 20
164.8642642657018
 30
0.0
 10
102.1703899802083
 20
164.8642642657018
 30
0.0
 10
102.2730088260741
 20
164.9457161318641
 30
0.0
 10
102.2730088260741
 20
165.0461921007079
 30
0.0
  0
LINE
  5
188
330
BA
100
AcDbEntity
  8
Sichtbar schmal (ISO)
 62
    18
420
        0
370
     5
100
AcDbLine
 10
102.0438032186547
 20
164.8642642657018
 30
0.0
 11
99.53400181741299
 21
164.8642642657018
 31
0.0
  0
LINE
  5
189
330
BA
100
AcDbEntity
  8
Sichtbar schmal (ISO)
 62
    18
420
        0
370
     5
100
AcDbLine
 10
99.53400181741299
 20
164.8642642657018
 30
0.0
 11
99.53400181741299
 21
165.0461921007079
 31
0.0
  0
LINE
  5
18A
330
BA
100
AcDbEntity
  8
Sichtbar schmal (ISO)
 62
    18
420
        0
370
     5
100
AcDbLine
 10
99.53400181741299
 20
165.0461921007079
 30
0.0
 11
98.13584761215496
 21
165.0461921007079
 31
0.0
  0
LINE
  5
18B
330
BA
100
AcDbEntity
  8
Sichtbar schmal (ISO)
 62
    18
420
        0
370
     5
100
AcDbLine
 10
92.00459761368815
 20
164.2002276679296
 30
0.0
 11
92.30256490333294
 21
164.2002276679296
 31
0.0
  0
LINE
  5
18C
330
BA
100
AcDbEntity
  8
Sichtbar schmal (ISO)
 62
    18
420
        0
370
     5
100
AcDbLine
 10
92.30256490333294
 20
168.5664957080746
 30
0.0
 11
91.61494808107505
 21
168.5664957080746
 31
0.0
  0
LINE
  5
18D
330
BA
100
AcDbEntity
  8
Sichtbar schmal (ISO)
 62
    18
420
        0
370
     5
100
AcDbLine
 10
88.86448079204312
 20
168.5664957080746
 30
0.0
 11
88.17686396978491
 21
168.5664957080746
 31
0.0
  0
LINE
  5
18E
330
BA
100
AcDbEntity
  8
Sichtbar schmal (ISO)
 62
    18
420
        0
370
     5
100
AcDbLine
 10
92.30256490333294
 20
168.202640038063
 30
0.0
 11
92.30256490333294
 21
164.2002276679296
 31
0.0
  0
LINE
  5
18F
330
BA
100
AcDbEntity
  8
Sichtbar schmal (ISO)
 62
    18
420
        0
370
     5
100
AcDbLine
 10
92.30256490333294
 20
170.7496297281477
 30
0.0
 11
92.30256490333294
 21
168.5664957080746
 31
0.0
  0
LINE
  5
190
330
BA
100
AcDbEntity
  8
Sichtbar schmal (ISO)
 62
    18
420
        0
370
     5
100
AcDbLine
 10
88.17686396978491
 20
168.202640038063
 30
0.0
 11
88.86448079204312
 21
168.202640038063
 31
0.0
  0
LINE
  5
191
330
BA
100
AcDbEntity
  8
Sichtbar schmal (ISO)
 62
    18
420
        0
370
     5
100
AcDbLine
 10
91.61494808107505
 20
168.202640038063
 30
0.0
 11
92.30256490333294
 21
168.202640038063
 31
0.0
  0
LINE
  5
192
330
BA
100
AcDbEntity
  8
Sichtbar schmal (ISO)
 62
    18
420
        0
370
     5
100
AcDbLine
 10
93.21938733301058
 20
164.2002276679296
 30
0.0
 11
92.30256490333294
 21
164.2002276679296
 31
0.0
  0
LINE
  5
193
330
BA
100
AcDbEntity
  8
Sichtbar schmal (ISO)
 62
    18
420
        0
370
     5
100
AcDbLine
 10
93.21938733301058
 20
164.2002276679296
 30
0.0
 11
93.21938733301058
 21
170.3857740581355
 31
0.0
  0
LINE
  5
194
330
BA
100
AcDbEntity
  8
Sichtbar schmal (ISO)
 62
    18
420
        0
370
     5
100
AcDbLine
 10
93.21938733301058
 20
170.3857740581355
 30
0.0
 11
94.36541537010697
 21
170.3857740581355
 31
0.0
  0
LINE
  5
195
330
BA
100
AcDbEntity
  8
Sichtbar schmal (ISO)
 62
    18
420
        0
370
     5
100
AcDbLine
 10
94.36541537010697
 20
164.2002276679296
 30
0.0
 11
94.36541537010697
 21
170.3857740581355
 31
0.0
  0
LINE
  5
196
330
BA
100
AcDbEntity
  8
Sichtbar schmal (ISO)
 62
    18
420
        0
370
     5
100
AcDbLine
 10
95.28223779978429
 20
164.2002276679296
 30
0.0
 11
94.36541537010697
 21
164.2002276679296
 31
0.0
  0
LINE
  5
197
330
BA
100
AcDbEntity
  8
Sichtbar schmal (ISO)
 62
    18
420
        0
370
     5
100
AcDbLine
 10
95.28223779978429
 20
164.2002276679296
 30
0.0
 11
95.28223779978429
 21
170.3857740581355
 31
0.0
  0
LINE
  5
198
330
BA
100
AcDbEntity
  8
Sichtbar schmal (ISO)
 62
    18
420
        0
370
     5
100
AcDbLine
 10
95.28223779978429
 20
170.3857740581355
 30
0.0
 11
102.3050976111135
 21
170.3857740581355
 31
0.0
  0
LINE
  5
199
330
BA
100
AcDbEntity
  8
Sichtbar schmal (ISO)
 62
    18
420
        0
370
     5
100
AcDbLine
 10
92.30256490333294
 20
170.7496297281477
 30
0.0
 11
102.3050976111135
 21
170.7496297281477
 31
0.0
  0
LINE
  5
19A
330
BA
100
AcDbEntity
  8
Sichtbar schmal (ISO)
 62
    18
420
        0
370
     5
100
AcDbLine
 10
88.17686396978491
 20
170.7496297281477
 30
0.0
 11
88.17686396978491
 21
168.5664957080746
 31
0.0
  0
LINE
  5
19B
330
BA
100
AcDbEntity
  8
Sichtbar schmal (ISO)
 62
    18
420
        0
370
     5
100
AcDbLine
 10
88.17686396978491
 20
170.7496297281477
 30
0.0
 11
78.17433126200526
 21
170.7496297281477
 31
0.0
  0
LINE
  5
19C
330
BA
100
AcDbEntity
  8
Sichtbar schmal (ISO)
 62
    18
420
        0
370
     5
100
AcDbLine
 10
85.19719107333356
 20
164.2002276679296
 30
0.0
 11
85.19719107333356
 21
170.3857740581355
 31
0.0
  0
LINE
  5
19D
330
BA
100
AcDbEntity
  8
Sichtbar schmal (ISO)
 62
    18
420
        0
370
     5
100
AcDbLine
 10
85.19719107333356
 20
164.2002276679296
 30
0.0
 11
86.1140135030112
 21
164.2002276679296
 31
0.0
  0
LINE
  5
19E
330
BA
100
AcDbEntity
  8
Sichtbar schmal (ISO)
 62
    18
420
        0
370
     5
100
AcDbLine
 10
86.1140135030112
 20
164.2002276679296
 30
0.0
 11
86.1140135030112
 21
170.3857740581355
 31
0.0
  0
LINE
  5
19F
330
BA
100
AcDbEntity
  8
Sichtbar schmal (ISO)
 62
    18
420
        0
370
     5
100
AcDbLine
 10
87.26004154010759
 20
164.2002276679296
 30
0.0
 11
87.26004154010759
 21
170.3857740581355
 31
0.0
  0
LINE
  5
1A0
330
BA
100
AcDbEntity
  8
Sichtbar schmal (ISO)
 62
    18
420
        0
370
     5
100
AcDbLine
 10
87.26004154010759
 20
164.2002276679296
 30
0.0
 11
88.17686396978491
 21
164.2002276679296
 31
0.0
  0
LINE
  5
1A1
330
BA
100
AcDbEntity
  8
Sichtbar schmal (ISO)
 62
    18
420
        0
370
     5
100
AcDbLine
 10
88.17686396978491
 20
168.202640038063
 30
0.0
 11
88.17686396978491
 21
164.2002276679296
 31
0.0
  0
LINE
  5
1A2
330
BA
100
AcDbEntity
  8
Sichtbar schmal (ISO)
 62
    18
420
        0
370
     5
100
AcDbLine
 10
108.2781957404599
 20
164.2002276679296
 30
0.0
 11
108.6907658338149
 21
164.2002276679296
 31
0.0
  0
LINE
  5
1A3
330
BA
100
AcDbEntity
  8
Sichtbar schmal (ISO)
 62
    18
420
        0
370
     5
100
AcDbLine
 10
108.1177518152669
 20
164.2002276679296
 30
0.0
 11
108.2781957404599
 21
164.2002276679296
 31
0.0
  0
LINE
  5
1A4
330
BA
100
AcDbEntity
  8
Sichtbar schmal (ISO)
 62
    18
420
        0
370
     5
100
AcDbLine
 10
108.1177518152669
 20
164.2002276679296
 30
0.0
 11
104.0240070363369
 21
164.2002276679296
 31
0.0
  0
LINE
  5
1A5
330
BA
100
AcDbEntity
  8
Sichtbar schmal (ISO)
 62
    18
420
        0
370
     5
100
AcDbLine
 10
103.0752284520419
 20
164.2002276679296
 30
0.0
 11
103.694083592074
 21
164.2002276679296
 31
0.0
  0
LINE
  5
1A6
330
BA
100
AcDbEntity
  8
Sichtbar schmal (ISO)
 62
    18
420
        0
370
     5
100
AcDbLine
 10
91.61494808107505
 20
164.2002276679296
 30
0.0
 11
92.00459761368815
 21
164.2002276679296
 31
0.0
  0
LINE
  5
1A7
330
BA
100
AcDbEntity
  8
Sichtbar schmal (ISO)
 62
    18
420
        0
370
     5
100
AcDbLine
 10
88.86448079204312
 20
164.2002276679296
 30
0.0
 11
88.47483125943005
 21
164.2002276679296
 31
0.0
  0
LINE
  5
1A8
330
BA
100
AcDbEntity
  8
Sichtbar schmal (ISO)
 62
    18
420
        0
370
     5
100
AcDbLine
 10
77.40420042107629
 20
164.2002276679296
 30
0.0
 11
76.78534528104413
 21
164.2002276679296
 31
0.0
  0
LINE
  5
1A9
330
BA
100
AcDbEntity
  8
Sichtbar schmal (ISO)
 62
    18
420
        0
370
     5
100
AcDbLine
 10
72.36167705785127
 20
164.2002276679296
 30
0.0
 11
76.4554218367809
 21
164.2002276679296
 31
0.0
  0
LINE
  5
1AA
330
BA
100
AcDbEntity
  8
Sichtbar schmal (ISO)
 62
    18
420
        0
370
     5
100
AcDbLine
 10
72.20123313265823
 20
164.2002276679296
 30
0.0
 11
72.36167705785127
 21
164.2002276679296
 31
0.0
  0
LINE
  5
1AB
330
BA
100
AcDbEntity
  8
Sichtbar schmal (ISO)
 62
    18
420
        0
370
     5
100
AcDbLine
 10
71.78866303930259
 20
164.2002276679296
 30
0.0
 11
72.20123313265823
 21
164.2002276679296
 31
0.0
  0
LINE
  5
1AC
330
BA
100
AcDbEntity
  8
Sichtbar schmal (ISO)
 62
    18
420
        0
370
     5
100
AcDbLine
 10
108.1177518152675
 20
171.6592689031782
 30
0.0
 11
108.1177518152675
 21
171.5683049856748
 31
0.0
  0
LINE
  5
1AD
330
BA
100
AcDbEntity
  8
Sichtbar schmal (ISO)
 62
    18
420
        0
370
     5
100
AcDbLine
 10
108.1177518152675
 20
171.5683049856748
 30
0.0
 11
108.1177518152675
 21
164.2002276679296
 31
0.0
  0
LINE
  5
1AE
330
BA
100
AcDbEntity
  8
Sichtbar schmal (ISO)
 62
    18
420
        0
370
     5
100
AcDbLine
 10
108.6907658338149
 20
169.8399905531172
 30
0.0
 11
108.6907658338149
 21
164.2002276679296
 31
0.0
  0
LINE
  5
1AF
330
BA
100
AcDbEntity
  8
Sichtbar schmal (ISO)
 62
    18
420
        0
370
     5
100
AcDbLine
 10
108.2781957404599
 20
169.8399905531172
 30
0.0
 11
108.6907658338149
 21
169.8399905531172
 31
0.0
  0
LINE
  5
1B0
330
BA
100
AcDbEntity
  8
Sichtbar schmal (ISO)
 62
    18
420
        0
370
     5
100
AcDbLine
 10
108.6907658338149
 20
171.6592689031782
 30
0.0
 11
108.6907658338149
 21
169.8399905531172
 31
0.0
  0
LINE
  5
1B1
330
BA
100
AcDbEntity
  8
Sichtbar schmal (ISO)
 62
    18
420
        0
370
     5
100
AcDbLine
 10
108.1177518152669
 20
170.3857740581355
 30
0.0
 11
108.2781957404599
 21
170.3857740581355
 31
0.0
  0
LINE
  5
1B2
330
BA
100
AcDbEntity
  8
Sichtbar schmal (ISO)
 62
    18
420
        0
370
     5
100
AcDbLine
 10
72.36167705785127
 20
171.5683049856748
 30
0.0
 11
72.36167705785127
 21
164.2002276679296
 31
0.0
  0
LINE
  5
1B3
330
BA
100
AcDbEntity
  8
Sichtbar schmal (ISO)
 62
    18
420
        0
370
     5
100
AcDbLine
 10
72.36167705785127
 20
171.6592689031782
 30
0.0
 11
72.36167705785127
 21
171.5683049856748
 31
0.0
  0
LINE
  5
1B4
330
BA
100
AcDbEntity
  8
Sichtbar schmal (ISO)
 62
    18
420
        0
370
     5
100
AcDbLine
 10
71.78866303930259
 20
171.6592689031782
 30
0.0
 11
71.78866303930259
 21
170.9588467384046
 31
0.0
  0
LINE
  5
1B5
330
BA
100
AcDbEntity
  8
Sichtbar schmal (ISO)
 62
    18
420
        0
370
     5
100
AcDbLine
 10
71.78866303930259
 20
169.8127013778664
 30
0.0
 11
71.78866303930259
 21
164.2002276679296
 31
0.0
  0
LINE
  5
1B6
330
BA
100
AcDbEntity
  8
Sichtbar schmal (ISO)
 62
    18
420
        0
370
     5
100
AcDbLine
 10
72.20123313265823
 20
170.3857740581355
 30
0.0
 11
72.36167705785127
 21
170.3857740581355
 31
0.0
  0
LINE
  5
1B7
330
BA
100
AcDbEntity
  8
Sichtbar schmal (ISO)
 62
    18
420
        0
370
     5
100
AcDbLine
 10
99.52254153704252
 20
169.9309544706203
 30
0.0
 11
99.18929051923043
 21
169.9309544706203
 31
0.0
  0
LINE
  5
1B8
330
BA
100
AcDbEntity
  8
Sichtbar schmal (ISO)
 62
    18
420
        0
370
     5
100
AcDbLine
 10
99.5225415370422
 20
169.8399905531172
 30
0.0
 11
99.5225415370422
 21
169.9309544706203
 31
0.0
  0
LINE
  5
1B9
330
BA
100
AcDbEntity
  8
Sichtbar schmal (ISO)
 62
    18
420
        0
370
     5
100
AcDbLine
 10
102.3050976111135
 20
170.3857740581355
 30
0.0
 11
102.6489060222419
 21
170.3857740581355
 31
0.0
  0
LINE
  5
1BA
330
BA
100
AcDbEntity
  8
Sichtbar schmal (ISO)
 62
    18
420
        0
370
     5
100
AcDbLine
 10
102.6489060222419
 20
170.7496297281477
 30
0.0
 11
102.6489060222419
 21
170.3857740581355
 31
0.0
  0
LINE
  5
1BB
330
BA
100
AcDbEntity
  8
Sichtbar schmal (ISO)
 62
    18
420
        0
370
     5
100
AcDbLine
 10
102.6489060222419
 20
170.7496297281477
 30
0.0
 11
102.3050976111135
 21
170.7496297281477
 31
0.0
  0
LINE
  5
1BC
330
BA
100
AcDbEntity
  8
Sichtbar schmal (ISO)
 62
    18
420
        0
370
     5
100
AcDbLine
 10
98.72032191107443
 20
171.6592689031782
 30
0.0
 11
98.72032191107443
 21
170.7496297281477
 31
0.0
  0
LINE
  5
1BD
330
BA
100
AcDbEntity
  8
Sichtbar schmal (ISO)
 62
    18
420
        0
370
     5
100
AcDbLine
 10
100.0955555555902
 20
171.6592689031782
 30
0.0
 11
100.0955555555902
 21
170.7496297281477
 31
0.0
  0
LINE
  5
1BE
330
BA
100
AcDbEntity
  8
Sichtbar schmal (ISO)
 62
    18
420
        0
370
     5
100
AcDbLine
 10
77.40420042107629
 20
170.3857740581355
 30
0.0
 11
76.78534528104413
 21
170.3857740581355
 31
0.0
  0
LINE
  5
1BF
330
BA
100
AcDbEntity
  8
Sichtbar schmal (ISO)
 62
    18
420
        0
370
     5
100
AcDbLine
 10
103.0752284520419
 20
170.3857740581355
 30
0.0
 11
103.694083592074
 21
170.3857740581355
 31
0.0
  0
LINE
  5
1C0
330
BA
100
AcDbEntity
  8
Sichtbar schmal (ISO)
 62
    18
420
        0
370
     5
100
AcDbLine
 10
77.83052285087631
 20
170.7496297281477
 30
0.0
 11
78.17433126200526
 21
170.7496297281477
 31
0.0
  0
LINE
  5
1C1
330
BA
100
AcDbEntity
  8
Sichtbar schmal (ISO)
 62
    18
420
        0
370
     5
100
AcDbLine
 10
81.75910696204375
 20
171.6592689031782
 30
0.0
 11
81.75910696204375
 21
170.7496297281477
 31
0.0
  0
LINE
  5
1C2
330
BA
100
AcDbEntity
  8
Sichtbar schmal (ISO)
 62
    18
420
        0
370
     5
100
AcDbLine
 10
80.38387331752764
 20
171.6592689031782
 30
0.0
 11
80.38387331752764
 21
170.7496297281477
 31
0.0
  0
LINE
  5
1C3
330
BA
100
AcDbEntity
  8
Sichtbar schmal (ISO)
 62
    18
420
        0
370
     5
100
AcDbLine
 10
77.83052285087631
 20
170.7496297281477
 30
0.0
 11
77.83052285087631
 21
170.3857740581355
 31
0.0
  0
LINE
  5
1C4
330
BA
100
AcDbEntity
  8
Sichtbar schmal (ISO)
 62
    18
420
        0
370
     5
100
AcDbLine
 10
108.2781957404599
 20
170.3857740581355
 30
0.0
 11
108.2781957404599
 21
164.2002276679296
 31
0.0
  0
LINE
  5
1C5
330
BA
100
AcDbEntity
  8
Sichtbar schmal (ISO)
 62
    18
420
        0
370
     5
100
AcDbLine
 10
72.20123313265823
 20
170.3857740581355
 30
0.0
 11
72.20123313265823
 21
164.2002276679296
 31
0.0
  0
LINE
  5
1C6
330
BA
100
AcDbEntity
  8
Sichtbar schmal (ISO)
 62
    18
420
        0
370
     5
100
AcDbLine
 10
99.57086026998601
 20
170.3856542260184
 30
0.0
 11
99.57086026998601
 21
170.3857740581355
 31
0.0
  0
LINE
  5
1C7
330
BA
100
AcDbEntity
  8
Sichtbar schmal (ISO)
 62
    18
420
        0
370
     5
100
AcDbLine
 10
99.57096203848145
 20
170.3857740608371
 30
0.0
 11
99.57089441867353
 21
170.3856941801546
 31
0.0
  0
LINE
  5
1C8
330
BA
100
AcDbEntity
  8
Sichtbar schmal (ISO)
 62
    18
420
        0
370
     5
100
AcDbLine
 10
81.23441167643919
 20
170.3856542260184
 30
0.0
 11
81.23441167643919
 21
170.3857740581355
 31
0.0
  0
LINE
  5
1C9
330
BA
100
AcDbEntity
  8
Sichtbar schmal (ISO)
 62
    18
420
        0
370
     5
100
AcDbLine
 10
81.23451344493464
 20
170.3857740608371
 30
0.0
 11
81.23444582512671
 21
170.3856941801546
 31
0.0
  0
LINE
  5
1CA
330
BA
100
AcDbEntity
  8
Sichtbar schmal (ISO)
 62
    18
420
        0
370
     5
100
AcDbLine
 10
70.7884187005116
 20
170.9588467384046
 30
0.0
 11
71.78866303930259
 21
170.9588467384046
 31
0.0
  0
LINE
  5
1CB
330
BA
100
AcDbEntity
  8
Sichtbar schmal (ISO)
 62
    18
420
        0
370
     5
100
AcDbLine
 10
70.7884187005116
 20
169.8127013778664
 30
0.0
 11
70.7884187005116
 21
170.9588467384046
 31
0.0
  0
LINE
  5
1CC
330
BA
100
AcDbEntity
  8
Sichtbar schmal (ISO)
 62
    18
420
        0
370
     5
100
AcDbLine
 10
71.78866303930259
 20
169.8127013778664
 30
0.0
 11
70.7884187005116
 21
169.8127013778664
 31
0.0
  0
LINE
  5
1CD
330
BA
100
AcDbEntity
  8
Sichtbar schmal (ISO)
 62
    18
420
        0
370
     5
100
AcDbLine
 10
72.12892058223761
 20
169.476134883105
 30
0.0
 11
71.92292857555711
 21
169.476134883105
 31
0.0
  0
LINE
  5
1CE
330
BA
100
AcDbEntity
  8
Sichtbar schmal (ISO)
 62
    18
420
        0
370
     5
100
AcDbLine
 10
71.92292857555711
 20
171.295413233166
 30
0.0
 11
72.12892058223761
 21
171.295413233166
 31
0.0
  0
ELLIPSE
  5
1CF
330
BA
100
AcDbEntity
  8
Sichtbar schmal (ISO)
 62
    18
420
        0
370
     5
100
AcDbEllipse
 10
71.31029324303248
 20
170.3857740581355
 30
0.0
 11
0.0
 21
0.1591868556304929
 31
0.0
210
0.0
220
0.0
230
1.0
 40
0.8908633430759493
 41
0.0
 42
6.283185307179586
  0
LINE
  5
1D0
330
BA
100
AcDbEntity
  8
Sichtbar schmal (ISO)
 62
    18
420
        0
370
     5
100
AcDbLine
 10
70.7884187005116
 20
170.9588467384046
 30
0.0
 11
70.66524334264959
 21
170.9588467384046
 31
0.0
  0
LINE
  5
1D1
330
BA
100
AcDbEntity
  8
Sichtbar schmal (ISO)
 62
    18
420
        0
370
     5
100
AcDbLine
 10
70.66524334264959
 20
169.8127013778664
 30
0.0
 11
70.7884187005116
 21
169.8127013778664
 31
0.0
  0
LINE
  5
1D2
330
BA
100
AcDbEntity
  8
Sichtbar schmal (ISO)
 62
    18
420
        0
370
     5
100
AcDbLine
 10
71.92292857555711
 20
169.476134883105
 30
0.0
 11
71.79975321769479
 21
169.476134883105
 31
0.0
  0
LINE
  5
1D3
330
BA
100
AcDbEntity
  8
Sichtbar schmal (ISO)
 62
    18
420
        0
370
     5
100
AcDbLine
 10
72.12892058223761
 20
169.476134883105
 30
0.0
 11
72.20123313265823
 21
169.476134883105
 31
0.0
  0
LINE
  5
1D4
330
BA
100
AcDbEntity
  8
Sichtbar schmal (ISO)
 62
    18
420
        0
370
     5
100
AcDbLine
 10
72.24707425414139
 20
170.3857740581355
 30
0.0
 11
72.24707425414139
 21
171.295413233166
 31
0.0
  0
LINE
  5
1D5
330
BA
100
AcDbEntity
  8
Sichtbar schmal (ISO)
 62
    18
420
        0
370
     5
100
AcDbLine
 10
72.24707425414139
 20
171.295413233166
 30
0.0
 11
72.12892058223761
 21
171.295413233166
 31
0.0
  0
LINE
  5
1D6
330
BA
100
AcDbEntity
  8
Sichtbar schmal (ISO)
 62
    18
420
        0
370
     5
100
AcDbLine
 10
71.79975321769479
 20
171.295413233166
 30
0.0
 11
71.92292857555711
 21
171.295413233166
 31
0.0
  0
LINE
  5
1D7
330
BA
100
AcDbEntity
  8
Sichtbar schmal (ISO)
 62
    18
420
        0
370
     5
100
AcDbLine
 10
70.66524334264959
 20
169.8127013778664
 30
0.0
 11
70.54659778976056
 21
169.9946292128728
 31
0.0
  0
LINE
  5
1D8
330
BA
100
AcDbEntity
  8
Sichtbar schmal (ISO)
 62
    18
420
        0
370
     5
100
AcDbLine
 10
70.54659778976056
 20
169.9946292128728
 30
0.0
 11
70.54659778976056
 21
170.7769189033986
 31
0.0
  0
LINE
  5
1D9
330
BA
100
AcDbEntity
  8
Sichtbar schmal (ISO)
 62
    18
420
        0
370
     5
100
AcDbLine
 10
70.54659778976056
 20
170.7769189033986
 30
0.0
 11
70.66524334264959
 21
170.9588467384046
 31
0.0
  0
ENDBLK
  5
BD
330
BA
100
AcDbEntity
  8
0
100
AcDbBlockEnd
  0
BLOCK
  5
1DC
330
1DA
100
AcDbEntity
  8
0
100
AcDbBlockBegin
  2
Block_16
 70
     0
 10
0.0
 20
0.0
 30
0.0
  3
Block_16
  1

  0
SPLINE
  5
1DE
330
1DA
100
AcDbEntity
  8
Sichtbar schmal (ISO)
 62
    18
420
        0
370
     5
100
AcDbSpline
210
0.0
220
0.0
230
1.0
 70
     8
 71
     3
 72
    17
 73
    13
 74
     0
 42
0.0000000001
 43
0.0000000001
 40
0.0
 40
0.0
 40
0.0
 40
0.0
 40
1.0
 40
1.0
 40
1.0
 40
2.0
 40
2.0
 40
2.0
 40
3.0
 40
3.0
 40
3.0
 40
4.0
 40
4.0
 40
4.0
 40
4.0
 10
65.85103813130051
 20
137.2218113193024
 30
0.0
 10
64.43533726585997
 20
123.7523171960529
 30
0.0
 10
74.20686727239803
 20
111.6854824583584
 30
0.0
 10
87.67636126435203
 20
110.2697815791184
 30
0.0
 10
101.1458552563067
 20
108.8540806998784
 30
0.0
 10
113.2126898763784
 20
118.6256108016648
 30
0.0
 10
114.6283907418186
 20
132.0951049249143
 30
0.0
 10
116.0440916072588
 20
145.5645990481638
 30
0.0
 10
106.2725616007204
 20
157.6314337858577
 30
0.0
 10
92.80306760876712
 20
159.0471346650977
 30
0.0
 10
79.33440476742759
 20
160.4627481868879
 30
0.0
 10
67.26805078409043
 20
150.6924790088252
 30
0.0
 10
65.85126191892927
 20
137.2239396230681
 30
0.0
  0
SPLINE
  5
1DF
330
1DA
100
AcDbEntity
  8
Sichtbar schmal (ISO)
 62
    18
420
        0
370
     5
100
AcDbSpline
210
0.0
220
0.0
230
1.0
 70
     8
 71
     3
 72
     8
 73
     4
 74
     0
 42
0.0000000001
 43
0.0000000001
 40
0.0
 40
0.0
 40
0.0
 40
0.0
 40
1.0
 40
1.0
 40
1.0
 40
1.0
 10
66.86264271024365
 20
134.67885847104
 30
0.0
 10
66.86263084180109
 20
134.6652582410079
 30
0.0
 10
66.86263084180109
 20
134.6516580032107
 30
0.0
 10
66.86264271024365
 20
134.638057773178
 30
0.0
  0
SPLINE
  5
1E0
330
1DA
100
AcDbEntity
  8
Sichtbar schmal (ISO)
 62
    18
420
        0
370
     5
100
AcDbSpline
210
0.0
220
0.0
230
1.0
 70
     8
 71
     3
 72
    17
 73
    13
 74
     0
 42
0.0000000001
 43
0.0000000001
 40
0.0
 40
0.0
 40
0.0
 40
0.0
 40
1.0
 40
1.0
 40
1.0
 40
2.0
 40
2.0
 40
2.0
 40
3.0
 40
3.0
 40
3.0
 40
4.0
 40
4.0
 40
4.0
 40
4.0
 10
66.40426875482567
 20
134.6376577663362
 30
0.0
 10
66.41575647399872
 20
121.4737044825775
 30
0.0
 10
77.09656163668926
 20
110.811524488753
 30
0.0
 10
90.26051479213123
 20
110.8230122080386
 30
0.0
 10
103.4244679475725
 20
110.8344999273237
 30
0.0
 10
114.0866478374659
 20
121.5153051941264
 30
0.0
 10
114.0751601182931
 20
134.6792584778844
 30
0.0
 10
114.0636723991204
 20
147.8432117616437
 30
0.0
 10
103.3828672364299
 20
158.5053917554676
 30
0.0
 10
90.21891408098792
 20
158.4939040361826
 30
0.0
 10
77.07120407500433
 20
158.4824304917226
 30
0.0
 10
66.41574229916983
 20
147.8269686120207
 30
0.0
 10
66.40426875482567
 20
134.6792584778786
 30
0.0
  0
LINE
  5
1E1
330
1DA
100
AcDbEntity
  8
Sichtbar schmal (ISO)
 62
    18
420
        0
370
     5
100
AcDbLine
 10
66.40426875482567
 20
134.6376577663336
 30
0.0
 11
66.86264271024365
 21
134.6380577731754
 31
0.0
  0
LINE
  5
1E2
330
1DA
100
AcDbEntity
  8
Sichtbar schmal (ISO)
 62
    18
420
        0
370
     5
100
AcDbLine
 10
66.4042687548215
 20
134.6792584778818
 30
0.0
 11
66.86264271023339
 21
134.67885847104
 31
0.0
  0
SPLINE
  5
1E3
330
1DA
100
AcDbEntity
  8
Sichtbar schmal (ISO)
 62
    18
420
        0
370
     5
100
AcDbSpline
210
0.0
220
0.0
230
1.0
 70
     8
 71
     3
 72
    17
 73
    13
 74
     0
 42
0.0000000001
 43
0.0000000001
 40
0.0
 40
0.0
 40
0.0
 40
0.0
 40
1.0
 40
1.0
 40
1.0
 40
2.0
 40
2.0
 40
2.0
 40
3.0
 40
3.0
 40
3.0
 40
4.0
 40
4.0
 40
4.0
 40
4.0
 10
66.86264271024365
 20
134.6380577731793
 30
0.0
 10
66.87390951173878
 20
121.7272574371848
 30
0.0
 10
77.34931457514526
 20
111.2701193663177
 30
0.0
 10
90.26011478529005
 20
111.2813861679225
 30
0.0
 10
103.1709149954351
 20
111.2926529695274
 30
0.0
 10
113.62805296437
 20
121.7680581350442
 30
0.0
 10
113.6167861628755
 20
134.6788584710381
 30
0.0
 10
113.6055193613797
 20
147.5896588070326
 30
0.0
 10
103.1301142979735
 20
158.0467968778997
 30
0.0
 10
90.21931408782878
 20
158.0355300762948
 30
0.0
 10
77.32444465888346
 20
158.0242771769226
 30
0.0
 10
66.8738956095062
 20
147.5737280256778
 30
0.0
 10
66.86264271024365
 20
134.6788584710381
 30
0.0
  0
LINE
  5
1E4
330
1DA
100
AcDbEntity
  8
Sichtbar schmal (ISO)
 62
    18
420
        0
370
     5
100
AcDbLine
 10
114.0751691941609
 20
134.5438645885028
 30
0.0
 11
114.0751691941609
 21
134.7730516557139
 31
0.0
  0
LINE
  5
1E5
330
1DA
100
AcDbEntity
  8
Sichtbar schmal (ISO)
 62
    18
420
        0
370
     5
100
AcDbLine
 10
114.0748937273466
 20
134.7730516557139
 30
0.0
 11
114.0751691941609
 21
134.7730516557139
 31
0.0
  0
LINE
  5
1E6
330
1DA
100
AcDbEntity
  8
Sichtbar schmal (ISO)
 62
    18
420
        0
370
     5
100
AcDbLine
 10
114.0748937273466
 20
134.5438645885028
 30
0.0
 11
114.0751691941609
 21
134.5438645885028
 31
0.0
  0
LINE
  5
1E7
330
1DA
100
AcDbEntity
  8
Sichtbar schmal (ISO)
 62
    18
420
        0
370
     5
100
AcDbLine
 10
78.42136570141001
 20
113.959290384518
 30
0.0
 11
78.42122796800315
 21
113.9590518232573
 31
0.0
  0
LINE
  5
1E8
330
1DA
100
AcDbEntity
  8
Sichtbar schmal (ISO)
 62
    18
420
        0
370
     5
100
AcDbLine
 10
78.22288388092116
 20
114.0738839181235
 30
0.0
 11
78.2227461475143
 21
114.0736453568628
 31
0.0
  0
LINE
  5
1E9
330
1DA
100
AcDbEntity
  8
Sichtbar schmal (ISO)
 62
    18
420
        0
370
     5
100
AcDbLine
 10
78.22288388092116
 20
155.2430323260925
 30
0.0
 11
78.2227461475143
 21
155.2432708873539
 31
0.0
  0
LINE
  5
1EA
330
1DA
100
AcDbEntity
  8
Sichtbar schmal (ISO)
 62
    18
420
        0
370
     5
100
AcDbLine
 10
78.92239192512282
 20
155.6357583118992
 30
0.0
 11
78.91743251922512
 21
155.6443482549726
 31
0.0
  0
LINE
  5
1EB
330
1DA
100
AcDbEntity
  8
Sichtbar schmal (ISO)
 62
    18
420
        0
370
     5
100
AcDbLine
 10
78.42136570141001
 20
155.3576258596981
 30
0.0
 11
78.42122796800315
 21
155.3578644209594
 31
0.0
  0
LINE
  5
1EC
330
1DA
100
AcDbEntity
  8
Sichtbar schmal (ISO)
 62
    18
420
        0
370
     5
100
AcDbLine
 10
113.3626335592002
 20
138.0962641302727
 30
0.0
 11
113.3417705862342
 21
138.0962641302727
 31
0.0
  0
LINE
  5
1ED
330
1DA
100
AcDbEntity
  8
Sichtbar schmal (ISO)
 62
    18
420
        0
370
     5
100
AcDbLine
 10
113.3417705862342
 20
138.0962641302727
 30
0.0
 11
113.3417705862342
 21
131.220652113944
 31
0.0
  0
LINE
  5
1EE
330
1DA
100
AcDbEntity
  8
Sichtbar schmal (ISO)
 62
    18
420
        0
370
     5
100
AcDbLine
 10
113.3626335592002
 20
131.220652113944
 30
0.0
 11
113.3417705862342
 21
131.220652113944
 31
0.0
  0
LINE
  5
1EF
330
1DA
100
AcDbEntity
  8
Sichtbar schmal (ISO)
 62
    18
420
        0
370
     5
100
AcDbLine
 10
81.65548218257169
 20
112.9145195529704
 30
0.0
 11
81.665913669054
 21
112.9325874177325
 31
0.0
  0
LINE
  5
1F0
330
1DA
100
AcDbEntity
  8
Sichtbar schmal (ISO)
 62
    18
420
        0
370
     5
100
AcDbLine
 10
81.665913669054
 20
112.9325874177325
 30
0.0
 11
75.71145905438948
 21
116.3703934258968
 31
0.0
  0
LINE
  5
1F1
330
1DA
100
AcDbEntity
  8
Sichtbar schmal (ISO)
 62
    18
420
        0
370
     5
100
AcDbLine
 10
75.70102756790683
 20
116.3523255611348
 30
0.0
 11
75.71145905438948
 21
116.3703934258968
 31
0.0
  0
LINE
  5
1F2
330
1DA
100
AcDbEntity
  8
Sichtbar schmal (ISO)
 62
    18
420
        0
370
     5
100
AcDbLine
 10
75.70102756790683
 20
152.9645906830819
 30
0.0
 11
75.71145905438948
 21
152.9465228183192
 31
0.0
  0
LINE
  5
1F3
330
1DA
100
AcDbEntity
  8
Sichtbar schmal (ISO)
 62
    18
420
        0
370
     5
100
AcDbLine
 10
75.71145905438948
 20
152.9465228183192
 30
0.0
 11
81.665913669054
 21
156.3843288264842
 31
0.0
  0
LINE
  5
1F4
330
1DA
100
AcDbEntity
  8
Sichtbar schmal (ISO)
 62
    18
420
        0
370
     5
100
AcDbLine
 10
81.65548218257169
 20
156.4023966912463
 30
0.0
 11
81.665913669054
 21
156.3843288264842
 31
0.0
  0
SPLINE
  5
1F5
330
1DA
100
AcDbEntity
  8
Sichtbar schmal (ISO)
 62
    18
420
        0
370
     5
100
AcDbSpline
210
0.0
220
0.0
230
1.0
 70
     8
 71
     3
 72
     8
 73
     4
 74
     0
 42
0.0000000001
 43
0.0000000001
 40
0.0
 40
0.0
 40
0.0
 40
0.0
 40
1.0
 40
1.0
 40
1.0
 40
1.0
 10
101.3661456039717
 20
141.0557946291902
 30
0.0
 10
101.3651391061332
 20
141.0575451591371
 30
0.0
 10
101.3639056804014
 20
141.0591549986884
 30
0.0
 10
101.3624773609098
 20
141.0605823376123
 30
0.0
  0
CIRCLE
  5
1F6
330
1DA
100
AcDbEntity
  8
Sichtbar schmal (ISO)
 62
    18
420
        0
370
     5
100
AcDbCircle
 10
90.2397144365595
 20
134.6584581221084
 30
0.0
 40
13.17825630040218
  0
CIRCLE
  5
1F7
330
1DA
100
AcDbEntity
  8
Sichtbar schmal (ISO)
 62
    18
420
        0
370
     5
100
AcDbCircle
 10
79.92629651259723
 20
124.3450400976148
 30
0.0
 40
0.4583741321879757
  0
CIRCLE
  5
1F8
330
1DA
100
AcDbEntity
  8
Sichtbar schmal (ISO)
 62
    18
420
        0
370
     5
100
AcDbCircle
 10
79.92629651259723
 20
144.9718761466014
 30
0.0
 40
0.4583741321880559
  0
CIRCLE
  5
1F9
330
1DA
100
AcDbEntity
  8
Sichtbar schmal (ISO)
 62
    18
420
        0
370
     5
100
AcDbCircle
 10
100.5531323605217
 20
144.9718761466014
 30
0.0
 40
0.4583741321880559
  0
CIRCLE
  5
1FA
330
1DA
100
AcDbEntity
  8
Sichtbar schmal (ISO)
 62
    18
420
        0
370
     5
100
AcDbCircle
 10
100.5531323605217
 20
124.3450400976148
 30
0.0
 40
0.4583741321879757
  0
LINE
  5
1FB
330
1DA
100
AcDbEntity
  8
Sichtbar schmal (ISO)
 62
    18
420
        0
370
     5
100
AcDbLine
 10
78.72931577880291
 20
140.3359670369779
 30
0.0
 11
78.72861208701348
 21
140.3339379161857
 31
0.0
  0
LINE
  5
1FC
330
1DA
100
AcDbEntity
  8
Sichtbar schmal (ISO)
 62
    18
420
        0
370
     5
100
AcDbLine
 10
101.3499737700389
 20
141.0838392359274
 30
0.0
 11
101.3486745241258
 21
141.0855534346053
 31
0.0
  0
LINE
  5
1FD
330
1DA
100
AcDbEntity
  8
Sichtbar schmal (ISO)
 62
    18
420
        0
370
     5
100
AcDbLine
 10
101.366145603972
 20
141.0557946291902
 30
0.0
 11
101.365459367974
 21
141.0553987394548
 31
0.0
  0
CIRCLE
  5
1FE
330
1DA
100
AcDbEntity
  8
Sichtbar schmal (ISO)
 62
    18
420
        0
370
     5
100
AcDbCircle
 10
90.2397144365595
 20
134.6584581221082
 30
0.0
 40
12.78143045050397
  0
SPLINE
  5
1FF
330
1DA
100
AcDbEntity
  8
Sichtbar schmal (ISO)
 62
    18
420
        0
370
     5
100
AcDbSpline
210
0.0
220
0.0
230
1.0
 70
     8
 71
     3
 72
     8
 73
     4
 74
     0
 42
0.0000000001
 43
0.0000000001
 40
0.0
 40
0.0
 40
0.0
 40
0.0
 40
1.0
 40
1.0
 40
1.0
 40
1.0
 10
87.4666456665672
 20
134.3491908715154
 30
0.0
 10
87.46665892454357
 20
134.3113456729794
 30
0.0
 10
87.49981898963367
 20
134.2808892303465
 30
0.0
 10
87.5410049384453
 20
134.2808942957384
 30
0.0
  0
LINE
  5
200
330
1DA
100
AcDbEntity
  8
Sichtbar schmal (ISO)
 62
    18
420
        0
370
     5
100
AcDbLine
 10
87.4666456665672
 20
134.3491908714532
 30
0.0
 11
87.46664565960605
 21
134.9677253726608
 31
0.0
  0
SPLINE
  5
201
330
1DA
100
AcDbEntity
  8
Sichtbar schmal (ISO)
 62
    18
420
        0
370
     5
100
AcDbSpline
210
0.0
220
0.0
230
1.0
 70
     8
 71
     3
 72
     8
 73
     4
 74
     0
 42
0.0000000001
 43
0.0000000001
 40
0.0
 40
0.0
 40
0.0
 40
0.0
 40
1.0
 40
1.0
 40
1.0
 40
1.0
 10
87.5410048966556
 20
135.0360219484777
 30
0.0
 10
87.49982227383522
 20
135.0360299861297
 30
0.0
 10
87.4666538377186
 20
135.0055658406885
 30
0.0
 10
87.46664565960605
 20
134.9677253726499
 30
0.0
  0
LINE
  5
202
330
1DA
100
AcDbEntity
  8
Sichtbar schmal (ISO)
 62
    18
420
        0
370
     5
100
AcDbLine
 10
87.5410048966556
 20
135.0360219484777
 30
0.0
 11
92.93842393467352
 21
135.0360219484777
 31
0.0
  0
SPLINE
  5
203
330
1DA
100
AcDbEntity
  8
Sichtbar schmal (ISO)
 62
    18
420
        0
370
     5
100
AcDbSpline
210
0.0
220
0.0
230
1.0
 70
     8
 71
     3
 72
     8
 73
     4
 74
     0
 42
0.0000000001
 43
0.0000000001
 40
0.0
 40
0.0
 40
0.0
 40
0.0
 40
1.0
 40
1.0
 40
1.0
 40
1.0
 10
93.01278320655162
 20
134.9677253727012
 30
0.0
 10
93.01276994857525
 20
135.0055705712367
 30
0.0
 10
92.97960988348517
 20
135.0360270138696
 30
0.0
 10
92.93842393467352
 20
135.0360219484777
 30
0.0
  0
LINE
  5
204
330
1DA
100
AcDbEntity
  8
Sichtbar schmal (ISO)
 62
    18
420
        0
370
     5
100
AcDbLine
 10
93.01278320655194
 20
134.9677253727629
 30
0.0
 11
93.01278321351277
 21
134.3491908715559
 31
0.0
  0
SPLINE
  5
205
330
1DA
100
AcDbEntity
  8
Sichtbar schmal (ISO)
 62
    18
420
        0
370
     5
100
AcDbSpline
210
0.0
220
0.0
230
1.0
 70
     8
 71
     3
 72
     8
 73
     4
 74
     0
 42
0.0000000001
 43
0.0000000001
 40
0.0
 40
0.0
 40
0.0
 40
0.0
 40
1.0
 40
1.0
 40
1.0
 40
1.0
 10
92.9384239764632
 20
134.2808942957384
 30
0.0
 10
92.97960659928007
 20
134.2808862580831
 30
0.0
 10
93.0127750354015
 20
134.3113504035289
 30
0.0
 10
93.01278321351277
 20
134.3491908715668
 30
0.0
  0
LINE
  5
206
330
1DA
100
AcDbEntity
  8
Sichtbar schmal (ISO)
 62
    18
420
        0
370
     5
100
AcDbLine
 10
92.9384239764632
 20
134.2808942957384
 30
0.0
 11
87.5410049384453
 21
134.2808942957384
 31
0.0
  0
ENDBLK
  5
1DD
330
1DA
100
AcDbEntity
  8
0
100
AcDbBlockEnd
  0
BLOCK
  5
209
330
207
100
AcDbEntity
  8
0
100
AcDbBlockBegin
  2
Block_17
 70
     0
 10
0.0
 20
0.0
 30
0.0
  3
Block_17
  1

  0
INSERT
  5
20C
330
207
100
AcDbEntity
  8
Sichtbar schmal (ISO)
100
AcDbBlockReference
  2
Block_18
 10
0.0
 20
0.0
 30
0.0
  0
ENDBLK
  5
20A
330
207
100
AcDbEntity
  8
0
100
AcDbBlockEnd
  0
BLOCK
  5
20D
330
20B
100
AcDbEntity
  8
0
100
AcDbBlockBegin
  2
Block_18
 70
     0
 10
0.0
 20
0.0
 30
0.0
  3
Block_18
  1

  0
LINE
  5
20F
330
20B
100
AcDbEntity
  8
Sichtbar schmal (ISO)
 62
    18
420
        0
370
     5
100
AcDbLine
 10
131.5070030731345
 20
156.9900191020557
 30
0.0
 11
131.510125190918
 21
112.3413878265967
 31
0.0
  0
INSERT
  5
211
330
20B
100
AcDbEntity
  8
Sichtbar schmal (ISO)
100
AcDbBlockReference
  2
Block_19
 10
0.0
 20
0.0
 30
0.0
  0
INSERT
  5
217
330
20B
100
AcDbEntity
  8
Sichtbar schmal (ISO)
100
AcDbBlockReference
  2
Block_20
 10
0.0
 20
0.0
 30
0.0
  0
ENDBLK
  5
20E
330
20B
100
AcDbEntity
  8
0
100
AcDbBlockEnd
  0
BLOCK
  5
212
330
210
100
AcDbEntity
  8
0
100
AcDbBlockBegin
  2
Block_19
 70
     0
 10
0.0
 20
0.0
 30
0.0
  3
Block_19
  1

  0
LWPOLYLINE
  5
214
330
210
100
AcDbEntity
  8
Sichtbar schmal (ISO)
100
AcDbPolyline
 90
        3
 70
     1
 43
0.0
 10
131.285731049671
 20
156.3575534005807
 10
131.5062386925737
 20
158.0387384655359
 10
131.7283504580618
 20
156.3575749324275
  0
HATCH
  5
215
330
210
100
AcDbEntity
  8
Sichtbar schmal (ISO)
 62
    18
420
        0
440
 33554687
100
AcDbHatch
 10
0.0
 20
0.0
 30
0.0
210
0.0
220
0.0
230
1.0
  2
SOLID
 70
     1
 71
     1
 91
        1
 92
        1
 93
        3
 72
     1
 10
131.285731049671
 20
156.3575534005807
 11
131.5062386925737
 21
158.0387384655359
 72
     1
 10
131.5062386925737
 20
158.0387384655359
 11
131.7283504580618
 21
156.3575749324275
 72
     1
 10
131.7283504580618
 20
156.3575749324275
 11
131.285731049671
 21
156.3575534005807
 97
        1
330
214
 75
     2
 76
     1
 98
        1
 10
0.0
 20
0.0
450
        0
451
        0
460
0.0
461
0.0
452
        0
462
0.0
453
        0
470

  0
ENDBLK
  5
213
330
210
100
AcDbEntity
  8
0
100
AcDbBlockEnd
  0
BLOCK
  5
218
330
216
100
AcDbEntity
  8
0
100
AcDbBlockBegin
  2
Block_20
 70
     0
 10
0.0
 20
0.0
 30
0.0
  3
Block_20
  1

  0
LWPOLYLINE
  5
21A
330
216
100
AcDbEntity
  8
Sichtbar schmal (ISO)
100
AcDbPolyline
 90
        3
 70
     1
 43
0.0
 10
131.2887778059907
 20
112.9738212303014
 10
131.5095115332847
 20
111.2926576971931
 10
131.7313972143816
 20
112.9738535280716
  0
HATCH
  5
21B
330
216
100
AcDbEntity
  8
Sichtbar schmal (ISO)
 62
    18
420
        0
440
 33554687
100
AcDbHatch
 10
0.0
 20
0.0
 30
0.0
210
0.0
220
0.0
230
1.0
  2
SOLID
 70
     1
 71
     1
 91
        1
 92
        1
 93
        3
 72
     1
 10
131.2887778059907
 20
112.9738212303014
 11
131.5095115332847
 21
111.2926576971931
 72
     1
 10
131.5095115332847
 20
111.2926576971931
 11
131.7313972143816
 21
112.9738535280716
 72
     1
 10
131.7313972143816
 20
112.9738535280716
 11
131.2887778059907
 21
112.9738212303014
 97
        1
330
21A
 75
     2
 76
     1
 98
        1
 10
0.0
 20
0.0
450
        0
451
        0
460
0.0
461
0.0
452
        0
462
0.0
453
        0
470

  0
ENDBLK
  5
219
330
216
100
AcDbEntity
  8
0
100
AcDbBlockEnd
  0
BLOCK
  5
221
330
21F
100
AcDbEntity
  8
0
100
AcDbBlockBegin
  2
Block_21
 70
     0
 10
0.0
 20
0.0
 30
0.0
  3
Block_21
  1

  0
INSERT
  5
224
330
21F
100
AcDbEntity
  8
Sichtbar schmal (ISO)
100
AcDbBlockReference
  2
Block_22
 10
0.0
 20
0.0
 30
0.0
  0
ENDBLK
  5
222
330
21F
100
AcDbEntity
  8
0
100
AcDbBlockEnd
  0
BLOCK
  5
225
330
223
100
AcDbEntity
  8
0
100
AcDbBlockBegin
  2
Block_22
 70
     0
 10
0.0
 20
0.0
 30
0.0
  3
Block_22
  1

  0
LINE
  5
227
330
223
100
AcDbEntity
  8
Sichtbar schmal (ISO)
 62
    18
420
        0
370
     5
100
AcDbLine
 10
138.5633553052572
 20
158.1624389253031
 30
0.0
 11
138.5556038404153
 21
111.1965287672312
 31
0.0
  0
INSERT
  5
229
330
223
100
AcDbEntity
  8
Sichtbar schmal (ISO)
100
AcDbBlockReference
  2
Block_23
 10
0.0
 20
0.0
 30
0.0
  0
INSERT
  5
22F
330
223
100
AcDbEntity
  8
Sichtbar schmal (ISO)
100
AcDbBlockReference
  2
Block_24
 10
0.0
 20
0.0
 30
0.0
  0
ENDBLK
  5
226
330
223
100
AcDbEntity
  8
0
100
AcDbBlockEnd
  0
BLOCK
  5
22A
330
228
100
AcDbEntity
  8
0
100
AcDbBlockBegin
  2
Block_23
 70
     0
 10
0.0
 20
0.0
 30
0.0
  3
Block_23
  1

  0
LWPOLYLINE
  5
22C
330
228
100
AcDbEntity
  8
Sichtbar schmal (ISO)
100
AcDbPolyline
 90
        3
 70
     1
 43
0.0
 10
138.3419433247895
 20
157.5300162875218
 10
138.5628493068578
 20
159.2111582887833
 10
138.7845627331804
 20
157.5299516919814
  0
HATCH
  5
22D
330
228
100
AcDbEntity
  8
Sichtbar schmal (ISO)
 62
    18
420
        0
440
 33554687
100
AcDbHatch
 10
0.0
 20
0.0
 30
0.0
210
0.0
220
0.0
230
1.0
  2
SOLID
 70
     1
 71
     1
 91
        1
 92
        1
 93
        3
 72
     1
 10
138.3419433247895
 20
157.5300162875218
 11
138.5628493068578
 21
159.2111582887833
 72
     1
 10
138.5628493068578
 20
159.2111582887833
 11
138.7845627331804
 21
157.5299516919814
 72
     1
 10
138.7845627331804
 20
157.5299516919814
 11
138.3419433247895
 21
157.5300162875218
 97
        1
330
22C
 75
     2
 76
     1
 98
        1
 10
0.0
 20
0.0
450
        0
451
        0
460
0.0
461
0.0
452
        0
462
0.0
453
        0
470

  0
ENDBLK
  5
22B
330
228
100
AcDbEntity
  8
0
100
AcDbBlockEnd
  0
BLOCK
  5
230
330
22E
100
AcDbEntity
  8
0
100
AcDbBlockBegin
  2
Block_24
 70
     0
 10
0.0
 20
0.0
 30
0.0
  3
Block_24
  1

  0
LWPOLYLINE
  5
232
330
22E
100
AcDbEntity
  8
Sichtbar schmal (ISO)
100
AcDbPolyline
 90
        3
 70
     1
 43
0.0
 10
138.3343964124921
 20
111.8290267664763
 10
138.554742566544
 20
110.147809403751
 10
138.7770265868064
 20
111.8289514050126
  0
HATCH
  5
233
330
22E
100
AcDbEntity
  8
Sichtbar schmal (ISO)
 62
    18
420
        0
440
 33554687
100
AcDbHatch
 10
0.0
 20
0.0
 30
0.0
210
0.0
220
0.0
230
1.0
  2
SOLID
 70
     1
 71
     1
 91
        1
 92
        1
 93
        3
 72
     1
 10
138.3343964124921
 20
111.8290267664763
 11
138.554742566544
 21
110.147809403751
 72
     1
 10
138.554742566544
 20
110.147809403751
 11
138.7770265868064
 21
111.8289514050126
 72
     1
 10
138.7770265868064
 20
111.8289514050126
 11
138.3343964124921
 21
111.8290267664763
 97
        1
330
232
 75
     2
 76
     1
 98
        1
 10
0.0
 20
0.0
450
        0
451
        0
460
0.0
461
0.0
452
        0
462
0.0
453
        0
470

  0
ENDBLK
  5
231
330
22E
100
AcDbEntity
  8
0
100
AcDbBlockEnd
  0
BLOCK
  5
23A
330
238
100
AcDbEntity
  8
0
100
AcDbBlockBegin
  2
Block_25
 70
     0
 10
0.0
 20
0.0
 30
0.0
  3
Block_25
  1

  0
INSERT
  5
23D
330
238
100
AcDbEntity
  8
Sichtbar schmal (ISO)
100
AcDbBlockReference
  2
Block_26
 10
0.0
 20
0.0
 30
0.0
  0
ENDBLK
  5
23B
330
238
100
AcDbEntity
  8
0
100
AcDbBlockEnd
  0
BLOCK
  5
23E
330
23C
100
AcDbEntity
  8
0
100
AcDbBlockBegin
  2
Block_26
 70
     0
 10
0.0
 20
0.0
 30
0.0
  3
Block_26
  1

  0
LINE
  5
240
330
23C
100
AcDbEntity
  8
Sichtbar schmal (ISO)
 62
    18
420
        0
370
     5
100
AcDbLine
 10
124.5205001519753
 20
146.8124857217604
 30
0.0
 11
124.5235253764483
 21
122.5274370522946
 31
0.0
  0
INSERT
  5
242
330
23C
100
AcDbEntity
  8
Sichtbar schmal (ISO)
100
AcDbBlockReference
  2
Block_27
 10
0.0
 20
0.0
 30
0.0
  0
INSERT
  5
248
330
23C
100
AcDbEntity
  8
Sichtbar schmal (ISO)
100
AcDbBlockReference
  2
Block_28
 10
0.0
 20
0.0
 30
0.0
  0
ENDBLK
  5
23F
330
23C
100
AcDbEntity
  8
0
100
AcDbBlockEnd
  0
BLOCK
  5
243
330
241
100
AcDbEntity
  8
0
100
AcDbBlockBegin
  2
Block_27
 70
     0
 10
0.0
 20
0.0
 30
0.0
  3
Block_27
  1

  0
LWPOLYLINE
  5
245
330
241
100
AcDbEntity
  8
Sichtbar schmal (ISO)
100
AcDbPolyline
 90
        3
 70
     1
 43
0.0
 10
124.2992711922053
 20
146.1800092543621
 10
124.5196819417976
 20
147.861215851164
 10
124.7418906005962
 20
146.1800630839791
  0
HATCH
  5
246
330
241
100
AcDbEntity
  8
Sichtbar schmal (ISO)
 62
    18
420
        0
440
 33554687
100
AcDbHatch
 10
0.0
 20
0.0
 30
0.0
210
0.0
220
0.0
230
1.0
  2
SOLID
 70
     1
 71
     1
 91
        1
 92
        1
 93
        3
 72
     1
 10
124.2992711922053
 20
146.1800092543621
 11
124.5196819417976
 21
147.861215851164
 72
     1
 10
124.5196819417976
 20
147.861215851164
 11
124.7418906005962
 21
146.1800630839791
 72
     1
 10
124.7418906005962
 20
146.1800630839791
 11
124.2992711922053
 21
146.1800092543621
 97
        1
330
245
 75
     2
 76
     1
 98
        1
 10
0.0
 20
0.0
450
        0
451
        0
460
0.0
461
0.0
452
        0
462
0.0
453
        0
470

  0
ENDBLK
  5
244
330
241
100
AcDbEntity
  8
0
100
AcDbBlockEnd
  0
BLOCK
  5
249
330
247
100
AcDbEntity
  8
0
100
AcDbBlockBegin
  2
Block_28
 70
     0
 10
0.0
 20
0.0
 30
0.0
  3
Block_28
  1

  0
LWPOLYLINE
  5
24B
330
247
100
AcDbEntity
  8
Sichtbar schmal (ISO)
100
AcDbPolyline
 90
        3
 70
     1
 43
0.0
 10
124.3021349278274
 20
123.1598704559993
 10
124.522965548432
 20
121.4787176888143
 10
124.7447543362183
 20
123.1599242856162
  0
HATCH
  5
24C
330
247
100
AcDbEntity
  8
Sichtbar schmal (ISO)
 62
    18
420
        0
440
 33554687
100
AcDbHatch
 10
0.0
 20
0.0
 30
0.0
210
0.0
220
0.0
230
1.0
  2
SOLID
 70
     1
 71
     1
 91
        1
 92
        1
 93
        3
 72
     1
 10
124.3021349278274
 20
123.1598704559993
 11
124.522965548432
 21
121.4787176888143
 72
     1
 10
124.522965548432
 20
121.4787176888143
 11
124.7447543362183
 21
123.1599242856162
 72
     1
 10
124.7447543362183
 20
123.1599242856162
 11
124.3021349278274
 21
123.1598704559993
 97
        1
330
24B
 75
     2
 76
     1
 98
        1
 10
0.0
 20
0.0
450
        0
451
        0
460
0.0
461
0.0
452
        0
462
0.0
453
        0
470

  0
ENDBLK
  5
24A
330
247
100
AcDbEntity
  8
0
100
AcDbBlockEnd
  0
BLOCK
  5
24F
330
24D
100
AcDbEntity
  8
0
100
AcDbBlockBegin
  2
Block_29
 70
     0
 10
0.0
 20
0.0
 30
0.0
  3
Block_29
  1

  0
INSERT
  5
252
330
24D
100
AcDbEntity
  8
Sichtbar schmal (ISO)
100
AcDbBlockReference
  2
Block_30
 10
0.0
 20
0.0
 30
0.0
  0
ENDBLK
  5
250
330
24D
100
AcDbEntity
  8
0
100
AcDbBlockEnd
  0
BLOCK
  5
253
330
251
100
AcDbEntity
  8
0
100
AcDbBlockBegin
  2
Block_30
 70
     0
 10
0.0
 20
0.0
 30
0.0
  3
Block_30
  1

  0
SPLINE
  5
255
330
251
100
AcDbEntity
  8
Sichtbar schmal (ISO)
100
AcDbSpline
210
0.0
220
0.0
230
1.0
 70
     9
 71
     3
 72
    26
 73
    22
 74
     0
 42
0.0000000001
 43
0.0000000001
 40
0.0
 40
0.0
 40
0.0
 40
0.0
 40
1.0
 40
1.0
 40
1.0
 40
2.0
 40
2.0
 40
2.0
 40
3.0
 40
3.0
 40
3.0
 40
4.0
 40
4.0
 40
4.0
 40
5.0
 40
5.0
 40
5.0
 40
6.0
 40
6.0
 40
6.0
 40
7.0
 40
7.0
 40
7.0
 40
7.0
 10
127.3613904846527
 20
132.4618543505651
 30
0.0
 10
127.3796494907245
 20
132.5149088210379
 30
0.0
 10
127.3889512485347
 20
132.5686523106078
 30
0.0
 10
127.3889512485347
 20
132.6237738383718
 30
0.0
 10
127.3889512485347
 20
132.799129198571
 30
0.0
 10
127.3069579759857
 20
132.9234971455885
 30
0.0
 10
127.1436604499849
 20
132.9972221889729
 30
0.0
 10
127.0451307191068
 20
133.0416639207326
 30
0.0
 10
126.9321315871906
 20
133.0640570413867
 30
0.0
 10
126.8046630542363
 20
133.0640570413867
 30
0.0
 10
126.7219807625903
 20
133.0640570413867
 30
0.0
 10
126.6506672860457
 20
133.0571668504163
 30
0.0
 10
126.5910671341508
 20
133.0430419589267
 30
0.0
 10
126.5586832365895
 20
133.0354627488592
 30
0.0
 10
126.5211316958003
 20
133.0227158955638
 30
0.0
 10
126.4780680022346
 20
133.0048013990404
 30
0.0
 10
126.4780680022346
 20
133.0048013990404
 30
0.0
 10
127.2563150723526
 20
132.3140597542479
 30
0.0
 10
127.2563150723526
 20
132.3140597542479
 30
0.0
 10
127.3083360141799
 20
132.3598795242017
 30
0.0
 10
127.3434759881294
 20
132.4087998800922
 30
0.0
 10
127.3613904846527
 20
132.4618543505651
 30
0.0
  0
SPLINE
  5
256
330
251
100
AcDbEntity
  8
Sichtbar schmal (ISO)
100
AcDbSpline
210
0.0
220
0.0
230
1.0
 70
     9
 71
     3
 72
    26
 73
    22
 74
     0
 42
0.0000000001
 43
0.0000000001
 40
0.0
 40
0.0
 40
0.0
 40
0.0
 40
1.0
 40
1.0
 40
1.0
 40
2.0
 40
2.0
 40
2.0
 40
3.0
 40
3.0
 40
3.0
 40
4.0
 40
4.0
 40
4.0
 40
5.0
 40
5.0
 40
5.0
 40
6.0
 40
6.0
 40
6.0
 40
7.0
 40
7.0
 40
7.0
 40
7.0
 10
126.2875542219003
 20
132.8256564338074
 30
0.0
 10
126.2610269866639
 20
132.7681233392038
 30
0.0
 10
126.2479356238199
 20
132.7040445631781
 30
0.0
 10
126.2479356238199
 20
132.6334201057305
 30
0.0
 10
126.2479356238199
 20
132.4987168722572
 30
0.0
 10
126.303746170681
 20
132.3908853835689
 30
0.0
 10
126.4157117739516
 20
132.309581130117
 30
0.0
 10
126.5273328676737
 20
132.2282768766651
 30
0.0
 10
126.6709933494086
 20
132.1876247499392
 30
0.0
 10
126.8466932191564
 20
132.1876247499392
 30
0.0
 10
126.9131835620217
 20
132.1876247499392
 30
0.0
 10
126.9765733189503
 20
132.1945149409097
 30
0.0
 10
127.0372069994907
 20
132.2089843419477
 30
0.0
 10
127.0713134447946
 20
132.2172525711123
 30
0.0
 10
127.1143771383603
 20
132.2317219721504
 30
0.0
 10
127.1670870992846
 20
132.2513590164163
 30
0.0
 10
127.1670870992846
 20
132.2513590164163
 30
0.0
 10
126.3850504241329
 20
132.9510579094705
 30
0.0
 10
126.3850504241329
 20
132.9510579094705
 30
0.0
 10
126.3464653546981
 20
132.9248751837827
 30
0.0
 10
126.3140814571367
 20
132.8835340379597
 30
0.0
 10
126.2875542219003
 20
132.8256564338074
 30
0.0
  0
SPLINE
  5
257
330
251
100
AcDbEntity
  8
Sichtbar schmal (ISO)
100
AcDbSpline
210
0.0
220
0.0
230
1.0
 70
    11
 71
     3
 72
    59
 73
    55
 74
     0
 42
0.0000000001
 43
0.0000000001
 40
0.0
 40
0.0
 40
0.0
 40
0.0
 40
1.0
 40
1.0
 40
1.0
 40
2.0
 40
2.0
 40
2.0
 40
3.0
 40
3.0
 40
3.0
 40
4.0
 40
4.0
 40
4.0
 40
5.0
 40
5.0
 40
5.0
 40
6.0
 40
6.0
 40
6.0
 40
7.0
 40
7.0
 40
7.0
 40
8.0
 40
8.0
 40
8.0
 40
9.0
 40
9.0
 40
9.0
 40
10.0
 40
10.0
 40
10.0
 40
11.0
 40
11.0
 40
11.0
 40
12.0
 40
12.0
 40
12.0
 40
13.0
 40
13.0
 40
13.0
 40
14.0
 40
14.0
 40
14.0
 40
15.0
 40
15.0
 40
15.0
 40
16.0
 40
16.0
 40
16.0
 40
17.0
 40
17.0
 40
17.0
 40
18.0
 40
18.0
 40
18.0
 40
18.0
 10
127.5432915262739
 20
131.9037488819546
 30
0.0
 10
127.5432915262739
 20
131.9037488819546
 30
0.0
 10
127.3579453891674
 20
132.0808267898964
 30
0.0
 10
127.3579453891674
 20
132.0808267898964
 30
0.0
 10
127.290077008108
 20
132.0346625103941
 30
0.0
 10
127.2135958883355
 20
131.9988335173475
 30
0.0
 10
127.1291910489469
 20
131.9740288298537
 30
0.0
 10
127.0447862095582
 20
131.9492241423599
 30
0.0
 10
126.9445339309374
 20
131.936821798613
 30
0.0
 10
126.8291232321816
 20
131.936821798613
 30
0.0
 10
126.620694955324
 20
131.936821798613
 30
0.0
 10
126.4353488182175
 20
131.9953884218622
 30
0.0
 10
126.2730848208623
 20
132.1125216683607
 30
0.0
 10
126.1111653330555
 20
132.2293104053107
 30
0.0
 10
126.0302055891521
 20
132.3998426318306
 30
0.0
 10
126.0302055891521
 20
132.6237738383718
 30
0.0
 10
126.0302055891521
 20
132.7402180657733
 30
0.0
 10
126.0508761620636
 20
132.8425374016852
 30
0.0
 10
126.0925618174352
 20
132.9303873365591
 30
0.0
 10
126.1170219953804
 20
132.9820637688378
 30
0.0
 10
126.1566405934608
 20
133.0413194111841
 30
0.0
 10
126.2117621212248
 20
133.108154263598
 30
0.0
 10
126.2117621212248
 20
133.108154263598
 30
0.0
 10
126.0178032454053
 20
133.2831651142486
 30
0.0
 10
126.0178032454053
 20
133.2831651142486
 30
0.0
 10
126.0178032454053
 20
133.2831651142486
 30
0.0
 10
126.0880831933044
 20
133.3548231003418
 30
0.0
 10
126.0880831933044
 20
133.3548231003418
 30
0.0
 10
126.0880831933044
 20
133.3548231003418
 30
0.0
 10
126.2854871646092
 20
133.1777451924
 30
0.0
 10
126.2854871646092
 20
133.1777451924
 30
0.0
 10
126.3698920039978
 20
133.2356227965522
 30
0.0
 10
126.4666991871333
 20
133.2773084519237
 30
0.0
 10
126.5762532235642
 20
133.302457648966
 30
0.0
 10
126.6468776810119
 20
133.3179605786497
 30
0.0
 10
126.7175021384595
 20
133.3258842982657
 30
0.0
 10
126.7881265959071
 20
133.3258842982657
 30
0.0
 10
127.0251491652923
 20
133.3258842982657
 30
0.0
 10
127.220486079306
 20
133.2614610126916
 30
0.0
 10
127.3744818474966
 20
133.1326144415432
 30
0.0
 10
127.5284776156873
 20
133.0037678703949
 30
0.0
 10
127.6053032450084
 20
132.8322021152294
 30
0.0
 10
127.6053032450084
 20
132.6179171760469
 30
0.0
 10
127.6053032450084
 20
132.5159423496835
 30
0.0
 10
127.5904893344218
 20
132.4253363384214
 30
0.0
 10
127.5605170037001
 20
132.3454101231636
 30
0.0
 10
127.530889182527
 20
132.2654839079058
 30
0.0
 10
127.490237055801
 20
132.2014051318802
 30
0.0
 10
127.4389051330708
 20
132.1521402664411
 30
0.0
 10
127.4389051330708
 20
132.1521402664411
 30
0.0
 10
127.6149495123671
 20
131.9850531354065
 30
0.0
 10
127.6149495123671
 20
131.9850531354065
 30
0.0
 10
127.6149495123671
 20
131.9850531354065
 30
0.0
 10
127.5432915262739
 20
131.9037488819546
 30
0.0
 10
127.5432915262739
 20
131.9037488819546
 30
0.0
  0
HATCH
  5
258
330
251
100
AcDbEntity
  8
Sichtbar schmal (ISO)
 62
   250
420
  2039067
440
 33554687
100
AcDbHatch
 10
0.0
 20
0.0
 30
0.0
210
0.0
220
0.0
230
1.0
  2
SOLID
 70
     1
 71
     1
 91
        3
 92
        1
 93
        1
 72
     4
 94
        3
 73
     0
 74
     0
 95
       26
 96
       22
 40
0.0
 40
0.0
 40
0.0
 40
0.0
 40
1.0
 40
1.0
 40
1.0
 40
2.0
 40
2.0
 40
2.0
 40
3.0
 40
3.0
 40
3.0
 40
4.0
 40
4.0
 40
4.0
 40
5.0
 40
5.0
 40
5.0
 40
6.0
 40
6.0
 40
6.0
 40
7.0
 40
7.0
 40
7.0
 40
7.0
 10
127.3613904846527
 20
132.4618543505651
 10
127.3796494907245
 20
132.5149088210379
 10
127.3889512485347
 20
132.5686523106078
 10
127.3889512485347
 20
132.6237738383718
 10
127.3889512485347
 20
132.799129198571
 10
127.3069579759857
 20
132.9234971455885
 10
127.1436604499849
 20
132.9972221889729
 10
127.0451307191068
 20
133.0416639207326
 10
126.9321315871906
 20
133.0640570413867
 10
126.8046630542363
 20
133.0640570413867
 10
126.7219807625903
 20
133.0640570413867
 10
126.6506672860457
 20
133.0571668504163
 10
126.5910671341508
 20
133.0430419589267
 10
126.5586832365895
 20
133.0354627488592
 10
126.5211316958003
 20
133.0227158955638
 10
126.4780680022346
 20
133.0048013990404
 10
126.4780680022346
 20
133.0048013990404
 10
127.2563150723526
 20
132.3140597542479
 10
127.2563150723526
 20
132.3140597542479
 10
127.3083360141799
 20
132.3598795242017
 10
127.3434759881294
 20
132.4087998800922
 10
127.3613904846527
 20
132.4618543505651
 97
        0
 97
        1
330
255
 92
        1
 93
        1
 72
     4
 94
        3
 73
     0
 74
     0
 95
       26
 96
       22
 40
0.0
 40
0.0
 40
0.0
 40
0.0
 40
1.0
 40
1.0
 40
1.0
 40
2.0
 40
2.0
 40
2.0
 40
3.0
 40
3.0
 40
3.0
 40
4.0
 40
4.0
 40
4.0
 40
5.0
 40
5.0
 40
5.0
 40
6.0
 40
6.0
 40
6.0
 40
7.0
 40
7.0
 40
7.0
 40
7.0
 10
126.2875542219003
 20
132.8256564338074
 10
126.2610269866639
 20
132.7681233392038
 10
126.2479356238199
 20
132.7040445631781
 10
126.2479356238199
 20
132.6334201057305
 10
126.2479356238199
 20
132.4987168722572
 10
126.303746170681
 20
132.3908853835689
 10
126.4157117739516
 20
132.309581130117
 10
126.5273328676737
 20
132.2282768766651
 10
126.6709933494086
 20
132.1876247499392
 10
126.8466932191564
 20
132.1876247499392
 10
126.9131835620217
 20
132.1876247499392
 10
126.9765733189503
 20
132.1945149409097
 10
127.0372069994907
 20
132.2089843419477
 10
127.0713134447946
 20
132.2172525711123
 10
127.1143771383603
 20
132.2317219721504
 10
127.1670870992846
 20
132.2513590164163
 10
127.1670870992846
 20
132.2513590164163
 10
126.3850504241329
 20
132.9510579094705
 10
126.3850504241329
 20
132.9510579094705
 10
126.3464653546981
 20
132.9248751837827
 10
126.3140814571367
 20
132.8835340379597
 10
126.2875542219003
 20
132.8256564338074
 97
        0
 97
        1
330
256
 92
        1
 93
        1
 72
     4
 94
        3
 73
     0
 74
     0
 95
       59
 96
       55
 40
0.0
 40
0.0
 40
0.0
 40
0.0
 40
1.0
 40
1.0
 40
1.0
 40
2.0
 40
2.0
 40
2.0
 40
3.0
 40
3.0
 40
3.0
 40
4.0
 40
4.0
 40
4.0
 40
5.0
 40
5.0
 40
5.0
 40
6.0
 40
6.0
 40
6.0
 40
7.0
 40
7.0
 40
7.0
 40
8.0
 40
8.0
 40
8.0
 40
9.0
 40
9.0
 40
9.0
 40
10.0
 40
10.0
 40
10.0
 40
11.0
 40
11.0
 40
11.0
 40
12.0
 40
12.0
 40
12.0
 40
13.0
 40
13.0
 40
13.0
 40
14.0
 40
14.0
 40
14.0
 40
15.0
 40
15.0
 40
15.0
 40
16.0
 40
16.0
 40
16.0
 40
17.0
 40
17.0
 40
17.0
 40
18.0
 40
18.0
 40
18.0
 40
18.0
 10
127.5432915262739
 20
131.9037488819546
 10
127.5432915262739
 20
131.9037488819546
 10
127.3579453891674
 20
132.0808267898964
 10
127.3579453891674
 20
132.0808267898964
 10
127.290077008108
 20
132.0346625103941
 10
127.2135958883355
 20
131.9988335173475
 10
127.1291910489469
 20
131.9740288298537
 10
127.0447862095582
 20
131.9492241423599
 10
126.9445339309374
 20
131.936821798613
 10
126.8291232321816
 20
131.936821798613
 10
126.620694955324
 20
131.936821798613
 10
126.4353488182175
 20
131.9953884218622
 10
126.2730848208623
 20
132.1125216683607
 10
126.1111653330555
 20
132.2293104053107
 10
126.0302055891521
 20
132.3998426318306
 10
126.0302055891521
 20
132.6237738383718
 10
126.0302055891521
 20
132.7402180657733
 10
126.0508761620636
 20
132.8425374016852
 10
126.0925618174352
 20
132.9303873365591
 10
126.1170219953804
 20
132.9820637688378
 10
126.1566405934608
 20
133.0413194111841
 10
126.2117621212248
 20
133.108154263598
 10
126.2117621212248
 20
133.108154263598
 10
126.0178032454053
 20
133.2831651142486
 10
126.0178032454053
 20
133.2831651142486
 10
126.0178032454053
 20
133.2831651142486
 10
126.0880831933044
 20
133.3548231003418
 10
126.0880831933044
 20
133.3548231003418
 10
126.0880831933044
 20
133.3548231003418
 10
126.2854871646092
 20
133.1777451924
 10
126.2854871646092
 20
133.1777451924
 10
126.3698920039978
 20
133.2356227965522
 10
126.4666991871333
 20
133.2773084519237
 10
126.5762532235642
 20
133.302457648966
 10
126.6468776810119
 20
133.3179605786497
 10
126.7175021384595
 20
133.3258842982657
 10
126.7881265959071
 20
133.3258842982657
 10
127.0251491652923
 20
133.3258842982657
 10
127.220486079306
 20
133.2614610126916
 10
127.3744818474966
 20
133.1326144415432
 10
127.5284776156873
 20
133.0037678703949
 10
127.6053032450084
 20
132.8322021152294
 10
127.6053032450084
 20
132.6179171760469
 10
127.6053032450084
 20
132.5159423496835
 10
127.5904893344218
 20
132.4253363384214
 10
127.5605170037001
 20
132.3454101231636
 10
127.530889182527
 20
132.2654839079058
 10
127.490237055801
 20
132.2014051318802
 10
127.4389051330708
 20
132.1521402664411
 10
127.4389051330708
 20
132.1521402664411
 10
127.6149495123671
 20
131.9850531354065
 10
127.6149495123671
 20
131.9850531354065
 10
127.6149495123671
 20
131.9850531354065
 10
127.5432915262739
 20
131.9037488819546
 10
127.5432915262739
 20
131.9037488819546
 97
        0
 97
        1
330
257
 75
     2
 76
     1
 98
        1
 10
0.0
 20
0.0
450
        0
451
        0
460
0.0
461
0.0
452
        0
462
0.0
453
        0
470

  0
SPLINE
  5
259
330
251
100
AcDbEntity
  8
Sichtbar schmal (ISO)
100
AcDbSpline
210
0.0
220
0.0
230
1.0
 70
    11
 71
     3
 72
    26
 73
    22
 74
     0
 42
0.0000000001
 43
0.0000000001
 40
0.0
 40
0.0
 40
0.0
 40
0.0
 40
1.0
 40
1.0
 40
1.0
 40
2.0
 40
2.0
 40
2.0
 40
3.0
 40
3.0
 40
3.0
 40
4.0
 40
4.0
 40
4.0
 40
5.0
 40
5.0
 40
5.0
 40
6.0
 40
6.0
 40
6.0
 40
7.0
 40
7.0
 40
7.0
 40
7.0
 10
126.1159884667349
 20
134.2653618370934
 30
0.0
 10
126.1159884667349
 20
134.2653618370934
 30
0.0
 10
126.1159884667349
 20
133.7461859474662
 30
0.0
 10
126.1159884667349
 20
133.7461859474662
 30
0.0
 10
126.1159884667349
 20
133.7461859474662
 30
0.0
 10
125.9240966482065
 20
133.7461859474662
 30
0.0
 10
125.9240966482065
 20
133.7461859474662
 30
0.0
 10
125.9240966482065
 20
134.019726528995
 30
0.0
 10
125.8534721907588
 20
134.2681179134816
 30
0.0
 10
125.5489257498628
 20
134.321516893503
 30
0.0
 10
125.5489257498628
 20
134.321516893503
 30
0.0
 10
125.5489257498628
 20
134.5051404828668
 30
0.0
 10
125.5489257498628
 20
134.5051404828668
 30
0.0
 10
125.5489257498628
 20
134.5051404828668
 30
0.0
 10
127.5488036790503
 20
134.5051404828668
 30
0.0
 10
127.5488036790503
 20
134.5051404828668
 30
0.0
 10
127.5488036790503
 20
134.5051404828668
 30
0.0
 10
127.5488036790503
 20
134.2653618370934
 30
0.0
 10
127.5488036790503
 20
134.2653618370934
 30
0.0
 10
127.5488036790503
 20
134.2653618370934
 30
0.0
 10
126.1159884667349
 20
134.2653618370934
 30
0.0
 10
126.1159884667349
 20
134.2653618370934
 30
0.0
  0
HATCH
  5
25A
330
251
100
AcDbEntity
  8
Sichtbar schmal (ISO)
 62
    18
420
        0
440
 33554687
100
AcDbHatch
 10
0.0
 20
0.0
 30
0.0
210
0.0
220
0.0
230
1.0
  2
SOLID
 70
     1
 71
     1
 91
        1
 92
        1
 93
        1
 72
     4
 94
        3
 73
     0
 74
     0
 95
       26
 96
       22
 40
0.0
 40
0.0
 40
0.0
 40
0.0
 40
1.0
 40
1.0
 40
1.0
 40
2.0
 40
2.0
 40
2.0
 40
3.0
 40
3.0
 40
3.0
 40
4.0
 40
4.0
 40
4.0
 40
5.0
 40
5.0
 40
5.0
 40
6.0
 40
6.0
 40
6.0
 40
7.0
 40
7.0
 40
7.0
 40
7.0
 10
126.1159884667349
 20
134.2653618370934
 10
126.1159884667349
 20
134.2653618370934
 10
126.1159884667349
 20
133.7461859474662
 10
126.1159884667349
 20
133.7461859474662
 10
126.1159884667349
 20
133.7461859474662
 10
125.9240966482065
 20
133.7461859474662
 10
125.9240966482065
 20
133.7461859474662
 10
125.9240966482065
 20
134.019726528995
 10
125.8534721907588
 20
134.2681179134816
 10
125.5489257498628
 20
134.321516893503
 10
125.5489257498628
 20
134.321516893503
 10
125.5489257498628
 20
134.5051404828668
 10
125.5489257498628
 20
134.5051404828668
 10
125.5489257498628
 20
134.5051404828668
 10
127.5488036790503
 20
134.5051404828668
 10
127.5488036790503
 20
134.5051404828668
 10
127.5488036790503
 20
134.5051404828668
 10
127.5488036790503
 20
134.2653618370934
 10
127.5488036790503
 20
134.2653618370934
 10
127.5488036790503
 20
134.2653618370934
 10
126.1159884667349
 20
134.2653618370934
 10
126.1159884667349
 20
134.2653618370934
 97
        0
 97
        1
330
259
 75
     2
 76
     1
 98
        1
 10
0.0
 20
0.0
450
        0
451
        0
460
0.0
461
0.0
452
        0
462
0.0
453
        0
470

  0
SPLINE
  5
25B
330
251
100
AcDbEntity
  8
Sichtbar schmal (ISO)
100
AcDbSpline
210
0.0
220
0.0
230
1.0
 70
    11
 71
     3
 72
    26
 73
    22
 74
     0
 42
0.0000000001
 43
0.0000000001
 40
0.0
 40
0.0
 40
0.0
 40
0.0
 40
1.0
 40
1.0
 40
1.0
 40
2.0
 40
2.0
 40
2.0
 40
3.0
 40
3.0
 40
3.0
 40
4.0
 40
4.0
 40
4.0
 40
5.0
 40
5.0
 40
5.0
 40
6.0
 40
6.0
 40
6.0
 40
7.0
 40
7.0
 40
7.0
 40
7.0
 10
126.1159884667349
 20
135.8346028306246
 30
0.0
 10
126.1159884667349
 20
135.8346028306246
 30
0.0
 10
126.1159884667349
 20
135.315771450546
 30
0.0
 10
126.1159884667349
 20
135.315771450546
 30
0.0
 10
126.1159884667349
 20
135.315771450546
 30
0.0
 10
125.9240966482065
 20
135.315771450546
 30
0.0
 10
125.9240966482065
 20
135.315771450546
 30
0.0
 10
125.9240966482065
 20
135.5893120320749
 30
0.0
 10
125.8534721907588
 20
135.8373589070129
 30
0.0
 10
125.5489257498628
 20
135.8911023965828
 30
0.0
 10
125.5489257498628
 20
135.8911023965828
 30
0.0
 10
125.5489257498628
 20
136.0743814763981
 30
0.0
 10
125.5489257498628
 20
136.0743814763981
 30
0.0
 10
125.5489257498628
 20
136.0743814763981
 30
0.0
 10
127.5488036790503
 20
136.0743814763981
 30
0.0
 10
127.5488036790503
 20
136.0743814763981
 30
0.0
 10
127.5488036790503
 20
136.0743814763981
 30
0.0
 10
127.5488036790503
 20
135.8346028306246
 30
0.0
 10
127.5488036790503
 20
135.8346028306246
 30
0.0
 10
127.5488036790503
 20
135.8346028306246
 30
0.0
 10
126.1159884667349
 20
135.8346028306246
 30
0.0
 10
126.1159884667349
 20
135.8346028306246
 30
0.0
  0
HATCH
  5
25C
330
251
100
AcDbEntity
  8
Sichtbar schmal (ISO)
 62
    18
420
        0
440
 33554687
100
AcDbHatch
 10
0.0
 20
0.0
 30
0.0
210
0.0
220
0.0
230
1.0
  2
SOLID
 70
     1
 71
     1
 91
        1
 92
        1
 93
        1
 72
     4
 94
        3
 73
     0
 74
     0
 95
       26
 96
       22
 40
0.0
 40
0.0
 40
0.0
 40
0.0
 40
1.0
 40
1.0
 40
1.0
 40
2.0
 40
2.0
 40
2.0
 40
3.0
 40
3.0
 40
3.0
 40
4.0
 40
4.0
 40
4.0
 40
5.0
 40
5.0
 40
5.0
 40
6.0
 40
6.0
 40
6.0
 40
7.0
 40
7.0
 40
7.0
 40
7.0
 10
126.1159884667349
 20
135.8346028306246
 10
126.1159884667349
 20
135.8346028306246
 10
126.1159884667349
 20
135.315771450546
 10
126.1159884667349
 20
135.315771450546
 10
126.1159884667349
 20
135.315771450546
 10
125.9240966482065
 20
135.315771450546
 10
125.9240966482065
 20
135.315771450546
 10
125.9240966482065
 20
135.5893120320749
 10
125.8534721907588
 20
135.8373589070129
 10
125.5489257498628
 20
135.8911023965828
 10
125.5489257498628
 20
135.8911023965828
 10
125.5489257498628
 20
136.0743814763981
 10
125.5489257498628
 20
136.0743814763981
 10
125.5489257498628
 20
136.0743814763981
 10
127.5488036790503
 20
136.0743814763981
 10
127.5488036790503
 20
136.0743814763981
 10
127.5488036790503
 20
136.0743814763981
 10
127.5488036790503
 20
135.8346028306246
 10
127.5488036790503
 20
135.8346028306246
 10
127.5488036790503
 20
135.8346028306246
 10
126.1159884667349
 20
135.8346028306246
 10
126.1159884667349
 20
135.8346028306246
 97
        0
 97
        1
330
25B
 75
     2
 76
     1
 98
        1
 10
0.0
 20
0.0
450
        0
451
        0
460
0.0
461
0.0
452
        0
462
0.0
453
        0
470

  0
SPLINE
  5
25D
330
251
100
AcDbEntity
  8
Sichtbar schmal (ISO)
100
AcDbSpline
210
0.0
220
0.0
230
1.0
 70
     9
 71
     3
 72
    53
 73
    49
 74
     0
 42
0.0000000001
 43
0.0000000001
 40
0.0
 40
0.0
 40
0.0
 40
0.0
 40
1.0
 40
1.0
 40
1.0
 40
2.0
 40
2.0
 40
2.0
 40
3.0
 40
3.0
 40
3.0
 40
4.0
 40
4.0
 40
4.0
 40
5.0
 40
5.0
 40
5.0
 40
6.0
 40
6.0
 40
6.0
 40
7.0
 40
7.0
 40
7.0
 40
8.0
 40
8.0
 40
8.0
 40
9.0
 40
9.0
 40
9.0
 40
10.0
 40
10.0
 40
10.0
 40
11.0
 40
11.0
 40
11.0
 40
12.0
 40
12.0
 40
12.0
 40
13.0
 40
13.0
 40
13.0
 40
14.0
 40
14.0
 40
14.0
 40
15.0
 40
15.0
 40
15.0
 40
16.0
 40
16.0
 40
16.0
 40
16.0
 10
127.0099907451572
 20
136.9776855126306
 30
0.0
 10
127.2160074551752
 20
136.9921549136686
 30
0.0
 10
127.3710367520114
 20
137.1582085160576
 30
0.0
 10
127.3710367520114
 20
137.397987161831
 30
0.0
 10
127.3710367520114
 20
137.6267415020516
 30
0.0
 10
127.2129068692384
 20
137.8210448874197
 30
0.0
 10
126.896991613241
 20
137.8210448874197
 30
0.0
 10
126.6348198468135
 20
137.8210448874197
 30
0.0
 10
126.4429280282851
 20
137.6405218839926
 30
0.0
 10
126.4429280282851
 20
137.369737378852
 30
0.0
 10
126.4429280282851
 20
137.2147080820157
 30
0.0
 10
126.5190646385091
 20
137.0906846445467
 30
0.0
 10
126.6320637704253
 20
136.997667066445
 30
0.0
 10
126.6320637704253
 20
136.997667066445
 30
0.0
 10
126.620694955324
 20
136.7916503564271
 30
0.0
 10
126.620694955324
 20
136.7916503564271
 30
0.0
 10
126.620694955324
 20
136.7916503564271
 30
0.0
 10
125.5826876856182
 20
136.9776855126306
 30
0.0
 10
125.5826876856182
 20
136.9776855126306
 30
0.0
 10
125.5826876856182
 20
136.9776855126306
 30
0.0
 10
125.5826876856182
 20
137.9650498787032
 30
0.0
 10
125.5826876856182
 20
137.9650498787032
 30
0.0
 10
125.5826876856182
 20
137.9650498787032
 30
0.0
 10
125.7942165484125
 20
137.9650498787032
 30
0.0
 10
125.7942165484125
 20
137.9650498787032
 30
0.0
 10
125.7942165484125
 20
137.9650498787032
 30
0.0
 10
125.7942165484125
 20
137.1582085160576
 30
0.0
 10
125.7942165484125
 20
137.1582085160576
 30
0.0
 10
125.7942165484125
 20
137.1582085160576
 30
0.0
 10
126.3695474944493
 20
137.0514105560149
 30
0.0
 10
126.3695474944493
 20
137.0514105560149
 30
0.0
 10
126.3695474944493
 20
137.0514105560149
 30
0.0
 10
126.3754041567742
 20
137.0569227087913
 30
0.0
 10
126.3754041567742
 20
137.0569227087913
 30
0.0
 10
126.2765299163475
 20
137.1444281341167
 30
0.0
 10
126.2313991654907
 20
137.2939452781765
 30
0.0
 10
126.2313991654907
 20
137.4289930211983
 30
0.0
 10
126.2313991654907
 20
137.7845268752761
 30
0.0
 10
126.4570529197746
 20
138.0752929342312
 30
0.0
 10
126.9169731670555
 20
138.0752929342312
 30
0.0
 10
127.255281543707
 20
138.0752929342312
 30
0.0
 10
127.5825656148057
 20
137.8410264412342
 30
0.0
 10
127.5825656148057
 20
137.3755940411769
 30
0.0
 10
127.5825656148057
 20
137.0286729258123
 30
0.0
 10
127.3710367520114
 20
136.7465196055703
 30
0.0
 10
127.0099907451572
 20
136.7379068668572
 30
0.0
 10
127.0099907451572
 20
136.7379068668572
 30
0.0
 10
127.0099907451572
 20
136.9776855126306
 30
0.0
 10
127.0099907451572
 20
136.9776855126306
 30
0.0
  0
HATCH
  5
25E
330
251
100
AcDbEntity
  8
Sichtbar schmal (ISO)
 62
    18
420
        0
440
 33554687
100
AcDbHatch
 10
0.0
 20
0.0
 30
0.0
210
0.0
220
0.0
230
1.0
  2
SOLID
 70
     1
 71
     1
 91
        1
 92
        1
 93
        1
 72
     4
 94
        3
 73
     0
 74
     0
 95
       53
 96
       49
 40
0.0
 40
0.0
 40
0.0
 40
0.0
 40
1.0
 40
1.0
 40
1.0
 40
2.0
 40
2.0
 40
2.0
 40
3.0
 40
3.0
 40
3.0
 40
4.0
 40
4.0
 40
4.0
 40
5.0
 40
5.0
 40
5.0
 40
6.0
 40
6.0
 40
6.0
 40
7.0
 40
7.0
 40
7.0
 40
8.0
 40
8.0
 40
8.0
 40
9.0
 40
9.0
 40
9.0
 40
10.0
 40
10.0
 40
10.0
 40
11.0
 40
11.0
 40
11.0
 40
12.0
 40
12.0
 40
12.0
 40
13.0
 40
13.0
 40
13.0
 40
14.0
 40
14.0
 40
14.0
 40
15.0
 40
15.0
 40
15.0
 40
16.0
 40
16.0
 40
16.0
 40
16.0
 10
127.0099907451572
 20
136.9776855126306
 10
127.2160074551752
 20
136.9921549136686
 10
127.3710367520114
 20
137.1582085160576
 10
127.3710367520114
 20
137.397987161831
 10
127.3710367520114
 20
137.6267415020516
 10
127.2129068692384
 20
137.8210448874197
 10
126.896991613241
 20
137.8210448874197
 10
126.6348198468135
 20
137.8210448874197
 10
126.4429280282851
 20
137.6405218839926
 10
126.4429280282851
 20
137.369737378852
 10
126.4429280282851
 20
137.2147080820157
 10
126.5190646385091
 20
137.0906846445467
 10
126.6320637704253
 20
136.997667066445
 10
126.6320637704253
 20
136.997667066445
 10
126.620694955324
 20
136.7916503564271
 10
126.620694955324
 20
136.7916503564271
 10
126.620694955324
 20
136.7916503564271
 10
125.5826876856182
 20
136.9776855126306
 10
125.5826876856182
 20
136.9776855126306
 10
125.5826876856182
 20
136.9776855126306
 10
125.5826876856182
 20
137.9650498787032
 10
125.5826876856182
 20
137.9650498787032
 10
125.5826876856182
 20
137.9650498787032
 10
125.7942165484125
 20
137.9650498787032
 10
125.7942165484125
 20
137.9650498787032
 10
125.7942165484125
 20
137.9650498787032
 10
125.7942165484125
 20
137.1582085160576
 10
125.7942165484125
 20
137.1582085160576
 10
125.7942165484125
 20
137.1582085160576
 10
126.3695474944493
 20
137.0514105560149
 10
126.3695474944493
 20
137.0514105560149
 10
126.3695474944493
 20
137.0514105560149
 10
126.3754041567742
 20
137.0569227087913
 10
126.3754041567742
 20
137.0569227087913
 10
126.2765299163475
 20
137.1444281341167
 10
126.2313991654907
 20
137.2939452781765
 10
126.2313991654907
 20
137.4289930211983
 10
126.2313991654907
 20
137.7845268752761
 10
126.4570529197746
 20
138.0752929342312
 10
126.9169731670555
 20
138.0752929342312
 10
127.255281543707
 20
138.0752929342312
 10
127.5825656148057
 20
137.8410264412342
 10
127.5825656148057
 20
137.3755940411769
 10
127.5825656148057
 20
137.0286729258123
 10
127.3710367520114
 20
136.7465196055703
 10
127.0099907451572
 20
136.7379068668572
 10
127.0099907451572
 20
136.7379068668572
 10
127.0099907451572
 20
136.9776855126306
 10
127.0099907451572
 20
136.9776855126306
 97
        0
 97
        1
330
25D
 75
     2
 76
     1
 98
        1
 10
0.0
 20
0.0
450
        0
451
        0
460
0.0
461
0.0
452
        0
462
0.0
453
        0
470

  0
ENDBLK
  5
254
330
251
100
AcDbEntity
  8
0
100
AcDbBlockEnd
  0
BLOCK
  5
261
330
25F
100
AcDbEntity
  8
0
100
AcDbBlockBegin
  2
Block_31
 70
     0
 10
0.0
 20
0.0
 30
0.0
  3
Block_31
  1

  0
INSERT
  5
264
330
25F
100
AcDbEntity
  8
Sichtbar schmal (ISO)
100
AcDbBlockReference
  2
Block_32
 10
0.0
 20
0.0
 30
0.0
  0
ENDBLK
  5
262
330
25F
100
AcDbEntity
  8
0
100
AcDbBlockEnd
  0
BLOCK
  5
265
330
263
100
AcDbEntity
  8
0
100
AcDbBlockBegin
  2
Block_32
 70
     0
 10
0.0
 20
0.0
 30
0.0
  3
Block_32
  1

  0
SPLINE
  5
267
330
263
100
AcDbEntity
  8
Sichtbar schmal (ISO)
100
AcDbSpline
210
0.0
220
0.0
230
1.0
 70
     9
 71
     3
 72
    26
 73
    22
 74
     0
 42
0.0000000001
 43
0.0000000001
 40
0.0
 40
0.0
 40
0.0
 40
0.0
 40
1.0
 40
1.0
 40
1.0
 40
2.0
 40
2.0
 40
2.0
 40
3.0
 40
3.0
 40
3.0
 40
4.0
 40
4.0
 40
4.0
 40
5.0
 40
5.0
 40
5.0
 40
6.0
 40
6.0
 40
6.0
 40
7.0
 40
7.0
 40
7.0
 40
7.0
 10
134.3339192372498
 20
132.4801133566369
 30
0.0
 10
134.3521782433217
 20
132.5331678271097
 30
0.0
 10
134.3614800011318
 20
132.5872558262282
 30
0.0
 10
134.3614800011318
 20
132.6416883348951
 30
0.0
 10
134.3614800011318
 20
132.8173882046428
 30
0.0
 10
134.2794867285829
 20
132.9421006612089
 30
0.0
 10
134.116189202582
 20
133.0154811950447
 30
0.0
 10
134.0176594717039
 20
133.0599229268044
 30
0.0
 10
133.9046603397877
 20
133.0823160474586
 30
0.0
 10
133.7771918068335
 20
133.0823160474586
 30
0.0
 10
133.6945095151875
 20
133.0823160474586
 30
0.0
 10
133.6231960386428
 20
133.0750813469395
 30
0.0
 10
133.563595886748
 20
133.0613009649985
 30
0.0
 10
133.5312119891866
 20
133.053721754931
 30
0.0
 10
133.4936604483974
 20
133.0409749016356
 30
0.0
 10
133.4505967548318
 20
133.0234049146608
 30
0.0
 10
133.4505967548318
 20
133.0234049146608
 30
0.0
 10
134.2288438249497
 20
132.3323187603197
 30
0.0
 10
134.2288438249497
 20
132.3323187603197
 30
0.0
 10
134.280864766777
 20
132.377794020725
 30
0.0
 10
134.3160047407265
 20
132.4274033957126
 30
0.0
 10
134.3339192372498
 20
132.4801133566369
 30
0.0
  0
SPLINE
  5
268
330
263
100
AcDbEntity
  8
Sichtbar schmal (ISO)
100
AcDbSpline
210
0.0
220
0.0
230
1.0
 70
    11
 71
     3
 72
    26
 73
    22
 74
     0
 42
0.0000000001
 43
0.0000000001
 40
0.0
 40
0.0
 40
0.0
 40
0.0
 40
1.0
 40
1.0
 40
1.0
 40
2.0
 40
2.0
 40
2.0
 40
3.0
 40
3.0
 40
3.0
 40
4.0
 40
4.0
 40
4.0
 40
5.0
 40
5.0
 40
5.0
 40
6.0
 40
6.0
 40
6.0
 40
7.0
 40
7.0
 40
7.0
 40
7.0
 10
133.2600829744975
 20
132.8439154398793
 30
0.0
 10
133.233555739261
 20
132.7863823452756
 30
0.0
 10
133.2204643764171
 20
132.72230356925
 30
0.0
 10
133.2204643764171
 20
132.6516791118024
 30
0.0
 10
133.2204643764171
 20
132.5169758783291
 30
0.0
 10
133.2762749232781
 20
132.4091443896407
 30
0.0
 10
133.3882405265487
 20
132.3278401361889
 30
0.0
 10
133.4998616202708
 20
132.246535882737
 30
0.0
 10
133.6435221020058
 20
132.205883756011
 30
0.0
 10
133.8192219717535
 20
132.205883756011
 30
0.0
 10
133.8857123146188
 20
132.205883756011
 30
0.0
 10
133.9491020715474
 20
132.21311845653
 30
0.0
 10
134.0097357520878
 20
132.2272433480196
 30
0.0
 10
134.0438421973918
 20
132.2358560867327
 30
0.0
 10
134.0869058909574
 20
132.2496364686737
 30
0.0
 10
134.1396158518817
 20
132.2696180224881
 30
0.0
 10
134.1396158518817
 20
132.2696180224881
 30
0.0
 10
133.35757917673
 20
132.9693169155424
 30
0.0
 10
133.35757917673
 20
132.9693169155424
 30
0.0
 10
133.3189941072952
 20
132.943478699403
 30
0.0
 10
133.2866102097339
 20
132.901448534483
 30
0.0
 10
133.2600829744975
 20
132.8439154398793
 30
0.0
  0
SPLINE
  5
269
330
263
100
AcDbEntity
  8
Sichtbar schmal (ISO)
100
AcDbSpline
210
0.0
220
0.0
230
1.0
 70
    11
 71
     3
 72
    59
 73
    55
 74
     0
 42
0.0000000001
 43
0.0000000001
 40
0.0
 40
0.0
 40
0.0
 40
0.0
 40
1.0
 40
1.0
 40
1.0
 40
2.0
 40
2.0
 40
2.0
 40
3.0
 40
3.0
 40
3.0
 40
4.0
 40
4.0
 40
4.0
 40
5.0
 40
5.0
 40
5.0
 40
6.0
 40
6.0
 40
6.0
 40
7.0
 40
7.0
 40
7.0
 40
8.0
 40
8.0
 40
8.0
 40
9.0
 40
9.0
 40
9.0
 40
10.0
 40
10.0
 40
10.0
 40
11.0
 40
11.0
 40
11.0
 40
12.0
 40
12.0
 40
12.0
 40
13.0
 40
13.0
 40
13.0
 40
14.0
 40
14.0
 40
14.0
 40
15.0
 40
15.0
 40
15.0
 40
16.0
 40
16.0
 40
16.0
 40
17.0
 40
17.0
 40
17.0
 40
18.0
 40
18.0
 40
18.0
 40
18.0
 10
134.515820278871
 20
131.9220078880264
 30
0.0
 10
134.515820278871
 20
131.9220078880264
 30
0.0
 10
134.3304741417646
 20
132.0987412864197
 30
0.0
 10
134.3304741417646
 20
132.0987412864197
 30
0.0
 10
134.2626057607052
 20
132.0525770069174
 30
0.0
 10
134.1861246409326
 20
132.0174370329679
 30
0.0
 10
134.101719801544
 20
131.992632345474
 30
0.0
 10
134.0173149621554
 20
131.9674831484317
 30
0.0
 10
133.9170626835346
 20
131.9550808046848
 30
0.0
 10
133.8016519847788
 20
131.9550808046848
 30
0.0
 10
133.5932237079211
 20
131.9550808046848
 30
0.0
 10
133.4078775708147
 20
132.0136474279341
 30
0.0
 10
133.2456135734594
 20
132.130436164884
 30
0.0
 10
133.0836940856527
 20
132.2475694113825
 30
0.0
 10
133.0027343417493
 20
132.4181016379024
 30
0.0
 10
133.0027343417493
 20
132.6420328444436
 30
0.0
 10
133.0027343417493
 20
132.7584770718451
 30
0.0
 10
133.0234049146608
 20
132.860796407757
 30
0.0
 10
133.0650905700323
 20
132.9486463426309
 30
0.0
 10
133.0895507479776
 20
133.0003227749096
 30
0.0
 10
133.129169346058
 20
133.0595784172559
 30
0.0
 10
133.184290873822
 20
133.1260687601212
 30
0.0
 10
133.184290873822
 20
133.1260687601212
 30
0.0
 10
132.9903319980024
 20
133.301768629869
 30
0.0
 10
132.9903319980024
 20
133.301768629869
 30
0.0
 10
132.9903319980024
 20
133.301768629869
 30
0.0
 10
133.0606119459015
 20
133.3730821064136
 30
0.0
 10
133.0606119459015
 20
133.3730821064136
 30
0.0
 10
133.0606119459015
 20
133.3730821064136
 30
0.0
 10
133.2580159172063
 20
133.1960041984718
 30
0.0
 10
133.2580159172063
 20
133.1960041984718
 30
0.0
 10
133.3424207565949
 20
133.2542263121725
 30
0.0
 10
133.4392279397304
 20
133.2955674579955
 30
0.0
 10
133.5487819761614
 20
133.3203721454893
 30
0.0
 10
133.619406433609
 20
133.3362195847215
 30
0.0
 10
133.6900308910566
 20
133.3441433043376
 30
0.0
 10
133.7606553485043
 20
133.3441433043376
 30
0.0
 10
133.9976779178894
 20
133.3441433043376
 30
0.0
 10
134.1930148319031
 20
133.2797200187634
 30
0.0
 10
134.3470106000938
 20
133.150873447615
 30
0.0
 10
134.5010063682844
 20
133.0220268764667
 30
0.0
 10
134.5778319976055
 20
132.8504611213013
 30
0.0
 10
134.5778319976055
 20
132.6361761821187
 30
0.0
 10
134.5778319976055
 20
132.5342013557553
 30
0.0
 10
134.563018087019
 20
132.4432508349447
 30
0.0
 10
134.5330457562973
 20
132.3636691292355
 30
0.0
 10
134.5034179351241
 20
132.2840874235262
 30
0.0
 10
134.4627658083982
 20
132.2193196284035
 30
0.0
 10
134.411433885668
 20
132.1703992725129
 30
0.0
 10
134.411433885668
 20
132.1703992725129
 30
0.0
 10
134.5874782649642
 20
132.0033121414783
 30
0.0
 10
134.5874782649642
 20
132.0033121414783
 30
0.0
 10
134.5874782649642
 20
132.0033121414783
 30
0.0
 10
134.515820278871
 20
131.9220078880264
 30
0.0
 10
134.515820278871
 20
131.9220078880264
 30
0.0
  0
HATCH
  5
26A
330
263
100
AcDbEntity
  8
Sichtbar schmal (ISO)
 62
   250
420
  2039067
440
 33554687
100
AcDbHatch
 10
0.0
 20
0.0
 30
0.0
210
0.0
220
0.0
230
1.0
  2
SOLID
 70
     1
 71
     1
 91
        3
 92
        1
 93
        1
 72
     4
 94
        3
 73
     0
 74
     0
 95
       26
 96
       22
 40
0.0
 40
0.0
 40
0.0
 40
0.0
 40
1.0
 40
1.0
 40
1.0
 40
2.0
 40
2.0
 40
2.0
 40
3.0
 40
3.0
 40
3.0
 40
4.0
 40
4.0
 40
4.0
 40
5.0
 40
5.0
 40
5.0
 40
6.0
 40
6.0
 40
6.0
 40
7.0
 40
7.0
 40
7.0
 40
7.0
 10
134.3339192372498
 20
132.4801133566369
 10
134.3521782433217
 20
132.5331678271097
 10
134.3614800011318
 20
132.5872558262282
 10
134.3614800011318
 20
132.6416883348951
 10
134.3614800011318
 20
132.8173882046428
 10
134.2794867285829
 20
132.9421006612089
 10
134.116189202582
 20
133.0154811950447
 10
134.0176594717039
 20
133.0599229268044
 10
133.9046603397877
 20
133.0823160474586
 10
133.7771918068335
 20
133.0823160474586
 10
133.6945095151875
 20
133.0823160474586
 10
133.6231960386428
 20
133.0750813469395
 10
133.563595886748
 20
133.0613009649985
 10
133.5312119891866
 20
133.053721754931
 10
133.4936604483974
 20
133.0409749016356
 10
133.4505967548318
 20
133.0234049146608
 10
133.4505967548318
 20
133.0234049146608
 10
134.2288438249497
 20
132.3323187603197
 10
134.2288438249497
 20
132.3323187603197
 10
134.280864766777
 20
132.377794020725
 10
134.3160047407265
 20
132.4274033957126
 10
134.3339192372498
 20
132.4801133566369
 97
        0
 97
        1
330
267
 92
        1
 93
        1
 72
     4
 94
        3
 73
     0
 74
     0
 95
       26
 96
       22
 40
0.0
 40
0.0
 40
0.0
 40
0.0
 40
1.0
 40
1.0
 40
1.0
 40
2.0
 40
2.0
 40
2.0
 40
3.0
 40
3.0
 40
3.0
 40
4.0
 40
4.0
 40
4.0
 40
5.0
 40
5.0
 40
5.0
 40
6.0
 40
6.0
 40
6.0
 40
7.0
 40
7.0
 40
7.0
 40
7.0
 10
133.2600829744975
 20
132.8439154398793
 10
133.233555739261
 20
132.7863823452756
 10
133.2204643764171
 20
132.72230356925
 10
133.2204643764171
 20
132.6516791118024
 10
133.2204643764171
 20
132.5169758783291
 10
133.2762749232781
 20
132.4091443896407
 10
133.3882405265487
 20
132.3278401361889
 10
133.4998616202708
 20
132.246535882737
 10
133.6435221020058
 20
132.205883756011
 10
133.8192219717535
 20
132.205883756011
 10
133.8857123146188
 20
132.205883756011
 10
133.9491020715474
 20
132.21311845653
 10
134.0097357520878
 20
132.2272433480196
 10
134.0438421973918
 20
132.2358560867327
 10
134.0869058909574
 20
132.2496364686737
 10
134.1396158518817
 20
132.2696180224881
 10
134.1396158518817
 20
132.2696180224881
 10
133.35757917673
 20
132.9693169155424
 10
133.35757917673
 20
132.9693169155424
 10
133.3189941072952
 20
132.943478699403
 10
133.2866102097339
 20
132.901448534483
 10
133.2600829744975
 20
132.8439154398793
 97
        0
 97
        1
330
268
 92
        1
 93
        1
 72
     4
 94
        3
 73
     0
 74
     0
 95
       59
 96
       55
 40
0.0
 40
0.0
 40
0.0
 40
0.0
 40
1.0
 40
1.0
 40
1.0
 40
2.0
 40
2.0
 40
2.0
 40
3.0
 40
3.0
 40
3.0
 40
4.0
 40
4.0
 40
4.0
 40
5.0
 40
5.0
 40
5.0
 40
6.0
 40
6.0
 40
6.0
 40
7.0
 40
7.0
 40
7.0
 40
8.0
 40
8.0
 40
8.0
 40
9.0
 40
9.0
 40
9.0
 40
10.0
 40
10.0
 40
10.0
 40
11.0
 40
11.0
 40
11.0
 40
12.0
 40
12.0
 40
12.0
 40
13.0
 40
13.0
 40
13.0
 40
14.0
 40
14.0
 40
14.0
 40
15.0
 40
15.0
 40
15.0
 40
16.0
 40
16.0
 40
16.0
 40
17.0
 40
17.0
 40
17.0
 40
18.0
 40
18.0
 40
18.0
 40
18.0
 10
134.515820278871
 20
131.9220078880264
 10
134.515820278871
 20
131.9220078880264
 10
134.3304741417646
 20
132.0987412864197
 10
134.3304741417646
 20
132.0987412864197
 10
134.2626057607052
 20
132.0525770069174
 10
134.1861246409326
 20
132.0174370329679
 10
134.101719801544
 20
131.992632345474
 10
134.0173149621554
 20
131.9674831484317
 10
133.9170626835346
 20
131.9550808046848
 10
133.8016519847788
 20
131.9550808046848
 10
133.5932237079211
 20
131.9550808046848
 10
133.4078775708147
 20
132.0136474279341
 10
133.2456135734594
 20
132.130436164884
 10
133.0836940856527
 20
132.2475694113825
 10
133.0027343417493
 20
132.4181016379024
 10
133.0027343417493
 20
132.6420328444436
 10
133.0027343417493
 20
132.7584770718451
 10
133.0234049146608
 20
132.860796407757
 10
133.0650905700323
 20
132.9486463426309
 10
133.0895507479776
 20
133.0003227749096
 10
133.129169346058
 20
133.0595784172559
 10
133.184290873822
 20
133.1260687601212
 10
133.184290873822
 20
133.1260687601212
 10
132.9903319980024
 20
133.301768629869
 10
132.9903319980024
 20
133.301768629869
 10
132.9903319980024
 20
133.301768629869
 10
133.0606119459015
 20
133.3730821064136
 10
133.0606119459015
 20
133.3730821064136
 10
133.0606119459015
 20
133.3730821064136
 10
133.2580159172063
 20
133.1960041984718
 10
133.2580159172063
 20
133.1960041984718
 10
133.3424207565949
 20
133.2542263121725
 10
133.4392279397304
 20
133.2955674579955
 10
133.5487819761614
 20
133.3203721454893
 10
133.619406433609
 20
133.3362195847215
 10
133.6900308910566
 20
133.3441433043376
 10
133.7606553485043
 20
133.3441433043376
 10
133.9976779178894
 20
133.3441433043376
 10
134.1930148319031
 20
133.2797200187634
 10
134.3470106000938
 20
133.150873447615
 10
134.5010063682844
 20
133.0220268764667
 10
134.5778319976055
 20
132.8504611213013
 10
134.5778319976055
 20
132.6361761821187
 10
134.5778319976055
 20
132.5342013557553
 10
134.563018087019
 20
132.4432508349447
 10
134.5330457562973
 20
132.3636691292355
 10
134.5034179351241
 20
132.2840874235262
 10
134.4627658083982
 20
132.2193196284035
 10
134.411433885668
 20
132.1703992725129
 10
134.411433885668
 20
132.1703992725129
 10
134.5874782649642
 20
132.0033121414783
 10
134.5874782649642
 20
132.0033121414783
 10
134.5874782649642
 20
132.0033121414783
 10
134.515820278871
 20
131.9220078880264
 10
134.515820278871
 20
131.9220078880264
 97
        0
 97
        1
330
269
 75
     2
 76
     1
 98
        1
 10
0.0
 20
0.0
450
        0
451
        0
460
0.0
461
0.0
452
        0
462
0.0
453
        0
470

  0
SPLINE
  5
26B
330
263
100
AcDbEntity
  8
Sichtbar schmal (ISO)
100
AcDbSpline
210
0.0
220
0.0
230
1.0
 70
     9
 71
     3
 72
    41
 73
    37
 74
     0
 42
0.0000000001
 43
0.0000000001
 40
0.0
 40
0.0
 40
0.0
 40
0.0
 40
1.0
 40
1.0
 40
1.0
 40
2.0
 40
2.0
 40
2.0
 40
3.0
 40
3.0
 40
3.0
 40
4.0
 40
4.0
 40
4.0
 40
5.0
 40
5.0
 40
5.0
 40
6.0
 40
6.0
 40
6.0
 40
7.0
 40
7.0
 40
7.0
 40
8.0
 40
8.0
 40
8.0
 40
9.0
 40
9.0
 40
9.0
 40
10.0
 40
10.0
 40
10.0
 40
11.0
 40
11.0
 40
11.0
 40
12.0
 40
12.0
 40
12.0
 40
12.0
 10
133.7031222539006
 20
134.1482285905949
 30
0.0
 10
133.4915933911063
 20
134.4868814767949
 30
0.0
 10
133.3730821064136
 20
134.6587917415089
 30
0.0
 10
133.0940293721084
 20
134.6587917415089
 30
0.0
 10
132.8766438469891
 20
134.6587917415089
 30
0.0
 10
132.7329833652542
 20
134.4837808908582
 30
0.0
 10
132.7329833652542
 20
134.2722520280639
 30
0.0
 10
132.7329833652542
 20
133.9928547842101
 30
0.0
 10
132.9896429789054
 20
133.8743434995175
 30
0.0
 10
133.2294216246787
 20
133.8829562382306
 30
0.0
 10
133.2294216246787
 20
133.8829562382306
 30
0.0
 10
133.2294216246787
 20
133.6431775924572
 30
0.0
 10
133.2294216246787
 20
133.6431775924572
 30
0.0
 10
132.8232448669678
 20
133.6207844718031
 30
0.0
 10
132.5214545024599
 20
133.8633191939647
 30
0.0
 10
132.5214545024599
 20
134.2863769195534
 30
0.0
 10
132.5214545024599
 20
134.6332980349181
 30
0.0
 10
132.7243706265411
 20
134.9126952787718
 30
0.0
 10
133.0967854484966
 20
134.9126952787718
 30
0.0
 10
133.4495632261862
 20
134.9126952787718
 30
0.0
 10
133.6242295672884
 20
134.6756727093866
 30
0.0
 10
133.7823594500613
 20
134.4276258344486
 30
0.0
 10
133.9318765941212
 20
134.1792344499621
 30
0.0
 10
134.0641682607548
 20
133.9112060212097
 30
0.0
 10
134.3098035688531
 20
133.8660752703529
 30
0.0
 10
134.3098035688531
 20
133.8660752703529
 30
0.0
 10
134.3098035688531
 20
134.8927137249574
 30
0.0
 10
134.3098035688531
 20
134.8927137249574
 30
0.0
 10
134.3098035688531
 20
134.8927137249574
 30
0.0
 10
134.5213324316474
 20
134.8927137249574
 30
0.0
 10
134.5213324316474
 20
134.8927137249574
 30
0.0
 10
134.5213324316474
 20
134.8927137249574
 30
0.0
 10
134.5213324316474
 20
133.5870225360477
 30
0.0
 10
134.5213324316474
 20
133.5870225360477
 30
0.0
 10
134.0500433692652
 20
133.6235405481913
 30
0.0
 10
133.8726209517749
 20
133.8660752703529
 30
0.0
 10
133.7031222539006
 20
134.1482285905949
 30
0.0
  0
HATCH
  5
26C
330
263
100
AcDbEntity
  8
Sichtbar schmal (ISO)
 62
    18
420
        0
440
 33554687
100
AcDbHatch
 10
0.0
 20
0.0
 30
0.0
210
0.0
220
0.0
230
1.0
  2
SOLID
 70
     1
 71
     1
 91
        1
 92
        1
 93
        1
 72
     4
 94
        3
 73
     0
 74
     0
 95
       41
 96
       37
 40
0.0
 40
0.0
 40
0.0
 40
0.0
 40
1.0
 40
1.0
 40
1.0
 40
2.0
 40
2.0
 40
2.0
 40
3.0
 40
3.0
 40
3.0
 40
4.0
 40
4.0
 40
4.0
 40
5.0
 40
5.0
 40
5.0
 40
6.0
 40
6.0
 40
6.0
 40
7.0
 40
7.0
 40
7.0
 40
8.0
 40
8.0
 40
8.0
 40
9.0
 40
9.0
 40
9.0
 40
10.0
 40
10.0
 40
10.0
 40
11.0
 40
11.0
 40
11.0
 40
12.0
 40
12.0
 40
12.0
 40
12.0
 10
133.7031222539006
 20
134.1482285905949
 10
133.4915933911063
 20
134.4868814767949
 10
133.3730821064136
 20
134.6587917415089
 10
133.0940293721084
 20
134.6587917415089
 10
132.8766438469891
 20
134.6587917415089
 10
132.7329833652542
 20
134.4837808908582
 10
132.7329833652542
 20
134.2722520280639
 10
132.7329833652542
 20
133.9928547842101
 10
132.9896429789054
 20
133.8743434995175
 10
133.2294216246787
 20
133.8829562382306
 10
133.2294216246787
 20
133.8829562382306
 10
133.2294216246787
 20
133.6431775924572
 10
133.2294216246787
 20
133.6431775924572
 10
132.8232448669678
 20
133.6207844718031
 10
132.5214545024599
 20
133.8633191939647
 10
132.5214545024599
 20
134.2863769195534
 10
132.5214545024599
 20
134.6332980349181
 10
132.7243706265411
 20
134.9126952787718
 10
133.0967854484966
 20
134.9126952787718
 10
133.4495632261862
 20
134.9126952787718
 10
133.6242295672884
 20
134.6756727093866
 10
133.7823594500613
 20
134.4276258344486
 10
133.9318765941212
 20
134.1792344499621
 10
134.0641682607548
 20
133.9112060212097
 10
134.3098035688531
 20
133.8660752703529
 10
134.3098035688531
 20
133.8660752703529
 10
134.3098035688531
 20
134.8927137249574
 10
134.3098035688531
 20
134.8927137249574
 10
134.3098035688531
 20
134.8927137249574
 10
134.5213324316474
 20
134.8927137249574
 10
134.5213324316474
 20
134.8927137249574
 10
134.5213324316474
 20
134.8927137249574
 10
134.5213324316474
 20
133.5870225360477
 10
134.5213324316474
 20
133.5870225360477
 10
134.0500433692652
 20
133.6235405481913
 10
133.8726209517749
 20
133.8660752703529
 10
133.7031222539006
 20
134.1482285905949
 97
        0
 97
        1
330
26B
 75
     2
 76
     1
 98
        1
 10
0.0
 20
0.0
450
        0
451
        0
460
0.0
461
0.0
452
        0
462
0.0
453
        0
470

  0
SPLINE
  5
26D
330
263
100
AcDbEntity
  8
Sichtbar schmal (ISO)
100
AcDbSpline
210
0.0
220
0.0
230
1.0
 70
     9
 71
     3
 72
    17
 73
    13
 74
     0
 42
0.0000000001
 43
0.0000000001
 40
0.0
 40
0.0
 40
0.0
 40
0.0
 40
1.0
 40
1.0
 40
1.0
 40
2.0
 40
2.0
 40
2.0
 40
3.0
 40
3.0
 40
3.0
 40
4.0
 40
4.0
 40
4.0
 40
4.0
 10
133.536724141963
 20
136.2845323009983
 30
0.0
 10
133.24079043978
 20
136.2845323009983
 30
0.0
 10
132.7329833652542
 20
136.2817762246101
 30
0.0
 10
132.7329833652542
 20
135.8724988809624
 30
0.0
 10
132.7329833652542
 20
135.4635660468633
 30
0.0
 10
133.24079043978
 20
135.4608099704751
 30
0.0
 10
133.536724141963
 20
135.4608099704751
 30
0.0
 10
133.8357584300827
 20
135.4608099704751
 30
0.0
 10
134.3435655046085
 20
135.4635660468633
 30
0.0
 10
134.3435655046085
 20
135.8724988809624
 30
0.0
 10
134.3435655046085
 20
136.2817762246101
 30
0.0
 10
133.8357584300827
 20
136.2845323009983
 30
0.0
 10
133.536724141963
 20
136.2845323009983
 30
0.0
  0
SPLINE
  5
26E
330
263
100
AcDbEntity
  8
Sichtbar schmal (ISO)
100
AcDbSpline
210
0.0
220
0.0
230
1.0
 70
     9
 71
     3
 72
    17
 73
    13
 74
     0
 42
0.0000000001
 43
0.0000000001
 40
0.0
 40
0.0
 40
0.0
 40
0.0
 40
1.0
 40
1.0
 40
1.0
 40
2.0
 40
2.0
 40
2.0
 40
3.0
 40
3.0
 40
3.0
 40
4.0
 40
4.0
 40
4.0
 40
4.0
 10
133.5398247278998
 20
135.2069064332122
 30
0.0
 10
133.0995415248848
 20
135.2069064332122
 30
0.0
 10
132.5214545024599
 20
135.246180521744
 30
0.0
 10
132.5214545024599
 20
135.8724988809624
 30
0.0
 10
132.5214545024599
 20
136.4988172401808
 30
0.0
 10
133.0995415248848
 20
136.5380913287127
 30
0.0
 10
133.5398247278998
 20
136.5380913287127
 30
0.0
 10
133.9797634213662
 20
136.5380913287127
 30
0.0
 10
134.5550943674029
 20
136.4988172401808
 30
0.0
 10
134.5550943674029
 20
135.8724988809624
 30
0.0
 10
134.5550943674029
 20
135.246180521744
 30
0.0
 10
133.9797634213662
 20
135.2069064332122
 30
0.0
 10
133.5398247278998
 20
135.2069064332122
 30
0.0
  0
HATCH
  5
26F
330
263
100
AcDbEntity
  8
Sichtbar schmal (ISO)
 62
    18
420
        0
440
 33554687
100
AcDbHatch
 10
0.0
 20
0.0
 30
0.0
210
0.0
220
0.0
230
1.0
  2
SOLID
 70
     1
 71
     1
 91
        2
 92
        1
 93
        1
 72
     4
 94
        3
 73
     0
 74
     0
 95
       17
 96
       13
 40
0.0
 40
0.0
 40
0.0
 40
0.0
 40
1.0
 40
1.0
 40
1.0
 40
2.0
 40
2.0
 40
2.0
 40
3.0
 40
3.0
 40
3.0
 40
4.0
 40
4.0
 40
4.0
 40
4.0
 10
133.536724141963
 20
136.2845323009983
 10
133.24079043978
 20
136.2845323009983
 10
132.7329833652542
 20
136.2817762246101
 10
132.7329833652542
 20
135.8724988809624
 10
132.7329833652542
 20
135.4635660468633
 10
133.24079043978
 20
135.4608099704751
 10
133.536724141963
 20
135.4608099704751
 10
133.8357584300827
 20
135.4608099704751
 10
134.3435655046085
 20
135.4635660468633
 10
134.3435655046085
 20
135.8724988809624
 10
134.3435655046085
 20
136.2817762246101
 10
133.8357584300827
 20
136.2845323009983
 10
133.536724141963
 20
136.2845323009983
 97
        0
 97
        1
330
26D
 92
        1
 93
        1
 72
     4
 94
        3
 73
     0
 74
     0
 95
       17
 96
       13
 40
0.0
 40
0.0
 40
0.0
 40
0.0
 40
1.0
 40
1.0
 40
1.0
 40
2.0
 40
2.0
 40
2.0
 40
3.0
 40
3.0
 40
3.0
 40
4.0
 40
4.0
 40
4.0
 40
4.0
 10
133.5398247278998
 20
135.2069064332122
 10
133.0995415248848
 20
135.2069064332122
 10
132.5214545024599
 20
135.246180521744
 10
132.5214545024599
 20
135.8724988809624
 10
132.5214545024599
 20
136.4988172401808
 10
133.0995415248848
 20
136.5380913287127
 10
133.5398247278998
 20
136.5380913287127
 10
133.9797634213662
 20
136.5380913287127
 10
134.5550943674029
 20
136.4988172401808
 10
134.5550943674029
 20
135.8724988809624
 10
134.5550943674029
 20
135.246180521744
 10
133.9797634213662
 20
135.2069064332122
 10
133.5398247278998
 20
135.2069064332122
 97
        0
 97
        1
330
26E
 75
     2
 76
     1
 98
        1
 10
0.0
 20
0.0
450
        0
451
        0
460
0.0
461
0.0
452
        0
462
0.0
453
        0
470

  0
SPLINE
  5
270
330
263
100
AcDbEntity
  8
Sichtbar schmal (ISO)
100
AcDbSpline
210
0.0
220
0.0
230
1.0
 70
    11
 71
     3
 72
    17
 73
    13
 74
     0
 42
0.0000000001
 43
0.0000000001
 40
0.0
 40
0.0
 40
0.0
 40
0.0
 40
1.0
 40
1.0
 40
1.0
 40
2.0
 40
2.0
 40
2.0
 40
3.0
 40
3.0
 40
3.0
 40
4.0
 40
4.0
 40
4.0
 40
4.0
 10
133.8416150924076
 20
137.6136501392077
 30
0.0
 10
133.8416150924076
 20
137.6136501392077
 30
0.0
 10
132.8628634650482
 20
137.6136501392077
 30
0.0
 10
132.8628634650482
 20
137.6136501392077
 30
0.0
 10
132.8628634650482
 20
137.6136501392077
 30
0.0
 10
132.8628634650482
 20
137.6081379864313
 30
0.0
 10
132.8628634650482
 20
137.6081379864313
 30
0.0
 10
132.8628634650482
 20
137.6081379864313
 30
0.0
 10
133.8416150924076
 20
136.942545538681
 30
0.0
 10
133.8416150924076
 20
136.942545538681
 30
0.0
 10
133.8416150924076
 20
136.942545538681
 30
0.0
 10
133.8416150924076
 20
137.6136501392077
 30
0.0
 10
133.8416150924076
 20
137.6136501392077
 30
0.0
  0
SPLINE
  5
271
330
263
100
AcDbEntity
  8
Sichtbar schmal (ISO)
100
AcDbSpline
210
0.0
220
0.0
230
1.0
 70
    11
 71
     3
 72
    38
 73
    34
 74
     0
 42
0.0000000001
 43
0.0000000001
 40
0.0
 40
0.0
 40
0.0
 40
0.0
 40
1.0
 40
1.0
 40
1.0
 40
2.0
 40
2.0
 40
2.0
 40
3.0
 40
3.0
 40
3.0
 40
4.0
 40
4.0
 40
4.0
 40
5.0
 40
5.0
 40
5.0
 40
6.0
 40
6.0
 40
6.0
 40
7.0
 40
7.0
 40
7.0
 40
8.0
 40
8.0
 40
8.0
 40
9.0
 40
9.0
 40
9.0
 40
10.0
 40
10.0
 40
10.0
 40
11.0
 40
11.0
 40
11.0
 40
11.0
 10
133.8216335385932
 20
136.7365288286631
 30
0.0
 10
133.8216335385932
 20
136.7365288286631
 30
0.0
 10
132.5214545024599
 20
137.6477565845117
 30
0.0
 10
132.5214545024599
 20
137.6477565845117
 30
0.0
 10
132.5214545024599
 20
137.6477565845117
 30
0.0
 10
132.5214545024599
 20
137.8396484030401
 30
0.0
 10
132.5214545024599
 20
137.8396484030401
 30
0.0
 10
132.5214545024599
 20
137.8396484030401
 30
0.0
 10
133.8416150924076
 20
137.8396484030401
 30
0.0
 10
133.8416150924076
 20
137.8396484030401
 30
0.0
 10
133.8416150924076
 20
137.8396484030401
 30
0.0
 10
133.8416150924076
 20
138.1104329081807
 30
0.0
 10
133.8416150924076
 20
138.1104329081807
 30
0.0
 10
133.8416150924076
 20
138.1104329081807
 30
0.0
 10
134.053143955202
 20
138.1104329081807
 30
0.0
 10
134.053143955202
 20
138.1104329081807
 30
0.0
 10
134.053143955202
 20
138.1104329081807
 30
0.0
 10
134.053143955202
 20
137.8396484030401
 30
0.0
 10
134.053143955202
 20
137.8396484030401
 30
0.0
 10
134.053143955202
 20
137.8396484030401
 30
0.0
 10
134.5213324316474
 20
137.8396484030401
 30
0.0
 10
134.5213324316474
 20
137.8396484030401
 30
0.0
 10
134.5213324316474
 20
137.8396484030401
 30
0.0
 10
134.5213324316474
 20
137.6136501392077
 30
0.0
 10
134.5213324316474
 20
137.6136501392077
 30
0.0
 10
134.5213324316474
 20
137.6136501392077
 30
0.0
 10
134.053143955202
 20
137.6136501392077
 30
0.0
 10
134.053143955202
 20
137.6136501392077
 30
0.0
 10
134.053143955202
 20
137.6136501392077
 30
0.0
 10
134.053143955202
 20
136.7365288286631
 30
0.0
 10
134.053143955202
 20
136.7365288286631
 30
0.0
 10
134.053143955202
 20
136.7365288286631
 30
0.0
 10
133.8216335385932
 20
136.7365288286631
 30
0.0
 10
133.8216335385932
 20
136.7365288286631
 30
0.0
  0
HATCH
  5
272
330
263
100
AcDbEntity
  8
Sichtbar schmal (ISO)
 62
    18
420
        0
440
 33554687
100
AcDbHatch
 10
0.0
 20
0.0
 30
0.0
210
0.0
220
0.0
230
1.0
  2
SOLID
 70
     1
 71
     1
 91
        2
 92
        1
 93
        1
 72
     4
 94
        3
 73
     0
 74
     0
 95
       17
 96
       13
 40
0.0
 40
0.0
 40
0.0
 40
0.0
 40
1.0
 40
1.0
 40
1.0
 40
2.0
 40
2.0
 40
2.0
 40
3.0
 40
3.0
 40
3.0
 40
4.0
 40
4.0
 40
4.0
 40
4.0
 10
133.8416150924076
 20
137.6136501392077
 10
133.8416150924076
 20
137.6136501392077
 10
132.8628634650482
 20
137.6136501392077
 10
132.8628634650482
 20
137.6136501392077
 10
132.8628634650482
 20
137.6136501392077
 10
132.8628634650482
 20
137.6081379864313
 10
132.8628634650482
 20
137.6081379864313
 10
132.8628634650482
 20
137.6081379864313
 10
133.8416150924076
 20
136.942545538681
 10
133.8416150924076
 20
136.942545538681
 10
133.8416150924076
 20
136.942545538681
 10
133.8416150924076
 20
137.6136501392077
 10
133.8416150924076
 20
137.6136501392077
 97
        0
 97
        1
330
270
 92
        1
 93
        1
 72
     4
 94
        3
 73
     0
 74
     0
 95
       38
 96
       34
 40
0.0
 40
0.0
 40
0.0
 40
0.0
 40
1.0
 40
1.0
 40
1.0
 40
2.0
 40
2.0
 40
2.0
 40
3.0
 40
3.0
 40
3.0
 40
4.0
 40
4.0
 40
4.0
 40
5.0
 40
5.0
 40
5.0
 40
6.0
 40
6.0
 40
6.0
 40
7.0
 40
7.0
 40
7.0
 40
8.0
 40
8.0
 40
8.0
 40
9.0
 40
9.0
 40
9.0
 40
10.0
 40
10.0
 40
10.0
 40
11.0
 40
11.0
 40
11.0
 40
11.0
 10
133.8216335385932
 20
136.7365288286631
 10
133.8216335385932
 20
136.7365288286631
 10
132.5214545024599
 20
137.6477565845117
 10
132.5214545024599
 20
137.6477565845117
 10
132.5214545024599
 20
137.6477565845117
 10
132.5214545024599
 20
137.8396484030401
 10
132.5214545024599
 20
137.8396484030401
 10
132.5214545024599
 20
137.8396484030401
 10
133.8416150924076
 20
137.8396484030401
 10
133.8416150924076
 20
137.8396484030401
 10
133.8416150924076
 20
137.8396484030401
 10
133.8416150924076
 20
138.1104329081807
 10
133.8416150924076
 20
138.1104329081807
 10
133.8416150924076
 20
138.1104329081807
 10
134.053143955202
 20
138.1104329081807
 10
134.053143955202
 20
138.1104329081807
 10
134.053143955202
 20
138.1104329081807
 10
134.053143955202
 20
137.8396484030401
 10
134.053143955202
 20
137.8396484030401
 10
134.053143955202
 20
137.8396484030401
 10
134.5213324316474
 20
137.8396484030401
 10
134.5213324316474
 20
137.8396484030401
 10
134.5213324316474
 20
137.8396484030401
 10
134.5213324316474
 20
137.6136501392077
 10
134.5213324316474
 20
137.6136501392077
 10
134.5213324316474
 20
137.6136501392077
 10
134.053143955202
 20
137.6136501392077
 10
134.053143955202
 20
137.6136501392077
 10
134.053143955202
 20
137.6136501392077
 10
134.053143955202
 20
136.7365288286631
 10
134.053143955202
 20
136.7365288286631
 10
134.053143955202
 20
136.7365288286631
 10
133.8216335385932
 20
136.7365288286631
 10
133.8216335385932
 20
136.7365288286631
 97
        0
 97
        1
330
271
 75
     2
 76
     1
 98
        1
 10
0.0
 20
0.0
450
        0
451
        0
460
0.0
461
0.0
452
        0
462
0.0
453
        0
470

  0
ENDBLK
  5
266
330
263
100
AcDbEntity
  8
0
100
AcDbBlockEnd
  0
BLOCK
  5
275
330
273
100
AcDbEntity
  8
0
100
AcDbBlockBegin
  2
Block_33
 70
     0
 10
0.0
 20
0.0
 30
0.0
  3
Block_33
  1

  0
INSERT
  5
278
330
273
100
AcDbEntity
  8
Sichtbar schmal (ISO)
100
AcDbBlockReference
  2
Block_34
 10
0.0
 20
0.0
 30
0.0
  0
ENDBLK
  5
276
330
273
100
AcDbEntity
  8
0
100
AcDbBlockEnd
  0
BLOCK
  5
279
330
277
100
AcDbEntity
  8
0
100
AcDbBlockBegin
  2
Block_34
 70
     0
 10
0.0
 20
0.0
 30
0.0
  3
Block_34
  1

  0
SPLINE
  5
27B
330
277
100
AcDbEntity
  8
Sichtbar schmal (ISO)
100
AcDbSpline
210
0.0
220
0.0
230
1.0
 70
     9
 71
     3
 72
    26
 73
    22
 74
     0
 42
0.0000000001
 43
0.0000000001
 40
0.0
 40
0.0
 40
0.0
 40
0.0
 40
1.0
 40
1.0
 40
1.0
 40
2.0
 40
2.0
 40
2.0
 40
3.0
 40
3.0
 40
3.0
 40
4.0
 40
4.0
 40
4.0
 40
5.0
 40
5.0
 40
5.0
 40
6.0
 40
6.0
 40
6.0
 40
7.0
 40
7.0
 40
7.0
 40
7.0
 10
141.3736273518094
 20
132.4932047194808
 30
0.0
 10
141.3918863578812
 20
132.5462591899537
 30
0.0
 10
141.4008436061428
 20
132.6003471890721
 30
0.0
 10
141.4008436061428
 20
132.6547796977391
 30
0.0
 10
141.4008436061428
 20
132.8304795674868
 30
0.0
 10
141.3191948431424
 20
132.9551920240529
 30
0.0
 10
141.155552807593
 20
133.0285725578887
 30
0.0
 10
141.0573675862634
 20
133.0730142896484
 30
0.0
 10
140.9443684543472
 20
133.0954074103025
 30
0.0
 10
140.8165554118445
 20
133.0954074103025
 30
0.0
 10
140.7338731201985
 20
133.0954074103025
 30
0.0
 10
140.6629041532023
 20
133.0881727097835
 30
0.0
 10
140.602959491759
 20
133.0743923278425
 30
0.0
 10
140.5709201037462
 20
133.0668131177749
 30
0.0
 10
140.5333685629569
 20
133.0540662644795
 30
0.0
 10
140.4899603598428
 20
133.0364962775048
 30
0.0
 10
140.4899603598428
 20
133.0364962775048
 30
0.0
 10
141.2682074299607
 20
132.3454101231636
 30
0.0
 10
141.2682074299607
 20
132.3454101231636
 30
0.0
 10
141.320228371788
 20
132.3908853835689
 30
0.0
 10
141.3553683457375
 20
132.4404947585565
 30
0.0
 10
141.3736273518094
 20
132.4932047194808
 30
0.0
  0
SPLINE
  5
27C
330
277
100
AcDbEntity
  8
Sichtbar schmal (ISO)
100
AcDbSpline
210
0.0
220
0.0
230
1.0
 70
     9
 71
     3
 72
    26
 73
    22
 74
     0
 42
0.0000000001
 43
0.0000000001
 40
0.0
 40
0.0
 40
0.0
 40
0.0
 40
1.0
 40
1.0
 40
1.0
 40
2.0
 40
2.0
 40
2.0
 40
3.0
 40
3.0
 40
3.0
 40
4.0
 40
4.0
 40
4.0
 40
5.0
 40
5.0
 40
5.0
 40
6.0
 40
6.0
 40
6.0
 40
7.0
 40
7.0
 40
7.0
 40
7.0
 10
140.2994465795084
 20
132.8570068027232
 30
0.0
 10
140.2732638538205
 20
132.7994737081196
 30
0.0
 10
140.2598279814281
 20
132.7353949320939
 30
0.0
 10
140.2598279814281
 20
132.6647704746463
 30
0.0
 10
140.2598279814281
 20
132.530067241173
 30
0.0
 10
140.3156385282891
 20
132.4222357524847
 30
0.0
 10
140.4276041315597
 20
132.3409314990328
 30
0.0
 10
140.5392252252818
 20
132.2596272455809
 30
0.0
 10
140.6832302165653
 20
132.218975118855
 30
0.0
 10
140.858930086313
 20
132.218975118855
 30
0.0
 10
140.9250759196298
 20
132.218975118855
 30
0.0
 10
140.9884656765584
 20
132.226209819374
 30
0.0
 10
141.0494438666473
 20
132.2403347108635
 30
0.0
 10
141.0832058024028
 20
132.2489474495766
 30
0.0
 10
141.1266140055169
 20
132.2627278315176
 30
0.0
 10
141.1789794568927
 20
132.2827093853321
 30
0.0
 10
141.1789794568927
 20
132.2827093853321
 30
0.0
 10
140.3972872912896
 20
132.9824082783863
 30
0.0
 10
140.3972872912896
 20
132.9824082783863
 30
0.0
 10
140.3587022218547
 20
132.956570062247
 30
0.0
 10
140.3259738147449
 20
132.9145398973269
 30
0.0
 10
140.2994465795084
 20
132.8570068027232
 30
0.0
  0
SPLINE
  5
27D
330
277
100
AcDbEntity
  8
Sichtbar schmal (ISO)
100
AcDbSpline
210
0.0
220
0.0
230
1.0
 70
    11
 71
     3
 72
    59
 73
    55
 74
     0
 42
0.0000000001
 43
0.0000000001
 40
0.0
 40
0.0
 40
0.0
 40
0.0
 40
1.0
 40
1.0
 40
1.0
 40
2.0
 40
2.0
 40
2.0
 40
3.0
 40
3.0
 40
3.0
 40
4.0
 40
4.0
 40
4.0
 40
5.0
 40
5.0
 40
5.0
 40
6.0
 40
6.0
 40
6.0
 40
7.0
 40
7.0
 40
7.0
 40
8.0
 40
8.0
 40
8.0
 40
9.0
 40
9.0
 40
9.0
 40
10.0
 40
10.0
 40
10.0
 40
11.0
 40
11.0
 40
11.0
 40
12.0
 40
12.0
 40
12.0
 40
13.0
 40
13.0
 40
13.0
 40
14.0
 40
14.0
 40
14.0
 40
15.0
 40
15.0
 40
15.0
 40
16.0
 40
16.0
 40
16.0
 40
17.0
 40
17.0
 40
17.0
 40
18.0
 40
18.0
 40
18.0
 40
18.0
 10
141.555183883882
 20
131.9350992508704
 30
0.0
 10
141.555183883882
 20
131.9350992508704
 30
0.0
 10
141.3698377467756
 20
132.1118326492637
 30
0.0
 10
141.3698377467756
 20
132.1118326492637
 30
0.0
 10
141.3019693657162
 20
132.0656683697613
 30
0.0
 10
141.2258327554921
 20
132.0305283958118
 30
0.0
 10
141.1414279161035
 20
132.005723708318
 30
0.0
 10
141.0566785671664
 20
131.9805745112757
 30
0.0
 10
140.9567707980941
 20
131.9681721675288
 30
0.0
 10
140.8410155897897
 20
131.9681721675288
 30
0.0
 10
140.6325873129321
 20
131.9681721675288
 30
0.0
 10
140.4472411758257
 20
132.026738790778
 30
0.0
 10
140.2853216880189
 20
132.143527527728
 30
0.0
 10
140.1230576906637
 20
132.2606607742265
 30
0.0
 10
140.0420979467603
 20
132.4311930007463
 30
0.0
 10
140.0420979467603
 20
132.6551242072876
 30
0.0
 10
140.0420979467603
 20
132.771568434689
 30
0.0
 10
140.0631130292203
 20
132.873887770601
 30
0.0
 10
140.1044541750433
 20
132.9617377054748
 30
0.0
 10
140.1289143529886
 20
133.0134141377536
 30
0.0
 10
140.168532951069
 20
133.0726697800999
 30
0.0
 10
140.223654478833
 20
133.1391601229652
 30
0.0
 10
140.223654478833
 20
133.1391601229652
 30
0.0
 10
140.0300401125619
 20
133.3148599927129
 30
0.0
 10
140.0300401125619
 20
133.3148599927129
 30
0.0
 10
140.0300401125619
 20
133.3148599927129
 30
0.0
 10
140.0999755509125
 20
133.3861734692576
 30
0.0
 10
140.0999755509125
 20
133.3861734692576
 30
0.0
 10
140.0999755509125
 20
133.3861734692576
 30
0.0
 10
140.2973795222173
 20
133.2090955613158
 30
0.0
 10
140.2973795222173
 20
133.2090955613158
 30
0.0
 10
140.3821288711544
 20
133.2673176750165
 30
0.0
 10
140.47893605429
 20
133.3086588208395
 30
0.0
 10
140.5881455811724
 20
133.3334635083333
 30
0.0
 10
140.65877003862
 20
133.3493109475654
 30
0.0
 10
140.7297390056162
 20
133.3572346671815
 30
0.0
 10
140.8003634630638
 20
133.3572346671815
 30
0.0
 10
141.037386032449
 20
133.3572346671815
 30
0.0
 10
141.2327229464627
 20
133.2928113816073
 30
0.0
 10
141.3863742051048
 20
133.163964810459
 30
0.0
 10
141.5403699732954
 20
133.0351182393106
 30
0.0
 10
141.6171956026165
 20
132.8635524841452
 30
0.0
 10
141.6171956026165
 20
132.6492675449627
 30
0.0
 10
141.6171956026165
 20
132.5472927185993
 30
0.0
 10
141.60238169203
 20
132.4563421977887
 30
0.0
 10
141.5727538708568
 20
132.3767604920794
 30
0.0
 10
141.5427815401351
 20
132.2971787863701
 30
0.0
 10
141.5024739229577
 20
132.2324109912474
 30
0.0
 10
141.4511420002275
 20
132.1834906353569
 30
0.0
 10
141.4511420002275
 20
132.1834906353569
 30
0.0
 10
141.6268418699752
 20
132.0164035043223
 30
0.0
 10
141.6268418699752
 20
132.0164035043223
 30
0.0
 10
141.6268418699752
 20
132.0164035043223
 30
0.0
 10
141.555183883882
 20
131.9350992508704
 30
0.0
 10
141.555183883882
 20
131.9350992508704
 30
0.0
  0
HATCH
  5
27E
330
277
100
AcDbEntity
  8
Sichtbar schmal (ISO)
 62
   250
420
  2039067
440
 33554687
100
AcDbHatch
 10
0.0
 20
0.0
 30
0.0
210
0.0
220
0.0
230
1.0
  2
SOLID
 70
     1
 71
     1
 91
        3
 92
        1
 93
        1
 72
     4
 94
        3
 73
     0
 74
     0
 95
       26
 96
       22
 40
0.0
 40
0.0
 40
0.0
 40
0.0
 40
1.0
 40
1.0
 40
1.0
 40
2.0
 40
2.0
 40
2.0
 40
3.0
 40
3.0
 40
3.0
 40
4.0
 40
4.0
 40
4.0
 40
5.0
 40
5.0
 40
5.0
 40
6.0
 40
6.0
 40
6.0
 40
7.0
 40
7.0
 40
7.0
 40
7.0
 10
141.3736273518094
 20
132.4932047194808
 10
141.3918863578812
 20
132.5462591899537
 10
141.4008436061428
 20
132.6003471890721
 10
141.4008436061428
 20
132.6547796977391
 10
141.4008436061428
 20
132.8304795674868
 10
141.3191948431424
 20
132.9551920240529
 10
141.155552807593
 20
133.0285725578887
 10
141.0573675862634
 20
133.0730142896484
 10
140.9443684543472
 20
133.0954074103025
 10
140.8165554118445
 20
133.0954074103025
 10
140.7338731201985
 20
133.0954074103025
 10
140.6629041532023
 20
133.0881727097835
 10
140.602959491759
 20
133.0743923278425
 10
140.5709201037462
 20
133.0668131177749
 10
140.5333685629569
 20
133.0540662644795
 10
140.4899603598428
 20
133.0364962775048
 10
140.4899603598428
 20
133.0364962775048
 10
141.2682074299607
 20
132.3454101231636
 10
141.2682074299607
 20
132.3454101231636
 10
141.320228371788
 20
132.3908853835689
 10
141.3553683457375
 20
132.4404947585565
 10
141.3736273518094
 20
132.4932047194808
 97
        0
 97
        1
330
27B
 92
        1
 93
        1
 72
     4
 94
        3
 73
     0
 74
     0
 95
       26
 96
       22
 40
0.0
 40
0.0
 40
0.0
 40
0.0
 40
1.0
 40
1.0
 40
1.0
 40
2.0
 40
2.0
 40
2.0
 40
3.0
 40
3.0
 40
3.0
 40
4.0
 40
4.0
 40
4.0
 40
5.0
 40
5.0
 40
5.0
 40
6.0
 40
6.0
 40
6.0
 40
7.0
 40
7.0
 40
7.0
 40
7.0
 10
140.2994465795084
 20
132.8570068027232
 10
140.2732638538205
 20
132.7994737081196
 10
140.2598279814281
 20
132.7353949320939
 10
140.2598279814281
 20
132.6647704746463
 10
140.2598279814281
 20
132.530067241173
 10
140.3156385282891
 20
132.4222357524847
 10
140.4276041315597
 20
132.3409314990328
 10
140.5392252252818
 20
132.2596272455809
 10
140.6832302165653
 20
132.218975118855
 10
140.858930086313
 20
132.218975118855
 10
140.9250759196298
 20
132.218975118855
 10
140.9884656765584
 20
132.226209819374
 10
141.0494438666473
 20
132.2403347108635
 10
141.0832058024028
 20
132.2489474495766
 10
141.1266140055169
 20
132.2627278315176
 10
141.1789794568927
 20
132.2827093853321
 10
141.1789794568927
 20
132.2827093853321
 10
140.3972872912896
 20
132.9824082783863
 10
140.3972872912896
 20
132.9824082783863
 10
140.3587022218547
 20
132.956570062247
 10
140.3259738147449
 20
132.9145398973269
 10
140.2994465795084
 20
132.8570068027232
 97
        0
 97
        1
330
27C
 92
        1
 93
        1
 72
     4
 94
        3
 73
     0
 74
     0
 95
       59
 96
       55
 40
0.0
 40
0.0
 40
0.0
 40
0.0
 40
1.0
 40
1.0
 40
1.0
 40
2.0
 40
2.0
 40
2.0
 40
3.0
 40
3.0
 40
3.0
 40
4.0
 40
4.0
 40
4.0
 40
5.0
 40
5.0
 40
5.0
 40
6.0
 40
6.0
 40
6.0
 40
7.0
 40
7.0
 40
7.0
 40
8.0
 40
8.0
 40
8.0
 40
9.0
 40
9.0
 40
9.0
 40
10.0
 40
10.0
 40
10.0
 40
11.0
 40
11.0
 40
11.0
 40
12.0
 40
12.0
 40
12.0
 40
13.0
 40
13.0
 40
13.0
 40
14.0
 40
14.0
 40
14.0
 40
15.0
 40
15.0
 40
15.0
 40
16.0
 40
16.0
 40
16.0
 40
17.0
 40
17.0
 40
17.0
 40
18.0
 40
18.0
 40
18.0
 40
18.0
 10
141.555183883882
 20
131.9350992508704
 10
141.555183883882
 20
131.9350992508704
 10
141.3698377467756
 20
132.1118326492637
 10
141.3698377467756
 20
132.1118326492637
 10
141.3019693657162
 20
132.0656683697613
 10
141.2258327554921
 20
132.0305283958118
 10
141.1414279161035
 20
132.005723708318
 10
141.0566785671664
 20
131.9805745112757
 10
140.9567707980941
 20
131.9681721675288
 10
140.8410155897897
 20
131.9681721675288
 10
140.6325873129321
 20
131.9681721675288
 10
140.4472411758257
 20
132.026738790778
 10
140.2853216880189
 20
132.143527527728
 10
140.1230576906637
 20
132.2606607742265
 10
140.0420979467603
 20
132.4311930007463
 10
140.0420979467603
 20
132.6551242072876
 10
140.0420979467603
 20
132.771568434689
 10
140.0631130292203
 20
132.873887770601
 10
140.1044541750433
 20
132.9617377054748
 10
140.1289143529886
 20
133.0134141377536
 10
140.168532951069
 20
133.0726697800999
 10
140.223654478833
 20
133.1391601229652
 10
140.223654478833
 20
133.1391601229652
 10
140.0300401125619
 20
133.3148599927129
 10
140.0300401125619
 20
133.3148599927129
 10
140.0300401125619
 20
133.3148599927129
 10
140.0999755509125
 20
133.3861734692576
 10
140.0999755509125
 20
133.3861734692576
 10
140.0999755509125
 20
133.3861734692576
 10
140.2973795222173
 20
133.2090955613158
 10
140.2973795222173
 20
133.2090955613158
 10
140.3821288711544
 20
133.2673176750165
 10
140.47893605429
 20
133.3086588208395
 10
140.5881455811724
 20
133.3334635083333
 10
140.65877003862
 20
133.3493109475654
 10
140.7297390056162
 20
133.3572346671815
 10
140.8003634630638
 20
133.3572346671815
 10
141.037386032449
 20
133.3572346671815
 10
141.2327229464627
 20
133.2928113816073
 10
141.3863742051048
 20
133.163964810459
 10
141.5403699732954
 20
133.0351182393106
 10
141.6171956026165
 20
132.8635524841452
 10
141.6171956026165
 20
132.6492675449627
 10
141.6171956026165
 20
132.5472927185993
 10
141.60238169203
 20
132.4563421977887
 10
141.5727538708568
 20
132.3767604920794
 10
141.5427815401351
 20
132.2971787863701
 10
141.5024739229577
 20
132.2324109912474
 10
141.4511420002275
 20
132.1834906353569
 10
141.4511420002275
 20
132.1834906353569
 10
141.6268418699752
 20
132.0164035043223
 10
141.6268418699752
 20
132.0164035043223
 10
141.6268418699752
 20
132.0164035043223
 10
141.555183883882
 20
131.9350992508704
 10
141.555183883882
 20
131.9350992508704
 97
        0
 97
        1
330
27D
 75
     2
 76
     1
 98
        1
 10
0.0
 20
0.0
450
        0
451
        0
460
0.0
461
0.0
452
        0
462
0.0
453
        0
470

  0
SPLINE
  5
27F
330
277
100
AcDbEntity
  8
Sichtbar schmal (ISO)
100
AcDbSpline
210
0.0
220
0.0
230
1.0
 70
     9
 71
     3
 72
    41
 73
    37
 74
     0
 42
0.0000000001
 43
0.0000000001
 40
0.0
 40
0.0
 40
0.0
 40
0.0
 40
1.0
 40
1.0
 40
1.0
 40
2.0
 40
2.0
 40
2.0
 40
3.0
 40
3.0
 40
3.0
 40
4.0
 40
4.0
 40
4.0
 40
5.0
 40
5.0
 40
5.0
 40
6.0
 40
6.0
 40
6.0
 40
7.0
 40
7.0
 40
7.0
 40
8.0
 40
8.0
 40
8.0
 40
9.0
 40
9.0
 40
9.0
 40
10.0
 40
10.0
 40
10.0
 40
11.0
 40
11.0
 40
11.0
 40
12.0
 40
12.0
 40
12.0
 40
12.0
 10
140.7428303684601
 20
134.1613199534388
 30
0.0
 10
140.5313015056658
 20
134.4999728396389
 30
0.0
 10
140.4127902209732
 20
134.6718831043528
 30
0.0
 10
140.1333929771194
 20
134.6718831043528
 30
0.0
 10
139.9163519615487
 20
134.6718831043528
 30
0.0
 10
139.7723469702652
 20
134.4968722537021
 30
0.0
 10
139.7723469702652
 20
134.2853433909078
 30
0.0
 10
139.7723469702652
 20
134.005946147054
 30
0.0
 10
140.0290065839163
 20
133.8874348623615
 30
0.0
 10
140.2687852296897
 20
133.8960476010746
 30
0.0
 10
140.2687852296897
 20
133.8960476010746
 30
0.0
 10
140.2687852296897
 20
133.6562689553012
 30
0.0
 10
140.2687852296897
 20
133.6562689553012
 30
0.0
 10
139.8626084719788
 20
133.6338758346471
 30
0.0
 10
139.5608181074709
 20
133.8764105568087
 30
0.0
 10
139.5608181074709
 20
134.2994682823973
 30
0.0
 10
139.5608181074709
 20
134.646389397762
 30
0.0
 10
139.7640787411006
 20
134.9257866416158
 30
0.0
 10
140.1364935630561
 20
134.9257866416158
 30
0.0
 10
140.4889268311972
 20
134.9257866416158
 30
0.0
 10
140.6639376818479
 20
134.6887640722306
 30
0.0
 10
140.8217230550723
 20
134.4407171972926
 30
0.0
 10
140.9712401991322
 20
134.1923258128061
 30
0.0
 10
141.1038763753143
 20
133.9242973840536
 30
0.0
 10
141.3491671738641
 20
133.8791666331969
 30
0.0
 10
141.3491671738641
 20
133.8791666331969
 30
0.0
 10
141.3491671738641
 20
134.9058050878013
 30
0.0
 10
141.3491671738641
 20
134.9058050878013
 30
0.0
 10
141.3491671738641
 20
134.9058050878013
 30
0.0
 10
141.5606960366584
 20
134.9058050878013
 30
0.0
 10
141.5606960366584
 20
134.9058050878013
 30
0.0
 10
141.5606960366584
 20
134.9058050878013
 30
0.0
 10
141.5606960366584
 20
133.6001138988916
 30
0.0
 10
141.5606960366584
 20
133.6001138988916
 30
0.0
 10
141.0897514838248
 20
133.6366319110353
 30
0.0
 10
140.9119845567859
 20
133.8791666331969
 30
0.0
 10
140.7428303684601
 20
134.1613199534388
 30
0.0
  0
HATCH
  5
280
330
277
100
AcDbEntity
  8
Sichtbar schmal (ISO)
 62
    18
420
        0
440
 33554687
100
AcDbHatch
 10
0.0
 20
0.0
 30
0.0
210
0.0
220
0.0
230
1.0
  2
SOLID
 70
     1
 71
     1
 91
        1
 92
        1
 93
        1
 72
     4
 94
        3
 73
     0
 74
     0
 95
       41
 96
       37
 40
0.0
 40
0.0
 40
0.0
 40
0.0
 40
1.0
 40
1.0
 40
1.0
 40
2.0
 40
2.0
 40
2.0
 40
3.0
 40
3.0
 40
3.0
 40
4.0
 40
4.0
 40
4.0
 40
5.0
 40
5.0
 40
5.0
 40
6.0
 40
6.0
 40
6.0
 40
7.0
 40
7.0
 40
7.0
 40
8.0
 40
8.0
 40
8.0
 40
9.0
 40
9.0
 40
9.0
 40
10.0
 40
10.0
 40
10.0
 40
11.0
 40
11.0
 40
11.0
 40
12.0
 40
12.0
 40
12.0
 40
12.0
 10
140.7428303684601
 20
134.1613199534388
 10
140.5313015056658
 20
134.4999728396389
 10
140.4127902209732
 20
134.6718831043528
 10
140.1333929771194
 20
134.6718831043528
 10
139.9163519615487
 20
134.6718831043528
 10
139.7723469702652
 20
134.4968722537021
 10
139.7723469702652
 20
134.2853433909078
 10
139.7723469702652
 20
134.005946147054
 10
140.0290065839163
 20
133.8874348623615
 10
140.2687852296897
 20
133.8960476010746
 10
140.2687852296897
 20
133.8960476010746
 10
140.2687852296897
 20
133.6562689553012
 10
140.2687852296897
 20
133.6562689553012
 10
139.8626084719788
 20
133.6338758346471
 10
139.5608181074709
 20
133.8764105568087
 10
139.5608181074709
 20
134.2994682823973
 10
139.5608181074709
 20
134.646389397762
 10
139.7640787411006
 20
134.9257866416158
 10
140.1364935630561
 20
134.9257866416158
 10
140.4889268311972
 20
134.9257866416158
 10
140.6639376818479
 20
134.6887640722306
 10
140.8217230550723
 20
134.4407171972926
 10
140.9712401991322
 20
134.1923258128061
 10
141.1038763753143
 20
133.9242973840536
 10
141.3491671738641
 20
133.8791666331969
 10
141.3491671738641
 20
133.8791666331969
 10
141.3491671738641
 20
134.9058050878013
 10
141.3491671738641
 20
134.9058050878013
 10
141.3491671738641
 20
134.9058050878013
 10
141.5606960366584
 20
134.9058050878013
 10
141.5606960366584
 20
134.9058050878013
 10
141.5606960366584
 20
134.9058050878013
 10
141.5606960366584
 20
133.6001138988916
 10
141.5606960366584
 20
133.6001138988916
 10
141.0897514838248
 20
133.6366319110353
 10
140.9119845567859
 20
133.8791666331969
 10
140.7428303684601
 20
134.1613199534388
 97
        0
 97
        1
330
27F
 75
     2
 76
     1
 98
        1
 10
0.0
 20
0.0
450
        0
451
        0
460
0.0
461
0.0
452
        0
462
0.0
453
        0
470

  0
SPLINE
  5
281
330
277
100
AcDbEntity
  8
Sichtbar schmal (ISO)
100
AcDbSpline
210
0.0
220
0.0
230
1.0
 70
    11
 71
     3
 72
    26
 73
    22
 74
     0
 42
0.0000000001
 43
0.0000000001
 40
0.0
 40
0.0
 40
0.0
 40
0.0
 40
1.0
 40
1.0
 40
1.0
 40
2.0
 40
2.0
 40
2.0
 40
3.0
 40
3.0
 40
3.0
 40
4.0
 40
4.0
 40
4.0
 40
5.0
 40
5.0
 40
5.0
 40
6.0
 40
6.0
 40
6.0
 40
7.0
 40
7.0
 40
7.0
 40
7.0
 10
140.127880824343
 20
135.8659531995404
 30
0.0
 10
140.127880824343
 20
135.8659531995404
 30
0.0
 10
140.127880824343
 20
135.3467773099133
 30
0.0
 10
140.127880824343
 20
135.3467773099133
 30
0.0
 10
140.127880824343
 20
135.3467773099133
 30
0.0
 10
139.9359890058146
 20
135.3467773099133
 30
0.0
 10
139.9359890058146
 20
135.3467773099133
 30
0.0
 10
139.9359890058146
 20
135.6203178914421
 30
0.0
 10
139.8657090579155
 20
135.8687092759286
 30
0.0
 10
139.5608181074709
 20
135.92210825595
 30
0.0
 10
139.5608181074709
 20
135.92210825595
 30
0.0
 10
139.5608181074709
 20
136.1057318453138
 30
0.0
 10
139.5608181074709
 20
136.1057318453138
 30
0.0
 10
139.5608181074709
 20
136.1057318453138
 30
0.0
 10
141.5606960366584
 20
136.1057318453138
 30
0.0
 10
141.5606960366584
 20
136.1057318453138
 30
0.0
 10
141.5606960366584
 20
136.1057318453138
 30
0.0
 10
141.5606960366584
 20
135.8659531995404
 30
0.0
 10
141.5606960366584
 20
135.8659531995404
 30
0.0
 10
141.5606960366584
 20
135.8659531995404
 30
0.0
 10
140.127880824343
 20
135.8659531995404
 30
0.0
 10
140.127880824343
 20
135.8659531995404
 30
0.0
  0
HATCH
  5
282
330
277
100
AcDbEntity
  8
Sichtbar schmal (ISO)
 62
    18
420
        0
440
 33554687
100
AcDbHatch
 10
0.0
 20
0.0
 30
0.0
210
0.0
220
0.0
230
1.0
  2
SOLID
 70
     1
 71
     1
 91
        1
 92
        1
 93
        1
 72
     4
 94
        3
 73
     0
 74
     0
 95
       26
 96
       22
 40
0.0
 40
0.0
 40
0.0
 40
0.0
 40
1.0
 40
1.0
 40
1.0
 40
2.0
 40
2.0
 40
2.0
 40
3.0
 40
3.0
 40
3.0
 40
4.0
 40
4.0
 40
4.0
 40
5.0
 40
5.0
 40
5.0
 40
6.0
 40
6.0
 40
6.0
 40
7.0
 40
7.0
 40
7.0
 40
7.0
 10
140.127880824343
 20
135.8659531995404
 10
140.127880824343
 20
135.8659531995404
 10
140.127880824343
 20
135.3467773099133
 10
140.127880824343
 20
135.3467773099133
 10
140.127880824343
 20
135.3467773099133
 10
139.9359890058146
 20
135.3467773099133
 10
139.9359890058146
 20
135.3467773099133
 10
139.9359890058146
 20
135.6203178914421
 10
139.8657090579155
 20
135.8687092759286
 10
139.5608181074709
 20
135.92210825595
 10
139.5608181074709
 20
135.92210825595
 10
139.5608181074709
 20
136.1057318453138
 10
139.5608181074709
 20
136.1057318453138
 10
139.5608181074709
 20
136.1057318453138
 10
141.5606960366584
 20
136.1057318453138
 10
141.5606960366584
 20
136.1057318453138
 10
141.5606960366584
 20
136.1057318453138
 10
141.5606960366584
 20
135.8659531995404
 10
141.5606960366584
 20
135.8659531995404
 10
141.5606960366584
 20
135.8659531995404
 10
140.127880824343
 20
135.8659531995404
 10
140.127880824343
 20
135.8659531995404
 97
        0
 97
        1
330
281
 75
     2
 76
     1
 98
        1
 10
0.0
 20
0.0
450
        0
451
        0
460
0.0
461
0.0
452
        0
462
0.0
453
        0
470

  0
SPLINE
  5
283
330
277
100
AcDbEntity
  8
Sichtbar schmal (ISO)
100
AcDbSpline
210
0.0
220
0.0
230
1.0
 70
    11
 71
     3
 72
    17
 73
    13
 74
     0
 42
0.0000000001
 43
0.0000000001
 40
0.0
 40
0.0
 40
0.0
 40
0.0
 40
1.0
 40
1.0
 40
1.0
 40
2.0
 40
2.0
 40
2.0
 40
3.0
 40
3.0
 40
3.0
 40
4.0
 40
4.0
 40
4.0
 40
4.0
 10
140.8809786974186
 20
137.6267415020516
 30
0.0
 10
140.8809786974186
 20
137.6267415020516
 30
0.0
 10
139.9022270700592
 20
137.6267415020516
 30
0.0
 10
139.9022270700592
 20
137.6267415020516
 30
0.0
 10
139.9022270700592
 20
137.6267415020516
 30
0.0
 10
139.9022270700592
 20
137.6212293492752
 30
0.0
 10
139.9022270700592
 20
137.6212293492752
 30
0.0
 10
139.9022270700592
 20
137.6212293492752
 30
0.0
 10
140.8809786974186
 20
136.955636901525
 30
0.0
 10
140.8809786974186
 20
136.955636901525
 30
0.0
 10
140.8809786974186
 20
136.955636901525
 30
0.0
 10
140.8809786974186
 20
137.6267415020516
 30
0.0
 10
140.8809786974186
 20
137.6267415020516
 30
0.0
  0
SPLINE
  5
284
330
277
100
AcDbEntity
  8
Sichtbar schmal (ISO)
100
AcDbSpline
210
0.0
220
0.0
230
1.0
 70
    11
 71
     3
 72
    38
 73
    34
 74
     0
 42
0.0000000001
 43
0.0000000001
 40
0.0
 40
0.0
 40
0.0
 40
0.0
 40
1.0
 40
1.0
 40
1.0
 40
2.0
 40
2.0
 40
2.0
 40
3.0
 40
3.0
 40
3.0
 40
4.0
 40
4.0
 40
4.0
 40
5.0
 40
5.0
 40
5.0
 40
6.0
 40
6.0
 40
6.0
 40
7.0
 40
7.0
 40
7.0
 40
8.0
 40
8.0
 40
8.0
 40
9.0
 40
9.0
 40
9.0
 40
10.0
 40
10.0
 40
10.0
 40
11.0
 40
11.0
 40
11.0
 40
11.0
 10
140.8613416531527
 20
136.749620191507
 30
0.0
 10
140.8613416531527
 20
136.749620191507
 30
0.0
 10
139.5608181074709
 20
137.6608479473556
 30
0.0
 10
139.5608181074709
 20
137.6608479473556
 30
0.0
 10
139.5608181074709
 20
137.6608479473556
 30
0.0
 10
139.5608181074709
 20
137.852739765884
 30
0.0
 10
139.5608181074709
 20
137.852739765884
 30
0.0
 10
139.5608181074709
 20
137.852739765884
 30
0.0
 10
140.8809786974186
 20
137.852739765884
 30
0.0
 10
140.8809786974186
 20
137.852739765884
 30
0.0
 10
140.8809786974186
 20
137.852739765884
 30
0.0
 10
140.8809786974186
 20
138.1235242710246
 30
0.0
 10
140.8809786974186
 20
138.1235242710246
 30
0.0
 10
140.8809786974186
 20
138.1235242710246
 30
0.0
 10
141.092507560213
 20
138.1235242710246
 30
0.0
 10
141.092507560213
 20
138.1235242710246
 30
0.0
 10
141.092507560213
 20
138.1235242710246
 30
0.0
 10
141.092507560213
 20
137.852739765884
 30
0.0
 10
141.092507560213
 20
137.852739765884
 30
0.0
 10
141.092507560213
 20
137.852739765884
 30
0.0
 10
141.5606960366584
 20
137.852739765884
 30
0.0
 10
141.5606960366584
 20
137.852739765884
 30
0.0
 10
141.5606960366584
 20
137.852739765884
 30
0.0
 10
141.5606960366584
 20
137.6267415020516
 30
0.0
 10
141.5606960366584
 20
137.6267415020516
 30
0.0
 10
141.5606960366584
 20
137.6267415020516
 30
0.0
 10
141.092507560213
 20
137.6267415020516
 30
0.0
 10
141.092507560213
 20
137.6267415020516
 30
0.0
 10
141.092507560213
 20
137.6267415020516
 30
0.0
 10
141.092507560213
 20
136.749620191507
 30
0.0
 10
141.092507560213
 20
136.749620191507
 30
0.0
 10
141.092507560213
 20
136.749620191507
 30
0.0
 10
140.8613416531527
 20
136.749620191507
 30
0.0
 10
140.8613416531527
 20
136.749620191507
 30
0.0
  0
HATCH
  5
285
330
277
100
AcDbEntity
  8
Sichtbar schmal (ISO)
 62
    18
420
        0
440
 33554687
100
AcDbHatch
 10
0.0
 20
0.0
 30
0.0
210
0.0
220
0.0
230
1.0
  2
SOLID
 70
     1
 71
     1
 91
        2
 92
        1
 93
        1
 72
     4
 94
        3
 73
     0
 74
     0
 95
       17
 96
       13
 40
0.0
 40
0.0
 40
0.0
 40
0.0
 40
1.0
 40
1.0
 40
1.0
 40
2.0
 40
2.0
 40
2.0
 40
3.0
 40
3.0
 40
3.0
 40
4.0
 40
4.0
 40
4.0
 40
4.0
 10
140.8809786974186
 20
137.6267415020516
 10
140.8809786974186
 20
137.6267415020516
 10
139.9022270700592
 20
137.6267415020516
 10
139.9022270700592
 20
137.6267415020516
 10
139.9022270700592
 20
137.6267415020516
 10
139.9022270700592
 20
137.6212293492752
 10
139.9022270700592
 20
137.6212293492752
 10
139.9022270700592
 20
137.6212293492752
 10
140.8809786974186
 20
136.955636901525
 10
140.8809786974186
 20
136.955636901525
 10
140.8809786974186
 20
136.955636901525
 10
140.8809786974186
 20
137.6267415020516
 10
140.8809786974186
 20
137.6267415020516
 97
        0
 97
        1
330
283
 92
        1
 93
        1
 72
     4
 94
        3
 73
     0
 74
     0
 95
       38
 96
       34
 40
0.0
 40
0.0
 40
0.0
 40
0.0
 40
1.0
 40
1.0
 40
1.0
 40
2.0
 40
2.0
 40
2.0
 40
3.0
 40
3.0
 40
3.0
 40
4.0
 40
4.0
 40
4.0
 40
5.0
 40
5.0
 40
5.0
 40
6.0
 40
6.0
 40
6.0
 40
7.0
 40
7.0
 40
7.0
 40
8.0
 40
8.0
 40
8.0
 40
9.0
 40
9.0
 40
9.0
 40
10.0
 40
10.0
 40
10.0
 40
11.0
 40
11.0
 40
11.0
 40
11.0
 10
140.8613416531527
 20
136.749620191507
 10
140.8613416531527
 20
136.749620191507
 10
139.5608181074709
 20
137.6608479473556
 10
139.5608181074709
 20
137.6608479473556
 10
139.5608181074709
 20
137.6608479473556
 10
139.5608181074709
 20
137.852739765884
 10
139.5608181074709
 20
137.852739765884
 10
139.5608181074709
 20
137.852739765884
 10
140.8809786974186
 20
137.852739765884
 10
140.8809786974186
 20
137.852739765884
 10
140.8809786974186
 20
137.852739765884
 10
140.8809786974186
 20
138.1235242710246
 10
140.8809786974186
 20
138.1235242710246
 10
140.8809786974186
 20
138.1235242710246
 10
141.092507560213
 20
138.1235242710246
 10
141.092507560213
 20
138.1235242710246
 10
141.092507560213
 20
138.1235242710246
 10
141.092507560213
 20
137.852739765884
 10
141.092507560213
 20
137.852739765884
 10
141.092507560213
 20
137.852739765884
 10
141.5606960366584
 20
137.852739765884
 10
141.5606960366584
 20
137.852739765884
 10
141.5606960366584
 20
137.852739765884
 10
141.5606960366584
 20
137.6267415020516
 10
141.5606960366584
 20
137.6267415020516
 10
141.5606960366584
 20
137.6267415020516
 10
141.092507560213
 20
137.6267415020516
 10
141.092507560213
 20
137.6267415020516
 10
141.092507560213
 20
137.6267415020516
 10
141.092507560213
 20
136.749620191507
 10
141.092507560213
 20
136.749620191507
 10
141.092507560213
 20
136.749620191507
 10
140.8613416531527
 20
136.749620191507
 10
140.8613416531527
 20
136.749620191507
 97
        0
 97
        1
330
284
 75
     2
 76
     1
 98
        1
 10
0.0
 20
0.0
450
        0
451
        0
460
0.0
461
0.0
452
        0
462
0.0
453
        0
470

  0
ENDBLK
  5
27A
330
277
100
AcDbEntity
  8
0
100
AcDbBlockEnd
  0
BLOCK
  5
28D
330
28B
100
AcDbEntity
  8
0
100
AcDbBlockBegin
  2
Block_35
 70
     0
 10
0.0
 20
0.0
 30
0.0
  3
Block_35
  1

  0
INSERT
  5
290
330
28B
100
AcDbEntity
  8
Sichtbar schmal (ISO)
100
AcDbBlockReference
  2
Block_36
 10
0.0
 20
0.0
 30
0.0
  0
ENDBLK
  5
28E
330
28B
100
AcDbEntity
  8
0
100
AcDbBlockEnd
  0
BLOCK
  5
291
330
28F
100
AcDbEntity
  8
0
100
AcDbBlockBegin
  2
Block_36
 70
     0
 10
0.0
 20
0.0
 30
0.0
  3
Block_36
  1

  0
LINE
  5
293
330
28F
100
AcDbEntity
  8
Sichtbar schmal (ISO)
 62
    18
420
        0
370
     5
100
AcDbLine
 10
125.197353755593
 20
178.2554846423939
 30
0.0
 11
125.1975906059076
 21
175.3489652407222
 31
0.0
  0
INSERT
  5
295
330
28F
100
AcDbEntity
  8
Sichtbar schmal (ISO)
100
AcDbBlockReference
  2
Block_37
 10
0.0
 20
0.0
 30
0.0
  0
INSERT
  5
29B
330
28F
100
AcDbEntity
  8
Sichtbar schmal (ISO)
100
AcDbBlockReference
  2
Block_38
 10
0.0
 20
0.0
 30
0.0
  0
ENDBLK
  5
292
330
28F
100
AcDbEntity
  8
0
100
AcDbBlockEnd
  0
BLOCK
  5
296
330
294
100
AcDbEntity
  8
0
100
AcDbBlockBegin
  2
Block_37
 70
     0
 10
0.0
 20
0.0
 30
0.0
  3
Block_37
  1

  0
LWPOLYLINE
  5
298
330
294
100
AcDbEntity
  8
Sichtbar schmal (ISO)
100
AcDbPolyline
 90
        3
 70
     1
 43
0.0
 10
124.9760924980528
 20
177.6230081749953
 10
125.1965786091088
 20
179.3042040058738
 10
125.4187226723671
 20
177.6230404727654
  0
HATCH
  5
299
330
294
100
AcDbEntity
  8
Sichtbar schmal (ISO)
 62
    18
420
        0
440
 33554687
100
AcDbHatch
 10
0.0
 20
0.0
 30
0.0
210
0.0
220
0.0
230
1.0
  2
SOLID
 70
     1
 71
     1
 91
        1
 92
        1
 93
        3
 72
     1
 10
124.9760924980528
 20
177.6230081749953
 11
125.1965786091088
 21
179.3042040058738
 72
     1
 10
125.1965786091088
 20
179.3042040058738
 11
125.4187226723671
 21
177.6230404727654
 72
     1
 10
125.4187226723671
 20
177.6230404727654
 11
124.9760924980528
 21
177.6230081749953
 97
        1
330
298
 75
     2
 76
     1
 98
        1
 10
0.0
 20
0.0
450
        0
451
        0
460
0.0
461
0.0
452
        0
462
0.0
453
        0
470

  0
ENDBLK
  5
297
330
294
100
AcDbEntity
  8
0
100
AcDbBlockEnd
  0
BLOCK
  5
29C
330
29A
100
AcDbEntity
  8
0
100
AcDbBlockBegin
  2
Block_38
 70
     0
 10
0.0
 20
0.0
 30
0.0
  3
Block_38
  1

  0
LWPOLYLINE
  5
29E
330
29A
100
AcDbEntity
  8
Sichtbar schmal (ISO)
100
AcDbPolyline
 90
        3
 70
     1
 43
0.0
 10
124.9762324550569
 20
175.9813986444269
 10
125.1969984801211
 20
174.3002351113186
 10
125.4188518634478
 20
175.9814309421971
  0
HATCH
  5
29F
330
29A
100
AcDbEntity
  8
Sichtbar schmal (ISO)
 62
    18
420
        0
440
 33554687
100
AcDbHatch
 10
0.0
 20
0.0
 30
0.0
210
0.0
220
0.0
230
1.0
  2
SOLID
 70
     1
 71
     1
 91
        1
 92
        1
 93
        3
 72
     1
 10
124.9762324550569
 20
175.9813986444269
 11
125.1969984801211
 21
174.3002351113186
 72
     1
 10
125.1969984801211
 20
174.3002351113186
 11
125.4188518634478
 21
175.9814309421971
 72
     1
 10
125.4188518634478
 20
175.9814309421971
 11
124.9762324550569
 21
175.9813986444269
 97
        1
330
29E
 75
     2
 76
     1
 98
        1
 10
0.0
 20
0.0
450
        0
451
        0
460
0.0
461
0.0
452
        0
462
0.0
453
        0
470

  0
ENDBLK
  5
29D
330
29A
100
AcDbEntity
  8
0
100
AcDbBlockEnd
  0
BLOCK
  5
2A3
330
2A1
100
AcDbEntity
  8
0
100
AcDbBlockBegin
  2
Block_39
 70
     0
 10
0.0
 20
0.0
 30
0.0
  3
Block_39
  1

  0
INSERT
  5
2A6
330
2A1
100
AcDbEntity
  8
Sichtbar schmal (ISO)
100
AcDbBlockReference
  2
Block_40
 10
0.0
 20
0.0
 30
0.0
  0
ENDBLK
  5
2A4
330
2A1
100
AcDbEntity
  8
0
100
AcDbBlockEnd
  0
BLOCK
  5
2A7
330
2A5
100
AcDbEntity
  8
0
100
AcDbBlockBegin
  2
Block_40
 70
     0
 10
0.0
 20
0.0
 30
0.0
  3
Block_40
  1

  0
LINE
  5
2A9
330
2A5
100
AcDbEntity
  8
Sichtbar schmal (ISO)
 62
    18
420
        0
370
     5
100
AcDbLine
 10
138.5379477260534
 20
162.7045174085969
 30
0.0
 11
138.520140888764
 21
178.2916796768355
 31
0.0
  0
INSERT
  5
2AB
330
2A5
100
AcDbEntity
  8
Sichtbar schmal (ISO)
100
AcDbBlockReference
  2
Block_41
 10
0.0
 20
0.0
 30
0.0
  0
INSERT
  5
2B1
330
2A5
100
AcDbEntity
  8
Sichtbar schmal (ISO)
100
AcDbBlockReference
  2
Block_42
 10
0.0
 20
0.0
 30
0.0
  0
ENDBLK
  5
2A8
330
2A5
100
AcDbEntity
  8
0
100
AcDbBlockEnd
  0
BLOCK
  5
2AC
330
2AA
100
AcDbEntity
  8
0
100
AcDbBlockBegin
  2
Block_41
 70
     0
 10
0.0
 20
0.0
 30
0.0
  3
Block_41
  1

  0
LWPOLYLINE
  5
2AE
330
2AA
100
AcDbEntity
  8
Sichtbar schmal (ISO)
100
AcDbPolyline
 90
        3
 70
     1
 43
0.0
 10
138.7585307304199
 20
163.3372199603864
 10
138.5398317626469
 20
161.6557980451166
 10
138.3159113220291
 20
163.336713961987
  0
HATCH
  5
2AF
330
2AA
100
AcDbEntity
  8
Sichtbar schmal (ISO)
 62
    18
420
        0
440
 33554687
100
AcDbHatch
 10
0.0
 20
0.0
 30
0.0
210
0.0
220
0.0
230
1.0
  2
SOLID
 70
     1
 71
     1
 91
        1
 92
        1
 93
        3
 72
     1
 10
138.7585307304199
 20
163.3372199603864
 11
138.5398317626469
 21
161.6557980451166
 72
     1
 10
138.5398317626469
 20
161.6557980451166
 11
138.3159113220291
 21
163.336713961987
 72
     1
 10
138.3159113220291
 20
163.336713961987
 11
138.7585307304199
 21
163.3372199603864
 97
        1
330
2AE
 75
     2
 76
     1
 98
        1
 10
0.0
 20
0.0
450
        0
451
        0
460
0.0
461
0.0
452
        0
462
0.0
453
        0
470

  0
ENDBLK
  5
2AD
330
2AA
100
AcDbEntity
  8
0
100
AcDbBlockEnd
  0
BLOCK
  5
2B2
330
2B0
100
AcDbEntity
  8
0
100
AcDbBlockBegin
  2
Block_42
 70
     0
 10
0.0
 20
0.0
 30
0.0
  3
Block_42
  1

  0
LWPOLYLINE
  5
2B4
330
2B0
100
AcDbEntity
  8
Sichtbar schmal (ISO)
100
AcDbPolyline
 90
        3
 70
     1
 43
0.0
 10
138.7421772927884
 20
177.6594831234457
 10
138.5196348903646
 20
179.3404098062391
 10
138.2995578843975
 20
177.658977125046
  0
HATCH
  5
2B5
330
2B0
100
AcDbEntity
  8
Sichtbar schmal (ISO)
 62
    18
420
        0
440
 33554687
100
AcDbHatch
 10
0.0
 20
0.0
 30
0.0
210
0.0
220
0.0
230
1.0
  2
SOLID
 70
     1
 71
     1
 91
        1
 92
        1
 93
        3
 72
     1
 10
138.7421772927884
 20
177.6594831234457
 11
138.5196348903646
 21
179.3404098062391
 72
     1
 10
138.5196348903646
 20
179.3404098062391
 11
138.2995578843975
 21
177.658977125046
 72
     1
 10
138.2995578843975
 20
177.658977125046
 11
138.7421772927884
 21
177.6594831234457
 97
        1
330
2B4
 75
     2
 76
     1
 98
        1
 10
0.0
 20
0.0
450
        0
451
        0
460
0.0
461
0.0
452
        0
462
0.0
453
        0
470

  0
ENDBLK
  5
2B3
330
2B0
100
AcDbEntity
  8
0
100
AcDbBlockEnd
  0
BLOCK
  5
2B8
330
2B6
100
AcDbEntity
  8
0
100
AcDbBlockBegin
  2
Block_43
 70
     0
 10
0.0
 20
0.0
 30
0.0
  3
Block_43
  1

  0
INSERT
  5
2BB
330
2B6
100
AcDbEntity
  8
Sichtbar schmal (ISO)
100
AcDbBlockReference
  2
Block_44
 10
0.0
 20
0.0
 30
0.0
  0
ENDBLK
  5
2B9
330
2B6
100
AcDbEntity
  8
0
100
AcDbBlockEnd
  0
BLOCK
  5
2BC
330
2BA
100
AcDbEntity
  8
0
100
AcDbBlockBegin
  2
Block_44
 70
     0
 10
0.0
 20
0.0
 30
0.0
  3
Block_44
  1

  0
SPLINE
  5
2BE
330
2BA
100
AcDbEntity
  8
Sichtbar schmal (ISO)
100
AcDbSpline
210
0.0
220
0.0
230
1.0
 70
     9
 71
     3
 72
    41
 73
    37
 74
     0
 42
0.0000000001
 43
0.0000000001
 40
0.0
 40
0.0
 40
0.0
 40
0.0
 40
1.0
 40
1.0
 40
1.0
 40
2.0
 40
2.0
 40
2.0
 40
3.0
 40
3.0
 40
3.0
 40
4.0
 40
4.0
 40
4.0
 40
5.0
 40
5.0
 40
5.0
 40
6.0
 40
6.0
 40
6.0
 40
7.0
 40
7.0
 40
7.0
 40
8.0
 40
8.0
 40
8.0
 40
9.0
 40
9.0
 40
9.0
 40
10.0
 40
10.0
 40
10.0
 40
11.0
 40
11.0
 40
11.0
 40
12.0
 40
12.0
 40
12.0
 40
12.0
 10
127.1512396600524
 20
175.8373290576031
 30
0.0
 10
126.9397107972581
 20
176.1758096890289
 30
0.0
 10
126.8211995125655
 20
176.3478922085172
 30
0.0
 10
126.5418022687118
 20
176.3478922085172
 30
0.0
 10
126.324761253141
 20
176.3478922085172
 30
0.0
 10
126.1807562618576
 20
176.1728813578665
 30
0.0
 10
126.1807562618576
 20
175.9613524950721
 30
0.0
 10
126.1807562618576
 20
175.6821275059927
 30
0.0
 10
126.4374158755087
 20
175.5636162213001
 30
0.0
 10
126.6771945212821
 20
175.5720567052389
 30
0.0
 10
126.6771945212821
 20
175.5720567052389
 30
0.0
 10
126.6771945212821
 20
175.3322780594655
 30
0.0
 10
126.6771945212821
 20
175.3322780594655
 30
0.0
 10
126.2710177635711
 20
175.3098849388114
 30
0.0
 10
125.9692273990632
 20
175.552419660973
 30
0.0
 10
125.9692273990632
 20
175.9754773865617
 30
0.0
 10
125.9692273990632
 20
176.3223985019263
 30
0.0
 10
126.172488032693
 20
176.6016234910058
 30
0.0
 10
126.5449028546485
 20
176.6016234910058
 30
0.0
 10
126.8973361227895
 20
176.6016234910058
 30
0.0
 10
127.0723469734402
 20
176.3647731763949
 30
0.0
 10
127.2301323466647
 20
176.1165540466826
 30
0.0
 10
127.3796494907245
 20
175.8683349169704
 30
0.0
 10
127.5122856669066
 20
175.600306488218
 30
0.0
 10
127.7575764654564
 20
175.5551757373612
 30
0.0
 10
127.7575764654564
 20
175.5551757373612
 30
0.0
 10
127.7575764654564
 20
176.5819864467399
 30
0.0
 10
127.7575764654564
 20
176.5819864467399
 30
0.0
 10
127.7575764654564
 20
176.5819864467399
 30
0.0
 10
127.9691053282508
 20
176.5819864467399
 30
0.0
 10
127.9691053282508
 20
176.5819864467399
 30
0.0
 10
127.9691053282508
 20
176.5819864467399
 30
0.0
 10
127.9691053282508
 20
175.2759507482817
 30
0.0
 10
127.9691053282508
 20
175.2759507482817
 30
0.0
 10
127.4981607754171
 20
175.3126410151996
 30
0.0
 10
127.3203938483782
 20
175.5551757373612
 30
0.0
 10
127.1512396600524
 20
175.8373290576031
 30
0.0
  0
HATCH
  5
2BF
330
2BA
100
AcDbEntity
  8
Sichtbar schmal (ISO)
 62
    18
420
        0
440
 33554687
100
AcDbHatch
 10
0.0
 20
0.0
 30
0.0
210
0.0
220
0.0
230
1.0
  2
SOLID
 70
     1
 71
     1
 91
        1
 92
        1
 93
        1
 72
     4
 94
        3
 73
     0
 74
     0
 95
       41
 96
       37
 40
0.0
 40
0.0
 40
0.0
 40
0.0
 40
1.0
 40
1.0
 40
1.0
 40
2.0
 40
2.0
 40
2.0
 40
3.0
 40
3.0
 40
3.0
 40
4.0
 40
4.0
 40
4.0
 40
5.0
 40
5.0
 40
5.0
 40
6.0
 40
6.0
 40
6.0
 40
7.0
 40
7.0
 40
7.0
 40
8.0
 40
8.0
 40
8.0
 40
9.0
 40
9.0
 40
9.0
 40
10.0
 40
10.0
 40
10.0
 40
11.0
 40
11.0
 40
11.0
 40
12.0
 40
12.0
 40
12.0
 40
12.0
 10
127.1512396600524
 20
175.8373290576031
 10
126.9397107972581
 20
176.1758096890289
 10
126.8211995125655
 20
176.3478922085172
 10
126.5418022687118
 20
176.3478922085172
 10
126.324761253141
 20
176.3478922085172
 10
126.1807562618576
 20
176.1728813578665
 10
126.1807562618576
 20
175.9613524950721
 10
126.1807562618576
 20
175.6821275059927
 10
126.4374158755087
 20
175.5636162213001
 10
126.6771945212821
 20
175.5720567052389
 10
126.6771945212821
 20
175.5720567052389
 10
126.6771945212821
 20
175.3322780594655
 10
126.6771945212821
 20
175.3322780594655
 10
126.2710177635711
 20
175.3098849388114
 10
125.9692273990632
 20
175.552419660973
 10
125.9692273990632
 20
175.9754773865617
 10
125.9692273990632
 20
176.3223985019263
 10
126.172488032693
 20
176.6016234910058
 10
126.5449028546485
 20
176.6016234910058
 10
126.8973361227895
 20
176.6016234910058
 10
127.0723469734402
 20
176.3647731763949
 10
127.2301323466647
 20
176.1165540466826
 10
127.3796494907245
 20
175.8683349169704
 10
127.5122856669066
 20
175.600306488218
 10
127.7575764654564
 20
175.5551757373612
 10
127.7575764654564
 20
175.5551757373612
 10
127.7575764654564
 20
176.5819864467399
 10
127.7575764654564
 20
176.5819864467399
 10
127.7575764654564
 20
176.5819864467399
 10
127.9691053282508
 20
176.5819864467399
 10
127.9691053282508
 20
176.5819864467399
 10
127.9691053282508
 20
176.5819864467399
 10
127.9691053282508
 20
175.2759507482817
 10
127.9691053282508
 20
175.2759507482817
 10
127.4981607754171
 20
175.3126410151996
 10
127.3203938483782
 20
175.5551757373612
 10
127.1512396600524
 20
175.8373290576031
 97
        0
 97
        1
330
2BE
 75
     2
 76
     1
 98
        1
 10
0.0
 20
0.0
450
        0
451
        0
460
0.0
461
0.0
452
        0
462
0.0
453
        0
470

  0
SPLINE
  5
2C0
330
2BA
100
AcDbEntity
  8
Sichtbar schmal (ISO)
100
AcDbSpline
210
0.0
220
0.0
230
1.0
 70
     9
 71
     3
 72
    53
 73
    49
 74
     0
 42
0.0000000001
 43
0.0000000001
 40
0.0
 40
0.0
 40
0.0
 40
0.0
 40
1.0
 40
1.0
 40
1.0
 40
2.0
 40
2.0
 40
2.0
 40
3.0
 40
3.0
 40
3.0
 40
4.0
 40
4.0
 40
4.0
 40
5.0
 40
5.0
 40
5.0
 40
6.0
 40
6.0
 40
6.0
 40
7.0
 40
7.0
 40
7.0
 40
8.0
 40
8.0
 40
8.0
 40
9.0
 40
9.0
 40
9.0
 40
10.0
 40
10.0
 40
10.0
 40
11.0
 40
11.0
 40
11.0
 40
12.0
 40
12.0
 40
12.0
 40
13.0
 40
13.0
 40
13.0
 40
14.0
 40
14.0
 40
14.0
 40
15.0
 40
15.0
 40
15.0
 40
16.0
 40
16.0
 40
16.0
 40
16.0
 10
127.4302923943577
 20
177.1159762469537
 30
0.0
 10
127.6363091043756
 20
177.1301011384431
 30
0.0
 10
127.7913384012119
 20
177.2964992503807
 30
0.0
 10
127.7913384012119
 20
177.5362778961541
 30
0.0
 10
127.7913384012119
 20
177.7646877268262
 30
0.0
 10
127.6335530279874
 20
177.9593356217428
 30
0.0
 10
127.31763777199
 20
177.9593356217428
 30
0.0
 10
127.055121496014
 20
177.9593356217428
 30
0.0
 10
126.8635741870341
 20
177.7788126183157
 30
0.0
 10
126.8635741870341
 20
177.508028113175
 30
0.0
 10
126.8635741870341
 20
177.3528265615645
 30
0.0
 10
126.9397107972581
 20
177.2288031240956
 30
0.0
 10
127.0523654196258
 20
177.1357855459938
 30
0.0
 10
127.0523654196258
 20
177.1357855459938
 30
0.0
 10
127.041341114073
 20
176.9297688359759
 30
0.0
 10
127.041341114073
 20
176.9297688359759
 30
0.0
 10
127.041341114073
 20
176.9297688359759
 30
0.0
 10
126.0033338443672
 20
177.1159762469537
 30
0.0
 10
126.0033338443672
 20
177.1159762469537
 30
0.0
 10
126.0033338443672
 20
177.1159762469537
 30
0.0
 10
126.0033338443672
 20
178.103168358252
 30
0.0
 10
126.0033338443672
 20
178.103168358252
 30
0.0
 10
126.0033338443672
 20
178.103168358252
 30
0.0
 10
126.2148627071616
 20
178.103168358252
 30
0.0
 10
126.2148627071616
 20
178.103168358252
 30
0.0
 10
126.2148627071616
 20
178.103168358252
 30
0.0
 10
126.2148627071616
 20
177.2964992503807
 30
0.0
 10
126.2148627071616
 20
177.2964992503807
 30
0.0
 10
126.2148627071616
 20
177.2964992503807
 30
0.0
 10
126.7901936531983
 20
177.1893567807894
 30
0.0
 10
126.7901936531983
 20
177.1893567807894
 30
0.0
 10
126.7901936531983
 20
177.1893567807894
 30
0.0
 10
126.7957058059747
 20
177.1950411883401
 30
0.0
 10
126.7957058059747
 20
177.1950411883401
 30
0.0
 10
126.6971760750965
 20
177.2823743588912
 30
0.0
 10
126.6520453242398
 20
177.431891502951
 30
0.0
 10
126.6520453242398
 20
177.5672837555213
 30
0.0
 10
126.6520453242398
 20
177.9226453548249
 30
0.0
 10
126.8776990785236
 20
178.2132391590057
 30
0.0
 10
127.3372748162559
 20
178.2132391590057
 30
0.0
 10
127.675927702456
 20
178.2132391590057
 30
0.0
 10
128.0028672640062
 20
177.979144920783
 30
0.0
 10
128.0028672640062
 20
177.5137125207257
 30
0.0
 10
128.0028672640062
 20
177.1667914053611
 30
0.0
 10
127.7913384012119
 20
176.8846380851191
 30
0.0
 10
127.4302923943577
 20
176.8761976011802
 30
0.0
 10
127.4302923943577
 20
176.8761976011802
 30
0.0
 10
127.4302923943577
 20
177.1159762469537
 30
0.0
 10
127.4302923943577
 20
177.1159762469537
 30
0.0
  0
HATCH
  5
2C1
330
2BA
100
AcDbEntity
  8
Sichtbar schmal (ISO)
 62
    18
420
        0
440
 33554687
100
AcDbHatch
 10
0.0
 20
0.0
 30
0.0
210
0.0
220
0.0
230
1.0
  2
SOLID
 70
     1
 71
     1
 91
        1
 92
        1
 93
        1
 72
     4
 94
        3
 73
     0
 74
     0
 95
       53
 96
       49
 40
0.0
 40
0.0
 40
0.0
 40
0.0
 40
1.0
 40
1.0
 40
1.0
 40
2.0
 40
2.0
 40
2.0
 40
3.0
 40
3.0
 40
3.0
 40
4.0
 40
4.0
 40
4.0
 40
5.0
 40
5.0
 40
5.0
 40
6.0
 40
6.0
 40
6.0
 40
7.0
 40
7.0
 40
7.0
 40
8.0
 40
8.0
 40
8.0
 40
9.0
 40
9.0
 40
9.0
 40
10.0
 40
10.0
 40
10.0
 40
11.0
 40
11.0
 40
11.0
 40
12.0
 40
12.0
 40
12.0
 40
13.0
 40
13.0
 40
13.0
 40
14.0
 40
14.0
 40
14.0
 40
15.0
 40
15.0
 40
15.0
 40
16.0
 40
16.0
 40
16.0
 40
16.0
 10
127.4302923943577
 20
177.1159762469537
 10
127.6363091043756
 20
177.1301011384431
 10
127.7913384012119
 20
177.2964992503807
 10
127.7913384012119
 20
177.5362778961541
 10
127.7913384012119
 20
177.7646877268262
 10
127.6335530279874
 20
177.9593356217428
 10
127.31763777199
 20
177.9593356217428
 10
127.055121496014
 20
177.9593356217428
 10
126.8635741870341
 20
177.7788126183157
 10
126.8635741870341
 20
177.508028113175
 10
126.8635741870341
 20
177.3528265615645
 10
126.9397107972581
 20
177.2288031240956
 10
127.0523654196258
 20
177.1357855459938
 10
127.0523654196258
 20
177.1357855459938
 10
127.041341114073
 20
176.9297688359759
 10
127.041341114073
 20
176.9297688359759
 10
127.041341114073
 20
176.9297688359759
 10
126.0033338443672
 20
177.1159762469537
 10
126.0033338443672
 20
177.1159762469537
 10
126.0033338443672
 20
177.1159762469537
 10
126.0033338443672
 20
178.103168358252
 10
126.0033338443672
 20
178.103168358252
 10
126.0033338443672
 20
178.103168358252
 10
126.2148627071616
 20
178.103168358252
 10
126.2148627071616
 20
178.103168358252
 10
126.2148627071616
 20
178.103168358252
 10
126.2148627071616
 20
177.2964992503807
 10
126.2148627071616
 20
177.2964992503807
 10
126.2148627071616
 20
177.2964992503807
 10
126.7901936531983
 20
177.1893567807894
 10
126.7901936531983
 20
177.1893567807894
 10
126.7901936531983
 20
177.1893567807894
 10
126.7957058059747
 20
177.1950411883401
 10
126.7957058059747
 20
177.1950411883401
 10
126.6971760750965
 20
177.2823743588912
 10
126.6520453242398
 20
177.431891502951
 10
126.6520453242398
 20
177.5672837555213
 10
126.6520453242398
 20
177.9226453548249
 10
126.8776990785236
 20
178.2132391590057
 10
127.3372748162559
 20
178.2132391590057
 10
127.675927702456
 20
178.2132391590057
 10
128.0028672640062
 20
177.979144920783
 10
128.0028672640062
 20
177.5137125207257
 10
128.0028672640062
 20
177.1667914053611
 10
127.7913384012119
 20
176.8846380851191
 10
127.4302923943577
 20
176.8761976011802
 10
127.4302923943577
 20
176.8761976011802
 10
127.4302923943577
 20
177.1159762469537
 10
127.4302923943577
 20
177.1159762469537
 97
        0
 97
        1
330
2C0
 75
     2
 76
     1
 98
        1
 10
0.0
 20
0.0
450
        0
451
        0
460
0.0
461
0.0
452
        0
462
0.0
453
        0
470

  0
ENDBLK
  5
2BD
330
2BA
100
AcDbEntity
  8
0
100
AcDbBlockEnd
  0
BLOCK
  5
2C6
330
2C4
100
AcDbEntity
  8
0
100
AcDbBlockBegin
  2
Block_45
 70
     0
 10
0.0
 20
0.0
 30
0.0
  3
Block_45
  1

  0
INSERT
  5
2C9
330
2C4
100
AcDbEntity
  8
Sichtbar schmal (ISO)
100
AcDbBlockReference
  2
Block_46
 10
0.0
 20
0.0
 30
0.0
  0
ENDBLK
  5
2C7
330
2C4
100
AcDbEntity
  8
0
100
AcDbBlockEnd
  0
BLOCK
  5
2CA
330
2C8
100
AcDbEntity
  8
0
100
AcDbBlockBegin
  2
Block_46
 70
     0
 10
0.0
 20
0.0
 30
0.0
  3
Block_46
  1

  0
SPLINE
  5
2CC
330
2C8
100
AcDbEntity
  8
Sichtbar schmal (ISO)
100
AcDbSpline
210
0.0
220
0.0
230
1.0
 70
     9
 71
     3
 72
    17
 73
    13
 74
     0
 42
0.0000000001
 43
0.0000000001
 40
0.0
 40
0.0
 40
0.0
 40
0.0
 40
1.0
 40
1.0
 40
1.0
 40
2.0
 40
2.0
 40
2.0
 40
3.0
 40
3.0
 40
3.0
 40
4.0
 40
4.0
 40
4.0
 40
4.0
 10
140.1816243139129
 20
169.878691906315
 30
0.0
 10
139.9363335153631
 20
169.878691906315
 30
0.0
 10
139.7248046525688
 20
169.7348591698059
 30
0.0
 10
139.7248046525688
 20
169.4670029958277
 30
0.0
 10
139.7248046525688
 20
169.1820935991975
 30
0.0
 10
139.9532144832408
 20
169.0749511296062
 30
0.0
 10
140.1985052817906
 20
169.0749511296062
 30
0.0
 10
140.4158908069099
 20
169.0749511296062
 30
0.0
 10
140.6215630073793
 20
169.2384209103813
 30
0.0
 10
140.6215630073793
 20
169.4697590722159
 30
0.0
 10
140.6215630073793
 20
169.7207342783163
 30
0.0
 10
140.4186468832981
 20
169.878691906315
 30
0.0
 10
140.1816243139129
 20
169.878691906315
 30
0.0
  0
SPLINE
  5
2CD
330
2C8
100
AcDbEntity
  8
Sichtbar schmal (ISO)
100
AcDbSpline
210
0.0
220
0.0
230
1.0
 70
     9
 71
     3
 72
    35
 73
    31
 74
     0
 42
0.0000000001
 43
0.0000000001
 40
0.0
 40
0.0
 40
0.0
 40
0.0
 40
1.0
 40
1.0
 40
1.0
 40
2.0
 40
2.0
 40
2.0
 40
3.0
 40
3.0
 40
3.0
 40
4.0
 40
4.0
 40
4.0
 40
5.0
 40
5.0
 40
5.0
 40
6.0
 40
6.0
 40
6.0
 40
7.0
 40
7.0
 40
7.0
 40
8.0
 40
8.0
 40
8.0
 40
9.0
 40
9.0
 40
9.0
 40
10.0
 40
10.0
 40
10.0
 40
10.0
 10
141.030840351027
 20
169.103028657811
 30
0.0
 10
141.2254882459436
 20
169.1228379568512
 30
0.0
 10
141.3353867919231
 20
169.2778672536874
 30
0.0
 10
141.3353867919231
 20
169.4697590722159
 30
0.0
 10
141.3353867919231
 20
169.7631089527849
 30
0.0
 10
141.0814832546602
 20
169.9069416892941
 30
0.0
 10
140.5626518745815
 20
169.9210665807836
 30
0.0
 10
140.5626518745815
 20
169.9210665807836
 30
0.0
 10
140.5567952122566
 20
169.9153821732329
 30
0.0
 10
140.5567952122566
 20
169.9153821732329
 30
0.0
 10
140.7259494005824
 20
169.8251206715194
 30
0.0
 10
140.8334363797222
 20
169.6475259992548
 30
0.0
 10
140.8334363797222
 20
169.4528781043382
 30
0.0
 10
140.8334363797222
 20
169.0437730154647
 30
0.0
 10
140.5595512886448
 20
168.8210475923433
 30
0.0
 10
140.1647433460352
 20
168.8210475923433
 30
0.0
 10
139.7813042185269
 20
168.8210475923433
 30
0.0
 10
139.5132757897744
 20
169.091832097484
 30
0.0
 10
139.5132757897744
 20
169.4781995561547
 30
0.0
 10
139.5132757897744
 20
169.8506143781102
 30
0.0
 10
139.7134358374674
 20
170.1636013029452
 30
0.0
 10
140.4692897869313
 20
170.1636013029452
 30
0.0
 10
141.1603759412724
 20
170.1636013029452
 30
0.0
 10
141.5469156547174
 20
169.954828516539
 30
0.0
 10
141.5469156547174
 20
169.4697590722159
 30
0.0
 10
141.5469156547174
 20
169.1340345171783
 30
0.0
 10
141.3750053900034
 20
168.8944281261792
 30
0.0
 10
141.030840351027
 20
168.8632500120377
 30
0.0
 10
141.030840351027
 20
168.8632500120377
 30
0.0
 10
141.030840351027
 20
169.103028657811
 30
0.0
 10
141.030840351027
 20
169.103028657811
 30
0.0
  0
HATCH
  5
2CE
330
2C8
100
AcDbEntity
  8
Sichtbar schmal (ISO)
 62
    18
420
        0
440
 33554687
100
AcDbHatch
 10
0.0
 20
0.0
 30
0.0
210
0.0
220
0.0
230
1.0
  2
SOLID
 70
     1
 71
     1
 91
        2
 92
        1
 93
        1
 72
     4
 94
        3
 73
     0
 74
     0
 95
       17
 96
       13
 40
0.0
 40
0.0
 40
0.0
 40
0.0
 40
1.0
 40
1.0
 40
1.0
 40
2.0
 40
2.0
 40
2.0
 40
3.0
 40
3.0
 40
3.0
 40
4.0
 40
4.0
 40
4.0
 40
4.0
 10
140.1816243139129
 20
169.878691906315
 10
139.9363335153631
 20
169.878691906315
 10
139.7248046525688
 20
169.7348591698059
 10
139.7248046525688
 20
169.4670029958277
 10
139.7248046525688
 20
169.1820935991975
 10
139.9532144832408
 20
169.0749511296062
 10
140.1985052817906
 20
169.0749511296062
 10
140.4158908069099
 20
169.0749511296062
 10
140.6215630073793
 20
169.2384209103813
 10
140.6215630073793
 20
169.4697590722159
 10
140.6215630073793
 20
169.7207342783163
 10
140.4186468832981
 20
169.878691906315
 10
140.1816243139129
 20
169.878691906315
 97
        0
 97
        1
330
2CC
 92
        1
 93
        1
 72
     4
 94
        3
 73
     0
 74
     0
 95
       35
 96
       31
 40
0.0
 40
0.0
 40
0.0
 40
0.0
 40
1.0
 40
1.0
 40
1.0
 40
2.0
 40
2.0
 40
2.0
 40
3.0
 40
3.0
 40
3.0
 40
4.0
 40
4.0
 40
4.0
 40
5.0
 40
5.0
 40
5.0
 40
6.0
 40
6.0
 40
6.0
 40
7.0
 40
7.0
 40
7.0
 40
8.0
 40
8.0
 40
8.0
 40
9.0
 40
9.0
 40
9.0
 40
10.0
 40
10.0
 40
10.0
 40
10.0
 10
141.030840351027
 20
169.103028657811
 10
141.2254882459436
 20
169.1228379568512
 10
141.3353867919231
 20
169.2778672536874
 10
141.3353867919231
 20
169.4697590722159
 10
141.3353867919231
 20
169.7631089527849
 10
141.0814832546602
 20
169.9069416892941
 10
140.5626518745815
 20
169.9210665807836
 10
140.5626518745815
 20
169.9210665807836
 10
140.5567952122566
 20
169.9153821732329
 10
140.5567952122566
 20
169.9153821732329
 10
140.7259494005824
 20
169.8251206715194
 10
140.8334363797222
 20
169.6475259992548
 10
140.8334363797222
 20
169.4528781043382
 10
140.8334363797222
 20
169.0437730154647
 10
140.5595512886448
 20
168.8210475923433
 10
140.1647433460352
 20
168.8210475923433
 10
139.7813042185269
 20
168.8210475923433
 10
139.5132757897744
 20
169.091832097484
 10
139.5132757897744
 20
169.4781995561547
 10
139.5132757897744
 20
169.8506143781102
 10
139.7134358374674
 20
170.1636013029452
 10
140.4692897869313
 20
170.1636013029452
 10
141.1603759412724
 20
170.1636013029452
 10
141.5469156547174
 20
169.954828516539
 10
141.5469156547174
 20
169.4697590722159
 10
141.5469156547174
 20
169.1340345171783
 10
141.3750053900034
 20
168.8944281261792
 10
141.030840351027
 20
168.8632500120377
 10
141.030840351027
 20
168.8632500120377
 10
141.030840351027
 20
169.103028657811
 10
141.030840351027
 20
169.103028657811
 97
        0
 97
        1
330
2CD
 75
     2
 76
     1
 98
        1
 10
0.0
 20
0.0
450
        0
451
        0
460
0.0
461
0.0
452
        0
462
0.0
453
        0
470

  0
SPLINE
  5
2CF
330
2C8
100
AcDbEntity
  8
Sichtbar schmal (ISO)
100
AcDbSpline
210
0.0
220
0.0
230
1.0
 70
     9
 71
     3
 72
    26
 73
    22
 74
     0
 42
0.0000000001
 43
0.0000000001
 40
0.0
 40
0.0
 40
0.0
 40
0.0
 40
1.0
 40
1.0
 40
1.0
 40
2.0
 40
2.0
 40
2.0
 40
3.0
 40
3.0
 40
3.0
 40
4.0
 40
4.0
 40
4.0
 40
5.0
 40
5.0
 40
5.0
 40
6.0
 40
6.0
 40
6.0
 40
7.0
 40
7.0
 40
7.0
 40
7.0
 10
139.7726914798137
 20
171.48445091199
 30
0.0
 10
139.7726914798137
 20
171.48445091199
 30
0.0
 10
139.7726914798137
 20
170.4352470819571
 30
0.0
 10
139.7726914798137
 20
170.4352470819571
 30
0.0
 10
139.7726914798137
 20
170.4352470819571
 30
0.0
 10
139.5470377255299
 20
170.4352470819571
 30
0.0
 10
139.5470377255299
 20
170.4352470819571
 30
0.0
 10
139.5470377255299
 20
170.4352470819571
 30
0.0
 10
139.5470377255299
 20
171.7299139653141
 30
0.0
 10
139.5470377255299
 20
171.7299139653141
 30
0.0
 10
139.5470377255299
 20
171.7299139653141
 30
0.0
 10
139.7530544355478
 20
171.7299139653141
 30
0.0
 10
139.7530544355478
 20
171.7299139653141
 30
0.0
 10
140.1506184545457
 20
171.3264932839913
 30
0.0
 10
140.8895914361318
 20
170.9993814676668
 30
0.0
 10
141.513153718962
 20
170.9626912007489
 30
0.0
 10
141.513153718962
 20
170.9626912007489
 30
0.0
 10
141.513153718962
 20
170.6946627719965
 30
0.0
 10
141.513153718962
 20
170.6946627719965
 30
0.0
 10
140.8361924561104
 20
170.7397935228532
 30
0.0
 10
140.2153862496684
 20
171.0641492627895
 30
0.0
 10
139.7726914798137
 20
171.48445091199
 30
0.0
  0
HATCH
  5
2D0
330
2C8
100
AcDbEntity
  8
Sichtbar schmal (ISO)
 62
    18
420
        0
440
 33554687
100
AcDbHatch
 10
0.0
 20
0.0
 30
0.0
210
0.0
220
0.0
230
1.0
  2
SOLID
 70
     1
 71
     1
 91
        1
 92
        1
 93
        1
 72
     4
 94
        3
 73
     0
 74
     0
 95
       26
 96
       22
 40
0.0
 40
0.0
 40
0.0
 40
0.0
 40
1.0
 40
1.0
 40
1.0
 40
2.0
 40
2.0
 40
2.0
 40
3.0
 40
3.0
 40
3.0
 40
4.0
 40
4.0
 40
4.0
 40
5.0
 40
5.0
 40
5.0
 40
6.0
 40
6.0
 40
6.0
 40
7.0
 40
7.0
 40
7.0
 40
7.0
 10
139.7726914798137
 20
171.48445091199
 10
139.7726914798137
 20
171.48445091199
 10
139.7726914798137
 20
170.4352470819571
 10
139.7726914798137
 20
170.4352470819571
 10
139.7726914798137
 20
170.4352470819571
 10
139.5470377255299
 20
170.4352470819571
 10
139.5470377255299
 20
170.4352470819571
 10
139.5470377255299
 20
170.4352470819571
 10
139.5470377255299
 20
171.7299139653141
 10
139.5470377255299
 20
171.7299139653141
 10
139.5470377255299
 20
171.7299139653141
 10
139.7530544355478
 20
171.7299139653141
 10
139.7530544355478
 20
171.7299139653141
 10
140.1506184545457
 20
171.3264932839913
 10
140.8895914361318
 20
170.9993814676668
 10
141.513153718962
 20
170.9626912007489
 10
141.513153718962
 20
170.9626912007489
 10
141.513153718962
 20
170.6946627719965
 10
141.513153718962
 20
170.6946627719965
 10
140.8361924561104
 20
170.7397935228532
 10
140.2153862496684
 20
171.0641492627895
 10
139.7726914798137
 20
171.48445091199
 97
        0
 97
        1
330
2CF
 75
     2
 76
     1
 98
        1
 10
0.0
 20
0.0
450
        0
451
        0
460
0.0
461
0.0
452
        0
462
0.0
453
        0
470

  0
ENDBLK
  5
2CB
330
2C8
100
AcDbEntity
  8
0
100
AcDbBlockEnd
  0
ENDSEC
  0
SECTION
  2
ENTITIES
  0
INSERT
  5
79
330
70
100
AcDbEntity
  8
0
100
AcDbBlockReference
  2
Block_0
 10
0.0
 20
0.0
 30
0.0
  0
INSERT
  5
7D
330
70
100
AcDbEntity
  8
0
100
AcDbBlockReference
  2
Block_1
 10
0.0
 20
0.0
 30
0.0
  0
INSERT
  5
81
330
70
100
AcDbEntity
  8
0
100
AcDbBlockReference
  2
Block_2
 10
0.0
 20
0.0
 30
0.0
  0
INSERT
  5
85
330
70
100
AcDbEntity
  8
0
100
AcDbBlockReference
  2
Block_3
 10
0.0
 20
0.0
 30
0.0
  0
INSERT
  5
89
330
70
100
AcDbEntity
  8
0
100
AcDbBlockReference
  2
Block_4
 10
0.0
 20
0.0
 30
0.0
  0
INSERT
  5
8F
330
70
100
AcDbEntity
  8
Titel (ISO)
100
AcDbBlockReference
  2
Block_5
 10
0.0
 20
0.0
 30
0.0
  0
INSERT
  5
93
330
70
100
AcDbEntity
  8
Titel (ISO)
100
AcDbBlockReference
  2
Block_6
 10
0.0
 20
0.0
 30
0.0
  0
INSERT
  5
97
330
70
100
AcDbEntity
  8
Titel (ISO)
100
AcDbBlockReference
  2
Block_7
 10
0.0
 20
0.0
 30
0.0
  0
INSERT
  5
9B
330
70
100
AcDbEntity
  8
Titel (ISO)
100
AcDbBlockReference
  2
Block_8
 10
0.0
 20
0.0
 30
0.0
  0
INSERT
  5
9F
330
70
100
AcDbEntity
  8
Titel (ISO)
100
AcDbBlockReference
  2
Block_9
 10
0.0
 20
0.0
 30
0.0
  0
INSERT
  5
A3
330
70
100
AcDbEntity
  8
Titel (ISO)
100
AcDbBlockReference
  2
Block_10
 10
0.0
 20
0.0
 30
0.0
  0
INSERT
  5
A7
330
70
100
AcDbEntity
  8
Titel (ISO)
100
AcDbBlockReference
  2
Block_11
 10
0.0
 20
0.0
 30
0.0
  0
INSERT
  5
AB
330
70
100
AcDbEntity
  8
Titel (ISO)
100
AcDbBlockReference
  2
Block_12
 10
0.0
 20
0.0
 30
0.0
  0
INSERT
  5
AF
330
70
100
AcDbEntity
  8
Titel (ISO)
100
AcDbBlockReference
  2
Block_13
 10
0.0
 20
0.0
 30
0.0
  0
INSERT
  5
B5
330
70
100
AcDbEntity
  8
Sichtbar schmal (ISO)
100
AcDbBlockReference
  2
Block_14
 10
0.0
 20
0.0
 30
0.0
  0
INSERT
  5
BB
330
70
100
AcDbEntity
  8
Sichtbar schmal (ISO)
100
AcDbBlockReference
  2
Block_15
 10
0.0
 20
0.0
 30
0.0
  0
INSERT
  5
1DB
330
70
100
AcDbEntity
  8
Sichtbar schmal (ISO)
100
AcDbBlockReference
  2
Block_16
 10
0.0
 20
0.0
 30
0.0
  0
INSERT
  5
208
330
70
100
AcDbEntity
  8
Sichtbar schmal (ISO)
100
AcDbBlockReference
  2
Block_17
 10
0.0
 20
0.0
 30
0.0
  0
LINE
  5
21C
330
70
100
AcDbEntity
  8
Sichtbar schmal (ISO)
 62
    18
420
        0
370
     5
100
AcDbLine
 10
90.26051479213123
 20
111.283292389083
 30
0.0
 11
133.6026152961313
 21
111.2941656025941
 31
0.0
  0
LINE
  5
21D
330
70
100
AcDbEntity
  8
Sichtbar schmal (ISO)
 62
    18
420
        0
370
     5
100
AcDbLine
 10
90.21931408782878
 20
158.035150690184
 30
0.0
 11
133.4132013300103
 21
158.0506234010111
 31
0.0
  0
LINE
  5
21E
330
70
100
AcDbEntity
  8
Sichtbar schmal (ISO)
 62
    18
420
        0
370
     5
100
AcDbLine
 10
90.20381204098057
 20
110.13624417841
 30
0.0
 11
140.5301995949973
 21
110.1480824898863
 31
0.0
  0
INSERT
  5
220
330
70
100
AcDbEntity
  8
Sichtbar schmal (ISO)
100
AcDbBlockReference
  2
Block_21
 10
0.0
 20
0.0
 30
0.0
  0
LINE
  5
234
330
70
100
AcDbEntity
  8
Sichtbar schmal (ISO)
 62
    18
420
        0
370
     5
100
AcDbLine
 10
90.18703453615895
 20
159.1840463984232
 30
0.0
 11
140.5410863001794
 21
159.1577600822214
 31
0.0
  0
LWPOLYLINE
  5
235
330
70
100
AcDbEntity
  8
Sichtbar schmal (ISO)
 62
    18
420
        0
370
     5
100
AcDbPolyline
 90
        1
 70
     0
 43
0.0
 10
124.7926712576544
 20
139.1099789340782
  0
LINE
  5
236
330
70
100
AcDbEntity
  8
Sichtbar schmal (ISO)
 62
    18
420
        0
370
     5
100
AcDbLine
 10
90.33904465962255
 20
147.8394932026688
 30
0.0
 11
126.5205148176977
 21
147.8607959810174
 31
0.0
  0
LINE
  5
237
330
70
100
AcDbEntity
  8
Sichtbar schmal (ISO)
 62
    18
420
        0
370
     5
100
AcDbLine
 10
90.73123905380885
 20
121.4741156419324
 30
0.0
 11
126.5205148176977
 21
121.4787151387068
 31
0.0
  0
INSERT
  5
239
330
70
100
AcDbEntity
  8
Sichtbar schmal (ISO)
100
AcDbBlockReference
  2
Block_25
 10
0.0
 20
0.0
 30
0.0
  0
INSERT
  5
24E
330
70
100
AcDbEntity
  8
Sichtbar schmal (ISO)
100
AcDbBlockReference
  2
Block_29
 10
0.0
 20
0.0
 30
0.0
  0
INSERT
  5
260
330
70
100
AcDbEntity
  8
Sichtbar schmal (ISO)
100
AcDbBlockReference
  2
Block_31
 10
0.0
 20
0.0
 30
0.0
  0
INSERT
  5
274
330
70
100
AcDbEntity
  8
Sichtbar schmal (ISO)
100
AcDbBlockReference
  2
Block_33
 10
0.0
 20
0.0
 30
0.0
  0
LWPOLYLINE
  5
286
330
70
100
AcDbEntity
  8
Sichtbar schmal (ISO)
 62
    18
420
        0
370
     5
100
AcDbPolyline
 90
        1
 70
     0
 43
0.0
 10
144.3035846193023
 20
163.9327026936598
  0
LINE
  5
287
330
70
100
AcDbEntity
  8
Sichtbar schmal (ISO)
 62
    18
420
        0
370
     5
100
AcDbLine
 10
113.6353296201168
 20
161.6502499854333
 30
0.0
 11
140.491362428643
 21
161.6562259702552
 31
0.0
  0
LWPOLYLINE
  5
288
330
70
100
AcDbEntity
  8
Sichtbar schmal (ISO)
 62
    18
420
        0
370
     5
100
AcDbPolyline
 90
        1
 70
     0
 43
0.0
 10
136.264213790929
 20
163.7458452072394
  0
LINE
  5
289
330
70
100
AcDbEntity
  8
Sichtbar schmal (ISO)
  6
AI-Linetype-0
 62
    18
420
        0
370
     5
100
AcDbLine
 10
127.2143342095188
 20
174.3214930181624
 30
0.0
 11
113.4563401109622
 21
174.2789829312033
 31
0.0
  0
INSERT
  5
28C
330
70
100
AcDbEntity
  8
Sichtbar schmal (ISO)
100
AcDbBlockReference
  2
Block_35
 10
0.0
 20
0.0
 30
0.0
  0
LWPOLYLINE
  5
2A0
330
70
100
AcDbEntity
  8
Sichtbar schmal (ISO)
 62
    18
420
        0
370
     5
100
AcDbPolyline
 90
        1
 70
     0
 43
0.0
 10
124.6955533924182
 20
171.4360084950151
  0
INSERT
  5
2A2
330
70
100
AcDbEntity
  8
Sichtbar schmal (ISO)
100
AcDbBlockReference
  2
Block_39
 10
0.0
 20
0.0
 30
0.0
  0
INSERT
  5
2B7
330
70
100
AcDbEntity
  8
Sichtbar schmal (ISO)
100
AcDbBlockReference
  2
Block_43
 10
0.0
 20
0.0
 30
0.0
  0
LINE
  5
2C2
330
70
100
AcDbEntity
  8
Sichtbar schmal (ISO)
 62
    18
420
        0
370
     5
100
AcDbLine
 10
114.6730583705106
 20
179.3036927381714
 30
0.0
 11
140.491362428643
 21
179.3413441830534
 31
0.0
  0
LWPOLYLINE
  5
2C3
330
70
100
AcDbEntity
  8
Sichtbar schmal (ISO)
 62
    18
420
        0
370
     5
100
AcDbPolyline
 90
        1
 70
     0
 43
0.0
 10
131.5371682265972
 20
172.0077618159684
  0
INSERT
  5
2C5
330
70
100
AcDbEntity
  8
Sichtbar schmal (ISO)
100
AcDbBlockReference
  2
Block_45
 10
0.0
 20
0.0
 30
0.0
  0
ENDSEC
  0
SECTION
  2
OBJECTS
  0
DICTIONARY
  5
C
330
0
100
AcDbDictionary
281
     1
  3
ACAD_COLOR
350
63
  3
ACAD_DETAILVIEWSTYLE
350
6A
  3
ACAD_GROUP
350
D
  3
ACAD_LAYOUT
350
62
  3
ACAD_MATERIAL
350
10
  3
ACAD_MLEADERSTYLE
350
66
  3
ACAD_MLINESTYLE
350
5F
  3
ACAD_PLOTSETTINGS
350
61
  3
ACAD_PLOTSTYLENAME
350
E
  3
ACAD_SCALELIST
350
42
  3
ACAD_SECTIONVIEWSTYLE
350
68
  3
ACAD_TABLESTYLE
350
64
  3
ACAD_VISUALSTYLE
350
29
  3
ACDB_RECOMPOSE_DATA
350
2D9
  3
AcDbVariableDictionary
350
2D1
  0
DICTIONARY
  5
63
102
{ACAD_REACTORS
330
C
102
}
330
C
100
AcDbDictionary
281
     1
  0
DICTIONARY
  5
6A
102
{ACAD_REACTORS
330
C
102
}
330
C
100
AcDbDictionary
281
     1
  3
Imperial24
350
6B
  0
DICTIONARY
  5
D
102
{ACAD_REACTORS
330
C
102
}
330
C
100
AcDbDictionary
281
     1
  0
DICTIONARY
  5
62
102
{ACAD_REACTORS
330
C
102
}
330
C
100
AcDbDictionary
281
     1
  3
Layout1
350
6F
  3
Layout2
350
77
  3
Model
350
73
  0
DICTIONARY
  5
10
102
{ACAD_REACTORS
330
C
102
}
330
C
100
AcDbDictionary
281
     1
  3
ByBlock
350
19
  3
ByLayer
350
11
  3
Global
350
21
  0
DICTIONARY
  5
66
102
{ACAD_REACTORS
330
C
102
}
330
C
100
AcDbDictionary
281
     1
  3
Standard
350
67
  0
DICTIONARY
  5
5F
102
{ACAD_REACTORS
330
C
102
}
330
C
100
AcDbDictionary
281
     1
  3
Standard
350
60
  0
DICTIONARY
  5
61
102
{ACAD_REACTORS
330
C
102
}
330
C
100
AcDbDictionary
281
     1
  0
ACDBDICTIONARYWDFLT
  5
E
102
{ACAD_REACTORS
330
C
102
}
330
C
100
AcDbDictionary
281
     1
  3
Normal
350
F
100
AcDbDictionaryWithDefault
340
F
  0
DICTIONARY
  5
42
102
{ACAD_REACTORS
330
C
102
}
330
C
100
AcDbDictionary
281
     1
  3
A0
350
43
  3
A1
350
44
  3
A2
350
45
  3
A3
350
46
  3
A4
350
47
  3
A5
350
48
  3
A6
350
49
  3
A7
350
4A
  3
A8
350
4B
  3
A9
350
4C
  3
B0
350
4D
  3
B1
350
4E
  3
B2
350
4F
  3
B3
350
50
  3
B4
350
51
  3
B5
350
52
  3
B6
350
53
  0
DICTIONARY
  5
68
102
{ACAD_REACTORS
330
C
102
}
330
C
100
AcDbDictionary
281
     1
  3
Imperial24
350
69
  0
DICTIONARY
  5
64
102
{ACAD_REACTORS
330
C
102
}
330
C
100
AcDbDictionary
281
     1
  3
Standard
350
65
  0
DICTIONARY
  5
29
102
{ACAD_REACTORS
330
C
102
}
330
C
100
AcDbDictionary
281
     1
  3
2dWireframe
350
2F
  3
Basic
350
2E
  3
Brighten
350
35
  3
ColorChange
350
39
  3
Conceptual
350
32
  3
Dim
350
34
  3
EdgeColorOff
350
41
  3
Facepattern
350
38
  3
Flat
350
2A
  3
FlatWithEdges
350
2B
  3
Gouraud
350
2C
  3
GouraudWithEdges
350
2D
  3
Hidden
350
31
  3
JitterOff
350
3F
  3
Linepattern
350
37
  3
OverhangOff
350
40
  3
Realistic
350
33
  3
Shaded
350
3E
  3
Shaded with edges
350
3D
  3
Shades of Gray
350
3A
  3
Sketchy
350
3B
  3
Thicken
350
36
  3
Wireframe
350
30
  3
X-Ray
350
3C
  0
XRECORD
  5
2D9
102
{ACAD_REACTORS
330
C
102
}
330
C
100
AcDbXrecord
280
     1
 90
        1
330
65
  0
DICTIONARY
  5
2D1
102
{ACAD_REACTORS
330
C
102
}
330
C
100
AcDbDictionary
281
     1
  3
CANNOSCALE
350
2D6
  3
CMLEADERSTYLE
350
2D3
  3
CTABLESTYLE
350
2D2
  3
CVIEWDETAILSTYLE
350
2D4
  3
CVIEWSECTIONSTYLE
350
2D5
  0
ACDBDETAILVIEWSTYLE
  5
6B
102
{ACAD_REACTORS
330
6A
102
}
330
6A
100
AcDbModelDocViewStyle
 70
     0
  3
Imperial24
290
     1
300
Imperial24
 90
        0
100
AcDbDetailViewStyle
 70
     0
 71
     0
 90
        3
 71
     1
340
55
 62
   256
 40
0.24
340
0
 62
   256
 40
0.24
300

 40
0.36
280
     3
 71
     2
340
5D
 90
       25
 62
   256
 71
     3
340
55
 62
   256
 40
0.24
 90
        1
 40
0.75
 90
        1
300
%<\AcVar ViewType \f "%tc1">% %<\AcVar ViewDetailId>%\PSCALE %<\AcVar ViewScale \f "%sn">%
 71
     4
340
5D
 90
       25
 62
   256
340
5D
 90
       25
 62
   256
280
     0
  0
LAYOUT
  5
6F
102
{ACAD_REACTORS
330
62
102
}
330
62
100
AcDbPlotSettings
  1

  2

  4

  6

 40
0.0
 41
0.0
 42
0.0
 43
0.0
 44
0.0
 45
0.0
 46
0.0
 47
0.0
 48
0.0
 49
0.0
140
0.0
141
0.0
142
1.0
143
1.0
 70
   688
 72
     0
 73
     0
 74
     5
  7

 75
    16
147
1.0
 76
     0
 77
     2
 78
   300
148
0.0
149
0.0
100
AcDbLayout
  1
Layout1
 70
     1
 71
     1
 10
0.0
 20
0.0
 11
12.0
 21
9.0
 12
0.0
 22
0.0
 32
0.0
 14
0.0
 24
0.0
 34
0.0
 15
0.0
 25
0.0
 35
0.0
146
0.0
 13
0.0
 23
0.0
 33
0.0
 16
1.0
 26
0.0
 36
0.0
 17
0.0
 27
1.0
 37
0.0
 76
     0
330
6C
  0
LAYOUT
  5
77
102
{ACAD_REACTORS
330
62
102
}
330
62
100
AcDbPlotSettings
  1

  2

  4

  6

 40
0.0
 41
0.0
 42
0.0
 43
0.0
 44
0.0
 45
0.0
 46
0.0
 47
0.0
 48
0.0
 49
0.0
140
0.0
141
0.0
142
1.0
143
1.0
 70
   688
 72
     0
 73
     0
 74
     5
  7

 75
    16
147
1.0
 76
     0
 77
     2
 78
   300
148
0.0
149
0.0
100
AcDbLayout
  1
Layout2
 70
     1
 71
     2
 10
0.0
 20
0.0
 11
12.0
 21
9.0
 12
0.0
 22
0.0
 32
0.0
 14
0.0
 24
0.0
 34
0.0
 15
0.0
 25
0.0
 35
0.0
146
0.0
 13
0.0
 23
0.0
 33
0.0
 16
1.0
 26
0.0
 36
0.0
 17
0.0
 27
1.0
 37
0.0
 76
     0
330
74
  0
LAYOUT
  5
73
102
{ACAD_REACTORS
330
62
102
}
330
62
100
AcDbPlotSettings
  1

  2

  4

  6

 40
0.0
 41
0.0
 42
0.0
 43
0.0
 44
0.0
 45
0.0
 46
0.0
 47
0.0
 48
0.0
 49
0.0
140
0.0
141
0.0
142
1.0
143
1.0
 70
  1712
 72
     0
 73
     0
 74
     0
  7

 75
     0
147
1.0
 76
     0
 77
     2
 78
   300
148
0.0
149
0.0
100
AcDbLayout
  1
Model
 70
     1
 71
     0
 10
0.0
 20
0.0
 11
12.0
 21
9.0
 12
0.0
 22
0.0
 32
0.0
 14
0.0
 24
0.0
 34
0.0
 15
0.0
 25
0.0
 35
0.0
146
0.0
 13
0.0
 23
0.0
 33
0.0
 16
1.0
 26
0.0
 36
0.0
 17
0.0
 27
1.0
 37
0.0
 76
     0
330
70
  0
MATERIAL
  5
19
102
{ACAD_XDICTIONARY
360
1A
102
}
102
{ACAD_REACTORS
330
10
102
}
330
10
100
AcDbMaterial
  1
ByBlock
 72
     0
 43
0.0208333333333333
 43
0.0
 43
0.0
 43
0.0
 43
0.0
 43
0.0208333333333333
 43
0.0
 43
0.0
 43
0.0
 43
0.0
 43
1.0
 43
0.0
 43
0.0
 43
0.0
 43
0.0
 43
1.0
 77
     0
 47
0.0208333333333333
 47
0.0
 47
0.0
 47
0.0
 47
0.0
 47
0.0208333333333333
 47
0.0
 47
0.0
 47
0.0
 47
0.0
 47
1.0
 47
0.0
 47
0.0
 47
0.0
 47
0.0
 47
1.0
171
     0
 49
0.0208333333333333
 49
0.0
 49
0.0
 49
0.0
 49
0.0
 49
0.0208333333333333
 49
0.0
 49
0.0
 49
0.0
 49
0.0
 49
1.0
 49
0.0
 49
0.0
 49
0.0
 49
0.0
 49
1.0
175
     0
142
0.0208333333333333
142
0.0
142
0.0
142
0.0
142
0.0
142
0.0208333333333333
142
0.0
142
0.0
142
0.0
142
0.0
142
1.0
142
0.0
142
0.0
142
0.0
142
0.0
142
1.0
179
     0
144
0.0208333333333333
144
0.0
144
0.0
144
0.0
144
0.0
144
0.0208333333333333
144
0.0
144
0.0
144
0.0
144
0.0
144
1.0
144
0.0
144
0.0
144
0.0
144
0.0
144
1.0
147
0.0208333333333333
147
0.0
147
0.0
147
0.0
147
0.0
147
0.0208333333333333
147
0.0
147
0.0
147
0.0
147
0.0
147
1.0
147
0.0
147
0.0
147
0.0
147
0.0
147
1.0
  0
MATERIAL
  5
11
102
{ACAD_XDICTIONARY
360
12
102
}
102
{ACAD_REACTORS
330
10
102
}
330
10
100
AcDbMaterial
  1
ByLayer
 72
     0
 43
0.0208333333333333
 43
0.0
 43
0.0
 43
0.0
 43
0.0
 43
0.0208333333333333
 43
0.0
 43
0.0
 43
0.0
 43
0.0
 43
1.0
 43
0.0
 43
0.0
 43
0.0
 43
0.0
 43
1.0
 77
     0
 47
0.0208333333333333
 47
0.0
 47
0.0
 47
0.0
 47
0.0
 47
0.0208333333333333
 47
0.0
 47
0.0
 47
0.0
 47
0.0
 47
1.0
 47
0.0
 47
0.0
 47
0.0
 47
0.0
 47
1.0
171
     0
 49
0.0208333333333333
 49
0.0
 49
0.0
 49
0.0
 49
0.0
 49
0.0208333333333333
 49
0.0
 49
0.0
 49
0.0
 49
0.0
 49
1.0
 49
0.0
 49
0.0
 49
0.0
 49
0.0
 49
1.0
175
     0
142
0.0208333333333333
142
0.0
142
0.0
142
0.0
142
0.0
142
0.0208333333333333
142
0.0
142
0.0
142
0.0
142
0.0
142
1.0
142
0.0
142
0.0
142
0.0
142
0.0
142
1.0
179
     0
144
0.0208333333333333
144
0.0
144
0.0
144
0.0
144
0.0
144
0.0208333333333333
144
0.0
144
0.0
144
0.0
144
0.0
144
1.0
144
0.0
144
0.0
144
0.0
144
0.0
144
1.0
147
0.0208333333333333
147
0.0
147
0.0
147
0.0
147
0.0
147
0.0208333333333333
147
0.0
147
0.0
147
0.0
147
0.0
147
1.0
147
0.0
147
0.0
147
0.0
147
0.0
147
1.0
  0
MATERIAL
  5
21
102
{ACAD_XDICTIONARY
360
22
102
}
102
{ACAD_REACTORS
330
10
102
}
330
10
100
AcDbMaterial
  1
Global
 72
     0
 43
0.0208333333333333
 43
0.0
 43
0.0
 43
0.0
 43
0.0
 43
0.0208333333333333
 43
0.0
 43
0.0
 43
0.0
 43
0.0
 43
1.0
 43
0.0
 43
0.0
 43
0.0
 43
0.0
 43
1.0
 77
     0
 47
0.0208333333333333
 47
0.0
 47
0.0
 47
0.0
 47
0.0
 47
0.0208333333333333
 47
0.0
 47
0.0
 47
0.0
 47
0.0
 47
1.0
 47
0.0
 47
0.0
 47
0.0
 47
0.0
 47
1.0
171
     0
 49
0.0208333333333333
 49
0.0
 49
0.0
 49
0.0
 49
0.0
 49
0.0208333333333333
 49
0.0
 49
0.0
 49
0.0
 49
0.0
 49
1.0
 49
0.0
 49
0.0
 49
0.0
 49
0.0
 49
1.0
175
     0
142
0.0208333333333333
142
0.0
142
0.0
142
0.0
142
0.0
142
0.0208333333333333
142
0.0
142
0.0
142
0.0
142
0.0
142
1.0
142
0.0
142
0.0
142
0.0
142
0.0
142
1.0
179
     0
144
0.0208333333333333
144
0.0
144
0.0
144
0.0
144
0.0
144
0.0208333333333333
144
0.0
144
0.0
144
0.0
144
0.0
144
1.0
144
0.0
144
0.0
144
0.0
144
0.0
144
1.0
147
0.0208333333333333
147
0.0
147
0.0
147
0.0
147
0.0
147
0.0208333333333333
147
0.0
147
0.0
147
0.0
147
0.0
147
1.0
147
0.0
147
0.0
147
0.0
147
0.0
147
1.0
  0
MLEADERSTYLE
  5
67
102
{ACAD_REACTORS
330
66
102
}
330
66
100
AcDbMLeaderStyle
179
     2
170
     2
171
     1
172
     0
 90
        2
 40
0.0
 41
0.0
173
     1
 91
-1056964608
340
5B
 92
       -2
290
     1
 42
0.09
291
     1
 43
0.36
  3
Standard
 44
0.18
300

342
55
174
     1
178
     6
175
     1
176
     0
 93
-1056964608
 45
0.18
292
     0
297
     0
 46
0.18
 94
-1056964608
 47
1.0
 49
1.0
140
1.0
293
     1
141
0.0
294
     1
177
     0
142
1.0
295
     1
296
     0
143
0.125
271
     0
272
     9
273
     9
298
     1
  0
MLINESTYLE
  5
60
102
{ACAD_REACTORS
330
5F
102
}
330
5F
100
AcDbMlineStyle
  2
STANDARD
 70
     0
  3

 62
   256
 51
90.0
 52
90.0
 71
     2
 49
0.5
 62
   256
  6
BYLAYER
 49
-0.5
 62
   256
  6
BYLAYER
  0
ACDBPLACEHOLDER
  5
F
102
{ACAD_REACTORS
330
E
102
}
330
E
  0
SCALE
  5
43
102
{ACAD_REACTORS
330
42
102
}
330
42
100
AcDbScale
 70
     0
300
1:1
140
1.0
141
1.0
290
     1
  0
SCALE
  5
44
102
{ACAD_REACTORS
330
42
102
}
330
42
100
AcDbScale
 70
     0
300
1/128" = 1'-0"
140
0.0078125
141
12.0
290
     0
  0
SCALE
  5
45
102
{ACAD_REACTORS
330
42
102
}
330
42
100
AcDbScale
 70
     0
300
1/64" = 1'-0"
140
0.015625
141
12.0
290
     0
  0
SCALE
  5
46
102
{ACAD_REACTORS
330
42
102
}
330
42
100
AcDbScale
 70
     0
300
1/32" = 1'-0"
140
0.03125
141
12.0
290
     0
  0
SCALE
  5
47
102
{ACAD_REACTORS
330
42
102
}
330
42
100
AcDbScale
 70
     0
300
1/16" = 1'-0"
140
0.0625
141
12.0
290
     0
  0
SCALE
  5
48
102
{ACAD_REACTORS
330
42
102
}
330
42
100
AcDbScale
 70
     0
300
3/32" = 1'-0"
140
0.09375
141
12.0
290
     0
  0
SCALE
  5
49
102
{ACAD_REACTORS
330
42
102
}
330
42
100
AcDbScale
 70
     0
300
1/8" = 1'-0"
140
0.125
141
12.0
290
     0
  0
SCALE
  5
4A
102
{ACAD_REACTORS
330
42
102
}
330
42
100
AcDbScale
 70
     0
300
3/16" = 1'-0"
140
0.1875
141
12.0
290
     0
  0
SCALE
  5
4B
102
{ACAD_REACTORS
330
42
102
}
330
42
100
AcDbScale
 70
     0
300
1/4" = 1'-0"
140
0.25
141
12.0
290
     0
  0
SCALE
  5
4C
102
{ACAD_REACTORS
330
42
102
}
330
42
100
AcDbScale
 70
     0
300
3/8" = 1'-0"
140
0.375
141
12.0
290
     0
  0
SCALE
  5
4D
102
{ACAD_REACTORS
330
42
102
}
330
42
100
AcDbScale
 70
     0
300
1/2" = 1'-0"
140
0.5
141
12.0
290
     0
  0
SCALE
  5
4E
102
{ACAD_REACTORS
330
42
102
}
330
42
100
AcDbScale
 70
     0
300
3/4" = 1'-0"
140
0.75
141
12.0
290
     0
  0
SCALE
  5
4F
102
{ACAD_REACTORS
330
42
102
}
330
42
100
AcDbScale
 70
     0
300
1" = 1'-0"
140
1.0
141
12.0
290
     0
  0
SCALE
  5
50
102
{ACAD_REACTORS
330
42
102
}
330
42
100
AcDbScale
 70
     0
300
1-1/2" = 1'-0"
140
1.5
141
12.0
290
     0
  0
SCALE
  5
51
102
{ACAD_REACTORS
330
42
102
}
330
42
100
AcDbScale
 70
     0
300
3" = 1'-0"
140
3.0
141
12.0
290
     0
  0
SCALE
  5
52
102
{ACAD_REACTORS
330
42
102
}
330
42
100
AcDbScale
 70
     0
300
6" = 1'-0"
140
6.0
141
12.0
290
     0
  0
SCALE
  5
53
102
{ACAD_REACTORS
330
42
102
}
330
42
100
AcDbScale
 70
     0
300
1'-0" = 1'-0"
140
12.0
141
12.0
290
     0
  0
ACDBSECTIONVIEWSTYLE
  5
69
102
{ACAD_REACTORS
330
68
102
}
330
68
100
AcDbModelDocViewStyle
 70
     0
  3
Imperial24
290
     1
300
Imperial24
 90
        0
100
AcDbSectionViewStyle
 70
     0
 71
     0
 90
       78
 71
     1
340
55
 62
   256
 40
0.24
340
0
340
0
 62
   256
 40
0.24
300
I, O, Q, S, X, Z
 40
0.48
 90
        3
 40
0.18
 90
        1
 71
     2
340
5D
 90
       25
 62
   256
340
5D
 90
       50
 62
   256
 40
0.24
 40
0.0
 40
0.24
 71
     3
340
55
 62
   256
 40
0.24
 90
        1
 40
0.75
 90
        1
300
%<\AcVar ViewType \f "%tc1">% %<\AcVar ViewSectionStartId>%-%<\AcVar ViewSectionEndId>%\PSCALE %<\AcVar ViewScale \f "%sn">%
 71
     4
 62
   256
 62
   257
300
ANSI31
 40
1.0
 90
        0
290
     0
290
     0
 90
        6
 40
0.0
 40
1.570796326794896
 40
0.2617993877991494
 40
1.308996938995747
 40
-0.2617993877991494
 40
1.832595714594046
  0
TABLESTYLE
  5
65
102
{ACAD_XDICTIONARY
360
2D7
102
}
102
{ACAD_REACTORS
330
64
102
}
330
64
100
AcDbTableStyle
280
     0
  3
Standard
 70
     0
 71
     0
 40
0.06
 41
0.06
280
     0
281
     0
  7
Standard
140
0.18
170
     2
 62
     0
 63
     7
283
     0
 90
      512
 91
        0
  1

274
    -2
284
     1
 64
     0
275
    -2
285
     1
 65
     0
276
    -2
286
     1
 66
     0
277
    -2
287
     1
 67
     0
278
    -2
288
     1
 68
     0
279
    -2
289
     1
 69
     0
  7
Standard
140
0.25
170
     5
 62
     0
 63
     7
283
     0
 90
      512
 91
        0
  1

274
    -2
284
     1
 64
     0
275
    -2
285
     1
 65
     0
276
    -2
286
     1
 66
     0
277
    -2
287
     1
 67
     0
278
    -2
288
     1
 68
     0
279
    -2
289
     1
 69
     0
  7
Standard
140
0.18
170
     5
 62
     0
 63
     7
283
     0
 90
      512
 91
        0
  1

274
    -2
284
     1
 64
     0
275
    -2
285
     1
 65
     0
276
    -2
286
     1
 66
     0
277
    -2
287
     1
 67
     0
278
    -2
288
     1
 68
     0
279
    -2
289
     1
 69
     0
  0
VISUALSTYLE
  5
2F
102
{ACAD_REACTORS
330
29
102
}
330
29
100
AcDbVisualStyle
  2
2dWireframe
 70
     4
177
     3
291
     0
 70
    58
 90
        0
176
     1
 90
        2
176
     1
 90
        0
176
     1
 90
        0
176
     1
 40
0.6
176
     1
 40
30.0
176
     1
 62
     7
420
 16777215
176
     1
 90
        1
176
     1
 90
        4
176
     1
 62
     7
176
     1
 62
   257
176
     1
 90
        1
176
     1
 90
        1
176
     1
 40
1.0
176
     1
 90
        0
176
     1
 62
   257
176
     1
 40
1.0
176
     1
 90
        1
176
     1
 90
        6
176
     1
 90
        2
176
     1
 62
     7
176
     1
 90
        5
176
     1
 90
        0
176
     1
 90
        0
176
     1
290
     0
176
     1
 90
        1
176
     1
 40
0.0
176
     1
 90
        0
176
     1
290
     1
176
     1
290
     1
176
     1
290
     0
176
     1
290
     0
176
     1
290
     0
176
     1
290
     0
176
     1
290
     0
176
     1
290
     0
176
     1
290
     0
176
     1
 90
       50
176
     1
 40
0.0
176
     1
 40
1.0
176
     1
 90
        0
176
     1
 62
    18
420
        0
176
     1
 90
       50
176
     1
 90
        3
176
     1
 62
     5
420
      255
176
     1
290
     0
176
     1
 90
       50
176
     1
 90
       50
176
     1
 90
       50
176
     1
290
     0
176
     1
 90
       50
176
     1
 62
   256
176
     0
 40
1.0
176
     0
 90
        2
176
     1
  1
strokes_ogs.tif
176
     1
290
     0
176
     1
 40
1.0
176
     1
 40
1.0
176
     1
  0
VISUALSTYLE
  5
2E
102
{ACAD_REACTORS
330
29
102
}
330
29
100
AcDbVisualStyle
  2
Basic
 70
     7
177
     3
291
     1
 70
    58
 90
        1
176
     1
 90
        0
176
     1
 90
        1
176
     1
 90
        0
176
     1
 40
0.6
176
     1
 40
30.0
176
     1
 62
     7
420
 16777215
176
     1
 90
        0
176
     1
 90
        4
176
     1
 62
     7
176
     1
 62
   257
176
     1
 90
        1
176
     1
 90
        1
176
     1
 40
1.0
176
     1
 90
        8
176
     1
 62
     7
176
     1
 40
1.0
176
     1
 90
        1
176
     1
 90
        6
176
     1
 90
        2
176
     1
 62
     7
176
     1
 90
        5
176
     1
 90
        0
176
     1
 90
        0
176
     1
290
     0
176
     1
 90
        1
176
     1
 40
0.0
176
     1
 90
        0
176
     1
290
     0
176
     1
290
     1
176
     1
290
     1
176
     1
290
     0
176
     1
290
     0
176
     1
290
     0
176
     1
290
     0
176
     1
290
     0
176
     1
290
     0
176
     1
 90
       50
176
     1
 40
0.0
176
     1
 40
1.0
176
     1
 90
        0
176
     1
 62
    18
420
        0
176
     1
 90
       50
176
     1
 90
        3
176
     1
 62
     5
420
      255
176
     1
290
     0
176
     1
 90
       50
176
     1
 90
       50
176
     1
 90
       50
176
     1
290
     0
176
     1
 90
       50
176
     1
 62
   256
176
     0
 40
1.0
176
     0
 90
        2
176
     1
  1
strokes_ogs.tif
176
     1
290
     0
176
     1
 40
1.0
176
     1
 40
1.0
176
     1
  0
VISUALSTYLE
  5
35
102
{ACAD_REACTORS
330
29
102
}
330
29
100
AcDbVisualStyle
  2
Brighten
 70
    12
177
     3
291
     1
 70
    58
 90
        2
176
     1
 90
        2
176
     1
 90
        0
176
     1
 90
        0
176
     1
 40
0.6
176
     1
 40
30.0
176
     1
 62
     7
420
 16777215
176
     1
 90
        1
176
     1
 90
        4
176
     1
 62
     7
176
     1
 62
   257
176
     1
 90
        1
176
     1
 90
        1
176
     1
 40
1.0
176
     1
 90
        8
176
     1
 62
     7
176
     1
 40
1.0
176
     1
 90
        1
176
     1
 90
        6
176
     1
 90
        2
176
     1
 62
     7
176
     1
 90
        5
176
     1
 90
        0
176
     1
 90
        0
176
     1
290
     0
176
     1
 90
        1
176
     1
 40
50.0
176
     1
 90
        0
176
     1
290
     0
176
     1
290
     1
176
     1
290
     1
176
     1
290
     0
176
     1
290
     0
176
     1
290
     0
176
     1
290
     0
176
     1
290
     0
176
     1
290
     0
176
     1
 90
       50
176
     1
 40
0.0
176
     1
 40
1.0
176
     1
 90
        0
176
     1
 62
    18
420
        0
176
     1
 90
       50
176
     1
 90
        3
176
     1
 62
     5
420
      255
176
     1
290
     0
176
     1
 90
       50
176
     1
 90
       50
176
     1
 90
       50
176
     1
290
     0
176
     1
 90
       50
176
     1
 62
   256
176
     0
 40
1.0
176
     0
 90
        2
176
     1
  1
strokes_ogs.tif
176
     1
290
     0
176
     1
 40
1.0
176
     1
 40
1.0
176
     1
  0
VISUALSTYLE
  5
39
102
{ACAD_REACTORS
330
29
102
}
330
29
100
AcDbVisualStyle
  2
ColorChange
 70
    16
177
     3
291
     1
 70
    58
 90
        2
176
     1
 90
        2
176
     1
 90
        3
176
     1
 90
        0
176
     1
 40
0.6
176
     1
 40
30.0
176
     1
 62
     8
420
  8421504
176
     1
 90
        1
176
     1
 90
        4
176
     1
 62
     7
176
     1
 62
   257
176
     1
 90
        1
176
     1
 90
        1
176
     1
 40
1.0
176
     1
 90
        8
176
     1
 62
     8
420
  8421504
176
     1
 40
1.0
176
     1
 90
        1
176
     1
 90
        6
176
     1
 90
        2
176
     1
 62
     7
176
     1
 90
        5
176
     1
 90
        0
176
     1
 90
        0
176
     1
290
     0
176
     1
 90
        1
176
     1
 40
0.0
176
     1
 90
        0
176
     1
290
     0
176
     1
290
     1
176
     1
290
     1
176
     1
290
     0
176
     1
290
     0
176
     1
290
     0
176
     1
290
     0
176
     1
290
     0
176
     1
290
     0
176
     1
 90
       50
176
     1
 40
0.0
176
     1
 40
1.0
176
     1
 90
        0
176
     1
 62
    18
420
        0
176
     1
 90
       50
176
     1
 90
        3
176
     1
 62
     5
420
      255
176
     1
290
     0
176
     1
 90
       50
176
     1
 90
       50
176
     1
 90
       50
176
     1
290
     0
176
     1
 90
       50
176
     1
 62
   256
176
     0
 40
1.0
176
     0
 90
        2
176
     1
  1
strokes_ogs.tif
176
     1
290
     0
176
     1
 40
1.0
176
     1
 40
1.0
176
     1
  0
VISUALSTYLE
  5
32
102
{ACAD_REACTORS
330
29
102
}
330
29
100
AcDbVisualStyle
  2
Conceptual
 70
     9
177
     3
291
     0
 70
    58
 90
        3
176
     1
 90
        2
176
     1
 90
        0
176
     1
 90
        0
176
     1
 40
0.6
176
     1
 40
30.0
176
     1
 62
     7
420
 16777215
176
     1
 90
        2
176
     1
 90
        2
176
     1
 62
     7
176
     1
 62
   257
176
     1
 90
        1
176
     1
 90
        1
176
     1
 40
179.0
176
     1
 90
        8
176
     1
 62
     7
176
     1
 40
1.0
176
     1
 90
        1
176
     1
 90
        6
176
     1
 90
        2
176
     1
 62
     7
176
     1
 90
        3
176
     1
 90
        0
176
     1
 90
        0
176
     1
290
     0
176
     1
 90
        1
176
     1
 40
0.0
176
     1
 90
        0
176
     1
290
     0
176
     1
290
     1
176
     1
290
     1
176
     1
290
     0
176
     1
290
     0
176
     1
290
     0
176
     1
290
     0
176
     1
290
     0
176
     1
290
     0
176
     1
 90
       50
176
     1
 40
0.0
176
     1
 40
1.0
176
     1
 90
        0
176
     1
 62
    18
420
        0
176
     1
 90
       50
176
     1
 90
        3
176
     1
 62
     5
420
      255
176
     1
290
     0
176
     1
 90
       50
176
     1
 90
       50
176
     1
 90
       50
176
     1
290
     0
176
     1
 90
       50
176
     1
 62
   256
176
     0
 40
1.0
176
     0
 90
        2
176
     1
  1
strokes_ogs.tif
176
     1
290
     0
176
     1
 40
1.0
176
     1
 40
1.0
176
     1
  0
VISUALSTYLE
  5
34
102
{ACAD_REACTORS
330
29
102
}
330
29
100
AcDbVisualStyle
  2
Dim
 70
    11
177
     3
291
     1
 70
    58
 90
        2
176
     1
 90
        2
176
     1
 90
        0
176
     1
 90
        0
176
     1
 40
0.6
176
     1
 40
30.0
176
     1
 62
     7
420
 16777215
176
     1
 90
        1
176
     1
 90
        4
176
     1
 62
     7
176
     1
 62
   257
176
     1
 90
        1
176
     1
 90
        1
176
     1
 40
1.0
176
     1
 90
        8
176
     1
 62
     7
176
     1
 40
1.0
176
     1
 90
        1
176
     1
 90
        6
176
     1
 90
        2
176
     1
 62
     7
176
     1
 90
        5
176
     1
 90
        0
176
     1
 90
        0
176
     1
290
     0
176
     1
 90
        1
176
     1
 40
-50.0
176
     1
 90
        0
176
     1
290
     0
176
     1
290
     1
176
     1
290
     1
176
     1
290
     0
176
     1
290
     0
176
     1
290
     0
176
     1
290
     0
176
     1
290
     0
176
     1
290
     0
176
     1
 90
       50
176
     1
 40
0.0
176
     1
 40
1.0
176
     1
 90
        0
176
     1
 62
    18
420
        0
176
     1
 90
       50
176
     1
 90
        3
176
     1
 62
     5
420
      255
176
     1
290
     0
176
     1
 90
       50
176
     1
 90
       50
176
     1
 90
       50
176
     1
290
     0
176
     1
 90
       50
176
     1
 62
   256
176
     0
 40
1.0
176
     0
 90
        2
176
     1
  1
strokes_ogs.tif
176
     1
290
     0
176
     1
 40
1.0
176
     1
 40
1.0
176
     1
  0
VISUALSTYLE
  5
41
102
{ACAD_REACTORS
330
29
102
}
330
29
100
AcDbVisualStyle
  2
EdgeColorOff
 70
    22
177
     3
291
     1
 70
    58
 90
        2
176
     0
 90
        2
176
     0
 90
        0
176
     0
 90
        0
176
     0
 40
0.6
176
     0
 40
30.0
176
     0
 62
     7
420
 16777215
176
     0
 90
        1
176
     0
 90
        4
176
     0
 62
     7
176
     0
 62
   257
176
     0
 90
        1
176
     0
 90
        1
176
     0
 40
1.0
176
     0
 90
        8
176
     2
 62
     7
176
     0
 40
1.0
176
     0
 90
        1
176
     0
 90
        6
176
     0
 90
        2
176
     0
 62
     7
176
     0
 90
        5
176
     0
 90
        0
176
     0
 90
        0
176
     0
290
     0
176
     0
 90
        1
176
     0
 40
0.0
176
     0
 90
        0
176
     0
290
     0
176
     0
290
     1
176
     0
290
     1
176
     0
290
     0
176
     0
290
     0
176
     0
290
     0
176
     0
290
     0
176
     0
290
     0
176
     0
290
     0
176
     0
 90
       50
176
     0
 40
0.0
176
     0
 40
1.0
176
     0
 90
        0
176
     0
 62
    18
420
        0
176
     0
 90
       50
176
     0
 90
        3
176
     0
 62
     5
420
      255
176
     0
290
     0
176
     0
 90
       50
176
     0
 90
       50
176
     0
 90
       50
176
     0
290
     0
176
     0
 90
       50
176
     0
 62
   256
176
     0
 40
1.0
176
     0
 90
        2
176
     0
  1
strokes_ogs.tif
176
     0
290
     0
176
     0
 40
1.0
176
     0
 40
1.0
176
     0
  0
VISUALSTYLE
  5
38
102
{ACAD_REACTORS
330
29
102
}
330
29
100
AcDbVisualStyle
  2
Facepattern
 70
    15
177
     3
291
     1
 70
    58
 90
        2
176
     1
 90
        2
176
     1
 90
        0
176
     1
 90
        0
176
     1
 40
0.6
176
     1
 40
30.0
176
     1
 62
     7
420
 16777215
176
     1
 90
        1
176
     1
 90
        4
176
     1
 62
     7
176
     1
 62
   257
176
     1
 90
        1
176
     1
 90
        1
176
     1
 40
1.0
176
     1
 90
        8
176
     1
 62
     7
176
     1
 40
1.0
176
     1
 90
        1
176
     1
 90
        6
176
     1
 90
        2
176
     1
 62
     7
176
     1
 90
        5
176
     1
 90
        0
176
     1
 90
        0
176
     1
290
     0
176
     1
 90
        1
176
     1
 40
0.0
176
     1
 90
        0
176
     1
290
     0
176
     1
290
     1
176
     1
290
     1
176
     1
290
     0
176
     1
290
     0
176
     1
290
     0
176
     1
290
     0
176
     1
290
     0
176
     1
290
     0
176
     1
 90
       50
176
     1
 40
0.0
176
     1
 40
1.0
176
     1
 90
        0
176
     1
 62
    18
420
        0
176
     1
 90
       50
176
     1
 90
        3
176
     1
 62
     5
420
      255
176
     1
290
     0
176
     1
 90
       50
176
     1
 90
       50
176
     1
 90
       50
176
     1
290
     0
176
     1
 90
       50
176
     1
 62
   256
176
     0
 40
1.0
176
     0
 90
        2
176
     1
  1
strokes_ogs.tif
176
     1
290
     0
176
     1
 40
1.0
176
     1
 40
1.0
176
     1
  0
VISUALSTYLE
  5
2A
102
{ACAD_REACTORS
330
29
102
}
330
29
100
AcDbVisualStyle
  2
Flat
 70
     0
177
     3
291
     1
 70
    58
 90
        2
176
     1
 90
        1
176
     1
 90
        1
176
     1
 90
        2
176
     1
 40
0.6
176
     1
 40
30.0
176
     1
 62
     7
420
 16777215
176
     1
 90
        0
176
     1
 90
        0
176
     1
 62
     7
176
     1
 62
   257
176
     1
 90
        1
176
     1
 90
        1
176
     1
 40
1.0
176
     1
 90
        8
176
     1
 62
     7
176
     1
 40
1.0
176
     1
 90
        1
176
     1
 90
        6
176
     1
 90
        2
176
     1
 62
     7
176
     1
 90
        5
176
     1
 90
        0
176
     1
 90
        0
176
     1
290
     0
176
     1
 90
       13
176
     1
 40
0.0
176
     1
 90
        0
176
     1
290
     0
176
     1
290
     1
176
     1
290
     1
176
     1
290
     0
176
     1
290
     0
176
     1
290
     0
176
     1
290
     0
176
     1
290
     0
176
     1
290
     0
176
     1
 90
       50
176
     1
 40
0.0
176
     1
 40
1.0
176
     1
 90
        0
176
     1
 62
    18
420
        0
176
     1
 90
       50
176
     1
 90
        3
176
     1
 62
     5
420
      255
176
     1
290
     0
176
     1
 90
       50
176
     1
 90
       50
176
     1
 90
       50
176
     1
290
     0
176
     1
 90
       50
176
     1
 62
   256
176
     0
 40
1.0
176
     0
 90
        2
176
     1
  1
strokes_ogs.tif
176
     1
290
     0
176
     1
 40
1.0
176
     1
 40
1.0
176
     1
  0
VISUALSTYLE
  5
2B
102
{ACAD_REACTORS
330
29
102
}
330
29
100
AcDbVisualStyle
  2
FlatWithEdges
 70
     1
177
     3
291
     1
 70
    58
 90
        2
176
     1
 90
        1
176
     1
 90
        1
176
     1
 90
        2
176
     1
 40
0.6
176
     1
 40
30.0
176
     1
 62
     7
420
 16777215
176
     1
 90
        1
176
     1
 90
        0
176
     1
 62
     7
176
     1
 62
   257
176
     1
 90
        1
176
     1
 90
        1
176
     1
 40
1.0
176
     1
 90
        0
176
     1
 62
   257
176
     1
 40
1.0
176
     1
 90
        1
176
     1
 90
        6
176
     1
 90
        2
176
     1
 62
     7
176
     1
 90
        5
176
     1
 90
        0
176
     1
 90
        0
176
     1
290
     0
176
     1
 90
       13
176
     1
 40
0.0
176
     1
 90
        0
176
     1
290
     0
176
     1
290
     1
176
     1
290
     1
176
     1
290
     0
176
     1
290
     0
176
     1
290
     0
176
     1
290
     0
176
     1
290
     0
176
     1
290
     0
176
     1
 90
       50
176
     1
 40
0.0
176
     1
 40
1.0
176
     1
 90
        0
176
     1
 62
    18
420
        0
176
     1
 90
       50
176
     1
 90
        3
176
     1
 62
     5
420
      255
176
     1
290
     0
176
     1
 90
       50
176
     1
 90
       50
176
     1
 90
       50
176
     1
290
     0
176
     1
 90
       50
176
     1
 62
   256
176
     0
 40
1.0
176
     0
 90
        2
176
     1
  1
strokes_ogs.tif
176
     1
290
     0
176
     1
 40
1.0
176
     1
 40
1.0
176
     1
  0
VISUALSTYLE
  5
2C
102
{ACAD_REACTORS
330
29
102
}
330
29
100
AcDbVisualStyle
  2
Gouraud
 70
     2
177
     3
291
     1
 70
    58
 90
        2
176
     1
 90
        2
176
     1
 90
        1
176
     1
 90
        2
176
     1
 40
0.6
176
     1
 40
30.0
176
     1
 62
     7
420
 16777215
176
     1
 90
        0
176
     1
 90
        0
176
     1
 62
     7
176
     1
 62
   257
176
     1
 90
        1
176
     1
 90
        1
176
     1
 40
1.0
176
     1
 90
        0
176
     1
 62
     7
176
     1
 40
1.0
176
     1
 90
        1
176
     1
 90
        6
176
     1
 90
        2
176
     1
 62
     7
176
     1
 90
        5
176
     1
 90
        0
176
     1
 90
        0
176
     1
290
     0
176
     1
 90
       13
176
     1
 40
0.0
176
     1
 90
        0
176
     1
290
     0
176
     1
290
     1
176
     1
290
     1
176
     1
290
     0
176
     1
290
     0
176
     1
290
     0
176
     1
290
     0
176
     1
290
     0
176
     1
290
     0
176
     1
 90
       50
176
     1
 40
0.0
176
     1
 40
1.0
176
     1
 90
        0
176
     1
 62
    18
420
        0
176
     1
 90
       50
176
     1
 90
        3
176
     1
 62
     5
420
      255
176
     1
290
     0
176
     1
 90
       50
176
     1
 90
       50
176
     1
 90
       50
176
     1
290
     0
176
     1
 90
       50
176
     1
 62
   256
176
     0
 40
1.0
176
     0
 90
        2
176
     1
  1
strokes_ogs.tif
176
     1
290
     0
176
     1
 40
1.0
176
     1
 40
1.0
176
     1
  0
VISUALSTYLE
  5
2D
102
{ACAD_REACTORS
330
29
102
}
330
29
100
AcDbVisualStyle
  2
GouraudWithEdges
 70
     3
177
     3
291
     1
 70
    58
 90
        2
176
     1
 90
        2
176
     1
 90
        1
176
     1
 90
        2
176
     1
 40
0.6
176
     1
 40
30.0
176
     1
 62
     7
420
 16777215
176
     1
 90
        1
176
     1
 90
        0
176
     1
 62
     7
176
     1
 62
   257
176
     1
 90
        1
176
     1
 90
        1
176
     1
 40
1.0
176
     1
 90
        0
176
     1
 62
   257
176
     1
 40
1.0
176
     1
 90
        1
176
     1
 90
        6
176
     1
 90
        2
176
     1
 62
     7
176
     1
 90
        5
176
     1
 90
        0
176
     1
 90
        0
176
     1
290
     0
176
     1
 90
       13
176
     1
 40
0.0
176
     1
 90
        0
176
     1
290
     0
176
     1
290
     1
176
     1
290
     1
176
     1
290
     0
176
     1
290
     0
176
     1
290
     0
176
     1
290
     0
176
     1
290
     0
176
     1
290
     0
176
     1
 90
       50
176
     1
 40
0.0
176
     1
 40
1.0
176
     1
 90
        0
176
     1
 62
    18
420
        0
176
     1
 90
       50
176
     1
 90
        3
176
     1
 62
     5
420
      255
176
     1
290
     0
176
     1
 90
       50
176
     1
 90
       50
176
     1
 90
       50
176
     1
290
     0
176
     1
 90
       50
176
     1
 62
   256
176
     0
 40
1.0
176
     0
 90
        2
176
     1
  1
strokes_ogs.tif
176
     1
290
     0
176
     1
 40
1.0
176
     1
 40
1.0
176
     1
  0
VISUALSTYLE
  5
31
102
{ACAD_REACTORS
330
29
102
}
330
29
100
AcDbVisualStyle
  2
Hidden
 70
     6
177
     3
291
     0
 70
    58
 90
        1
176
     1
 90
        2
176
     1
 90
        2
176
     1
 90
        0
176
     1
 40
0.6
176
     1
 40
30.0
176
     1
 62
     7
420
 16777215
176
     1
 90
        2
176
     1
 90
        2
176
     1
 62
     7
176
     1
 62
   257
176
     1
 90
        2
176
     1
 90
        1
176
     1
 40
40.0
176
     1
 90
        0
176
     1
 62
   257
176
     1
 40
1.0
176
     1
 90
        1
176
     1
 90
        6
176
     1
 90
        2
176
     1
 62
     7
176
     1
 90
        3
176
     1
 90
        0
176
     1
 90
        0
176
     1
290
     0
176
     1
 90
        1
176
     1
 40
0.0
176
     1
 90
        0
176
     1
290
     0
176
     1
290
     1
176
     1
290
     1
176
     1
290
     0
176
     1
290
     0
176
     1
290
     0
176
     1
290
     0
176
     1
290
     0
176
     1
290
     0
176
     1
 90
       50
176
     1
 40
0.0
176
     1
 40
1.0
176
     1
 90
        0
176
     1
 62
    18
420
        0
176
     1
 90
       50
176
     1
 90
        3
176
     1
 62
     5
420
      255
176
     1
290
     0
176
     1
 90
       50
176
     1
 90
       50
176
     1
 90
       50
176
     1
290
     0
176
     1
 90
       50
176
     1
 62
   256
176
     0
 40
1.0
176
     0
 90
        2
176
     1
  1
strokes_ogs.tif
176
     1
290
     0
176
     1
 40
1.0
176
     1
 40
1.0
176
     1
  0
VISUALSTYLE
  5
3F
102
{ACAD_REACTORS
330
29
102
}
330
29
100
AcDbVisualStyle
  2
JitterOff
 70
    20
177
     3
291
     1
 70
    58
 90
        2
176
     0
 90
        2
176
     0
 90
        0
176
     0
 90
        0
176
     0
 40
0.6
176
     0
 40
30.0
176
     0
 62
     7
420
 16777215
176
     0
 90
        1
176
     0
 90
        4
176
     0
 62
     7
176
     0
 62
   257
176
     0
 90
        1
176
     0
 90
        1
176
     0
 40
1.0
176
     0
 90
       10
176
     2
 62
     7
176
     0
 40
1.0
176
     0
 90
        1
176
     0
 90
        6
176
     0
 90
        2
176
     0
 62
     7
176
     0
 90
        5
176
     0
 90
        0
176
     0
 90
        0
176
     0
290
     0
176
     0
 90
        1
176
     0
 40
0.0
176
     0
 90
        0
176
     0
290
     0
176
     0
290
     1
176
     0
290
     1
176
     0
290
     0
176
     0
290
     0
176
     0
290
     0
176
     0
290
     0
176
     0
290
     0
176
     0
290
     0
176
     0
 90
       50
176
     0
 40
0.0
176
     0
 40
1.0
176
     0
 90
        0
176
     0
 62
    18
420
        0
176
     0
 90
       50
176
     0
 90
        3
176
     0
 62
     5
420
      255
176
     0
290
     0
176
     0
 90
       50
176
     0
 90
       50
176
     0
 90
       50
176
     0
290
     0
176
     0
 90
       50
176
     0
 62
   256
176
     0
 40
1.0
176
     0
 90
        2
176
     0
  1
strokes_ogs.tif
176
     0
290
     0
176
     0
 40
1.0
176
     0
 40
1.0
176
     0
  0
VISUALSTYLE
  5
37
102
{ACAD_REACTORS
330
29
102
}
330
29
100
AcDbVisualStyle
  2
Linepattern
 70
    14
177
     3
291
     1
 70
    58
 90
        2
176
     1
 90
        2
176
     1
 90
        0
176
     1
 90
        0
176
     1
 40
0.6
176
     1
 40
30.0
176
     1
 62
     7
420
 16777215
176
     1
 90
        1
176
     1
 90
        4
176
     1
 62
     7
176
     1
 62
   257
176
     1
 90
        7
176
     1
 90
        7
176
     1
 40
1.0
176
     1
 90
        8
176
     1
 62
     7
176
     1
 40
1.0
176
     1
 90
        1
176
     1
 90
        6
176
     1
 90
        2
176
     1
 62
     7
176
     1
 90
        5
176
     1
 90
        0
176
     1
 90
        0
176
     1
290
     0
176
     1
 90
        1
176
     1
 40
0.0
176
     1
 90
        0
176
     1
290
     0
176
     1
290
     1
176
     1
290
     1
176
     1
290
     0
176
     1
290
     0
176
     1
290
     0
176
     1
290
     0
176
     1
290
     0
176
     1
290
     0
176
     1
 90
       50
176
     1
 40
0.0
176
     1
 40
1.0
176
     1
 90
        0
176
     1
 62
    18
420
        0
176
     1
 90
       50
176
     1
 90
        3
176
     1
 62
     5
420
      255
176
     1
290
     0
176
     1
 90
       50
176
     1
 90
       50
176
     1
 90
       50
176
     1
290
     0
176
     1
 90
       50
176
     1
 62
   256
176
     0
 40
1.0
176
     0
 90
        2
176
     1
  1
strokes_ogs.tif
176
     1
290
     0
176
     1
 40
1.0
176
     1
 40
1.0
176
     1
  0
VISUALSTYLE
  5
40
102
{ACAD_REACTORS
330
29
102
}
330
29
100
AcDbVisualStyle
  2
OverhangOff
 70
    21
177
     3
291
     1
 70
    58
 90
        2
176
     0
 90
        2
176
     0
 90
        0
176
     0
 90
        0
176
     0
 40
0.6
176
     0
 40
30.0
176
     0
 62
     7
420
 16777215
176
     0
 90
        1
176
     0
 90
        4
176
     0
 62
     7
176
     0
 62
   257
176
     0
 90
        1
176
     0
 90
        1
176
     0
 40
1.0
176
     0
 90
        9
176
     2
 62
     7
176
     0
 40
1.0
176
     0
 90
        1
176
     0
 90
        6
176
     0
 90
        2
176
     0
 62
     7
176
     0
 90
        5
176
     0
 90
        0
176
     0
 90
        0
176
     0
290
     0
176
     0
 90
        1
176
     0
 40
0.0
176
     0
 90
        0
176
     0
290
     0
176
     0
290
     1
176
     0
290
     1
176
     0
290
     0
176
     0
290
     0
176
     0
290
     0
176
     0
290
     0
176
     0
290
     0
176
     0
290
     0
176
     0
 90
       50
176
     0
 40
0.0
176
     0
 40
1.0
176
     0
 90
        0
176
     0
 62
    18
420
        0
176
     0
 90
       50
176
     0
 90
        3
176
     0
 62
     5
420
      255
176
     0
290
     0
176
     0
 90
       50
176
     0
 90
       50
176
     0
 90
       50
176
     0
290
     0
176
     0
 90
       50
176
     0
 62
   256
176
     0
 40
1.0
176
     0
 90
        2
176
     0
  1
strokes_ogs.tif
176
     0
290
     0
176
     0
 40
1.0
176
     0
 40
1.0
176
     0
  0
VISUALSTYLE
  5
33
102
{ACAD_REACTORS
330
29
102
}
330
29
100
AcDbVisualStyle
  2
Realistic
 70
     8
177
     3
291
     0
 70
    58
 90
        2
176
     1
 90
        3
176
     1
 90
        0
176
     1
 90
        2
176
     1
 40
0.6
176
     1
 40
30.0
176
     1
 62
     7
420
 16777215
176
     1
 90
        0
176
     1
 90
        0
176
     1
 62
     7
176
     1
 62
   257
176
     1
 90
        1
176
     1
 90
        1
176
     1
 40
1.0
176
     1
 90
        8
176
     1
 62
   257
176
     1
 40
1.0
176
     1
 90
        1
176
     1
 90
        6
176
     1
 90
        2
176
     1
 62
     7
176
     1
 90
        3
176
     1
 90
        0
176
     1
 90
        0
176
     1
290
     0
176
     1
 90
       13
176
     1
 40
0.0
176
     1
 90
        0
176
     1
290
     0
176
     1
290
     1
176
     1
290
     1
176
     1
290
     0
176
     1
290
     0
176
     1
290
     0
176
     1
290
     0
176
     1
290
     0
176
     1
290
     0
176
     1
 90
       50
176
     1
 40
0.0
176
     1
 40
1.0
176
     1
 90
        0
176
     1
 62
    18
420
        0
176
     1
 90
       50
176
     1
 90
        3
176
     1
 62
     5
420
      255
176
     1
290
     0
176
     1
 90
       50
176
     1
 90
       50
176
     1
 90
       50
176
     1
290
     0
176
     1
 90
       50
176
     1
 62
   256
176
     0
 40
1.0
176
     0
 90
        2
176
     1
  1
strokes_ogs.tif
176
     1
290
     0
176
     1
 40
1.0
176
     1
 40
1.0
176
     1
  0
VISUALSTYLE
  5
3E
102
{ACAD_REACTORS
330
29
102
}
330
29
100
AcDbVisualStyle
  2
Shaded
 70
    27
177
     3
291
     0
 70
    58
 90
        2
176
     1
 90
        2
176
     1
 90
        1
176
     1
 90
        2
176
     1
 40
0.6
176
     1
 40
30.0
176
     1
 62
     7
420
 16777215
176
     1
 90
        0
176
     1
 90
        4
176
     1
 62
     7
176
     1
 62
   257
176
     1
 90
        1
176
     1
 90
        1
176
     1
 40
1.0
176
     1
 90
        8
176
     1
 62
   257
176
     1
 40
1.0
176
     1
 90
        1
176
     1
 90
        6
176
     1
 90
        2
176
     1
 62
     8
420
  7895160
176
     1
 90
        3
176
     1
 90
        0
176
     1
 90
        0
176
     1
290
     0
176
     1
 90
        5
176
     1
 40
0.0
176
     1
 90
        0
176
     1
290
     0
176
     1
290
     1
176
     1
290
     1
176
     1
290
     0
176
     1
290
     0
176
     1
290
     0
176
     1
290
     0
176
     1
290
     0
176
     1
290
     0
176
     1
 90
       50
176
     1
 40
0.0
176
     1
 40
1.0
176
     1
 90
        0
176
     1
 62
    18
420
        0
176
     1
 90
       50
176
     1
 90
        3
176
     1
 62
     5
420
      255
176
     1
290
     0
176
     1
 90
       50
176
     1
 90
       50
176
     1
 90
       50
176
     1
290
     0
176
     1
 90
       50
176
     1
 62
   256
176
     0
 40
1.0
176
     0
 90
        2
176
     1
  1
strokes_ogs.tif
176
     1
290
     0
176
     1
 40
1.0
176
     1
 40
1.0
176
     1
  0
VISUALSTYLE
  5
3D
102
{ACAD_REACTORS
330
29
102
}
330
29
100
AcDbVisualStyle
  2
Shaded with edges
 70
    26
177
     3
291
     0
 70
    58
 90
        2
176
     1
 90
        2
176
     1
 90
        1
176
     1
 90
        2
176
     1
 40
0.6
176
     1
 40
30.0
176
     1
 62
     7
420
 16777215
176
     1
 90
        1
176
     1
 90
        2
176
     1
 62
     7
176
     1
 62
   257
176
     1
 90
        2
176
     1
 90
        1
176
     1
 40
1.0
176
     1
 90
        8
176
     1
 62
   257
176
     1
 40
1.0
176
     1
 90
        1
176
     1
 90
        6
176
     1
 90
        2
176
     1
 62
     7
176
     1
 90
        3
176
     1
 90
        0
176
     1
 90
        0
176
     1
290
     0
176
     1
 90
        5
176
     1
 40
0.0
176
     1
 90
        0
176
     1
290
     0
176
     1
290
     1
176
     1
290
     1
176
     1
290
     0
176
     1
290
     0
176
     1
290
     0
176
     1
290
     0
176
     1
290
     0
176
     1
290
     0
176
     1
 90
       50
176
     1
 40
0.0
176
     1
 40
1.0
176
     1
 90
        0
176
     1
 62
    18
420
        0
176
     1
 90
       50
176
     1
 90
        3
176
     1
 62
     5
420
      255
176
     1
290
     0
176
     1
 90
       50
176
     1
 90
       50
176
     1
 90
       50
176
     1
290
     0
176
     1
 90
       50
176
     1
 62
   256
176
     0
 40
1.0
176
     0
 90
        2
176
     1
  1
strokes_ogs.tif
176
     1
290
     0
176
     1
 40
1.0
176
     1
 40
1.0
176
     1
  0
VISUALSTYLE
  5
3A
102
{ACAD_REACTORS
330
29
102
}
330
29
100
AcDbVisualStyle
  2
Shades of Gray
 70
    23
177
     3
291
     0
 70
    58
 90
        2
176
     1
 90
        2
176
     1
 90
        3
176
     1
 90
        0
176
     1
 40
0.6
176
     1
 40
30.0
176
     1
 62
     7
420
 16777215
176
     1
 90
        2
176
     1
 90
        2
176
     1
 62
     7
176
     1
 62
     7
176
     1
 90
        1
176
     1
 90
        1
176
     1
 40
40.0
176
     1
 90
        8
176
     1
 62
     7
176
     1
 40
1.0
176
     1
 90
        1
176
     1
 90
        6
176
     1
 90
        2
176
     1
 62
     7
176
     1
 90
        3
176
     1
 90
        0
176
     1
 90
        0
176
     1
290
     0
176
     1
 90
        1
176
     1
 40
0.0
176
     1
 90
        0
176
     1
290
     0
176
     1
290
     1
176
     1
290
     1
176
     1
290
     0
176
     1
290
     0
176
     1
290
     0
176
     1
290
     0
176
     1
290
     0
176
     1
290
     0
176
     1
 90
       50
176
     1
 40
0.0
176
     1
 40
1.0
176
     1
 90
        0
176
     1
 62
    18
420
        0
176
     1
 90
       50
176
     1
 90
        3
176
     1
 62
     5
420
      255
176
     1
290
     0
176
     1
 90
       50
176
     1
 90
       50
176
     1
 90
       50
176
     1
290
     0
176
     1
 90
       50
176
     1
 62
   256
176
     0
 40
1.0
176
     0
 90
        2
176
     1
  1
strokes_ogs.tif
176
     1
290
     0
176
     1
 40
1.0
176
     1
 40
1.0
176
     1
  0
VISUALSTYLE
  5
3B
102
{ACAD_REACTORS
330
29
102
}
330
29
100
AcDbVisualStyle
  2
Sketchy
 70
    24
177
     3
291
     0
 70
    58
 90
        1
176
     1
 90
        2
176
     1
 90
        2
176
     1
 90
        0
176
     1
 40
0.6
176
     1
 40
30.0
176
     1
 62
     7
420
 16777215
176
     1
 90
        2
176
     1
 90
        2
176
     1
 62
     7
176
     1
 62
     7
176
     1
 90
        1
176
     1
 90
        1
176
     1
 40
40.0
176
     1
 90
       11
176
     1
 62
     7
176
     1
 40
1.0
176
     1
 90
        1
176
     1
 90
        6
176
     1
 90
        2
176
     1
 62
     7
176
     1
 90
        6
176
     1
 90
        0
176
     1
 90
        0
176
     1
290
     0
176
     1
 90
        1
176
     1
 40
0.0
176
     1
 90
        0
176
     1
290
     0
176
     1
290
     1
176
     1
290
     1
176
     1
290
     0
176
     1
290
     0
176
     1
290
     0
176
     1
290
     0
176
     1
290
     0
176
     1
290
     0
176
     1
 90
       50
176
     1
 40
0.0
176
     1
 40
1.0
176
     1
 90
        0
176
     1
 62
    18
420
        0
176
     1
 90
       50
176
     1
 90
        3
176
     1
 62
     5
420
      255
176
     1
290
     0
176
     1
 90
       50
176
     1
 90
       50
176
     1
 90
       50
176
     1
290
     0
176
     1
 90
       50
176
     1
 62
   256
176
     0
 40
1.0
176
     0
 90
        2
176
     1
  1
strokes_ogs.tif
176
     1
290
     0
176
     1
 40
1.0
176
     1
 40
1.0
176
     1
  0
VISUALSTYLE
  5
36
102
{ACAD_REACTORS
330
29
102
}
330
29
100
AcDbVisualStyle
  2
Thicken
 70
    13
177
     3
291
     1
 70
    58
 90
        2
176
     1
 90
        2
176
     1
 90
        0
176
     1
 90
        0
176
     1
 40
0.6
176
     1
 40
30.0
176
     1
 62
     7
420
 16777215
176
     1
 90
        1
176
     1
 90
        4
176
     1
 62
     7
176
     1
 62
   257
176
     1
 90
        1
176
     1
 90
        1
176
     1
 40
1.0
176
     1
 90
       12
176
     1
 62
     7
176
     1
 40
1.0
176
     1
 90
        1
176
     1
 90
        6
176
     1
 90
        2
176
     1
 62
     7
176
     1
 90
        5
176
     1
 90
        0
176
     1
 90
        0
176
     1
290
     0
176
     1
 90
        1
176
     1
 40
0.0
176
     1
 90
        0
176
     1
290
     0
176
     1
290
     1
176
     1
290
     1
176
     1
290
     0
176
     1
290
     0
176
     1
290
     0
176
     1
290
     0
176
     1
290
     0
176
     1
290
     0
176
     1
 90
       50
176
     1
 40
0.0
176
     1
 40
1.0
176
     1
 90
        0
176
     1
 62
    18
420
        0
176
     1
 90
       50
176
     1
 90
        3
176
     1
 62
     5
420
      255
176
     1
290
     0
176
     1
 90
       50
176
     1
 90
       50
176
     1
 90
       50
176
     1
290
     0
176
     1
 90
       50
176
     1
 62
   256
176
     0
 40
1.0
176
     0
 90
        2
176
     1
  1
strokes_ogs.tif
176
     1
290
     0
176
     1
 40
1.0
176
     1
 40
1.0
176
     1
  0
VISUALSTYLE
  5
30
102
{ACAD_REACTORS
330
29
102
}
330
29
100
AcDbVisualStyle
  2
Wireframe
 70
     5
177
     3
291
     0
 70
    58
 90
        0
176
     1
 90
        2
176
     1
 90
        0
176
     1
 90
        0
176
     1
 40
0.6
176
     1
 40
30.0
176
     1
 62
     7
420
 16777215
176
     1
 90
        1
176
     1
 90
        4
176
     1
 62
     7
176
     1
 62
   257
176
     1
 90
        1
176
     1
 90
        1
176
     1
 40
1.0
176
     1
 90
        0
176
     1
 62
   257
176
     1
 40
1.0
176
     1
 90
        1
176
     1
 90
        6
176
     1
 90
        2
176
     1
 62
     7
176
     1
 90
        3
176
     1
 90
        0
176
     1
 90
        0
176
     1
290
     0
176
     1
 90
        1
176
     1
 40
0.0
176
     1
 90
        0
176
     1
290
     0
176
     1
290
     1
176
     1
290
     1
176
     1
290
     0
176
     1
290
     0
176
     1
290
     0
176
     1
290
     0
176
     1
290
     0
176
     1
290
     0
176
     1
 90
       50
176
     1
 40
0.0
176
     1
 40
1.0
176
     1
 90
        0
176
     1
 62
    18
420
        0
176
     1
 90
       50
176
     1
 90
        3
176
     1
 62
     5
420
      255
176
     1
290
     0
176
     1
 90
       50
176
     1
 90
       50
176
     1
 90
       50
176
     1
290
     0
176
     1
 90
       50
176
     1
 62
   256
176
     0
 40
1.0
176
     0
 90
        2
176
     1
  1
strokes_ogs.tif
176
     1
290
     0
176
     1
 40
1.0
176
     1
 40
1.0
176
     1
  0
VISUALSTYLE
  5
3C
102
{ACAD_REACTORS
330
29
102
}
330
29
100
AcDbVisualStyle
  2
X-Ray
 70
    25
177
     3
291
     0
 70
    58
 90
        2
176
     1
 90
        2
176
     1
 90
        1
176
     1
 90
        1
176
     1
 40
0.5
176
     1
 40
30.0
176
     1
 62
     7
420
 16777215
176
     1
 90
        1
176
     1
 90
        0
176
     1
 62
     7
176
     1
 62
   257
176
     1
 90
        1
176
     1
 90
        1
176
     1
 40
1.0
176
     1
 90
        8
176
     1
 62
     7
176
     1
 40
1.0
176
     1
 90
        1
176
     1
 90
        6
176
     1
 90
        2
176
     1
 62
     7
176
     1
 90
        3
176
     1
 90
        0
176
     1
 90
        0
176
     1
290
     0
176
     1
 90
       13
176
     1
 40
0.0
176
     1
 90
        0
176
     1
290
     0
176
     1
290
     1
176
     1
290
     1
176
     1
290
     0
176
     1
290
     0
176
     1
290
     0
176
     1
290
     0
176
     1
290
     0
176
     1
290
     0
176
     1
 90
       50
176
     1
 40
0.0
176
     1
 40
1.0
176
     1
 90
        0
176
     1
 62
    18
420
        0
176
     1
 90
       50
176
     1
 90
        3
176
     1
 62
     5
420
      255
176
     1
290
     0
176
     1
 90
       50
176
     1
 90
       50
176
     1
 90
       50
176
     1
290
     0
176
     1
 90
       50
176
     1
 62
   256
176
     0
 40
1.0
176
     0
 90
        2
176
     1
  1
strokes_ogs.tif
176
     1
290
     0
176
     1
 40
1.0
176
     1
 40
1.0
176
     1
  0
DICTIONARYVAR
  5
2D6
102
{ACAD_REACTORS
330
2D1
102
}
330
2D1
100
DictionaryVariables
280
     0
  1
1:1
  0
DICTIONARYVAR
  5
2D3
102
{ACAD_REACTORS
330
2D1
102
}
330
2D1
100
DictionaryVariables
280
     0
  1
STANDARD
  0
DICTIONARYVAR
  5
2D2
102
{ACAD_REACTORS
330
2D1
102
}
330
2D1
100
DictionaryVariables
280
     0
  1
STANDARD
  0
DICTIONARYVAR
  5
2D4
102
{ACAD_REACTORS
330
2D1
102
}
330
2D1
100
DictionaryVariables
280
     0
  1
Imperial24
  0
DICTIONARYVAR
  5
2D5
102
{ACAD_REACTORS
330
2D1
102
}
330
2D1
100
DictionaryVariables
280
     0
  1
Imperial24
  0
DICTIONARY
  5
1A
330
19
100
AcDbDictionary
280
     1
281
     1
  3
BUMPTILE
360
1C
  3
DIFFUSETILE
360
1B
  3
OPACITYTILE
360
1F
  3
REFLECTIONTILE
360
1E
  3
REFRACTIONTILE
360
20
  3
SPECULARTILE
360
1D
  0
DICTIONARY
  5
12
330
11
100
AcDbDictionary
280
     1
281
     1
  3
BUMPTILE
360
14
  3
DIFFUSETILE
360
13
  3
OPACITYTILE
360
17
  3
REFLECTIONTILE
360
16
  3
REFRACTIONTILE
360
18
  3
SPECULARTILE
360
15
  0
DICTIONARY
  5
22
330
21
100
AcDbDictionary
280
     1
281
     1
  3
BUMPTILE
360
24
  3
DIFFUSETILE
360
23
  3
OPACITYTILE
360
27
  3
REFLECTIONTILE
360
26
  3
REFRACTIONTILE
360
28
  3
SPECULARTILE
360
25
  0
DICTIONARY
  5
2D7
330
65
100
AcDbDictionary
280
     1
281
     1
  3
ACAD_ROUNDTRIP_2008_TABLESTYLE_CELLSTYLEMAP
360
2D8
  0
XRECORD
  5
1C
102
{ACAD_REACTORS
330
1A
102
}
330
1A
100
AcDbXrecord
280
     1
270
     1
271
     1
  0
XRECORD
  5
1B
102
{ACAD_REACTORS
330
1A
102
}
330
1A
100
AcDbXrecord
280
     1
270
     1
271
     1
  0
XRECORD
  5
1F
102
{ACAD_REACTORS
330
1A
102
}
330
1A
100
AcDbXrecord
280
     1
270
     1
271
     1
  0
XRECORD
  5
1E
102
{ACAD_REACTORS
330
1A
102
}
330
1A
100
AcDbXrecord
280
     1
270
     1
271
     1
  0
XRECORD
  5
20
102
{ACAD_REACTORS
330
1A
102
}
330
1A
100
AcDbXrecord
280
     1
270
     1
271
     1
  0
XRECORD
  5
1D
102
{ACAD_REACTORS
330
1A
102
}
330
1A
100
AcDbXrecord
280
     1
270
     1
271
     1
  0
XRECORD
  5
14
102
{ACAD_REACTORS
330
12
102
}
330
12
100
AcDbXrecord
280
     1
270
     1
271
     1
  0
XRECORD
  5
13
102
{ACAD_REACTORS
330
12
102
}
330
12
100
AcDbXrecord
280
     1
270
     1
271
     1
  0
XRECORD
  5
17
102
{ACAD_REACTORS
330
12
102
}
330
12
100
AcDbXrecord
280
     1
270
     1
271
     1
  0
XRECORD
  5
16
102
{ACAD_REACTORS
330
12
102
}
330
12
100
AcDbXrecord
280
     1
270
     1
271
     1
  0
XRECORD
  5
18
102
{ACAD_REACTORS
330
12
102
}
330
12
100
AcDbXrecord
280
     1
270
     1
271
     1
  0
XRECORD
  5
15
102
{ACAD_REACTORS
330
12
102
}
330
12
100
AcDbXrecord
280
     1
270
     1
271
     1
  0
XRECORD
  5
24
102
{ACAD_REACTORS
330
22
102
}
330
22
100
AcDbXrecord
280
     1
270
     1
271
     1
  0
XRECORD
  5
23
102
{ACAD_REACTORS
330
22
102
}
330
22
100
AcDbXrecord
280
     1
270
     1
271
     1
  0
XRECORD
  5
27
102
{ACAD_REACTORS
330
22
102
}
330
22
100
AcDbXrecord
280
     1
270
     1
271
     1
  0
XRECORD
  5
26
102
{ACAD_REACTORS
330
22
102
}
330
22
100
AcDbXrecord
280
     1
270
     1
271
     1
  0
XRECORD
  5
28
102
{ACAD_REACTORS
330
22
102
}
330
22
100
AcDbXrecord
280
     1
270
     1
271
     1
  0
XRECORD
  5
25
102
{ACAD_REACTORS
330
22
102
}
330
22
100
AcDbXrecord
280
     1
270
     1
271
     1
  0
CELLSTYLEMAP
  5
2D8
102
{ACAD_REACTORS
330
2D7
102
}
330
2D7
100
AcDbCellStyleMap
 90
        3
300
CELLSTYLE
  1
TABLEFORMAT_BEGIN
 90
        5
170
     1
 91
        0
 92
    32768
 62
   257
 93
        1
300
CONTENTFORMAT
  1
CONTENTFORMAT_BEGIN
 90
        0
 91
        0
 92
      512
 93
        0
300

 40
0.0
140
1.0
 94
        5
 62
     0
340
55
144
0.25
309
CONTENTFORMAT_END
171
     0
 94
        0
309
TABLEFORMAT_END
  1
CELLSTYLE_BEGIN
 90
        1
 91
        1
300
_TITLE
309
CELLSTYLE_END
300
CELLSTYLE
  1
TABLEFORMAT_BEGIN
 90
        5
170
     1
 91
        0
 92
        0
 62
   257
 93
        1
300
CONTENTFORMAT
  1
CONTENTFORMAT_BEGIN
 90
        0
 91
        0
 92
      512
 93
        0
300

 40
0.0
140
1.0
 94
        5
 62
     0
340
55
144
0.18
309
CONTENTFORMAT_END
171
     0
 94
        0
309
TABLEFORMAT_END
  1
CELLSTYLE_BEGIN
 90
        2
 91
        1
300
_HEADER
309
CELLSTYLE_END
300
CELLSTYLE
  1
TABLEFORMAT_BEGIN
 90
        5
170
     1
 91
        0
 92
        0
 62
   257
 93
        1
300
CONTENTFORMAT
  1
CONTENTFORMAT_BEGIN
 90
        0
 91
        0
 92
      512
 93
        0
300

 40
0.0
140
1.0
 94
        2
 62
     0
340
55
144
0.18
309
CONTENTFORMAT_END
171
     0
 94
        0
309
TABLEFORMAT_END
  1
CELLSTYLE_BEGIN
 90
        3
 91
        2
300
_DATA
309
CELLSTYLE_END
  0
ENDSEC
  0
EOF
