  0
SECTION
  2
HEADER
  9
$ACADVER
  1
AC1032
  9
$ACADMAINTVER
 90
      251
  9
$DWGCODEPAGE
  3
ANSI_1252
  9
$REQUIREDVERSIONS
160
                 0
  9
$INSBASE
 10
0.0
 20
0.0
 30
0.0
  9
$EXTMIN
 10
1.000000000000000E+20
 20
1.000000000000000E+20
 30
1.000000000000000E+20
  9
$EXTMAX
 10
-1.000000000000000E+20
 20
-1.000000000000000E+20
 30
-1.000000000000000E+20
  9
$LIMMIN
 10
0.0
 20
0.0
  9
$LIMMAX
 10
12.0
 20
9.0
  9
$ORTHOMODE
 70
     0
  9
$REGENMODE
 70
     1
  9
$FILLMODE
 70
     1
  9
$QTEXTMODE
 70
     0
  9
$MIRRTEXT
 70
     0
  9
$LTSCALE
 40
1.0
  9
$ATTMODE
 70
     1
  9
$TEXTSIZE
 40
0.2
  9
$TRACEWID
 40
0.05
  9
$TEXTSTYLE
  7
Standard
  9
$CLAYER
  8
0
  9
$CELTYPE
  6
ByLayer
  9
$CECOLOR
 62
   256
  9
$CELTSCALE
 40
1.0
  9
$DISPSILH
 70
     0
  9
$DIMSCALE
 40
1.0
  9
$DIMASZ
 40
0.18
  9
$DIMEXO
 40
0.0625
  9
$DIMDLI
 40
0.38
  9
$DIMRND
 40
0.0
  9
$DIMDLE
 40
0.0
  9
$DIMEXE
 40
0.18
  9
$DIMTP
 40
0.0
  9
$DIMTM
 40
0.0
  9
$DIMTXT
 40
0.18
  9
$DIMCEN
 40
0.09
  9
$DIMTSZ
 40
0.0
  9
$DIMTOL
 70
     0
  9
$DIMLIM
 70
     0
  9
$DIMTIH
 70
     1
  9
$DIMTOH
 70
     1
  9
$DIMSE1
 70
     0
  9
$DIMSE2
 70
     0
  9
$DIMTAD
 70
     0
  9
$DIMZIN
 70
     0
  9
$DIMBLK
  1

  9
$DIMASO
 70
     1
  9
$DIMSHO
 70
     1
  9
$DIMPOST
  1

  9
$DIMAPOST
  1

  9
$DIMALT
 70
     0
  9
$DIMALTD
 70
     2
  9
$DIMALTF
 40
25.4
  9
$DIMLFAC
 40
1.0
  9
$DIMTOFL
 70
     0
  9
$DIMTVP
 40
0.0
  9
$DIMTIX
 70
     0
  9
$DIMSOXD
 70
     0
  9
$DIMSAH
 70
     0
  9
$DIMBLK1
  1

  9
$DIMBLK2
  1

  9
$DIMSTYLE
  2
Standard
  9
$DIMCLRD
 70
     0
  9
$DIMCLRE
 70
     0
  9
$DIMCLRT
 70
     0
  9
$DIMTFAC
 40
1.0
  9
$DIMGAP
 40
0.09
  9
$DIMJUST
 70
     0
  9
$DIMSD1
 70
     0
  9
$DIMSD2
 70
     0
  9
$DIMTOLJ
 70
     1
  9
$DIMTZIN
 70
     0
  9
$DIMALTZ
 70
     0
  9
$DIMALTTZ
 70
     0
  9
$DIMUPT
 70
     0
  9
$DIMDEC
 70
     4
  9
$DIMTDEC
 70
     4
  9
$DIMALTU
 70
     2
  9
$DIMALTTD
 70
     2
  9
$DIMTXSTY
  7
Standard
  9
$DIMAUNIT
 70
     0
  9
$DIMADEC
 70
     0
  9
$DIMALTRND
 40
0.0
  9
$DIMAZIN
 70
     0
  9
$DIMDSEP
 70
    46
  9
$DIMATFIT
 70
     3
  9
$DIMFRAC
 70
     0
  9
$DIMLDRBLK
  1

  9
$DIMLUNIT
 70
     2
  9
$DIMLWD
 70
    -2
  9
$DIMLWE
 70
    -2
  9
$DIMTMOVE
 70
     0
  9
$DIMFXL
 40
1.0
  9
$DIMFXLON
 70
     0
  9
$DIMJOGANG
 40
0.7853981633974483
  9
$DIMTFILL
 70
     0
  9
$DIMTFILLCLR
 70
     0
  9
$DIMARCSYM
 70
     0
  9
$DIMLTYPE
  6

  9
$DIMLTEX1
  6

  9
$DIMLTEX2
  6

  9
$DIMTXTDIRECTION
 70
     0
  9
$LUNITS
 70
     2
  9
$LUPREC
 70
     4
  9
$SKETCHINC
 40
0.1
  9
$FILLETRAD
 40
0.0
  9
$AUNITS
 70
     0
  9
$AUPREC
 70
     0
  9
$MENU
  1
.
  9
$ELEVATION
 40
0.0
  9
$PELEVATION
 40
0.0
  9
$THICKNESS
 40
0.0
  9
$LIMCHECK
 70
     0
  9
$CHAMFERA
 40
0.0
  9
$CHAMFERB
 40
0.0
  9
$CHAMFERC
 40
0.0
  9
$CHAMFERD
 40
0.0
  9
$SKPOLY
 70
     0
  9
$TDCREATE
 40
2459963.396527778
  9
$TDUCREATE
 40
2459963.354861111
  9
$TDUPDATE
 40
2459963.396527778
  9
$TDUUPDATE
 40
2459963.354861111
  9
$TDINDWG
 40
0.0000000000
  9
$TDUSRTIMER
 40
0.0000000000
  9
$USRTIMER
 70
     1
  9
$ANGBASE
 50
0.0
  9
$ANGDIR
 70
     0
  9
$PDMODE
 70
     0
  9
$PDSIZE
 40
0.0
  9
$PLINEWID
 40
0.0
  9
$SPLFRAME
 70
     0
  9
$SPLINETYPE
 70
     6
  9
$SPLINESEGS
 70
     8
  9
$HANDSEED
  5
299
  9
$SURFTAB1
 70
     6
  9
$SURFTAB2
 70
     6
  9
$SURFTYPE
 70
     6
  9
$SURFU
 70
     6
  9
$SURFV
 70
     6
  9
$UCSBASE
  2

  9
$UCSNAME
  2

  9
$UCSORG
 10
0.0
 20
0.0
 30
0.0
  9
$UCSXDIR
 10
1.0
 20
0.0
 30
0.0
  9
$UCSYDIR
 10
0.0
 20
1.0
 30
0.0
  9
$UCSORTHOREF
  2

  9
$UCSORTHOVIEW
 70
     0
  9
$UCSORGTOP
 10
0.0
 20
0.0
 30
0.0
  9
$UCSORGBOTTOM
 10
0.0
 20
0.0
 30
0.0
  9
$UCSORGLEFT
 10
0.0
 20
0.0
 30
0.0
  9
$UCSORGRIGHT
 10
0.0
 20
0.0
 30
0.0
  9
$UCSORGFRONT
 10
0.0
 20
0.0
 30
0.0
  9
$UCSORGBACK
 10
0.0
 20
0.0
 30
0.0
  9
$PUCSBASE
  2

  9
$PUCSNAME
  2

  9
$PUCSORG
 10
0.0
 20
0.0
 30
0.0
  9
$PUCSXDIR
 10
1.0
 20
0.0
 30
0.0
  9
$PUCSYDIR
 10
0.0
 20
1.0
 30
0.0
  9
$PUCSORTHOREF
  2

  9
$PUCSORTHOVIEW
 70
     0
  9
$PUCSORGTOP
 10
0.0
 20
0.0
 30
0.0
  9
$PUCSORGBOTTOM
 10
0.0
 20
0.0
 30
0.0
  9
$PUCSORGLEFT
 10
0.0
 20
0.0
 30
0.0
  9
$PUCSORGRIGHT
 10
0.0
 20
0.0
 30
0.0
  9
$PUCSORGFRONT
 10
0.0
 20
0.0
 30
0.0
  9
$PUCSORGBACK
 10
0.0
 20
0.0
 30
0.0
  9
$USERI1
 70
     0
  9
$USERI2
 70
     0
  9
$USERI3
 70
     0
  9
$USERI4
 70
     0
  9
$USERI5
 70
     0
  9
$USERR1
 40
0.0
  9
$USERR2
 40
0.0
  9
$USERR3
 40
0.0
  9
$USERR4
 40
0.0
  9
$USERR5
 40
0.0
  9
$WORLDVIEW
 70
     1
  9
$SHADEDGE
 70
     3
  9
$SHADEDIF
 70
    70
  9
$TILEMODE
 70
     1
  9
$MAXACTVP
 70
    64
  9
$PINSBASE
 10
0.0
 20
0.0
 30
0.0
  9
$PLIMCHECK
 70
     0
  9
$PEXTMIN
 10
1.000000000000000E+20
 20
1.000000000000000E+20
 30
1.000000000000000E+20
  9
$PEXTMAX
 10
-1.000000000000000E+20
 20
-1.000000000000000E+20
 30
-1.000000000000000E+20
  9
$PLIMMIN
 10
0.0
 20
0.0
  9
$PLIMMAX
 10
12.0
 20
9.0
  9
$UNITMODE
 70
     0
  9
$VISRETAIN
 70
     1
  9
$PLINEGEN
 70
     0
  9
$PSLTSCALE
 70
     1
  9
$TREEDEPTH
 70
  3020
  9
$CMLSTYLE
  2
Standard
  9
$CMLJUST
 70
     0
  9
$CMLSCALE
 40
1.0
  9
$PROXYGRAPHICS
 70
     1
  9
$MEASUREMENT
 70
     0
  9
$CELWEIGHT
370
    -1
  9
$ENDCAPS
280
     0
  9
$JOINSTYLE
280
     0
  9
$LWDISPLAY
290
     1
  9
$INSUNITS
 70
     4
  9
$HYPERLINKBASE
  1

  9
$STYLESHEET
  1

  9
$XEDIT
290
     1
  9
$CEPSNTYPE
380
     0
  9
$PSTYLEMODE
290
     1
  9
$FINGERPRINTGUID
  2
{B7366AA9-F94B-344F-99CC-08911864E4D1}
  9
$VERSIONGUID
  2
{3BADE230-FF61-EB45-A75F-53890895D8C8}
  9
$EXTNAMES
290
     1
  9
$PSVPSCALE
 40
0.0
  9
$OLESTARTUP
290
     0
  9
$SORTENTS
280
   127
  9
$INDEXCTL
280
     0
  9
$HIDETEXT
280
     1
  9
$XCLIPFRAME
280
     2
  9
$HALOGAP
280
     0
  9
$OBSCOLOR
 70
   257
  9
$OBSLTYPE
280
     0
  9
$INTERSECTIONDISPLAY
280
     0
  9
$INTERSECTIONCOLOR
 70
   257
  9
$DIMASSOC
280
     2
  9
$PROJECTNAME
  1

  9
$CAMERADISPLAY
290
     0
  9
$LENSLENGTH
 40
50.0
  9
$CAMERAHEIGHT
 40
0.0
  9
$STEPSPERSEC
 40
2.0
  9
$STEPSIZE
 40
6.0
  9
$3DDWFPREC
 40
2.0
  9
$PSOLWIDTH
 40
0.25
  9
$PSOLHEIGHT
 40
4.0
  9
$LOFTANG1
 40
1.570796326794896
  9
$LOFTANG2
 40
1.570796326794896
  9
$LOFTMAG1
 40
0.0
  9
$LOFTMAG2
 40
0.0
  9
$LOFTPARAM
 70
     7
  9
$LOFTNORMALS
280
     1
  9
$LATITUDE
 40
37.795
  9
$LONGITUDE
 40
-122.394
  9
$NORTHDIRECTION
 40
0.0
  9
$TIMEZONE
 70
 -8000
  9
$LIGHTGLYPHDISPLAY
280
     1
  9
$TILEMODELIGHTSYNCH
280
     1
  9
$CMATERIAL
347
11
  9
$SOLIDHIST
280
     0
  9
$SHOWHIST
280
     1
  9
$DWFFRAME
280
     2
  9
$DGNFRAME
280
     0
  9
$REALWORLDSCALE
290
     1
  9
$INTERFERECOLOR
 62
     1
  9
$INTERFEREOBJVS
345
33
  9
$INTERFEREVPVS
346
30
  9
$CSHADOW
280
     0
  9
$SHADOWPLANELOCATION
 40
0.0
  0
ENDSEC
  0
SECTION
  2
CLASSES
  0
CLASS
  1
ACDBDICTIONARYWDFLT
  2
AcDbDictionaryWithDefault
  3
ObjectDBX Classes
 90
        0
 91
        1
280
     0
281
     0
  0
CLASS
  1
MATERIAL
  2
AcDbMaterial
  3
ObjectDBX Classes
 90
     1153
 91
        3
280
     0
281
     0
  0
CLASS
  1
VISUALSTYLE
  2
AcDbVisualStyle
  3
ObjectDBX Classes
 90
     4095
 91
       24
280
     0
281
     0
  0
CLASS
  1
SCALE
  2
AcDbScale
  3
ObjectDBX Classes
 90
     1153
 91
       17
280
     0
281
     0
  0
CLASS
  1
TABLESTYLE
  2
AcDbTableStyle
  3
ObjectDBX Classes
 90
     4095
 91
        1
280
     0
281
     0
  0
CLASS
  1
MLEADERSTYLE
  2
AcDbMLeaderStyle
  3
ACDB_MLEADERSTYLE_CLASS
 90
     4095
 91
        1
280
     0
281
     0
  0
CLASS
  1
ACDBSECTIONVIEWSTYLE
  2
AcDbSectionViewStyle
  3
ObjectDBX Classes
 90
     1025
 91
        1
280
     0
281
     0
  0
CLASS
  1
ACDBDETAILVIEWSTYLE
  2
AcDbDetailViewStyle
  3
ObjectDBX Classes
 90
     1025
 91
        1
280
     0
281
     0
  0
CLASS
  1
DICTIONARYVAR
  2
AcDbDictionaryVar
  3
ObjectDBX Classes
 90
        0
 91
        5
280
     0
281
     0
  0
CLASS
  1
CELLSTYLEMAP
  2
AcDbCellStyleMap
  3
ObjectDBX Classes
 90
     1152
 91
        1
280
     0
281
     0
  0
ENDSEC
  0
SECTION
  2
TABLES
  0
TABLE
  2
VPORT
  5
8
330
0
100
AcDbSymbolTable
 70
     1
  0
VPORT
  5
57
330
8
100
AcDbSymbolTableRecord
100
AcDbViewportTableRecord
  2
*Active
 70
     0
 10
0.0
 20
0.0
 11
1.0
 21
1.0
 12
0.0
 22
0.0
 13
0.0
 23
0.0
 14
1.0
 24
1.0
 15
0.0
 25
0.0
 16
0.0
 26
0.0
 36
1.0
 17
105.0000721959721
 27
148.5000416295418
 37
0.0
 40
89.75999997755987
 41
1.0
 42
50.0
 43
0.0
 44
0.0
 50
0.0
 51
0.0
 71
     0
 72
   100
 73
     1
 74
     1
 75
     0
 76
     0
 77
     0
 78
     0
281
     0
 65
     1
110
0.0
120
0.0
130
0.0
111
1.0
121
0.0
131
0.0
112
0.0
122
1.0
132
0.0
 79
     0
146
0.0
 60
     3
 61
     5
292
     1
282
     1
141
0.0
142
0.0
 63
   250
421
  3355443
  0
ENDTAB
  0
TABLE
  2
LTYPE
  5
5
330
0
100
AcDbSymbolTable
 70
     3
  0
LTYPE
  5
5B
330
5
100
AcDbSymbolTableRecord
100
AcDbLinetypeTableRecord
  2
ByBlock
 70
     0
  3

 72
    65
 73
     0
 40
0.0
  0
LTYPE
  5
5C
330
5
100
AcDbSymbolTableRecord
100
AcDbLinetypeTableRecord
  2
ByLayer
 70
     0
  3

 72
    65
 73
     0
 40
0.0
  0
LTYPE
  5
5D
330
5
100
AcDbSymbolTableRecord
100
AcDbLinetypeTableRecord
  2
Continuous
 70
     0
  3
Solid line
 72
    65
 73
     0
 40
0.0
  0
LTYPE
  5
227
330
5
100
AcDbSymbolTableRecord
100
AcDbLinetypeTableRecord
  2
AI-Linetype-0
 70
     0
  3
Adobe Illustrator Linetype No. 0
 72
    65
 73
     2
 40
1.411111110758333
 49
0.7055555553791667
 74
     0
 49
-0.7055555553791667
 74
     0
  0
LTYPE
  5
25A
330
5
100
AcDbSymbolTableRecord
100
AcDbLinetypeTableRecord
  2
AI-Linetype-1
 70
     0
  3
Adobe Illustrator Linetype No. 1
 72
    65
 73
     2
 40
1.411111110758333
 49
0.7055555553791667
 74
     0
 49
-0.7055555553791667
 74
     0
  0
ENDTAB
  0
TABLE
  2
LAYER
  5
2
330
0
100
AcDbSymbolTable
 70
     5
  0
LAYER
  5
54
330
2
100
AcDbSymbolTableRecord
100
AcDbLayerTableRecord
  2
0
 70
     0
 62
     7
  6
Continuous
370
     0
390
F
347
21
348
0
  0
LAYER
  5
8C
330
2
100
AcDbSymbolTableRecord
100
AcDbLayerTableRecord
  2
Rahmen (ISO)
 70
     0
 62
     7
  6
Continuous
370
     0
390
F
347
21
348
0
  0
LAYER
  5
8D
330
2
100
AcDbSymbolTableRecord
100
AcDbLayerTableRecord
  2
Titel (ISO)
 70
     0
 62
     7
  6
Continuous
370
     0
390
F
347
21
348
0
  0
LAYER
  5
B2
330
2
100
AcDbSymbolTableRecord
100
AcDbLayerTableRecord
  2
Sichtbar (ISO)
 70
     0
 62
     7
  6
Continuous
370
     0
390
F
347
21
348
0
  0
LAYER
  5
B3
330
2
100
AcDbSymbolTableRecord
100
AcDbLayerTableRecord
  2
Sichtbar schmal (ISO)
 70
     0
 62
     7
  6
Continuous
370
     0
390
F
347
21
348
0
  0
ENDTAB
  0
TABLE
  2
STYLE
  5
3
330
0
100
AcDbSymbolTable
 70
     2
  0
STYLE
  5
55
330
3
100
AcDbSymbolTableRecord
100
AcDbTextStyleTableRecord
  2
Standard
 70
     0
 40
0.0
 41
1.0
 50
0.0
 71
     0
 42
0.2
  3
txt
  4

  0
STYLE
  5
5A
330
3
100
AcDbSymbolTableRecord
100
AcDbTextStyleTableRecord
  2
Annotative
 70
     0
 40
0.0
 41
1.0
 50
0.0
 71
     0
 42
0.2
  3
txt
  4

1001
AcadAnnotative
1000
AnnotativeData
1002
{
1070
     1
1070
     1
1002
}
  0
ENDTAB
  0
TABLE
  2
VIEW
  5
6
330
0
100
AcDbSymbolTable
 70
     0
  0
ENDTAB
  0
TABLE
  2
UCS
  5
7
330
0
100
AcDbSymbolTable
 70
     0
  0
ENDTAB
  0
TABLE
  2
APPID
  5
9
330
0
100
AcDbSymbolTable
 70
     2
  0
APPID
  5
56
330
9
100
AcDbSymbolTableRecord
100
AcDbRegAppTableRecord
  2
ACAD
 70
     0
  0
APPID
  5
5E
330
9
100
AcDbSymbolTableRecord
100
AcDbRegAppTableRecord
  2
AcadAnnotative
 70
     0
  0
ENDTAB
  0
TABLE
  2
DIMSTYLE
  5
A
330
0
100
AcDbSymbolTable
 70
     2
100
AcDbDimStyleTable
 71
     0
  0
DIMSTYLE
105
58
330
A
100
AcDbSymbolTableRecord
100
AcDbDimStyleTableRecord
  2
Standard
 70
     0
340
55
  0
DIMSTYLE
105
59
330
A
100
AcDbSymbolTableRecord
100
AcDbDimStyleTableRecord
  2
Annotative
 70
     0
340
55
1001
AcadAnnotative
1000
AnnotativeData
1002
{
1070
     1
1070
     1
1002
}
  0
ENDTAB
  0
TABLE
  2
BLOCK_RECORD
  5
1
330
0
100
AcDbSymbolTable
 70
    41
  0
BLOCK_RECORD
  5
70
330
1
100
AcDbSymbolTableRecord
100
AcDbBlockTableRecord
  2
*Model_Space
340
73
 70
     0
280
     1
281
     0
  0
BLOCK_RECORD
  5
6C
330
1
100
AcDbSymbolTableRecord
100
AcDbBlockTableRecord
  2
*Paper_Space
340
6F
 70
     0
280
     1
281
     0
  0
BLOCK_RECORD
  5
74
330
1
100
AcDbSymbolTableRecord
100
AcDbBlockTableRecord
  2
*Paper_Space0
340
77
 70
     0
280
     1
281
     0
  0
BLOCK_RECORD
  5
78
330
1
100
AcDbSymbolTableRecord
100
AcDbBlockTableRecord
  2
Block_0
340
0
102
{BLKREFS
331
79
102
}
 70
     0
280
     1
281
     0
  0
BLOCK_RECORD
  5
7C
330
1
100
AcDbSymbolTableRecord
100
AcDbBlockTableRecord
  2
Block_1
340
0
102
{BLKREFS
331
7D
102
}
 70
     0
280
     1
281
     0
  0
BLOCK_RECORD
  5
80
330
1
100
AcDbSymbolTableRecord
100
AcDbBlockTableRecord
  2
Block_2
340
0
102
{BLKREFS
331
81
102
}
 70
     0
280
     1
281
     0
  0
BLOCK_RECORD
  5
84
330
1
100
AcDbSymbolTableRecord
100
AcDbBlockTableRecord
  2
Block_3
340
0
102
{BLKREFS
331
85
102
}
 70
     0
280
     1
281
     0
  0
BLOCK_RECORD
  5
88
330
1
100
AcDbSymbolTableRecord
100
AcDbBlockTableRecord
  2
Block_4
340
0
102
{BLKREFS
331
89
102
}
 70
     0
280
     1
281
     0
  0
BLOCK_RECORD
  5
8E
330
1
100
AcDbSymbolTableRecord
100
AcDbBlockTableRecord
  2
Block_5
340
0
102
{BLKREFS
331
8F
102
}
 70
     0
280
     1
281
     0
  0
BLOCK_RECORD
  5
92
330
1
100
AcDbSymbolTableRecord
100
AcDbBlockTableRecord
  2
Block_6
340
0
102
{BLKREFS
331
93
102
}
 70
     0
280
     1
281
     0
  0
BLOCK_RECORD
  5
96
330
1
100
AcDbSymbolTableRecord
100
AcDbBlockTableRecord
  2
Block_7
340
0
102
{BLKREFS
331
97
102
}
 70
     0
280
     1
281
     0
  0
BLOCK_RECORD
  5
9A
330
1
100
AcDbSymbolTableRecord
100
AcDbBlockTableRecord
  2
Block_8
340
0
102
{BLKREFS
331
9B
102
}
 70
     0
280
     1
281
     0
  0
BLOCK_RECORD
  5
9E
330
1
100
AcDbSymbolTableRecord
100
AcDbBlockTableRecord
  2
Block_9
340
0
102
{BLKREFS
331
9F
102
}
 70
     0
280
     1
281
     0
  0
BLOCK_RECORD
  5
A2
330
1
100
AcDbSymbolTableRecord
100
AcDbBlockTableRecord
  2
Block_10
340
0
102
{BLKREFS
331
A3
102
}
 70
     0
280
     1
281
     0
  0
BLOCK_RECORD
  5
A6
330
1
100
AcDbSymbolTableRecord
100
AcDbBlockTableRecord
  2
Block_11
340
0
102
{BLKREFS
331
A7
102
}
 70
     0
280
     1
281
     0
  0
BLOCK_RECORD
  5
AA
330
1
100
AcDbSymbolTableRecord
100
AcDbBlockTableRecord
  2
Block_12
340
0
102
{BLKREFS
331
AB
102
}
 70
     0
280
     1
281
     0
  0
BLOCK_RECORD
  5
AE
330
1
100
AcDbSymbolTableRecord
100
AcDbBlockTableRecord
  2
Block_13
340
0
102
{BLKREFS
331
AF
102
}
 70
     0
280
     1
281
     0
  0
BLOCK_RECORD
  5
B4
330
1
100
AcDbSymbolTableRecord
100
AcDbBlockTableRecord
  2
Block_14
340
0
102
{BLKREFS
331
B5
102
}
 70
     0
280
     1
281
     0
  0
BLOCK_RECORD
  5
BA
330
1
100
AcDbSymbolTableRecord
100
AcDbBlockTableRecord
  2
Block_15
340
0
102
{BLKREFS
331
BB
102
}
 70
     0
280
     1
281
     0
  0
BLOCK_RECORD
  5
1DB
330
1
100
AcDbSymbolTableRecord
100
AcDbBlockTableRecord
  2
Block_16
340
0
102
{BLKREFS
331
1DC
102
}
 70
     0
280
     1
281
     0
  0
BLOCK_RECORD
  5
1F7
330
1
100
AcDbSymbolTableRecord
100
AcDbBlockTableRecord
  2
Block_17
340
0
102
{BLKREFS
331
1F8
102
}
 70
     0
280
     1
281
     0
  0
BLOCK_RECORD
  5
1FB
330
1
100
AcDbSymbolTableRecord
100
AcDbBlockTableRecord
  2
Block_18
340
0
102
{BLKREFS
331
1FC
102
}
 70
     0
280
     1
281
     0
  0
BLOCK_RECORD
  5
200
330
1
100
AcDbSymbolTableRecord
100
AcDbBlockTableRecord
  2
Block_19
340
0
102
{BLKREFS
331
201
102
}
 70
     0
280
     1
281
     0
  0
BLOCK_RECORD
  5
206
330
1
100
AcDbSymbolTableRecord
100
AcDbBlockTableRecord
  2
Block_20
340
0
102
{BLKREFS
331
207
102
}
 70
     0
280
     1
281
     0
  0
BLOCK_RECORD
  5
20F
330
1
100
AcDbSymbolTableRecord
100
AcDbBlockTableRecord
  2
Block_21
340
0
102
{BLKREFS
331
210
102
}
 70
     0
280
     1
281
     0
  0
BLOCK_RECORD
  5
213
330
1
100
AcDbSymbolTableRecord
100
AcDbBlockTableRecord
  2
Block_22
340
0
102
{BLKREFS
331
214
102
}
 70
     0
280
     1
281
     0
  0
BLOCK_RECORD
  5
218
330
1
100
AcDbSymbolTableRecord
100
AcDbBlockTableRecord
  2
Block_23
340
0
102
{BLKREFS
331
219
102
}
 70
     0
280
     1
281
     0
  0
BLOCK_RECORD
  5
21E
330
1
100
AcDbSymbolTableRecord
100
AcDbBlockTableRecord
  2
Block_24
340
0
102
{BLKREFS
331
21F
102
}
 70
     0
280
     1
281
     0
  0
BLOCK_RECORD
  5
228
330
1
100
AcDbSymbolTableRecord
100
AcDbBlockTableRecord
  2
Block_25
340
0
102
{BLKREFS
331
229
102
}
 70
     0
280
     1
281
     0
  0
BLOCK_RECORD
  5
22C
330
1
100
AcDbSymbolTableRecord
100
AcDbBlockTableRecord
  2
Block_26
340
0
102
{BLKREFS
331
22D
102
}
 70
     0
280
     1
281
     0
  0
BLOCK_RECORD
  5
231
330
1
100
AcDbSymbolTableRecord
100
AcDbBlockTableRecord
  2
Block_27
340
0
102
{BLKREFS
331
232
102
}
 70
     0
280
     1
281
     0
  0
BLOCK_RECORD
  5
237
330
1
100
AcDbSymbolTableRecord
100
AcDbBlockTableRecord
  2
Block_28
340
0
102
{BLKREFS
331
238
102
}
 70
     0
280
     1
281
     0
  0
BLOCK_RECORD
  5
23B
330
1
100
AcDbSymbolTableRecord
100
AcDbBlockTableRecord
  2
Block_29
340
0
102
{BLKREFS
331
23C
102
}
 70
     0
280
     1
281
     0
  0
BLOCK_RECORD
  5
240
330
1
100
AcDbSymbolTableRecord
100
AcDbBlockTableRecord
  2
Block_30
340
0
102
{BLKREFS
331
241
102
}
 70
     0
280
     1
281
     0
  0
BLOCK_RECORD
  5
246
330
1
100
AcDbSymbolTableRecord
100
AcDbBlockTableRecord
  2
Block_31
340
0
102
{BLKREFS
331
247
102
}
 70
     0
280
     1
281
     0
  0
BLOCK_RECORD
  5
24C
330
1
100
AcDbSymbolTableRecord
100
AcDbBlockTableRecord
  2
Block_32
340
0
102
{BLKREFS
331
24D
102
}
 70
     0
280
     1
281
     0
  0
BLOCK_RECORD
  5
250
330
1
100
AcDbSymbolTableRecord
100
AcDbBlockTableRecord
  2
Block_33
340
0
102
{BLKREFS
331
251
102
}
 70
     0
280
     1
281
     0
  0
BLOCK_RECORD
  5
25B
330
1
100
AcDbSymbolTableRecord
100
AcDbBlockTableRecord
  2
Block_34
340
0
102
{BLKREFS
331
25C
102
}
 70
     0
280
     1
281
     0
  0
BLOCK_RECORD
  5
25F
330
1
100
AcDbSymbolTableRecord
100
AcDbBlockTableRecord
  2
Block_35
340
0
102
{BLKREFS
331
260
102
}
 70
     0
280
     1
281
     0
  0
BLOCK_RECORD
  5
269
330
1
100
AcDbSymbolTableRecord
100
AcDbBlockTableRecord
  2
Block_36
340
0
102
{BLKREFS
331
26A
102
}
 70
     0
280
     1
281
     0
  0
BLOCK_RECORD
  5
26D
330
1
100
AcDbSymbolTableRecord
100
AcDbBlockTableRecord
  2
Block_37
340
0
102
{BLKREFS
331
26E
102
}
 70
     0
280
     1
281
     0
  0
BLOCK_RECORD
  5
27D
330
1
100
AcDbSymbolTableRecord
100
AcDbBlockTableRecord
  2
Block_38
340
0
102
{BLKREFS
331
27E
102
}
 70
     0
280
     1
281
     0
  0
BLOCK_RECORD
  5
281
330
1
100
AcDbSymbolTableRecord
100
AcDbBlockTableRecord
  2
Block_39
340
0
102
{BLKREFS
331
282
102
}
 70
     0
280
     1
281
     0
  0
ENDTAB
  0
ENDSEC
  0
SECTION
  2
BLOCKS
  0
BLOCK
  5
71
330
70
100
AcDbEntity
  8
0
100
AcDbBlockBegin
  2
*Model_Space
 70
     0
 10
0.0
 20
0.0
 30
0.0
  3
*Model_Space
  1

  0
ENDBLK
  5
72
330
70
100
AcDbEntity
  8
0
100
AcDbBlockEnd
  0
BLOCK
  5
6D
330
6C
100
AcDbEntity
 67
     1
  8
0
100
AcDbBlockBegin
  2
*Paper_Space
 70
     0
 10
0.0
 20
0.0
 30
0.0
  3
*Paper_Space
  1

  0
ENDBLK
  5
6E
330
6C
100
AcDbEntity
 67
     1
  8
0
100
AcDbBlockEnd
  0
BLOCK
  5
75
330
74
100
AcDbEntity
 67
     1
  8
0
100
AcDbBlockBegin
  2
*Paper_Space0
 70
     0
 10
0.0
 20
0.0
 30
0.0
  3
*Paper_Space0
  1

  0
ENDBLK
  5
76
330
74
100
AcDbEntity
 67
     1
  8
0
100
AcDbBlockEnd
  0
BLOCK
  5
7A
330
78
100
AcDbEntity
  8
0
100
AcDbBlockBegin
  2
Block_0
 70
     0
 10
0.0
 20
0.0
 30
0.0
  3
Block_0
  1

  0
ENDBLK
  5
7B
330
78
100
AcDbEntity
  8
0
100
AcDbBlockEnd
  0
BLOCK
  5
7E
330
7C
100
AcDbEntity
  8
0
100
AcDbBlockBegin
  2
Block_1
 70
     0
 10
0.0
 20
0.0
 30
0.0
  3
Block_1
  1

  0
ENDBLK
  5
7F
330
7C
100
AcDbEntity
  8
0
100
AcDbBlockEnd
  0
BLOCK
  5
82
330
80
100
AcDbEntity
  8
0
100
AcDbBlockBegin
  2
Block_2
 70
     0
 10
0.0
 20
0.0
 30
0.0
  3
Block_2
  1

  0
ENDBLK
  5
83
330
80
100
AcDbEntity
  8
0
100
AcDbBlockEnd
  0
BLOCK
  5
86
330
84
100
AcDbEntity
  8
0
100
AcDbBlockBegin
  2
Block_3
 70
     0
 10
0.0
 20
0.0
 30
0.0
  3
Block_3
  1

  0
ENDBLK
  5
87
330
84
100
AcDbEntity
  8
0
100
AcDbBlockEnd
  0
BLOCK
  5
8A
330
88
100
AcDbEntity
  8
0
100
AcDbBlockBegin
  2
Block_4
 70
     0
 10
0.0
 20
0.0
 30
0.0
  3
Block_4
  1

  0
ENDBLK
  5
8B
330
88
100
AcDbEntity
  8
0
100
AcDbBlockEnd
  0
BLOCK
  5
90
330
8E
100
AcDbEntity
  8
0
100
AcDbBlockBegin
  2
Block_5
 70
     0
 10
0.0
 20
0.0
 30
0.0
  3
Block_5
  1

  0
ENDBLK
  5
91
330
8E
100
AcDbEntity
  8
0
100
AcDbBlockEnd
  0
BLOCK
  5
94
330
92
100
AcDbEntity
  8
0
100
AcDbBlockBegin
  2
Block_6
 70
     0
 10
0.0
 20
0.0
 30
0.0
  3
Block_6
  1

  0
ENDBLK
  5
95
330
92
100
AcDbEntity
  8
0
100
AcDbBlockEnd
  0
BLOCK
  5
98
330
96
100
AcDbEntity
  8
0
100
AcDbBlockBegin
  2
Block_7
 70
     0
 10
0.0
 20
0.0
 30
0.0
  3
Block_7
  1

  0
ENDBLK
  5
99
330
96
100
AcDbEntity
  8
0
100
AcDbBlockEnd
  0
BLOCK
  5
9C
330
9A
100
AcDbEntity
  8
0
100
AcDbBlockBegin
  2
Block_8
 70
     0
 10
0.0
 20
0.0
 30
0.0
  3
Block_8
  1

  0
ENDBLK
  5
9D
330
9A
100
AcDbEntity
  8
0
100
AcDbBlockEnd
  0
BLOCK
  5
A0
330
9E
100
AcDbEntity
  8
0
100
AcDbBlockBegin
  2
Block_9
 70
     0
 10
0.0
 20
0.0
 30
0.0
  3
Block_9
  1

  0
ENDBLK
  5
A1
330
9E
100
AcDbEntity
  8
0
100
AcDbBlockEnd
  0
BLOCK
  5
A4
330
A2
100
AcDbEntity
  8
0
100
AcDbBlockBegin
  2
Block_10
 70
     0
 10
0.0
 20
0.0
 30
0.0
  3
Block_10
  1

  0
ENDBLK
  5
A5
330
A2
100
AcDbEntity
  8
0
100
AcDbBlockEnd
  0
BLOCK
  5
A8
330
A6
100
AcDbEntity
  8
0
100
AcDbBlockBegin
  2
Block_11
 70
     0
 10
0.0
 20
0.0
 30
0.0
  3
Block_11
  1

  0
ENDBLK
  5
A9
330
A6
100
AcDbEntity
  8
0
100
AcDbBlockEnd
  0
BLOCK
  5
AC
330
AA
100
AcDbEntity
  8
0
100
AcDbBlockBegin
  2
Block_12
 70
     0
 10
0.0
 20
0.0
 30
0.0
  3
Block_12
  1

  0
ENDBLK
  5
AD
330
AA
100
AcDbEntity
  8
0
100
AcDbBlockEnd
  0
BLOCK
  5
B0
330
AE
100
AcDbEntity
  8
0
100
AcDbBlockBegin
  2
Block_13
 70
     0
 10
0.0
 20
0.0
 30
0.0
  3
Block_13
  1

  0
ENDBLK
  5
B1
330
AE
100
AcDbEntity
  8
0
100
AcDbBlockEnd
  0
BLOCK
  5
B6
330
B4
100
AcDbEntity
  8
0
100
AcDbBlockBegin
  2
Block_14
 70
     0
 10
0.0
 20
0.0
 30
0.0
  3
Block_14
  1

  0
SPLINE
  5
B8
330
B4
100
AcDbEntity
  8
Sichtbar schmal (ISO)
100
AcDbSpline
210
0.0
220
0.0
230
1.0
 70
     8
 71
     3
 72
    38
 73
    34
 74
     0
 42
0.0000000001
 43
0.0000000001
 40
0.0
 40
0.0
 40
0.0
 40
0.0
 40
1.0
 40
1.0
 40
1.0
 40
2.0
 40
2.0
 40
2.0
 40
3.0
 40
3.0
 40
3.0
 40
4.0
 40
4.0
 40
4.0
 40
5.0
 40
5.0
 40
5.0
 40
6.0
 40
6.0
 40
6.0
 40
7.0
 40
7.0
 40
7.0
 40
8.0
 40
8.0
 40
8.0
 40
9.0
 40
9.0
 40
9.0
 40
10.0
 40
10.0
 40
10.0
 40
11.0
 40
11.0
 40
11.0
 40
11.0
 10
113.2174132953948
 20
184.873583761448
 30
0.0
 10
113.2174132953948
 20
184.873583761448
 30
0.0
 10
113.6873042757823
 20
184.873583761448
 30
0.0
 10
113.6873042757823
 20
184.873583761448
 30
0.0
 10
113.6873042757823
 20
184.873583761448
 30
0.0
 10
113.6873042757823
 20
181.3415032456974
 30
0.0
 10
113.6873042757823
 20
181.3415032456974
 30
0.0
 10
113.6873042757823
 20
181.3415032456974
 30
0.0
 10
113.6873042757823
 20
180.9872201260565
 30
0.0
 10
113.6873042757823
 20
180.9872201260565
 30
0.0
 10
113.6873042757823
 20
180.648318120563
 30
0.0
 10
113.3717382390289
 20
180.3735837625727
 30
0.0
 10
112.9824678052024
 20
180.3735837625727
 30
0.0
 10
112.9824678052024
 20
180.3735837625727
 30
0.0
 10
67.63798819791343
 20
180.3735837625727
 30
0.0
 10
67.63798819791343
 20
180.3735837625727
 30
0.0
 10
67.24871776408845
 20
180.3735837625727
 30
0.0
 10
66.93315172733289
 20
180.648318120563
 30
0.0
 10
66.93315172733289
 20
180.9872201260565
 30
0.0
 10
66.93315172733289
 20
180.9872201260565
 30
0.0
 10
66.93315172733289
 20
181.3415032456974
 30
0.0
 10
66.93315172733289
 20
181.3415032456974
 30
0.0
 10
66.93315172733289
 20
181.3415032456974
 30
0.0
 10
66.93315172733289
 20
184.873583761448
 30
0.0
 10
66.93315172733289
 20
184.873583761448
 30
0.0
 10
66.93315172733289
 20
184.873583761448
 30
0.0
 10
67.40304270772002
 20
184.873583761448
 30
0.0
 10
67.40304270772002
 20
184.873583761448
 30
0.0
 10
67.40304270772002
 20
184.873583761448
 30
0.0
 10
67.42653725673934
 20
184.873583761448
 30
0.0
 10
67.42653725673934
 20
184.873583761448
 30
0.0
 10
67.42653725673934
 20
184.873583761448
 30
0.0
 10
113.1939187463752
 20
184.873583761448
 30
0.0
 10
113.1939187463752
 20
184.873583761448
 30
0.0
  0
HATCH
  5
B9
330
B4
100
AcDbEntity
  8
Sichtbar schmal (ISO)
 62
   254
420
 14606046
440
 33554687
100
AcDbHatch
 10
0.0
 20
0.0
 30
0.0
210
0.0
220
0.0
230
1.0
  2
SOLID
 70
     1
 71
     1
 91
        1
 92
        1
 93
        2
 72
     4
 94
        3
 73
     0
 74
     0
 95
       38
 96
       34
 40
0.0
 40
0.0
 40
0.0
 40
0.0
 40
1.0
 40
1.0
 40
1.0
 40
2.0
 40
2.0
 40
2.0
 40
3.0
 40
3.0
 40
3.0
 40
4.0
 40
4.0
 40
4.0
 40
5.0
 40
5.0
 40
5.0
 40
6.0
 40
6.0
 40
6.0
 40
7.0
 40
7.0
 40
7.0
 40
8.0
 40
8.0
 40
8.0
 40
9.0
 40
9.0
 40
9.0
 40
10.0
 40
10.0
 40
10.0
 40
11.0
 40
11.0
 40
11.0
 40
11.0
 10
113.2174132953948
 20
184.873583761448
 10
113.2174132953948
 20
184.873583761448
 10
113.6873042757823
 20
184.873583761448
 10
113.6873042757823
 20
184.873583761448
 10
113.6873042757823
 20
184.873583761448
 10
113.6873042757823
 20
181.3415032456974
 10
113.6873042757823
 20
181.3415032456974
 10
113.6873042757823
 20
181.3415032456974
 10
113.6873042757823
 20
180.9872201260565
 10
113.6873042757823
 20
180.9872201260565
 10
113.6873042757823
 20
180.648318120563
 10
113.3717382390289
 20
180.3735837625727
 10
112.9824678052024
 20
180.3735837625727
 10
112.9824678052024
 20
180.3735837625727
 10
67.63798819791343
 20
180.3735837625727
 10
67.63798819791343
 20
180.3735837625727
 10
67.24871776408845
 20
180.3735837625727
 10
66.93315172733289
 20
180.648318120563
 10
66.93315172733289
 20
180.9872201260565
 10
66.93315172733289
 20
180.9872201260565
 10
66.93315172733289
 20
181.3415032456974
 10
66.93315172733289
 20
181.3415032456974
 10
66.93315172733289
 20
181.3415032456974
 10
66.93315172733289
 20
184.873583761448
 10
66.93315172733289
 20
184.873583761448
 10
66.93315172733289
 20
184.873583761448
 10
67.40304270772002
 20
184.873583761448
 10
67.40304270772002
 20
184.873583761448
 10
67.40304270772002
 20
184.873583761448
 10
67.42653725673934
 20
184.873583761448
 10
67.42653725673934
 20
184.873583761448
 10
67.42653725673934
 20
184.873583761448
 10
113.1939187463752
 20
184.873583761448
 10
113.1939187463752
 20
184.873583761448
 97
        0
 72
     1
 10
113.1939187463752
 20
184.873583761448
 11
113.2174132953948
 21
184.873583761448
 97
        0
 75
     2
 76
     1
 98
        1
 10
0.0
 20
0.0
450
        0
451
        0
460
0.0
461
0.0
452
        0
462
0.0
453
        0
470

  0
ENDBLK
  5
B7
330
B4
100
AcDbEntity
  8
0
100
AcDbBlockEnd
  0
BLOCK
  5
BC
330
BA
100
AcDbEntity
  8
0
100
AcDbBlockBegin
  2
Block_15
 70
     0
 10
0.0
 20
0.0
 30
0.0
  3
Block_15
  1

  0
LINE
  5
BE
330
BA
100
AcDbEntity
  8
Sichtbar schmal (ISO)
 62
    18
420
        0
370
     5
100
AcDbLine
 10
72.31758327123191
 20
178.1798941079492
 30
0.0
 11
72.31758327123191
 21
177.97705502754
 31
0.0
  0
SPLINE
  5
BF
330
BA
100
AcDbEntity
  8
Sichtbar schmal (ISO)
 62
    18
420
        0
370
     5
100
AcDbSpline
210
0.0
220
0.0
230
1.0
 70
     8
 71
     3
 72
     8
 73
     4
 74
     0
 42
0.0000000001
 43
0.0000000001
 40
0.0
 40
0.0
 40
0.0
 40
0.0
 40
1.0
 40
1.0
 40
1.0
 40
1.0
 10
72.31758327123191
 20
178.1798941079492
 30
0.0
 10
72.31758327123191
 20
178.2919190387287
 30
0.0
 10
72.21496442536611
 20
178.3827331883581
 30
0.0
 10
72.0883776638125
 20
178.3827331883581
 30
0.0
  0
LINE
  5
C0
330
BA
100
AcDbEntity
  8
Sichtbar schmal (ISO)
 62
    18
420
        0
370
     5
100
AcDbLine
 10
65.7852234597809
 20
178.3827331883581
 30
0.0
 11
114.8352234475186
 21
178.3827331883581
 31
0.0
  0
LINE
  5
C1
330
BA
100
AcDbEntity
  8
Sichtbar schmal (ISO)
 62
    18
420
        0
370
     5
100
AcDbLine
 10
65.7852234597809
 20
184.873583761448
 30
0.0
 11
114.8352234475186
 21
184.873583761448
 31
0.0
  0
LINE
  5
C2
330
BA
100
AcDbEntity
  8
Sichtbar schmal (ISO)
 62
    18
420
        0
370
     5
100
AcDbLine
 10
114.8352234475186
 20
184.873583761448
 30
0.0
 11
114.8352234475186
 21
178.3827331883581
 31
0.0
  0
LINE
  5
C3
330
BA
100
AcDbEntity
  8
Sichtbar schmal (ISO)
 62
    18
420
        0
370
     5
100
AcDbLine
 10
65.7852234597809
 20
184.873583761448
 30
0.0
 11
65.7852234597809
 21
178.3827331883581
 31
0.0
  0
LINE
  5
C4
330
BA
100
AcDbEntity
  8
Sichtbar schmal (ISO)
 62
    18
420
        0
370
     5
100
AcDbLine
 10
88.93498980913363
 20
167.2265837658603
 30
0.0
 11
91.68545709816557
 21
167.2265837658603
 31
0.0
  0
LINE
  5
C5
330
BA
100
AcDbEntity
  8
Sichtbar schmal (ISO)
 62
    18
420
        0
370
     5
100
AcDbLine
 10
91.68545709816557
 20
178.3827331883581
 30
0.0
 11
91.68545709816557
 21
167.2265837658603
 31
0.0
  0
LINE
  5
C6
330
BA
100
AcDbEntity
  8
Sichtbar schmal (ISO)
 62
    18
420
        0
370
     5
100
AcDbLine
 10
88.93498980913363
 20
178.3827331883581
 30
0.0
 11
88.93498980913363
 21
167.2265837658603
 31
0.0
  0
LINE
  5
C7
330
BA
100
AcDbEntity
  8
Sichtbar schmal (ISO)
 62
    18
420
        0
370
     5
100
AcDbLine
 10
66.35823747832926
 20
167.2265837658603
 30
0.0
 11
69.10870476736118
 21
167.2265837658603
 31
0.0
  0
LINE
  5
C8
330
BA
100
AcDbEntity
  8
Sichtbar schmal (ISO)
 62
    18
420
        0
370
     5
100
AcDbLine
 10
69.10870476736118
 20
178.3827331883581
 30
0.0
 11
69.10870476736118
 21
167.2265837658603
 31
0.0
  0
LINE
  5
C9
330
BA
100
AcDbEntity
  8
Sichtbar schmal (ISO)
 62
    18
420
        0
370
     5
100
AcDbLine
 10
66.35823747832926
 20
178.3827331883581
 30
0.0
 11
66.35823747832926
 21
167.2265837658603
 31
0.0
  0
LINE
  5
CA
330
BA
100
AcDbEntity
  8
Sichtbar schmal (ISO)
 62
    18
420
        0
370
     5
100
AcDbLine
 10
111.5117421399383
 20
167.2265837658603
 30
0.0
 11
114.2622094289699
 21
167.2265837658603
 31
0.0
  0
LINE
  5
CB
330
BA
100
AcDbEntity
  8
Sichtbar schmal (ISO)
 62
    18
420
        0
370
     5
100
AcDbLine
 10
114.2622094289699
 20
178.3827331883581
 30
0.0
 11
114.2622094289699
 21
167.2265837658603
 31
0.0
  0
LINE
  5
CC
330
BA
100
AcDbEntity
  8
Sichtbar schmal (ISO)
 62
    18
420
        0
370
     5
100
AcDbLine
 10
111.5117421399383
 20
178.3827331883581
 30
0.0
 11
111.5117421399383
 21
167.2265837658603
 31
0.0
  0
LINE
  5
CD
330
BA
100
AcDbEntity
  8
Sichtbar schmal (ISO)
 62
    18
420
        0
370
     5
100
AcDbLine
 10
80.92335094277382
 20
176.3543423842675
 30
0.0
 11
80.92335094277382
 21
176.9628596254948
 31
0.0
  0
LINE
  5
CE
330
BA
100
AcDbEntity
  8
Sichtbar schmal (ISO)
 62
    18
420
        0
370
     5
100
AcDbLine
 10
81.0273963531665
 20
176.3543423842675
 30
0.0
 11
81.0273963531665
 21
176.4557619244721
 31
0.0
  0
LINE
  5
CF
330
BA
100
AcDbEntity
  8
Sichtbar schmal (ISO)
 62
    18
420
        0
370
     5
100
AcDbLine
 10
81.02739635316618
 20
176.4557619244721
 30
0.0
 11
81.36064737097827
 21
176.4557619244721
 31
0.0
  0
LINE
  5
D0
330
BA
100
AcDbEntity
  8
Sichtbar schmal (ISO)
 62
    18
420
        0
370
     5
100
AcDbLine
 10
81.36064737097891
 20
176.4557619244721
 30
0.0
 11
81.36064737097891
 21
176.9628596254948
 31
0.0
  0
LINE
  5
D1
330
BA
100
AcDbEntity
  8
Sichtbar schmal (ISO)
 62
    18
420
        0
370
     5
100
AcDbLine
 10
87.33055055719811
 20
176.9628596254948
 30
0.0
 11
86.18452252010172
 21
176.9628596254948
 31
0.0
  0
LINE
  5
D2
330
BA
100
AcDbEntity
  8
Sichtbar schmal (ISO)
 62
    18
420
        0
370
     5
100
AcDbLine
 10
85.26770009042442
 20
176.9628596254948
 30
0.0
 11
78.24484027909576
 21
176.9628596254948
 31
0.0
  0
LINE
  5
D3
330
BA
100
AcDbEntity
  8
Sichtbar schmal (ISO)
 62
    18
420
        0
370
     5
100
AcDbLine
 10
78.24484027909576
 20
176.9628596254948
 30
0.0
 11
77.90103186796682
 21
176.9628596254948
 31
0.0
  0
LINE
  5
D4
330
BA
100
AcDbEntity
  8
Sichtbar schmal (ISO)
 62
    18
420
        0
370
     5
100
AcDbLine
 10
88.54534027652055
 20
170.0663308915865
 30
0.0
 11
88.24737298687574
 21
170.0663308915865
 31
0.0
  0
LINE
  5
D5
330
BA
100
AcDbEntity
  8
Sichtbar schmal (ISO)
 62
    18
420
        0
370
     5
100
AcDbLine
 10
76.85585429813463
 20
176.9628596254948
 30
0.0
 11
76.85585429813463
 21
170.0663308915865
 31
0.0
  0
LINE
  5
D6
330
BA
100
AcDbEntity
  8
Sichtbar schmal (ISO)
 62
    18
420
        0
370
     5
100
AcDbLine
 10
77.47470943816681
 20
176.9628596254948
 30
0.0
 11
77.47470943816681
 21
170.0663308915865
 31
0.0
  0
LINE
  5
D7
330
BA
100
AcDbEntity
  8
Sichtbar schmal (ISO)
 62
    18
420
        0
370
     5
100
AcDbLine
 10
85.26770009042442
 20
170.0663308915865
 30
0.0
 11
77.47470943816681
 21
170.0663308915865
 31
0.0
  0
LINE
  5
D8
330
BA
100
AcDbEntity
  8
Sichtbar schmal (ISO)
 62
    18
420
        0
370
     5
100
AcDbLine
 10
82.40262999768262
 20
176.4557619244721
 30
0.0
 11
81.36064737097891
 21
176.4557619244721
 31
0.0
  0
LINE
  5
D9
330
BA
100
AcDbEntity
  8
Sichtbar schmal (ISO)
 62
    18
420
        0
370
     5
100
AcDbLine
 10
82.40262999768262
 20
176.2529228440629
 30
0.0
 11
82.40262999768262
 21
176.4557619244721
 31
0.0
  0
LINE
  5
DA
330
BA
100
AcDbEntity
  8
Sichtbar schmal (ISO)
 62
    18
420
        0
370
     5
100
AcDbLine
 10
84.92389167929514
 20
176.2529228440629
 30
0.0
 11
82.40262999768262
 21
176.2529228440629
 31
0.0
  0
SPLINE
  5
DB
330
BA
100
AcDbEntity
  8
Sichtbar schmal (ISO)
 62
    18
420
        0
370
     5
100
AcDbSpline
210
0.0
220
0.0
230
1.0
 70
     8
 71
     3
 72
     8
 73
     4
 74
     0
 42
0.0000000001
 43
0.0000000001
 40
0.0
 40
0.0
 40
0.0
 40
0.0
 40
1.0
 40
1.0
 40
1.0
 40
1.0
 10
85.15309728671454
 20
176.050083763654
 30
0.0
 10
85.15309728671454
 20
176.1621086944335
 30
0.0
 10
85.05047844084876
 20
176.2529228440629
 30
0.0
 10
84.92389167929514
 20
176.2529228440629
 30
0.0
  0
LINE
  5
DC
330
BA
100
AcDbEntity
  8
Sichtbar schmal (ISO)
 62
    18
420
        0
370
     5
100
AcDbLine
 10
85.15309728671454
 20
175.8776705453063
 30
0.0
 11
85.15309728671454
 21
176.050083763654
 31
0.0
  0
SPLINE
  5
DD
330
BA
100
AcDbEntity
  8
Sichtbar schmal (ISO)
 62
    18
420
        0
370
     5
100
AcDbSpline
210
0.0
220
0.0
230
1.0
 70
     8
 71
     3
 72
     8
 73
     4
 74
     0
 42
0.0000000001
 43
0.0000000001
 40
0.0
 40
0.0
 40
0.0
 40
0.0
 40
1.0
 40
1.0
 40
1.0
 40
1.0
 10
84.92389167929514
 20
175.6748314648971
 30
0.0
 10
85.05047844084876
 20
175.6748314648971
 30
0.0
 10
85.15309728671454
 20
175.7656456145265
 30
0.0
 10
85.15309728671454
 20
175.8776705453063
 30
0.0
  0
LINE
  5
DE
330
BA
100
AcDbEntity
  8
Sichtbar schmal (ISO)
 62
    18
420
        0
370
     5
100
AcDbLine
 10
82.41409027805342
 20
175.6748314648971
 30
0.0
 11
84.92389167929514
 21
175.6748314648971
 31
0.0
  0
LINE
  5
DF
330
BA
100
AcDbEntity
  8
Sichtbar schmal (ISO)
 62
    18
420
        0
370
     5
100
AcDbLine
 10
82.41409027805342
 20
175.8776705453063
 30
0.0
 11
82.41409027805342
 21
175.6748314648971
 31
0.0
  0
LINE
  5
E0
330
BA
100
AcDbEntity
  8
Sichtbar schmal (ISO)
 62
    18
420
        0
370
     5
100
AcDbLine
 10
81.01593607279571
 20
175.8776705453063
 30
0.0
 11
82.41409027805342
 21
175.8776705453063
 31
0.0
  0
LINE
  5
E1
330
BA
100
AcDbEntity
  8
Sichtbar schmal (ISO)
 62
    18
420
        0
370
     5
100
AcDbLine
 10
81.01593607279571
 20
175.6748314648971
 30
0.0
 11
81.01593607279571
 21
175.8776705453063
 31
0.0
  0
LINE
  5
E2
330
BA
100
AcDbEntity
  8
Sichtbar schmal (ISO)
 62
    18
420
        0
370
     5
100
AcDbLine
 10
78.50613467155397
 20
175.6748314648971
 30
0.0
 11
81.01593607279571
 21
175.6748314648971
 31
0.0
  0
SPLINE
  5
E3
330
BA
100
AcDbEntity
  8
Sichtbar schmal (ISO)
 62
    18
420
        0
370
     5
100
AcDbSpline
210
0.0
220
0.0
230
1.0
 70
     8
 71
     3
 72
     8
 73
     4
 74
     0
 42
0.0000000001
 43
0.0000000001
 40
0.0
 40
0.0
 40
0.0
 40
0.0
 40
1.0
 40
1.0
 40
1.0
 40
1.0
 10
78.27692906413457
 20
175.8776705453063
 30
0.0
 10
78.27692906413457
 20
175.7656456145265
 30
0.0
 10
78.37954791000036
 20
175.6748314648971
 30
0.0
 10
78.50613467155397
 20
175.6748314648971
 30
0.0
  0
LINE
  5
E4
330
BA
100
AcDbEntity
  8
Sichtbar schmal (ISO)
 62
    18
420
        0
370
     5
100
AcDbLine
 10
78.27692906413457
 20
176.050083763654
 30
0.0
 11
78.27692906413457
 21
175.8776705453063
 31
0.0
  0
SPLINE
  5
E5
330
BA
100
AcDbEntity
  8
Sichtbar schmal (ISO)
 62
    18
420
        0
370
     5
100
AcDbSpline
210
0.0
220
0.0
230
1.0
 70
     8
 71
     3
 72
     8
 73
     4
 74
     0
 42
0.0000000001
 43
0.0000000001
 40
0.0
 40
0.0
 40
0.0
 40
0.0
 40
1.0
 40
1.0
 40
1.0
 40
1.0
 10
78.50613467155397
 20
176.2529228440629
 30
0.0
 10
78.37954791000036
 20
176.2529228440629
 30
0.0
 10
78.27692906413457
 20
176.1621086944335
 30
0.0
 10
78.27692906413457
 20
176.050083763654
 30
0.0
  0
LINE
  5
E6
330
BA
100
AcDbEntity
  8
Sichtbar schmal (ISO)
 62
    18
420
        0
370
     5
100
AcDbLine
 10
81.0273963531665
 20
176.2529228440629
 30
0.0
 11
78.50613467155397
 21
176.2529228440629
 31
0.0
  0
LINE
  5
E7
330
BA
100
AcDbEntity
  8
Sichtbar schmal (ISO)
 62
    18
420
        0
370
     5
100
AcDbLine
 10
81.0273963531665
 20
176.3543423842675
 30
0.0
 11
81.0273963531665
 21
176.2529228440629
 31
0.0
  0
LINE
  5
E8
330
BA
100
AcDbEntity
  8
Sichtbar schmal (ISO)
 62
    18
420
        0
370
     5
100
AcDbLine
 10
80.92335094277382
 20
176.3543423842675
 30
0.0
 11
81.0273963531665
 21
176.3543423842675
 31
0.0
  0
LINE
  5
E9
330
BA
100
AcDbEntity
  8
Sichtbar schmal (ISO)
 62
    18
420
        0
370
     5
100
AcDbLine
 10
76.52593085387173
 20
178.2813136481535
 30
0.0
 11
76.52593085387173
 21
178.3827331883581
 31
0.0
  0
LINE
  5
EA
330
BA
100
AcDbEntity
  8
Sichtbar schmal (ISO)
 62
    18
420
        0
370
     5
100
AcDbLine
 10
76.52593085387173
 20
178.2813136481535
 30
0.0
 11
76.52593085387173
 21
170.0663308915865
 31
0.0
  0
LINE
  5
EB
330
BA
100
AcDbEntity
  8
Sichtbar schmal (ISO)
 62
    18
420
        0
370
     5
100
AcDbLine
 10
76.85585429813463
 20
170.0663308915865
 30
0.0
 11
76.52593085387173
 21
170.0663308915865
 31
0.0
  0
LINE
  5
EC
330
BA
100
AcDbEntity
  8
Sichtbar schmal (ISO)
 62
    18
420
        0
370
     5
100
AcDbLine
 10
82.41409027805342
 20
171.0095326154886
 30
0.0
 11
82.41409027805342
 21
170.80669353508
 31
0.0
  0
LINE
  5
ED
330
BA
100
AcDbEntity
  8
Sichtbar schmal (ISO)
 62
    18
420
        0
370
     5
100
AcDbLine
 10
81.01593607279571
 20
171.0095326154886
 30
0.0
 11
82.41409027805342
 21
171.0095326154886
 31
0.0
  0
LINE
  5
EE
330
BA
100
AcDbEntity
  8
Sichtbar schmal (ISO)
 62
    18
420
        0
370
     5
100
AcDbLine
 10
81.01593607279571
 20
170.80669353508
 30
0.0
 11
81.01593607279571
 21
171.0095326154886
 31
0.0
  0
LINE
  5
EF
330
BA
100
AcDbEntity
  8
Sichtbar schmal (ISO)
 62
    18
420
        0
370
     5
100
AcDbLine
 10
78.50613467155397
 20
170.80669353508
 30
0.0
 11
81.01593607279571
 21
170.80669353508
 31
0.0
  0
SPLINE
  5
F0
330
BA
100
AcDbEntity
  8
Sichtbar schmal (ISO)
 62
    18
420
        0
370
     5
100
AcDbSpline
210
0.0
220
0.0
230
1.0
 70
     8
 71
     3
 72
     8
 73
     4
 74
     0
 42
0.0000000001
 43
0.0000000001
 40
0.0
 40
0.0
 40
0.0
 40
0.0
 40
1.0
 40
1.0
 40
1.0
 40
1.0
 10
78.27692906413457
 20
171.0095326154886
 30
0.0
 10
78.27692906413457
 20
170.8975076847088
 30
0.0
 10
78.37954791000036
 20
170.80669353508
 30
0.0
 10
78.50613467155397
 20
170.80669353508
 30
0.0
  0
LINE
  5
F1
330
BA
100
AcDbEntity
  8
Sichtbar schmal (ISO)
 62
    18
420
        0
370
     5
100
AcDbLine
 10
78.27692906413457
 20
171.1819458338363
 30
0.0
 11
78.27692906413457
 21
171.0095326154886
 31
0.0
  0
SPLINE
  5
F2
330
BA
100
AcDbEntity
  8
Sichtbar schmal (ISO)
 62
    18
420
        0
370
     5
100
AcDbSpline
210
0.0
220
0.0
230
1.0
 70
     8
 71
     3
 72
     8
 73
     4
 74
     0
 42
0.0000000001
 43
0.0000000001
 40
0.0
 40
0.0
 40
0.0
 40
0.0
 40
1.0
 40
1.0
 40
1.0
 40
1.0
 10
78.50613467155397
 20
171.3847849142455
 30
0.0
 10
78.37954791000036
 20
171.3847849142455
 30
0.0
 10
78.27692906413457
 20
171.2939707646167
 30
0.0
 10
78.27692906413457
 20
171.1819458338363
 30
0.0
  0
LINE
  5
F3
330
BA
100
AcDbEntity
  8
Sichtbar schmal (ISO)
 62
    18
420
        0
370
     5
100
AcDbLine
 10
81.0273963531665
 20
171.3847849142455
 30
0.0
 11
78.50613467155397
 21
171.3847849142455
 31
0.0
  0
LINE
  5
F4
330
BA
100
AcDbEntity
  8
Sichtbar schmal (ISO)
 62
    18
420
        0
370
     5
100
AcDbLine
 10
81.0273963531665
 20
171.5876239946547
 30
0.0
 11
81.0273963531665
 21
171.3847849142455
 31
0.0
  0
LINE
  5
F5
330
BA
100
AcDbEntity
  8
Sichtbar schmal (ISO)
 62
    18
420
        0
370
     5
100
AcDbLine
 10
82.40262999768262
 20
171.5876239946547
 30
0.0
 11
81.0273963531665
 21
171.5876239946547
 31
0.0
  0
LINE
  5
F6
330
BA
100
AcDbEntity
  8
Sichtbar schmal (ISO)
 62
    18
420
        0
370
     5
100
AcDbLine
 10
82.40262999768262
 20
171.3847849142455
 30
0.0
 11
82.40262999768262
 21
171.5876239946547
 31
0.0
  0
LINE
  5
F7
330
BA
100
AcDbEntity
  8
Sichtbar schmal (ISO)
 62
    18
420
        0
370
     5
100
AcDbLine
 10
84.92389167929514
 20
171.3847849142455
 30
0.0
 11
82.40262999768262
 21
171.3847849142455
 31
0.0
  0
SPLINE
  5
F8
330
BA
100
AcDbEntity
  8
Sichtbar schmal (ISO)
 62
    18
420
        0
370
     5
100
AcDbSpline
210
0.0
220
0.0
230
1.0
 70
     8
 71
     3
 72
     8
 73
     4
 74
     0
 42
0.0000000001
 43
0.0000000001
 40
0.0
 40
0.0
 40
0.0
 40
0.0
 40
1.0
 40
1.0
 40
1.0
 40
1.0
 10
85.15309728671454
 20
171.1819458338363
 30
0.0
 10
85.15309728671454
 20
171.2939707646167
 30
0.0
 10
85.05047844084876
 20
171.3847849142455
 30
0.0
 10
84.92389167929514
 20
171.3847849142455
 30
0.0
  0
LINE
  5
F9
330
BA
100
AcDbEntity
  8
Sichtbar schmal (ISO)
 62
    18
420
        0
370
     5
100
AcDbLine
 10
85.15309728671454
 20
171.0095326154886
 30
0.0
 11
85.15309728671454
 21
171.1819458338363
 31
0.0
  0
SPLINE
  5
FA
330
BA
100
AcDbEntity
  8
Sichtbar schmal (ISO)
 62
    18
420
        0
370
     5
100
AcDbSpline
210
0.0
220
0.0
230
1.0
 70
     8
 71
     3
 72
     8
 73
     4
 74
     0
 42
0.0000000001
 43
0.0000000001
 40
0.0
 40
0.0
 40
0.0
 40
0.0
 40
1.0
 40
1.0
 40
1.0
 40
1.0
 10
84.92389167929514
 20
170.80669353508
 30
0.0
 10
85.05047844084876
 20
170.80669353508
 30
0.0
 10
85.15309728671454
 20
170.8975076847088
 30
0.0
 10
85.15309728671454
 20
171.0095326154886
 30
0.0
  0
LINE
  5
FB
330
BA
100
AcDbEntity
  8
Sichtbar schmal (ISO)
 62
    18
420
        0
370
     5
100
AcDbLine
 10
82.41409027805342
 20
170.80669353508
 30
0.0
 11
84.92389167929514
 21
170.80669353508
 31
0.0
  0
LINE
  5
FC
330
BA
100
AcDbEntity
  8
Sichtbar schmal (ISO)
 62
    18
420
        0
370
     5
100
AcDbLine
 10
82.41409027805342
 20
172.2265670979433
 30
0.0
 11
82.41409027805342
 21
172.023728017534
 31
0.0
  0
LINE
  5
FD
330
BA
100
AcDbEntity
  8
Sichtbar schmal (ISO)
 62
    18
420
        0
370
     5
100
AcDbLine
 10
81.01593607279571
 20
172.2265670979433
 30
0.0
 11
82.41409027805342
 21
172.2265670979433
 31
0.0
  0
LINE
  5
FE
330
BA
100
AcDbEntity
  8
Sichtbar schmal (ISO)
 62
    18
420
        0
370
     5
100
AcDbLine
 10
81.01593607279571
 20
172.023728017534
 30
0.0
 11
81.01593607279571
 21
172.2265670979433
 31
0.0
  0
LINE
  5
FF
330
BA
100
AcDbEntity
  8
Sichtbar schmal (ISO)
 62
    18
420
        0
370
     5
100
AcDbLine
 10
78.50613467155397
 20
172.023728017534
 30
0.0
 11
81.01593607279571
 21
172.023728017534
 31
0.0
  0
SPLINE
  5
100
330
BA
100
AcDbEntity
  8
Sichtbar schmal (ISO)
 62
    18
420
        0
370
     5
100
AcDbSpline
210
0.0
220
0.0
230
1.0
 70
     8
 71
     3
 72
     8
 73
     4
 74
     0
 42
0.0000000001
 43
0.0000000001
 40
0.0
 40
0.0
 40
0.0
 40
0.0
 40
1.0
 40
1.0
 40
1.0
 40
1.0
 10
78.27692906413457
 20
172.2265670979433
 30
0.0
 10
78.27692906413457
 20
172.1145421671638
 30
0.0
 10
78.37954791000036
 20
172.023728017534
 30
0.0
 10
78.50613467155397
 20
172.023728017534
 30
0.0
  0
LINE
  5
101
330
BA
100
AcDbEntity
  8
Sichtbar schmal (ISO)
 62
    18
420
        0
370
     5
100
AcDbLine
 10
78.27692906413457
 20
172.3989803162909
 30
0.0
 11
78.27692906413457
 21
172.2265670979433
 31
0.0
  0
SPLINE
  5
102
330
BA
100
AcDbEntity
  8
Sichtbar schmal (ISO)
 62
    18
420
        0
370
     5
100
AcDbSpline
210
0.0
220
0.0
230
1.0
 70
     8
 71
     3
 72
     8
 73
     4
 74
     0
 42
0.0000000001
 43
0.0000000001
 40
0.0
 40
0.0
 40
0.0
 40
0.0
 40
1.0
 40
1.0
 40
1.0
 40
1.0
 10
78.50613467155397
 20
172.6018193967002
 30
0.0
 10
78.37954791000036
 20
172.6018193967002
 30
0.0
 10
78.27692906413457
 20
172.5110052470708
 30
0.0
 10
78.27692906413457
 20
172.3989803162909
 30
0.0
  0
LINE
  5
103
330
BA
100
AcDbEntity
  8
Sichtbar schmal (ISO)
 62
    18
420
        0
370
     5
100
AcDbLine
 10
81.0273963531665
 20
172.6018193967002
 30
0.0
 11
78.50613467155397
 21
172.6018193967002
 31
0.0
  0
LINE
  5
104
330
BA
100
AcDbEntity
  8
Sichtbar schmal (ISO)
 62
    18
420
        0
370
     5
100
AcDbLine
 10
81.0273963531665
 20
172.8046584771087
 30
0.0
 11
81.0273963531665
 21
172.6018193967002
 31
0.0
  0
LINE
  5
105
330
BA
100
AcDbEntity
  8
Sichtbar schmal (ISO)
 62
    18
420
        0
370
     5
100
AcDbLine
 10
82.40262999768262
 20
172.8046584771087
 30
0.0
 11
81.0273963531665
 21
172.8046584771087
 31
0.0
  0
LINE
  5
106
330
BA
100
AcDbEntity
  8
Sichtbar schmal (ISO)
 62
    18
420
        0
370
     5
100
AcDbLine
 10
82.40262999768262
 20
172.6018193967002
 30
0.0
 11
82.40262999768262
 21
172.8046584771087
 31
0.0
  0
LINE
  5
107
330
BA
100
AcDbEntity
  8
Sichtbar schmal (ISO)
 62
    18
420
        0
370
     5
100
AcDbLine
 10
84.92389167929514
 20
172.6018193967002
 30
0.0
 11
82.40262999768262
 21
172.6018193967002
 31
0.0
  0
SPLINE
  5
108
330
BA
100
AcDbEntity
  8
Sichtbar schmal (ISO)
 62
    18
420
        0
370
     5
100
AcDbSpline
210
0.0
220
0.0
230
1.0
 70
     8
 71
     3
 72
     8
 73
     4
 74
     0
 42
0.0000000001
 43
0.0000000001
 40
0.0
 40
0.0
 40
0.0
 40
0.0
 40
1.0
 40
1.0
 40
1.0
 40
1.0
 10
85.15309728671454
 20
172.3989803162909
 30
0.0
 10
85.15309728671454
 20
172.5110052470708
 30
0.0
 10
85.05047844084876
 20
172.6018193967002
 30
0.0
 10
84.92389167929514
 20
172.6018193967002
 30
0.0
  0
LINE
  5
109
330
BA
100
AcDbEntity
  8
Sichtbar schmal (ISO)
 62
    18
420
        0
370
     5
100
AcDbLine
 10
85.15309728671454
 20
172.2265670979433
 30
0.0
 11
85.15309728671454
 21
172.3989803162909
 31
0.0
  0
SPLINE
  5
10A
330
BA
100
AcDbEntity
  8
Sichtbar schmal (ISO)
 62
    18
420
        0
370
     5
100
AcDbSpline
210
0.0
220
0.0
230
1.0
 70
     8
 71
     3
 72
     8
 73
     4
 74
     0
 42
0.0000000001
 43
0.0000000001
 40
0.0
 40
0.0
 40
0.0
 40
0.0
 40
1.0
 40
1.0
 40
1.0
 40
1.0
 10
84.92389167929514
 20
172.023728017534
 30
0.0
 10
85.05047844084876
 20
172.023728017534
 30
0.0
 10
85.15309728671454
 20
172.1145421671638
 30
0.0
 10
85.15309728671454
 20
172.2265670979433
 30
0.0
  0
LINE
  5
10B
330
BA
100
AcDbEntity
  8
Sichtbar schmal (ISO)
 62
    18
420
        0
370
     5
100
AcDbLine
 10
82.41409027805342
 20
172.023728017534
 30
0.0
 11
84.92389167929514
 21
172.023728017534
 31
0.0
  0
LINE
  5
10C
330
BA
100
AcDbEntity
  8
Sichtbar schmal (ISO)
 62
    18
420
        0
370
     5
100
AcDbLine
 10
82.41409027805342
 20
173.4436015803973
 30
0.0
 11
82.41409027805342
 21
173.2407624999884
 31
0.0
  0
LINE
  5
10D
330
BA
100
AcDbEntity
  8
Sichtbar schmal (ISO)
 62
    18
420
        0
370
     5
100
AcDbLine
 10
81.01593607279571
 20
173.4436015803973
 30
0.0
 11
82.41409027805342
 21
173.4436015803973
 31
0.0
  0
LINE
  5
10E
330
BA
100
AcDbEntity
  8
Sichtbar schmal (ISO)
 62
    18
420
        0
370
     5
100
AcDbLine
 10
81.01593607279571
 20
173.2407624999884
 30
0.0
 11
81.01593607279571
 21
173.4436015803973
 31
0.0
  0
LINE
  5
10F
330
BA
100
AcDbEntity
  8
Sichtbar schmal (ISO)
 62
    18
420
        0
370
     5
100
AcDbLine
 10
78.50613467155397
 20
173.2407624999884
 30
0.0
 11
81.01593607279571
 21
173.2407624999884
 31
0.0
  0
SPLINE
  5
110
330
BA
100
AcDbEntity
  8
Sichtbar schmal (ISO)
 62
    18
420
        0
370
     5
100
AcDbSpline
210
0.0
220
0.0
230
1.0
 70
     8
 71
     3
 72
     8
 73
     4
 74
     0
 42
0.0000000001
 43
0.0000000001
 40
0.0
 40
0.0
 40
0.0
 40
0.0
 40
1.0
 40
1.0
 40
1.0
 40
1.0
 10
78.27692906413457
 20
173.4436015803973
 30
0.0
 10
78.27692906413457
 20
173.3315766496178
 30
0.0
 10
78.37954791000036
 20
173.2407624999884
 30
0.0
 10
78.50613467155397
 20
173.2407624999884
 30
0.0
  0
LINE
  5
111
330
BA
100
AcDbEntity
  8
Sichtbar schmal (ISO)
 62
    18
420
        0
370
     5
100
AcDbLine
 10
78.27692906413457
 20
173.616014798745
 30
0.0
 11
78.27692906413457
 21
173.4436015803973
 31
0.0
  0
SPLINE
  5
112
330
BA
100
AcDbEntity
  8
Sichtbar schmal (ISO)
 62
    18
420
        0
370
     5
100
AcDbSpline
210
0.0
220
0.0
230
1.0
 70
     8
 71
     3
 72
     8
 73
     4
 74
     0
 42
0.0000000001
 43
0.0000000001
 40
0.0
 40
0.0
 40
0.0
 40
0.0
 40
1.0
 40
1.0
 40
1.0
 40
1.0
 10
78.50613467155397
 20
173.8188538791542
 30
0.0
 10
78.37954791000036
 20
173.8188538791542
 30
0.0
 10
78.27692906413457
 20
173.7280397295251
 30
0.0
 10
78.27692906413457
 20
173.616014798745
 30
0.0
  0
LINE
  5
113
330
BA
100
AcDbEntity
  8
Sichtbar schmal (ISO)
 62
    18
420
        0
370
     5
100
AcDbLine
 10
81.0273963531665
 20
173.8188538791542
 30
0.0
 11
78.50613467155397
 21
173.8188538791542
 31
0.0
  0
LINE
  5
114
330
BA
100
AcDbEntity
  8
Sichtbar schmal (ISO)
 62
    18
420
        0
370
     5
100
AcDbLine
 10
81.0273963531665
 20
174.0216929595634
 30
0.0
 11
81.0273963531665
 21
173.8188538791542
 31
0.0
  0
LINE
  5
115
330
BA
100
AcDbEntity
  8
Sichtbar schmal (ISO)
 62
    18
420
        0
370
     5
100
AcDbLine
 10
82.40262999768262
 20
174.0216929595634
 30
0.0
 11
81.0273963531665
 21
174.0216929595634
 31
0.0
  0
LINE
  5
116
330
BA
100
AcDbEntity
  8
Sichtbar schmal (ISO)
 62
    18
420
        0
370
     5
100
AcDbLine
 10
82.40262999768262
 20
173.8188538791542
 30
0.0
 11
82.40262999768262
 21
174.0216929595634
 31
0.0
  0
LINE
  5
117
330
BA
100
AcDbEntity
  8
Sichtbar schmal (ISO)
 62
    18
420
        0
370
     5
100
AcDbLine
 10
84.92389167929514
 20
173.8188538791542
 30
0.0
 11
82.40262999768262
 21
173.8188538791542
 31
0.0
  0
SPLINE
  5
118
330
BA
100
AcDbEntity
  8
Sichtbar schmal (ISO)
 62
    18
420
        0
370
     5
100
AcDbSpline
210
0.0
220
0.0
230
1.0
 70
     8
 71
     3
 72
     8
 73
     4
 74
     0
 42
0.0000000001
 43
0.0000000001
 40
0.0
 40
0.0
 40
0.0
 40
0.0
 40
1.0
 40
1.0
 40
1.0
 40
1.0
 10
85.15309728671454
 20
173.616014798745
 30
0.0
 10
85.15309728671454
 20
173.7280397295251
 30
0.0
 10
85.05047844084876
 20
173.8188538791542
 30
0.0
 10
84.92389167929514
 20
173.8188538791542
 30
0.0
  0
LINE
  5
119
330
BA
100
AcDbEntity
  8
Sichtbar schmal (ISO)
 62
    18
420
        0
370
     5
100
AcDbLine
 10
85.15309728671454
 20
173.4436015803973
 30
0.0
 11
85.15309728671454
 21
173.616014798745
 31
0.0
  0
SPLINE
  5
11A
330
BA
100
AcDbEntity
  8
Sichtbar schmal (ISO)
 62
    18
420
        0
370
     5
100
AcDbSpline
210
0.0
220
0.0
230
1.0
 70
     8
 71
     3
 72
     8
 73
     4
 74
     0
 42
0.0000000001
 43
0.0000000001
 40
0.0
 40
0.0
 40
0.0
 40
0.0
 40
1.0
 40
1.0
 40
1.0
 40
1.0
 10
84.92389167929514
 20
173.2407624999884
 30
0.0
 10
85.05047844084876
 20
173.2407624999884
 30
0.0
 10
85.15309728671454
 20
173.3315766496178
 30
0.0
 10
85.15309728671454
 20
173.4436015803973
 30
0.0
  0
LINE
  5
11B
330
BA
100
AcDbEntity
  8
Sichtbar schmal (ISO)
 62
    18
420
        0
370
     5
100
AcDbLine
 10
82.41409027805342
 20
173.2407624999884
 30
0.0
 11
84.92389167929514
 21
173.2407624999884
 31
0.0
  0
LINE
  5
11C
330
BA
100
AcDbEntity
  8
Sichtbar schmal (ISO)
 62
    18
420
        0
370
     5
100
AcDbLine
 10
82.41409027805342
 20
174.660636062852
 30
0.0
 11
82.41409027805342
 21
174.4577969824424
 31
0.0
  0
LINE
  5
11D
330
BA
100
AcDbEntity
  8
Sichtbar schmal (ISO)
 62
    18
420
        0
370
     5
100
AcDbLine
 10
81.01593607279571
 20
174.660636062852
 30
0.0
 11
82.41409027805342
 21
174.660636062852
 31
0.0
  0
LINE
  5
11E
330
BA
100
AcDbEntity
  8
Sichtbar schmal (ISO)
 62
    18
420
        0
370
     5
100
AcDbLine
 10
81.01593607279571
 20
174.4577969824424
 30
0.0
 11
81.01593607279571
 21
174.660636062852
 31
0.0
  0
LINE
  5
11F
330
BA
100
AcDbEntity
  8
Sichtbar schmal (ISO)
 62
    18
420
        0
370
     5
100
AcDbLine
 10
78.50613467155397
 20
174.4577969824424
 30
0.0
 11
81.01593607279571
 21
174.4577969824424
 31
0.0
  0
SPLINE
  5
120
330
BA
100
AcDbEntity
  8
Sichtbar schmal (ISO)
 62
    18
420
        0
370
     5
100
AcDbSpline
210
0.0
220
0.0
230
1.0
 70
     8
 71
     3
 72
     8
 73
     4
 74
     0
 42
0.0000000001
 43
0.0000000001
 40
0.0
 40
0.0
 40
0.0
 40
0.0
 40
1.0
 40
1.0
 40
1.0
 40
1.0
 10
78.27692906413457
 20
174.660636062852
 30
0.0
 10
78.27692906413457
 20
174.5486111320722
 30
0.0
 10
78.37954791000036
 20
174.4577969824424
 30
0.0
 10
78.50613467155397
 20
174.4577969824424
 30
0.0
  0
LINE
  5
121
330
BA
100
AcDbEntity
  8
Sichtbar schmal (ISO)
 62
    18
420
        0
370
     5
100
AcDbLine
 10
78.27692906413457
 20
174.8330492811996
 30
0.0
 11
78.27692906413457
 21
174.660636062852
 31
0.0
  0
SPLINE
  5
122
330
BA
100
AcDbEntity
  8
Sichtbar schmal (ISO)
 62
    18
420
        0
370
     5
100
AcDbSpline
210
0.0
220
0.0
230
1.0
 70
     8
 71
     3
 72
     8
 73
     4
 74
     0
 42
0.0000000001
 43
0.0000000001
 40
0.0
 40
0.0
 40
0.0
 40
0.0
 40
1.0
 40
1.0
 40
1.0
 40
1.0
 10
78.50613467155397
 20
175.0358883616086
 30
0.0
 10
78.37954791000036
 20
175.0358883616086
 30
0.0
 10
78.27692906413457
 20
174.9450742119791
 30
0.0
 10
78.27692906413457
 20
174.8330492811996
 30
0.0
  0
LINE
  5
123
330
BA
100
AcDbEntity
  8
Sichtbar schmal (ISO)
 62
    18
420
        0
370
     5
100
AcDbLine
 10
81.0273963531665
 20
175.0358883616086
 30
0.0
 11
78.50613467155397
 21
175.0358883616086
 31
0.0
  0
LINE
  5
124
330
BA
100
AcDbEntity
  8
Sichtbar schmal (ISO)
 62
    18
420
        0
370
     5
100
AcDbLine
 10
81.0273963531665
 20
175.2387274420178
 30
0.0
 11
81.0273963531665
 21
175.0358883616086
 31
0.0
  0
LINE
  5
125
330
BA
100
AcDbEntity
  8
Sichtbar schmal (ISO)
 62
    18
420
        0
370
     5
100
AcDbLine
 10
82.40262999768262
 20
175.2387274420178
 30
0.0
 11
81.0273963531665
 21
175.2387274420178
 31
0.0
  0
LINE
  5
126
330
BA
100
AcDbEntity
  8
Sichtbar schmal (ISO)
 62
    18
420
        0
370
     5
100
AcDbLine
 10
82.40262999768262
 20
175.0358883616086
 30
0.0
 11
82.40262999768262
 21
175.2387274420178
 31
0.0
  0
LINE
  5
127
330
BA
100
AcDbEntity
  8
Sichtbar schmal (ISO)
 62
    18
420
        0
370
     5
100
AcDbLine
 10
84.92389167929514
 20
175.0358883616086
 30
0.0
 11
82.40262999768262
 21
175.0358883616086
 31
0.0
  0
SPLINE
  5
128
330
BA
100
AcDbEntity
  8
Sichtbar schmal (ISO)
 62
    18
420
        0
370
     5
100
AcDbSpline
210
0.0
220
0.0
230
1.0
 70
     8
 71
     3
 72
     8
 73
     4
 74
     0
 42
0.0000000001
 43
0.0000000001
 40
0.0
 40
0.0
 40
0.0
 40
0.0
 40
1.0
 40
1.0
 40
1.0
 40
1.0
 10
85.15309728671454
 20
174.8330492811996
 30
0.0
 10
85.15309728671454
 20
174.9450742119791
 30
0.0
 10
85.05047844084876
 20
175.0358883616086
 30
0.0
 10
84.92389167929514
 20
175.0358883616086
 30
0.0
  0
LINE
  5
129
330
BA
100
AcDbEntity
  8
Sichtbar schmal (ISO)
 62
    18
420
        0
370
     5
100
AcDbLine
 10
85.15309728671454
 20
174.660636062852
 30
0.0
 11
85.15309728671454
 21
174.8330492811996
 31
0.0
  0
SPLINE
  5
12A
330
BA
100
AcDbEntity
  8
Sichtbar schmal (ISO)
 62
    18
420
        0
370
     5
100
AcDbSpline
210
0.0
220
0.0
230
1.0
 70
     8
 71
     3
 72
     8
 73
     4
 74
     0
 42
0.0000000001
 43
0.0000000001
 40
0.0
 40
0.0
 40
0.0
 40
0.0
 40
1.0
 40
1.0
 40
1.0
 40
1.0
 10
84.92389167929514
 20
174.4577969824424
 30
0.0
 10
85.05047844084876
 20
174.4577969824424
 30
0.0
 10
85.15309728671454
 20
174.5486111320722
 30
0.0
 10
85.15309728671454
 20
174.660636062852
 30
0.0
  0
LINE
  5
12B
330
BA
100
AcDbEntity
  8
Sichtbar schmal (ISO)
 62
    18
420
        0
370
     5
100
AcDbLine
 10
82.41409027805342
 20
174.4577969824424
 30
0.0
 11
84.92389167929514
 21
174.4577969824424
 31
0.0
  0
LINE
  5
12C
330
BA
100
AcDbEntity
  8
Sichtbar schmal (ISO)
 62
    18
420
        0
370
     5
100
AcDbLine
 10
87.33055055719811
 20
172.6626711208226
 30
0.0
 11
86.18452252010172
 21
172.6626711208226
 31
0.0
  0
LINE
  5
12D
330
BA
100
AcDbEntity
  8
Sichtbar schmal (ISO)
 62
    18
420
        0
370
     5
100
AcDbLine
 10
86.18452252010172
 20
171.0399584775501
 30
0.0
 11
87.33055055719811
 21
171.0399584775501
 31
0.0
  0
LINE
  5
12E
330
BA
100
AcDbEntity
  8
Sichtbar schmal (ISO)
 62
    18
420
        0
370
     5
100
AcDbLine
 10
87.33055055719811
 20
170.0663308915865
 30
0.0
 11
86.18452252010172
 21
170.0663308915865
 31
0.0
  0
LINE
  5
12F
330
BA
100
AcDbEntity
  8
Sichtbar schmal (ISO)
 62
    18
420
        0
370
     5
100
AcDbLine
 10
94.43592438719749
 20
171.0399584775501
 30
0.0
 11
93.28989635010078
 21
171.0399584775501
 31
0.0
  0
LINE
  5
130
330
BA
100
AcDbEntity
  8
Sichtbar schmal (ISO)
 62
    18
420
        0
370
     5
100
AcDbLine
 10
93.28989635010078
 20
170.0663308915865
 30
0.0
 11
94.43592438719749
 21
170.0663308915865
 31
0.0
  0
LINE
  5
131
330
BA
100
AcDbEntity
  8
Sichtbar schmal (ISO)
 62
    18
420
        0
370
     5
100
AcDbLine
 10
93.28989635010078
 20
172.6626711208226
 30
0.0
 11
94.43592438719749
 21
172.6626711208226
 31
0.0
  0
LINE
  5
132
330
BA
100
AcDbEntity
  8
Sichtbar schmal (ISO)
 62
    18
420
        0
370
     5
100
AcDbLine
 10
103.7645926091645
 20
176.9628596254948
 30
0.0
 11
103.7645926091645
 21
170.0663308915865
 31
0.0
  0
LINE
  5
133
330
BA
100
AcDbEntity
  8
Sichtbar schmal (ISO)
 62
    18
420
        0
370
     5
100
AcDbLine
 10
103.7645926091645
 20
170.0663308915865
 30
0.0
 11
104.0945160534278
 21
170.0663308915865
 31
0.0
  0
LINE
  5
134
330
BA
100
AcDbEntity
  8
Sichtbar schmal (ISO)
 62
    18
420
        0
370
     5
100
AcDbLine
 10
104.0945160534278
 20
178.2813136481535
 30
0.0
 11
104.0945160534278
 21
170.0663308915865
 31
0.0
  0
LINE
  5
135
330
BA
100
AcDbEntity
  8
Sichtbar schmal (ISO)
 62
    18
420
        0
370
     5
100
AcDbLine
 10
104.0945160534278
 20
178.2813136481535
 30
0.0
 11
104.0945160534278
 21
178.3827331883581
 31
0.0
  0
LINE
  5
136
330
BA
100
AcDbEntity
  8
Sichtbar schmal (ISO)
 62
    18
420
        0
370
     5
100
AcDbLine
 10
99.69709596452538
 20
176.3543423842675
 30
0.0
 11
99.69709596452538
 21
176.9628596254948
 31
0.0
  0
LINE
  5
137
330
BA
100
AcDbEntity
  8
Sichtbar schmal (ISO)
 62
    18
420
        0
370
     5
100
AcDbLine
 10
99.69709596452538
 20
176.3543423842675
 30
0.0
 11
99.5930505541327
 21
176.3543423842675
 31
0.0
  0
LINE
  5
138
330
BA
100
AcDbEntity
  8
Sichtbar schmal (ISO)
 62
    18
420
        0
370
     5
100
AcDbLine
 10
99.5930505541327
 20
176.3543423842675
 30
0.0
 11
99.5930505541327
 21
176.2529228440629
 31
0.0
  0
LINE
  5
139
330
BA
100
AcDbEntity
  8
Sichtbar schmal (ISO)
 62
    18
420
        0
370
     5
100
AcDbLine
 10
99.5930505541327
 20
176.2529228440629
 30
0.0
 11
102.1143122357452
 21
176.2529228440629
 31
0.0
  0
SPLINE
  5
13A
330
BA
100
AcDbEntity
  8
Sichtbar schmal (ISO)
 62
    18
420
        0
370
     5
100
AcDbSpline
210
0.0
220
0.0
230
1.0
 70
     8
 71
     3
 72
     8
 73
     4
 74
     0
 42
0.0000000001
 43
0.0000000001
 40
0.0
 40
0.0
 40
0.0
 40
0.0
 40
1.0
 40
1.0
 40
1.0
 40
1.0
 10
102.3435178431646
 20
176.050083763654
 30
0.0
 10
102.3435178431646
 20
176.1621086944335
 30
0.0
 10
102.2408989972991
 20
176.2529228440629
 30
0.0
 10
102.1143122357452
 20
176.2529228440629
 30
0.0
  0
LINE
  5
13B
330
BA
100
AcDbEntity
  8
Sichtbar schmal (ISO)
 62
    18
420
        0
370
     5
100
AcDbLine
 10
102.3435178431646
 20
176.050083763654
 30
0.0
 11
102.3435178431646
 21
175.8776705453063
 31
0.0
  0
SPLINE
  5
13C
330
BA
100
AcDbEntity
  8
Sichtbar schmal (ISO)
 62
    18
420
        0
370
     5
100
AcDbSpline
210
0.0
220
0.0
230
1.0
 70
     8
 71
     3
 72
     8
 73
     4
 74
     0
 42
0.0000000001
 43
0.0000000001
 40
0.0
 40
0.0
 40
0.0
 40
0.0
 40
1.0
 40
1.0
 40
1.0
 40
1.0
 10
102.1143122357452
 20
175.6748314648971
 30
0.0
 10
102.2408989972991
 20
175.6748314648971
 30
0.0
 10
102.3435178431646
 20
175.7656456145265
 30
0.0
 10
102.3435178431646
 20
175.8776705453063
 30
0.0
  0
LINE
  5
13D
330
BA
100
AcDbEntity
  8
Sichtbar schmal (ISO)
 62
    18
420
        0
370
     5
100
AcDbLine
 10
102.1143122357452
 20
175.6748314648971
 30
0.0
 11
99.60451083450351
 21
175.6748314648971
 31
0.0
  0
LINE
  5
13E
330
BA
100
AcDbEntity
  8
Sichtbar schmal (ISO)
 62
    18
420
        0
370
     5
100
AcDbLine
 10
99.60451083450351
 20
175.6748314648971
 30
0.0
 11
99.60451083450351
 21
175.8776705453063
 31
0.0
  0
LINE
  5
13F
330
BA
100
AcDbEntity
  8
Sichtbar schmal (ISO)
 62
    18
420
        0
370
     5
100
AcDbLine
 10
99.60451083450351
 20
175.8776705453063
 30
0.0
 11
98.2063566292458
 21
175.8776705453063
 31
0.0
  0
LINE
  5
140
330
BA
100
AcDbEntity
  8
Sichtbar schmal (ISO)
 62
    18
420
        0
370
     5
100
AcDbLine
 10
98.2063566292458
 20
175.8776705453063
 30
0.0
 11
98.2063566292458
 21
175.6748314648971
 31
0.0
  0
LINE
  5
141
330
BA
100
AcDbEntity
  8
Sichtbar schmal (ISO)
 62
    18
420
        0
370
     5
100
AcDbLine
 10
98.2063566292458
 20
175.6748314648971
 30
0.0
 11
95.69655522800408
 21
175.6748314648971
 31
0.0
  0
SPLINE
  5
142
330
BA
100
AcDbEntity
  8
Sichtbar schmal (ISO)
 62
    18
420
        0
370
     5
100
AcDbSpline
210
0.0
220
0.0
230
1.0
 70
     8
 71
     3
 72
     8
 73
     4
 74
     0
 42
0.0000000001
 43
0.0000000001
 40
0.0
 40
0.0
 40
0.0
 40
0.0
 40
1.0
 40
1.0
 40
1.0
 40
1.0
 10
95.46734962058435
 20
175.8776705453063
 30
0.0
 10
95.46734962058435
 20
175.7656456145265
 30
0.0
 10
95.56996846645047
 20
175.6748314648971
 30
0.0
 10
95.69655522800408
 20
175.6748314648971
 30
0.0
  0
LINE
  5
143
330
BA
100
AcDbEntity
  8
Sichtbar schmal (ISO)
 62
    18
420
        0
370
     5
100
AcDbLine
 10
95.46734962058435
 20
175.8776705453063
 30
0.0
 11
95.46734962058435
 21
176.050083763654
 31
0.0
  0
SPLINE
  5
144
330
BA
100
AcDbEntity
  8
Sichtbar schmal (ISO)
 62
    18
420
        0
370
     5
100
AcDbSpline
210
0.0
220
0.0
230
1.0
 70
     8
 71
     3
 72
     8
 73
     4
 74
     0
 42
0.0000000001
 43
0.0000000001
 40
0.0
 40
0.0
 40
0.0
 40
0.0
 40
1.0
 40
1.0
 40
1.0
 40
1.0
 10
95.69655522800408
 20
176.2529228440629
 30
0.0
 10
95.56996846645047
 20
176.2529228440629
 30
0.0
 10
95.46734962058435
 20
176.1621086944335
 30
0.0
 10
95.46734962058435
 20
176.050083763654
 30
0.0
  0
LINE
  5
145
330
BA
100
AcDbEntity
  8
Sichtbar schmal (ISO)
 62
    18
420
        0
370
     5
100
AcDbLine
 10
95.69655522800408
 20
176.2529228440629
 30
0.0
 11
98.21781690961659
 21
176.2529228440629
 31
0.0
  0
LINE
  5
146
330
BA
100
AcDbEntity
  8
Sichtbar schmal (ISO)
 62
    18
420
        0
370
     5
100
AcDbLine
 10
98.21781690961659
 20
176.2529228440629
 30
0.0
 11
98.21781690961659
 21
176.4557619244721
 31
0.0
  0
LINE
  5
147
330
BA
100
AcDbEntity
  8
Sichtbar schmal (ISO)
 62
    18
420
        0
370
     5
100
AcDbLine
 10
98.21781690961659
 20
176.4557619244721
 30
0.0
 11
99.2597995363203
 21
176.4557619244721
 31
0.0
  0
LINE
  5
148
330
BA
100
AcDbEntity
  8
Sichtbar schmal (ISO)
 62
    18
420
        0
370
     5
100
AcDbLine
 10
99.2597995363203
 20
176.4557619244721
 30
0.0
 11
99.2597995363203
 21
176.9628596254948
 31
0.0
  0
LINE
  5
149
330
BA
100
AcDbEntity
  8
Sichtbar schmal (ISO)
 62
    18
420
        0
370
     5
100
AcDbLine
 10
95.3527468168748
 20
170.0663308915865
 30
0.0
 11
103.1457374691324
 21
170.0663308915865
 31
0.0
  0
LINE
  5
14A
330
BA
100
AcDbEntity
  8
Sichtbar schmal (ISO)
 62
    18
420
        0
370
     5
100
AcDbLine
 10
103.1457374691324
 20
176.9628596254948
 30
0.0
 11
103.1457374691324
 21
170.0663308915865
 31
0.0
  0
LINE
  5
14B
330
BA
100
AcDbEntity
  8
Sichtbar schmal (ISO)
 62
    18
420
        0
370
     5
100
AcDbLine
 10
98.2063566292458
 20
174.660636062852
 30
0.0
 11
98.2063566292458
 21
174.4577969824424
 31
0.0
  0
LINE
  5
14C
330
BA
100
AcDbEntity
  8
Sichtbar schmal (ISO)
 62
    18
420
        0
370
     5
100
AcDbLine
 10
98.2063566292458
 20
174.4577969824424
 30
0.0
 11
95.69655522800408
 21
174.4577969824424
 31
0.0
  0
SPLINE
  5
14D
330
BA
100
AcDbEntity
  8
Sichtbar schmal (ISO)
 62
    18
420
        0
370
     5
100
AcDbSpline
210
0.0
220
0.0
230
1.0
 70
     8
 71
     3
 72
     8
 73
     4
 74
     0
 42
0.0000000001
 43
0.0000000001
 40
0.0
 40
0.0
 40
0.0
 40
0.0
 40
1.0
 40
1.0
 40
1.0
 40
1.0
 10
95.46734962058435
 20
174.660636062852
 30
0.0
 10
95.46734962058435
 20
174.5486111320722
 30
0.0
 10
95.56996846645047
 20
174.4577969824424
 30
0.0
 10
95.69655522800408
 20
174.4577969824424
 30
0.0
  0
LINE
  5
14E
330
BA
100
AcDbEntity
  8
Sichtbar schmal (ISO)
 62
    18
420
        0
370
     5
100
AcDbLine
 10
95.46734962058435
 20
174.660636062852
 30
0.0
 11
95.46734962058435
 21
174.8330492811996
 31
0.0
  0
SPLINE
  5
14F
330
BA
100
AcDbEntity
  8
Sichtbar schmal (ISO)
 62
    18
420
        0
370
     5
100
AcDbSpline
210
0.0
220
0.0
230
1.0
 70
     8
 71
     3
 72
     8
 73
     4
 74
     0
 42
0.0000000001
 43
0.0000000001
 40
0.0
 40
0.0
 40
0.0
 40
0.0
 40
1.0
 40
1.0
 40
1.0
 40
1.0
 10
95.69655522800408
 20
175.0358883616086
 30
0.0
 10
95.56996846645047
 20
175.0358883616086
 30
0.0
 10
95.46734962058435
 20
174.9450742119791
 30
0.0
 10
95.46734962058435
 20
174.8330492811996
 30
0.0
  0
LINE
  5
150
330
BA
100
AcDbEntity
  8
Sichtbar schmal (ISO)
 62
    18
420
        0
370
     5
100
AcDbLine
 10
95.69655522800408
 20
175.0358883616086
 30
0.0
 11
98.21781690961659
 21
175.0358883616086
 31
0.0
  0
LINE
  5
151
330
BA
100
AcDbEntity
  8
Sichtbar schmal (ISO)
 62
    18
420
        0
370
     5
100
AcDbLine
 10
98.21781690961659
 20
175.0358883616086
 30
0.0
 11
98.21781690961659
 21
175.2387274420178
 31
0.0
  0
LINE
  5
152
330
BA
100
AcDbEntity
  8
Sichtbar schmal (ISO)
 62
    18
420
        0
370
     5
100
AcDbLine
 10
98.21781690961659
 20
175.2387274420178
 30
0.0
 11
99.5930505541327
 21
175.2387274420178
 31
0.0
  0
LINE
  5
153
330
BA
100
AcDbEntity
  8
Sichtbar schmal (ISO)
 62
    18
420
        0
370
     5
100
AcDbLine
 10
99.5930505541327
 20
175.2387274420178
 30
0.0
 11
99.5930505541327
 21
175.0358883616086
 31
0.0
  0
LINE
  5
154
330
BA
100
AcDbEntity
  8
Sichtbar schmal (ISO)
 62
    18
420
        0
370
     5
100
AcDbLine
 10
99.5930505541327
 20
175.0358883616086
 30
0.0
 11
102.1143122357452
 21
175.0358883616086
 31
0.0
  0
SPLINE
  5
155
330
BA
100
AcDbEntity
  8
Sichtbar schmal (ISO)
 62
    18
420
        0
370
     5
100
AcDbSpline
210
0.0
220
0.0
230
1.0
 70
     8
 71
     3
 72
     8
 73
     4
 74
     0
 42
0.0000000001
 43
0.0000000001
 40
0.0
 40
0.0
 40
0.0
 40
0.0
 40
1.0
 40
1.0
 40
1.0
 40
1.0
 10
102.3435178431646
 20
174.8330492811996
 30
0.0
 10
102.3435178431646
 20
174.9450742119791
 30
0.0
 10
102.2408989972991
 20
175.0358883616086
 30
0.0
 10
102.1143122357452
 20
175.0358883616086
 30
0.0
  0
LINE
  5
156
330
BA
100
AcDbEntity
  8
Sichtbar schmal (ISO)
 62
    18
420
        0
370
     5
100
AcDbLine
 10
102.3435178431646
 20
174.8330492811996
 30
0.0
 11
102.3435178431646
 21
174.660636062852
 31
0.0
  0
SPLINE
  5
157
330
BA
100
AcDbEntity
  8
Sichtbar schmal (ISO)
 62
    18
420
        0
370
     5
100
AcDbSpline
210
0.0
220
0.0
230
1.0
 70
     8
 71
     3
 72
     8
 73
     4
 74
     0
 42
0.0000000001
 43
0.0000000001
 40
0.0
 40
0.0
 40
0.0
 40
0.0
 40
1.0
 40
1.0
 40
1.0
 40
1.0
 10
102.1143122357452
 20
174.4577969824424
 30
0.0
 10
102.2408989972991
 20
174.4577969824424
 30
0.0
 10
102.3435178431646
 20
174.5486111320722
 30
0.0
 10
102.3435178431646
 20
174.660636062852
 30
0.0
  0
LINE
  5
158
330
BA
100
AcDbEntity
  8
Sichtbar schmal (ISO)
 62
    18
420
        0
370
     5
100
AcDbLine
 10
102.1143122357452
 20
174.4577969824424
 30
0.0
 11
99.60451083450351
 21
174.4577969824424
 31
0.0
  0
LINE
  5
159
330
BA
100
AcDbEntity
  8
Sichtbar schmal (ISO)
 62
    18
420
        0
370
     5
100
AcDbLine
 10
99.60451083450351
 20
174.4577969824424
 30
0.0
 11
99.60451083450351
 21
174.660636062852
 31
0.0
  0
LINE
  5
15A
330
BA
100
AcDbEntity
  8
Sichtbar schmal (ISO)
 62
    18
420
        0
370
     5
100
AcDbLine
 10
99.60451083450351
 20
174.660636062852
 30
0.0
 11
98.2063566292458
 21
174.660636062852
 31
0.0
  0
LINE
  5
15B
330
BA
100
AcDbEntity
  8
Sichtbar schmal (ISO)
 62
    18
420
        0
370
     5
100
AcDbLine
 10
98.2063566292458
 20
173.4436015803973
 30
0.0
 11
98.2063566292458
 21
173.2407624999884
 31
0.0
  0
LINE
  5
15C
330
BA
100
AcDbEntity
  8
Sichtbar schmal (ISO)
 62
    18
420
        0
370
     5
100
AcDbLine
 10
98.2063566292458
 20
173.2407624999884
 30
0.0
 11
95.69655522800408
 21
173.2407624999884
 31
0.0
  0
SPLINE
  5
15D
330
BA
100
AcDbEntity
  8
Sichtbar schmal (ISO)
 62
    18
420
        0
370
     5
100
AcDbSpline
210
0.0
220
0.0
230
1.0
 70
     8
 71
     3
 72
     8
 73
     4
 74
     0
 42
0.0000000001
 43
0.0000000001
 40
0.0
 40
0.0
 40
0.0
 40
0.0
 40
1.0
 40
1.0
 40
1.0
 40
1.0
 10
95.46734962058435
 20
173.4436015803973
 30
0.0
 10
95.46734962058435
 20
173.3315766496178
 30
0.0
 10
95.56996846645047
 20
173.2407624999884
 30
0.0
 10
95.69655522800408
 20
173.2407624999884
 30
0.0
  0
LINE
  5
15E
330
BA
100
AcDbEntity
  8
Sichtbar schmal (ISO)
 62
    18
420
        0
370
     5
100
AcDbLine
 10
95.46734962058435
 20
173.4436015803973
 30
0.0
 11
95.46734962058435
 21
173.616014798745
 31
0.0
  0
SPLINE
  5
15F
330
BA
100
AcDbEntity
  8
Sichtbar schmal (ISO)
 62
    18
420
        0
370
     5
100
AcDbSpline
210
0.0
220
0.0
230
1.0
 70
     8
 71
     3
 72
     8
 73
     4
 74
     0
 42
0.0000000001
 43
0.0000000001
 40
0.0
 40
0.0
 40
0.0
 40
0.0
 40
1.0
 40
1.0
 40
1.0
 40
1.0
 10
95.69655522800408
 20
173.8188538791542
 30
0.0
 10
95.56996846645047
 20
173.8188538791542
 30
0.0
 10
95.46734962058435
 20
173.7280397295251
 30
0.0
 10
95.46734962058435
 20
173.616014798745
 30
0.0
  0
LINE
  5
160
330
BA
100
AcDbEntity
  8
Sichtbar schmal (ISO)
 62
    18
420
        0
370
     5
100
AcDbLine
 10
95.69655522800408
 20
173.8188538791542
 30
0.0
 11
98.21781690961659
 21
173.8188538791542
 31
0.0
  0
LINE
  5
161
330
BA
100
AcDbEntity
  8
Sichtbar schmal (ISO)
 62
    18
420
        0
370
     5
100
AcDbLine
 10
98.21781690961659
 20
173.8188538791542
 30
0.0
 11
98.21781690961659
 21
174.0216929595634
 31
0.0
  0
LINE
  5
162
330
BA
100
AcDbEntity
  8
Sichtbar schmal (ISO)
 62
    18
420
        0
370
     5
100
AcDbLine
 10
98.21781690961659
 20
174.0216929595634
 30
0.0
 11
99.5930505541327
 21
174.0216929595634
 31
0.0
  0
LINE
  5
163
330
BA
100
AcDbEntity
  8
Sichtbar schmal (ISO)
 62
    18
420
        0
370
     5
100
AcDbLine
 10
99.5930505541327
 20
174.0216929595634
 30
0.0
 11
99.5930505541327
 21
173.8188538791542
 31
0.0
  0
LINE
  5
164
330
BA
100
AcDbEntity
  8
Sichtbar schmal (ISO)
 62
    18
420
        0
370
     5
100
AcDbLine
 10
99.5930505541327
 20
173.8188538791542
 30
0.0
 11
102.1143122357452
 21
173.8188538791542
 31
0.0
  0
SPLINE
  5
165
330
BA
100
AcDbEntity
  8
Sichtbar schmal (ISO)
 62
    18
420
        0
370
     5
100
AcDbSpline
210
0.0
220
0.0
230
1.0
 70
     8
 71
     3
 72
     8
 73
     4
 74
     0
 42
0.0000000001
 43
0.0000000001
 40
0.0
 40
0.0
 40
0.0
 40
0.0
 40
1.0
 40
1.0
 40
1.0
 40
1.0
 10
102.3435178431646
 20
173.616014798745
 30
0.0
 10
102.3435178431646
 20
173.7280397295251
 30
0.0
 10
102.2408989972991
 20
173.8188538791542
 30
0.0
 10
102.1143122357452
 20
173.8188538791542
 30
0.0
  0
LINE
  5
166
330
BA
100
AcDbEntity
  8
Sichtbar schmal (ISO)
 62
    18
420
        0
370
     5
100
AcDbLine
 10
102.3435178431646
 20
173.616014798745
 30
0.0
 11
102.3435178431646
 21
173.4436015803973
 31
0.0
  0
SPLINE
  5
167
330
BA
100
AcDbEntity
  8
Sichtbar schmal (ISO)
 62
    18
420
        0
370
     5
100
AcDbSpline
210
0.0
220
0.0
230
1.0
 70
     8
 71
     3
 72
     8
 73
     4
 74
     0
 42
0.0000000001
 43
0.0000000001
 40
0.0
 40
0.0
 40
0.0
 40
0.0
 40
1.0
 40
1.0
 40
1.0
 40
1.0
 10
102.1143122357452
 20
173.2407624999884
 30
0.0
 10
102.2408989972991
 20
173.2407624999884
 30
0.0
 10
102.3435178431646
 20
173.3315766496178
 30
0.0
 10
102.3435178431646
 20
173.4436015803973
 30
0.0
  0
LINE
  5
168
330
BA
100
AcDbEntity
  8
Sichtbar schmal (ISO)
 62
    18
420
        0
370
     5
100
AcDbLine
 10
102.1143122357452
 20
173.2407624999884
 30
0.0
 11
99.60451083450351
 21
173.2407624999884
 31
0.0
  0
LINE
  5
169
330
BA
100
AcDbEntity
  8
Sichtbar schmal (ISO)
 62
    18
420
        0
370
     5
100
AcDbLine
 10
99.60451083450351
 20
173.2407624999884
 30
0.0
 11
99.60451083450351
 21
173.4436015803973
 31
0.0
  0
LINE
  5
16A
330
BA
100
AcDbEntity
  8
Sichtbar schmal (ISO)
 62
    18
420
        0
370
     5
100
AcDbLine
 10
99.60451083450351
 20
173.4436015803973
 30
0.0
 11
98.2063566292458
 21
173.4436015803973
 31
0.0
  0
LINE
  5
16B
330
BA
100
AcDbEntity
  8
Sichtbar schmal (ISO)
 62
    18
420
        0
370
     5
100
AcDbLine
 10
98.2063566292458
 20
172.2265670979433
 30
0.0
 11
98.2063566292458
 21
172.023728017534
 31
0.0
  0
LINE
  5
16C
330
BA
100
AcDbEntity
  8
Sichtbar schmal (ISO)
 62
    18
420
        0
370
     5
100
AcDbLine
 10
98.2063566292458
 20
172.023728017534
 30
0.0
 11
95.69655522800408
 21
172.023728017534
 31
0.0
  0
SPLINE
  5
16D
330
BA
100
AcDbEntity
  8
Sichtbar schmal (ISO)
 62
    18
420
        0
370
     5
100
AcDbSpline
210
0.0
220
0.0
230
1.0
 70
     8
 71
     3
 72
     8
 73
     4
 74
     0
 42
0.0000000001
 43
0.0000000001
 40
0.0
 40
0.0
 40
0.0
 40
0.0
 40
1.0
 40
1.0
 40
1.0
 40
1.0
 10
95.46734962058435
 20
172.2265670979433
 30
0.0
 10
95.46734962058435
 20
172.1145421671638
 30
0.0
 10
95.56996846645047
 20
172.023728017534
 30
0.0
 10
95.69655522800408
 20
172.023728017534
 30
0.0
  0
LINE
  5
16E
330
BA
100
AcDbEntity
  8
Sichtbar schmal (ISO)
 62
    18
420
        0
370
     5
100
AcDbLine
 10
95.46734962058435
 20
172.2265670979433
 30
0.0
 11
95.46734962058435
 21
172.3989803162909
 31
0.0
  0
SPLINE
  5
16F
330
BA
100
AcDbEntity
  8
Sichtbar schmal (ISO)
 62
    18
420
        0
370
     5
100
AcDbSpline
210
0.0
220
0.0
230
1.0
 70
     8
 71
     3
 72
     8
 73
     4
 74
     0
 42
0.0000000001
 43
0.0000000001
 40
0.0
 40
0.0
 40
0.0
 40
0.0
 40
1.0
 40
1.0
 40
1.0
 40
1.0
 10
95.69655522800408
 20
172.6018193967002
 30
0.0
 10
95.56996846645047
 20
172.6018193967002
 30
0.0
 10
95.46734962058435
 20
172.5110052470708
 30
0.0
 10
95.46734962058435
 20
172.3989803162909
 30
0.0
  0
LINE
  5
170
330
BA
100
AcDbEntity
  8
Sichtbar schmal (ISO)
 62
    18
420
        0
370
     5
100
AcDbLine
 10
95.69655522800408
 20
172.6018193967002
 30
0.0
 11
98.21781690961659
 21
172.6018193967002
 31
0.0
  0
LINE
  5
171
330
BA
100
AcDbEntity
  8
Sichtbar schmal (ISO)
 62
    18
420
        0
370
     5
100
AcDbLine
 10
98.21781690961659
 20
172.6018193967002
 30
0.0
 11
98.21781690961659
 21
172.8046584771087
 31
0.0
  0
LINE
  5
172
330
BA
100
AcDbEntity
  8
Sichtbar schmal (ISO)
 62
    18
420
        0
370
     5
100
AcDbLine
 10
98.21781690961659
 20
172.8046584771087
 30
0.0
 11
99.5930505541327
 21
172.8046584771087
 31
0.0
  0
LINE
  5
173
330
BA
100
AcDbEntity
  8
Sichtbar schmal (ISO)
 62
    18
420
        0
370
     5
100
AcDbLine
 10
99.5930505541327
 20
172.8046584771087
 30
0.0
 11
99.5930505541327
 21
172.6018193967002
 31
0.0
  0
LINE
  5
174
330
BA
100
AcDbEntity
  8
Sichtbar schmal (ISO)
 62
    18
420
        0
370
     5
100
AcDbLine
 10
99.5930505541327
 20
172.6018193967002
 30
0.0
 11
102.1143122357452
 21
172.6018193967002
 31
0.0
  0
SPLINE
  5
175
330
BA
100
AcDbEntity
  8
Sichtbar schmal (ISO)
 62
    18
420
        0
370
     5
100
AcDbSpline
210
0.0
220
0.0
230
1.0
 70
     8
 71
     3
 72
     8
 73
     4
 74
     0
 42
0.0000000001
 43
0.0000000001
 40
0.0
 40
0.0
 40
0.0
 40
0.0
 40
1.0
 40
1.0
 40
1.0
 40
1.0
 10
102.3435178431646
 20
172.3989803162909
 30
0.0
 10
102.3435178431646
 20
172.5110052470708
 30
0.0
 10
102.2408989972991
 20
172.6018193967002
 30
0.0
 10
102.1143122357452
 20
172.6018193967002
 30
0.0
  0
LINE
  5
176
330
BA
100
AcDbEntity
  8
Sichtbar schmal (ISO)
 62
    18
420
        0
370
     5
100
AcDbLine
 10
102.3435178431646
 20
172.3989803162909
 30
0.0
 11
102.3435178431646
 21
172.2265670979433
 31
0.0
  0
SPLINE
  5
177
330
BA
100
AcDbEntity
  8
Sichtbar schmal (ISO)
 62
    18
420
        0
370
     5
100
AcDbSpline
210
0.0
220
0.0
230
1.0
 70
     8
 71
     3
 72
     8
 73
     4
 74
     0
 42
0.0000000001
 43
0.0000000001
 40
0.0
 40
0.0
 40
0.0
 40
0.0
 40
1.0
 40
1.0
 40
1.0
 40
1.0
 10
102.1143122357452
 20
172.023728017534
 30
0.0
 10
102.2408989972991
 20
172.023728017534
 30
0.0
 10
102.3435178431646
 20
172.1145421671638
 30
0.0
 10
102.3435178431646
 20
172.2265670979433
 30
0.0
  0
LINE
  5
178
330
BA
100
AcDbEntity
  8
Sichtbar schmal (ISO)
 62
    18
420
        0
370
     5
100
AcDbLine
 10
102.1143122357452
 20
172.023728017534
 30
0.0
 11
99.60451083450351
 21
172.023728017534
 31
0.0
  0
LINE
  5
179
330
BA
100
AcDbEntity
  8
Sichtbar schmal (ISO)
 62
    18
420
        0
370
     5
100
AcDbLine
 10
99.60451083450351
 20
172.023728017534
 30
0.0
 11
99.60451083450351
 21
172.2265670979433
 31
0.0
  0
LINE
  5
17A
330
BA
100
AcDbEntity
  8
Sichtbar schmal (ISO)
 62
    18
420
        0
370
     5
100
AcDbLine
 10
99.60451083450351
 20
172.2265670979433
 30
0.0
 11
98.2063566292458
 21
172.2265670979433
 31
0.0
  0
LINE
  5
17B
330
BA
100
AcDbEntity
  8
Sichtbar schmal (ISO)
 62
    18
420
        0
370
     5
100
AcDbLine
 10
98.2063566292458
 20
171.0095326154886
 30
0.0
 11
98.2063566292458
 21
170.80669353508
 31
0.0
  0
LINE
  5
17C
330
BA
100
AcDbEntity
  8
Sichtbar schmal (ISO)
 62
    18
420
        0
370
     5
100
AcDbLine
 10
98.2063566292458
 20
170.80669353508
 30
0.0
 11
95.69655522800408
 21
170.80669353508
 31
0.0
  0
SPLINE
  5
17D
330
BA
100
AcDbEntity
  8
Sichtbar schmal (ISO)
 62
    18
420
        0
370
     5
100
AcDbSpline
210
0.0
220
0.0
230
1.0
 70
     8
 71
     3
 72
     8
 73
     4
 74
     0
 42
0.0000000001
 43
0.0000000001
 40
0.0
 40
0.0
 40
0.0
 40
0.0
 40
1.0
 40
1.0
 40
1.0
 40
1.0
 10
95.46734962058435
 20
171.0095326154886
 30
0.0
 10
95.46734962058435
 20
170.8975076847088
 30
0.0
 10
95.56996846645047
 20
170.80669353508
 30
0.0
 10
95.69655522800408
 20
170.80669353508
 30
0.0
  0
LINE
  5
17E
330
BA
100
AcDbEntity
  8
Sichtbar schmal (ISO)
 62
    18
420
        0
370
     5
100
AcDbLine
 10
95.46734962058435
 20
171.0095326154886
 30
0.0
 11
95.46734962058435
 21
171.1819458338363
 31
0.0
  0
SPLINE
  5
17F
330
BA
100
AcDbEntity
  8
Sichtbar schmal (ISO)
 62
    18
420
        0
370
     5
100
AcDbSpline
210
0.0
220
0.0
230
1.0
 70
     8
 71
     3
 72
     8
 73
     4
 74
     0
 42
0.0000000001
 43
0.0000000001
 40
0.0
 40
0.0
 40
0.0
 40
0.0
 40
1.0
 40
1.0
 40
1.0
 40
1.0
 10
95.69655522800408
 20
171.3847849142455
 30
0.0
 10
95.56996846645047
 20
171.3847849142455
 30
0.0
 10
95.46734962058435
 20
171.2939707646167
 30
0.0
 10
95.46734962058435
 20
171.1819458338363
 30
0.0
  0
LINE
  5
180
330
BA
100
AcDbEntity
  8
Sichtbar schmal (ISO)
 62
    18
420
        0
370
     5
100
AcDbLine
 10
95.69655522800408
 20
171.3847849142455
 30
0.0
 11
98.21781690961659
 21
171.3847849142455
 31
0.0
  0
LINE
  5
181
330
BA
100
AcDbEntity
  8
Sichtbar schmal (ISO)
 62
    18
420
        0
370
     5
100
AcDbLine
 10
98.21781690961659
 20
171.3847849142455
 30
0.0
 11
98.21781690961659
 21
171.5876239946547
 31
0.0
  0
LINE
  5
182
330
BA
100
AcDbEntity
  8
Sichtbar schmal (ISO)
 62
    18
420
        0
370
     5
100
AcDbLine
 10
98.21781690961659
 20
171.5876239946547
 30
0.0
 11
99.5930505541327
 21
171.5876239946547
 31
0.0
  0
LINE
  5
183
330
BA
100
AcDbEntity
  8
Sichtbar schmal (ISO)
 62
    18
420
        0
370
     5
100
AcDbLine
 10
99.5930505541327
 20
171.5876239946547
 30
0.0
 11
99.5930505541327
 21
171.3847849142455
 31
0.0
  0
LINE
  5
184
330
BA
100
AcDbEntity
  8
Sichtbar schmal (ISO)
 62
    18
420
        0
370
     5
100
AcDbLine
 10
99.5930505541327
 20
171.3847849142455
 30
0.0
 11
102.1143122357452
 21
171.3847849142455
 31
0.0
  0
SPLINE
  5
185
330
BA
100
AcDbEntity
  8
Sichtbar schmal (ISO)
 62
    18
420
        0
370
     5
100
AcDbSpline
210
0.0
220
0.0
230
1.0
 70
     8
 71
     3
 72
     8
 73
     4
 74
     0
 42
0.0000000001
 43
0.0000000001
 40
0.0
 40
0.0
 40
0.0
 40
0.0
 40
1.0
 40
1.0
 40
1.0
 40
1.0
 10
102.3435178431646
 20
171.1819458338363
 30
0.0
 10
102.3435178431646
 20
171.2939707646167
 30
0.0
 10
102.2408989972991
 20
171.3847849142455
 30
0.0
 10
102.1143122357452
 20
171.3847849142455
 30
0.0
  0
LINE
  5
186
330
BA
100
AcDbEntity
  8
Sichtbar schmal (ISO)
 62
    18
420
        0
370
     5
100
AcDbLine
 10
102.3435178431646
 20
171.1819458338363
 30
0.0
 11
102.3435178431646
 21
171.0095326154886
 31
0.0
  0
SPLINE
  5
187
330
BA
100
AcDbEntity
  8
Sichtbar schmal (ISO)
 62
    18
420
        0
370
     5
100
AcDbSpline
210
0.0
220
0.0
230
1.0
 70
     8
 71
     3
 72
     8
 73
     4
 74
     0
 42
0.0000000001
 43
0.0000000001
 40
0.0
 40
0.0
 40
0.0
 40
0.0
 40
1.0
 40
1.0
 40
1.0
 40
1.0
 10
102.1143122357452
 20
170.80669353508
 30
0.0
 10
102.2408989972991
 20
170.80669353508
 30
0.0
 10
102.3435178431646
 20
170.8975076847088
 30
0.0
 10
102.3435178431646
 20
171.0095326154886
 30
0.0
  0
LINE
  5
188
330
BA
100
AcDbEntity
  8
Sichtbar schmal (ISO)
 62
    18
420
        0
370
     5
100
AcDbLine
 10
102.1143122357452
 20
170.80669353508
 30
0.0
 11
99.60451083450351
 21
170.80669353508
 31
0.0
  0
LINE
  5
189
330
BA
100
AcDbEntity
  8
Sichtbar schmal (ISO)
 62
    18
420
        0
370
     5
100
AcDbLine
 10
99.60451083450351
 20
170.80669353508
 30
0.0
 11
99.60451083450351
 21
171.0095326154886
 31
0.0
  0
LINE
  5
18A
330
BA
100
AcDbEntity
  8
Sichtbar schmal (ISO)
 62
    18
420
        0
370
     5
100
AcDbLine
 10
99.60451083450351
 20
171.0095326154886
 30
0.0
 11
98.2063566292458
 21
171.0095326154886
 31
0.0
  0
LINE
  5
18B
330
BA
100
AcDbEntity
  8
Sichtbar schmal (ISO)
 62
    18
420
        0
370
     5
100
AcDbLine
 10
92.07510663077865
 20
170.0663308915865
 30
0.0
 11
92.3730739204238
 21
170.0663308915865
 31
0.0
  0
LINE
  5
18C
330
BA
100
AcDbEntity
  8
Sichtbar schmal (ISO)
 62
    18
420
        0
370
     5
100
AcDbLine
 10
92.3730739204238
 20
174.9344688214043
 30
0.0
 11
91.68545709816557
 21
174.9344688214043
 31
0.0
  0
LINE
  5
18D
330
BA
100
AcDbEntity
  8
Sichtbar schmal (ISO)
 62
    18
420
        0
370
     5
100
AcDbLine
 10
88.93498980913363
 20
174.9344688214043
 30
0.0
 11
88.24737298687574
 21
174.9344688214043
 31
0.0
  0
LINE
  5
18E
330
BA
100
AcDbEntity
  8
Sichtbar schmal (ISO)
 62
    18
420
        0
370
     5
100
AcDbLine
 10
92.3730739204238
 20
174.5287906605861
 30
0.0
 11
92.3730739204238
 21
170.0663308915865
 31
0.0
  0
LINE
  5
18F
330
BA
100
AcDbEntity
  8
Sichtbar schmal (ISO)
 62
    18
420
        0
370
     5
100
AcDbLine
 10
92.3730739204238
 20
177.3685377863133
 30
0.0
 11
92.3730739204238
 21
174.9344688214043
 31
0.0
  0
LINE
  5
190
330
BA
100
AcDbEntity
  8
Sichtbar schmal (ISO)
 62
    18
420
        0
370
     5
100
AcDbLine
 10
88.24737298687574
 20
174.5287906605861
 30
0.0
 11
88.93498980913363
 21
174.5287906605861
 31
0.0
  0
LINE
  5
191
330
BA
100
AcDbEntity
  8
Sichtbar schmal (ISO)
 62
    18
420
        0
370
     5
100
AcDbLine
 10
91.68545709816557
 20
174.5287906605861
 30
0.0
 11
92.3730739204238
 21
174.5287906605861
 31
0.0
  0
LINE
  5
192
330
BA
100
AcDbEntity
  8
Sichtbar schmal (ISO)
 62
    18
420
        0
370
     5
100
AcDbLine
 10
93.28989635010078
 20
170.0663308915865
 30
0.0
 11
92.3730739204238
 21
170.0663308915865
 31
0.0
  0
LINE
  5
193
330
BA
100
AcDbEntity
  8
Sichtbar schmal (ISO)
 62
    18
420
        0
370
     5
100
AcDbLine
 10
93.28989635010078
 20
170.0663308915865
 30
0.0
 11
93.28989635010078
 21
176.9628596254948
 31
0.0
  0
LINE
  5
194
330
BA
100
AcDbEntity
  8
Sichtbar schmal (ISO)
 62
    18
420
        0
370
     5
100
AcDbLine
 10
93.28989635010078
 20
176.9628596254948
 30
0.0
 11
94.43592438719749
 21
176.9628596254948
 31
0.0
  0
LINE
  5
195
330
BA
100
AcDbEntity
  8
Sichtbar schmal (ISO)
 62
    18
420
        0
370
     5
100
AcDbLine
 10
94.43592438719749
 20
170.0663308915865
 30
0.0
 11
94.43592438719749
 21
176.9628596254948
 31
0.0
  0
LINE
  5
196
330
BA
100
AcDbEntity
  8
Sichtbar schmal (ISO)
 62
    18
420
        0
370
     5
100
AcDbLine
 10
95.3527468168748
 20
170.0663308915865
 30
0.0
 11
94.43592438719749
 21
170.0663308915865
 31
0.0
  0
LINE
  5
197
330
BA
100
AcDbEntity
  8
Sichtbar schmal (ISO)
 62
    18
420
        0
370
     5
100
AcDbLine
 10
95.3527468168748
 20
170.0663308915865
 30
0.0
 11
95.3527468168748
 21
176.9628596254948
 31
0.0
  0
LINE
  5
198
330
BA
100
AcDbEntity
  8
Sichtbar schmal (ISO)
 62
    18
420
        0
370
     5
100
AcDbLine
 10
95.3527468168748
 20
176.9628596254948
 30
0.0
 11
102.3756066282034
 21
176.9628596254948
 31
0.0
  0
LINE
  5
199
330
BA
100
AcDbEntity
  8
Sichtbar schmal (ISO)
 62
    18
420
        0
370
     5
100
AcDbLine
 10
92.3730739204238
 20
177.3685377863133
 30
0.0
 11
102.3756066282034
 21
177.3685377863133
 31
0.0
  0
LINE
  5
19A
330
BA
100
AcDbEntity
  8
Sichtbar schmal (ISO)
 62
    18
420
        0
370
     5
100
AcDbLine
 10
88.24737298687574
 20
177.3685377863133
 30
0.0
 11
88.24737298687574
 21
174.9344688214043
 31
0.0
  0
LINE
  5
19B
330
BA
100
AcDbEntity
  8
Sichtbar schmal (ISO)
 62
    18
420
        0
370
     5
100
AcDbLine
 10
88.24737298687574
 20
177.3685377863133
 30
0.0
 11
78.24484027909576
 21
177.3685377863133
 31
0.0
  0
LINE
  5
19C
330
BA
100
AcDbEntity
  8
Sichtbar schmal (ISO)
 62
    18
420
        0
370
     5
100
AcDbLine
 10
85.26770009042442
 20
170.0663308915865
 30
0.0
 11
85.26770009042442
 21
176.9628596254948
 31
0.0
  0
LINE
  5
19D
330
BA
100
AcDbEntity
  8
Sichtbar schmal (ISO)
 62
    18
420
        0
370
     5
100
AcDbLine
 10
85.26770009042442
 20
170.0663308915865
 30
0.0
 11
86.18452252010172
 21
170.0663308915865
 31
0.0
  0
LINE
  5
19E
330
BA
100
AcDbEntity
  8
Sichtbar schmal (ISO)
 62
    18
420
        0
370
     5
100
AcDbLine
 10
86.18452252010172
 20
170.0663308915865
 30
0.0
 11
86.18452252010172
 21
176.9628596254948
 31
0.0
  0
LINE
  5
19F
330
BA
100
AcDbEntity
  8
Sichtbar schmal (ISO)
 62
    18
420
        0
370
     5
100
AcDbLine
 10
87.33055055719811
 20
170.0663308915865
 30
0.0
 11
87.33055055719811
 21
176.9628596254948
 31
0.0
  0
LINE
  5
1A0
330
BA
100
AcDbEntity
  8
Sichtbar schmal (ISO)
 62
    18
420
        0
370
     5
100
AcDbLine
 10
87.33055055719811
 20
170.0663308915865
 30
0.0
 11
88.24737298687574
 21
170.0663308915865
 31
0.0
  0
LINE
  5
1A1
330
BA
100
AcDbEntity
  8
Sichtbar schmal (ISO)
 62
    18
420
        0
370
     5
100
AcDbLine
 10
88.24737298687574
 20
174.5287906605861
 30
0.0
 11
88.24737298687574
 21
170.0663308915865
 31
0.0
  0
LINE
  5
1A2
330
BA
100
AcDbEntity
  8
Sichtbar schmal (ISO)
 62
    18
420
        0
370
     5
100
AcDbLine
 10
108.3487047575504
 20
170.0663308915865
 30
0.0
 11
108.7612748509061
 21
170.0663308915865
 31
0.0
  0
LINE
  5
1A3
330
BA
100
AcDbEntity
  8
Sichtbar schmal (ISO)
 62
    18
420
        0
370
     5
100
AcDbLine
 10
108.1882608323574
 20
170.0663308915865
 30
0.0
 11
108.3487047575504
 21
170.0663308915865
 31
0.0
  0
LINE
  5
1A4
330
BA
100
AcDbEntity
  8
Sichtbar schmal (ISO)
 62
    18
420
        0
370
     5
100
AcDbLine
 10
108.188260832358
 20
170.0663308915865
 30
0.0
 11
104.0945160534278
 21
170.0663308915865
 31
0.0
  0
LINE
  5
1A5
330
BA
100
AcDbEntity
  8
Sichtbar schmal (ISO)
 62
    18
420
        0
370
     5
100
AcDbLine
 10
103.1457374691324
 20
170.0663308915865
 30
0.0
 11
103.7645926091645
 21
170.0663308915865
 31
0.0
  0
LINE
  5
1A6
330
BA
100
AcDbEntity
  8
Sichtbar schmal (ISO)
 62
    18
420
        0
370
     5
100
AcDbLine
 10
91.68545709816557
 20
170.0663308915865
 30
0.0
 11
92.07510663077865
 21
170.0663308915865
 31
0.0
  0
LINE
  5
1A7
330
BA
100
AcDbEntity
  8
Sichtbar schmal (ISO)
 62
    18
420
        0
370
     5
100
AcDbLine
 10
88.93498980913363
 20
170.0663308915865
 30
0.0
 11
88.54534027652055
 21
170.0663308915865
 31
0.0
  0
LINE
  5
1A8
330
BA
100
AcDbEntity
  8
Sichtbar schmal (ISO)
 62
    18
420
        0
370
     5
100
AcDbLine
 10
77.47470943816681
 20
170.0663308915865
 30
0.0
 11
76.85585429813463
 21
170.0663308915865
 31
0.0
  0
LINE
  5
1A9
330
BA
100
AcDbEntity
  8
Sichtbar schmal (ISO)
 62
    18
420
        0
370
     5
100
AcDbLine
 10
72.43218607494146
 20
170.0663308915865
 30
0.0
 11
76.52593085387173
 21
170.0663308915865
 31
0.0
  0
LINE
  5
1AA
330
BA
100
AcDbEntity
  8
Sichtbar schmal (ISO)
 62
    18
420
        0
370
     5
100
AcDbLine
 10
72.27174214974906
 20
170.0663308915865
 30
0.0
 11
72.43218607494178
 21
170.0663308915865
 31
0.0
  0
LINE
  5
1AB
330
BA
100
AcDbEntity
  8
Sichtbar schmal (ISO)
 62
    18
420
        0
370
     5
100
AcDbLine
 10
71.8591720563931
 20
170.0663308915865
 30
0.0
 11
72.27174214974906
 21
170.0663308915865
 31
0.0
  0
LINE
  5
1AC
330
BA
100
AcDbEntity
  8
Sichtbar schmal (ISO)
 62
    18
420
        0
370
     5
100
AcDbLine
 10
108.188260832358
 20
178.3827331883581
 30
0.0
 11
108.188260832358
 21
178.2813136481535
 31
0.0
  0
LINE
  5
1AD
330
BA
100
AcDbEntity
  8
Sichtbar schmal (ISO)
 62
    18
420
        0
370
     5
100
AcDbLine
 10
108.188260832358
 20
178.2813136481535
 30
0.0
 11
108.188260832358
 21
170.0663308915865
 31
0.0
  0
LINE
  5
1AE
330
BA
100
AcDbEntity
  8
Sichtbar schmal (ISO)
 62
    18
420
        0
370
     5
100
AcDbLine
 10
108.7612748509061
 20
176.3543423842675
 30
0.0
 11
108.7612748509061
 21
170.0663308915865
 31
0.0
  0
LINE
  5
1AF
330
BA
100
AcDbEntity
  8
Sichtbar schmal (ISO)
 62
    18
420
        0
370
     5
100
AcDbLine
 10
108.3487047575504
 20
176.3543423842675
 30
0.0
 11
108.7612748509061
 21
176.3543423842675
 31
0.0
  0
LINE
  5
1B0
330
BA
100
AcDbEntity
  8
Sichtbar schmal (ISO)
 62
    18
420
        0
370
     5
100
AcDbLine
 10
108.7612748509061
 20
178.3827331883581
 30
0.0
 11
108.7612748509061
 21
176.3543423842675
 31
0.0
  0
LINE
  5
1B1
330
BA
100
AcDbEntity
  8
Sichtbar schmal (ISO)
 62
    18
420
        0
370
     5
100
AcDbLine
 10
108.1882608323574
 20
176.9628596254948
 30
0.0
 11
108.3487047575504
 21
176.9628596254948
 31
0.0
  0
LINE
  5
1B2
330
BA
100
AcDbEntity
  8
Sichtbar schmal (ISO)
 62
    18
420
        0
370
     5
100
AcDbLine
 10
72.43218607494146
 20
178.2813136481535
 30
0.0
 11
76.52593085387173
 21
178.2813136481535
 31
0.0
  0
LINE
  5
1B3
330
BA
100
AcDbEntity
  8
Sichtbar schmal (ISO)
 62
    18
420
        0
370
     5
100
AcDbLine
 10
72.43218607494146
 20
178.2813136481535
 30
0.0
 11
72.43218607494146
 21
170.0663308915865
 31
0.0
  0
LINE
  5
1B4
330
BA
100
AcDbEntity
  8
Sichtbar schmal (ISO)
 62
    18
420
        0
370
     5
100
AcDbLine
 10
72.43218607494146
 20
178.3827331883581
 30
0.0
 11
72.43218607494146
 21
178.2813136481535
 31
0.0
  0
LINE
  5
1B5
330
BA
100
AcDbEntity
  8
Sichtbar schmal (ISO)
 62
    18
420
        0
370
     5
100
AcDbLine
 10
71.8591720563931
 20
178.3827331883581
 30
0.0
 11
71.8591720563931
 21
177.6018027287834
 31
0.0
  0
LINE
  5
1B6
330
BA
100
AcDbEntity
  8
Sichtbar schmal (ISO)
 62
    18
420
        0
370
     5
100
AcDbLine
 10
71.8591720563931
 20
176.3239165222066
 30
0.0
 11
71.8591720563931
 21
170.0663308915865
 31
0.0
  0
LINE
  5
1B7
330
BA
100
AcDbEntity
  8
Sichtbar schmal (ISO)
 62
    18
420
        0
370
     5
100
AcDbLine
 10
72.27174214974906
 20
176.9628596254948
 30
0.0
 11
72.43218607494178
 21
176.9628596254948
 31
0.0
  0
LINE
  5
1B8
330
BA
100
AcDbEntity
  8
Sichtbar schmal (ISO)
 62
    18
420
        0
370
     5
100
AcDbLine
 10
99.59305055413302
 20
176.4557619244721
 30
0.0
 11
99.25979953632094
 21
176.4557619244721
 31
0.0
  0
LINE
  5
1B9
330
BA
100
AcDbEntity
  8
Sichtbar schmal (ISO)
 62
    18
420
        0
370
     5
100
AcDbLine
 10
99.5930505541327
 20
176.3543423842675
 30
0.0
 11
99.5930505541327
 21
176.4557619244721
 31
0.0
  0
LINE
  5
1BA
330
BA
100
AcDbEntity
  8
Sichtbar schmal (ISO)
 62
    18
420
        0
370
     5
100
AcDbLine
 10
102.3756066282034
 20
176.9628596254948
 30
0.0
 11
102.7194150393323
 21
176.9628596254948
 31
0.0
  0
LINE
  5
1BB
330
BA
100
AcDbEntity
  8
Sichtbar schmal (ISO)
 62
    18
420
        0
370
     5
100
AcDbLine
 10
102.7194150393323
 20
177.3685377863133
 30
0.0
 11
102.7194150393323
 21
176.9628596254948
 31
0.0
  0
LINE
  5
1BC
330
BA
100
AcDbEntity
  8
Sichtbar schmal (ISO)
 62
    18
420
        0
370
     5
100
AcDbLine
 10
102.7194150393323
 20
177.3685377863133
 30
0.0
 11
102.3756066282034
 21
177.3685377863133
 31
0.0
  0
LINE
  5
1BD
330
BA
100
AcDbEntity
  8
Sichtbar schmal (ISO)
 62
    18
420
        0
370
     5
100
AcDbLine
 10
98.79083092816493
 20
178.3827331883581
 30
0.0
 11
98.79083092816493
 21
177.3685377863133
 31
0.0
  0
LINE
  5
1BE
330
BA
100
AcDbEntity
  8
Sichtbar schmal (ISO)
 62
    18
420
        0
370
     5
100
AcDbLine
 10
100.166064572681
 20
178.3827331883581
 30
0.0
 11
100.166064572681
 21
177.3685377863133
 31
0.0
  0
LINE
  5
1BF
330
BA
100
AcDbEntity
  8
Sichtbar schmal (ISO)
 62
    18
420
        0
370
     5
100
AcDbLine
 10
77.47470943816681
 20
176.9628596254948
 30
0.0
 11
76.85585429813463
 21
176.9628596254948
 31
0.0
  0
LINE
  5
1C0
330
BA
100
AcDbEntity
  8
Sichtbar schmal (ISO)
 62
    18
420
        0
370
     5
100
AcDbLine
 10
103.1457374691324
 20
176.9628596254948
 30
0.0
 11
103.7645926091645
 21
176.9628596254948
 31
0.0
  0
LINE
  5
1C1
330
BA
100
AcDbEntity
  8
Sichtbar schmal (ISO)
 62
    18
420
        0
370
     5
100
AcDbLine
 10
77.90103186796682
 20
177.3685377863133
 30
0.0
 11
78.24484027909576
 21
177.3685377863133
 31
0.0
  0
LINE
  5
1C2
330
BA
100
AcDbEntity
  8
Sichtbar schmal (ISO)
 62
    18
420
        0
370
     5
100
AcDbLine
 10
81.82961597913426
 20
178.3827331883581
 30
0.0
 11
81.82961597913426
 21
177.3685377863133
 31
0.0
  0
LINE
  5
1C3
330
BA
100
AcDbEntity
  8
Sichtbar schmal (ISO)
 62
    18
420
        0
370
     5
100
AcDbLine
 10
80.45438233461814
 20
178.3827331883581
 30
0.0
 11
80.45438233461814
 21
177.3685377863133
 31
0.0
  0
LINE
  5
1C4
330
BA
100
AcDbEntity
  8
Sichtbar schmal (ISO)
 62
    18
420
        0
370
     5
100
AcDbLine
 10
77.90103186796682
 20
177.3685377863133
 30
0.0
 11
77.90103186796682
 21
176.9628596254948
 31
0.0
  0
LINE
  5
1C5
330
BA
100
AcDbEntity
  8
Sichtbar schmal (ISO)
 62
    18
420
        0
370
     5
100
AcDbLine
 10
108.3487047575504
 20
176.9628596254948
 30
0.0
 11
108.3487047575504
 21
170.0663308915865
 31
0.0
  0
LINE
  5
1C6
330
BA
100
AcDbEntity
  8
Sichtbar schmal (ISO)
 62
    18
420
        0
370
     5
100
AcDbLine
 10
72.27174214974906
 20
176.9628596254948
 30
0.0
 11
72.27174214974906
 21
170.0663308915865
 31
0.0
  0
LINE
  5
1C7
330
BA
100
AcDbEntity
  8
Sichtbar schmal (ISO)
 62
    18
420
        0
370
     5
100
AcDbLine
 10
99.64136928707651
 20
176.9627260195706
 30
0.0
 11
99.64136928707651
 21
176.9628596254948
 31
0.0
  0
LINE
  5
1C8
330
BA
100
AcDbEntity
  8
Sichtbar schmal (ISO)
 62
    18
420
        0
370
     5
100
AcDbLine
 10
99.64147105557195
 20
176.9628596285067
 30
0.0
 11
99.64140343576403
 21
176.9627705661364
 31
0.0
  0
LINE
  5
1C9
330
BA
100
AcDbEntity
  8
Sichtbar schmal (ISO)
 62
    18
420
        0
370
     5
100
AcDbLine
 10
81.30492069352971
 20
176.9627260195706
 30
0.0
 11
81.30492069352971
 21
176.9628596254948
 31
0.0
  0
LINE
  5
1CA
330
BA
100
AcDbEntity
  8
Sichtbar schmal (ISO)
 62
    18
420
        0
370
     5
100
AcDbLine
 10
81.30502246202516
 20
176.9628596285067
 30
0.0
 11
81.30495484221723
 21
176.9627705661364
 31
0.0
  0
LINE
  5
1CB
330
BA
100
AcDbEntity
  8
Sichtbar schmal (ISO)
 62
    18
420
        0
370
     5
100
AcDbLine
 10
70.8589277176021
 20
177.6018027287834
 30
0.0
 11
71.8591720563931
 21
177.6018027287834
 31
0.0
  0
LINE
  5
1CC
330
BA
100
AcDbEntity
  8
Sichtbar schmal (ISO)
 62
    18
420
        0
370
     5
100
AcDbLine
 10
71.8591720563931
 20
176.3239165222066
 30
0.0
 11
70.8589277176021
 21
176.3239165222066
 31
0.0
  0
LINE
  5
1CD
330
BA
100
AcDbEntity
  8
Sichtbar schmal (ISO)
 62
    18
420
        0
370
     5
100
AcDbLine
 10
72.19942959932811
 20
175.9486642234494
 30
0.0
 11
71.99343759264762
 21
175.9486642234494
 31
0.0
  0
LINE
  5
1CE
330
BA
100
AcDbEntity
  8
Sichtbar schmal (ISO)
 62
    18
420
        0
370
     5
100
AcDbLine
 10
71.99343759264762
 20
177.97705502754
 30
0.0
 11
72.19942959932811
 21
177.97705502754
 31
0.0
  0
ELLIPSE
  5
1CF
330
BA
100
AcDbEntity
  8
Sichtbar schmal (ISO)
 62
    18
420
        0
370
     5
100
AcDbEllipse
 10
71.38080226012307
 20
176.9628596254948
 30
0.0
 11
0.0
 21
0.1774841953579062
 31
0.0
210
0.0
220
0.0
230
1.0
 40
0.7990217613161237
 41
0.0
 42
6.283185307179586
  0
LINE
  5
1D0
330
BA
100
AcDbEntity
  8
Sichtbar schmal (ISO)
 62
    18
420
        0
370
     5
100
AcDbLine
 10
70.8589277176021
 20
177.6018027287834
 30
0.0
 11
70.7357523597401
 21
177.6018027287834
 31
0.0
  0
LINE
  5
1D1
330
BA
100
AcDbEntity
  8
Sichtbar schmal (ISO)
 62
    18
420
        0
370
     5
100
AcDbLine
 10
70.7357523597401
 20
176.3239165222066
 30
0.0
 11
70.8589277176021
 21
176.3239165222066
 31
0.0
  0
LINE
  5
1D2
330
BA
100
AcDbEntity
  8
Sichtbar schmal (ISO)
 62
    18
420
        0
370
     5
100
AcDbLine
 10
71.99343759264762
 20
175.9486642234494
 30
0.0
 11
71.8702622347853
 21
175.9486642234494
 31
0.0
  0
LINE
  5
1D3
330
BA
100
AcDbEntity
  8
Sichtbar schmal (ISO)
 62
    18
420
        0
370
     5
100
AcDbLine
 10
72.19942959932811
 20
175.9486642234494
 30
0.0
 11
72.27174214974906
 21
175.9486642234494
 31
0.0
  0
LINE
  5
1D4
330
BA
100
AcDbEntity
  8
Sichtbar schmal (ISO)
 62
    18
420
        0
370
     5
100
AcDbLine
 10
72.31758327123191
 20
176.9628596254948
 30
0.0
 11
72.31758327123191
 21
177.97705502754
 31
0.0
  0
LINE
  5
1D5
330
BA
100
AcDbEntity
  8
Sichtbar schmal (ISO)
 62
    18
420
        0
370
     5
100
AcDbLine
 10
72.31758327123191
 20
177.97705502754
 30
0.0
 11
72.19942959932811
 21
177.97705502754
 31
0.0
  0
LINE
  5
1D6
330
BA
100
AcDbEntity
  8
Sichtbar schmal (ISO)
 62
    18
420
        0
370
     5
100
AcDbLine
 10
71.8702622347853
 20
177.97705502754
 30
0.0
 11
71.99343759264762
 21
177.97705502754
 31
0.0
  0
LINE
  5
1D7
330
BA
100
AcDbEntity
  8
Sichtbar schmal (ISO)
 62
    18
420
        0
370
     5
100
AcDbLine
 10
70.7357523597401
 20
176.3239165222066
 30
0.0
 11
70.61710680685107
 21
176.5267556026152
 31
0.0
  0
LINE
  5
1D8
330
BA
100
AcDbEntity
  8
Sichtbar schmal (ISO)
 62
    18
420
        0
370
     5
100
AcDbLine
 10
70.61710680685107
 20
176.5267556026152
 30
0.0
 11
70.61710680685107
 21
177.3989636483742
 31
0.0
  0
LINE
  5
1D9
330
BA
100
AcDbEntity
  8
Sichtbar schmal (ISO)
 62
    18
420
        0
370
     5
100
AcDbLine
 10
70.61710680685107
 20
177.3989636483742
 30
0.0
 11
70.7357523597401
 21
177.6018027287834
 31
0.0
  0
LINE
  5
1DA
330
BA
100
AcDbEntity
  8
Sichtbar schmal (ISO)
 62
    18
420
        0
370
     5
100
AcDbLine
 10
102.3756066282034
 20
177.3685377863133
 30
0.0
 11
102.3756066282034
 21
176.9628596254948
 31
0.0
  0
ENDBLK
  5
BD
330
BA
100
AcDbEntity
  8
0
100
AcDbBlockEnd
  0
BLOCK
  5
1DD
330
1DB
100
AcDbEntity
  8
0
100
AcDbBlockBegin
  2
Block_16
 70
     0
 10
0.0
 20
0.0
 30
0.0
  3
Block_16
  1

  0
SPLINE
  5
1DF
330
1DB
100
AcDbEntity
  8
Sichtbar schmal (ISO)
 62
    18
420
        0
370
     5
100
AcDbSpline
210
0.0
220
0.0
230
1.0
 70
     8
 71
     3
 72
    17
 73
    13
 74
     0
 42
0.0000000001
 43
0.0000000001
 40
0.0
 40
0.0
 40
0.0
 40
0.0
 40
1.0
 40
1.0
 40
1.0
 40
2.0
 40
2.0
 40
2.0
 40
3.0
 40
3.0
 40
3.0
 40
4.0
 40
4.0
 40
4.0
 40
4.0
 10
65.92154714839006
 20
142.8552247180542
 30
0.0
 10
64.50584628294952
 20
129.3857305948054
 30
0.0
 10
74.27737628948725
 20
117.3188958571115
 30
0.0
 10
87.74687028144157
 20
115.9031949778709
 30
0.0
 10
101.2163642733952
 20
114.4874940986303
 30
0.0
 10
113.283198893467
 20
124.2590242004174
 30
0.0
 10
114.6988997589078
 20
137.7285183236675
 30
0.0
 10
116.1146006243487
 20
151.198012446916
 30
0.0
 10
106.343070617811
 20
163.2648471846105
 30
0.0
 10
92.87357662585634
 20
164.6805480638505
 30
0.0
 10
79.40491378451715
 20
166.0961615856401
 30
0.0
 10
67.33855980117965
 20
156.325892407578
 30
0.0
 10
65.92177093601851
 20
142.8573530218212
 30
0.0
  0
SPLINE
  5
1E0
330
1DB
100
AcDbEntity
  8
Sichtbar schmal (ISO)
 62
    18
420
        0
370
     5
100
AcDbSpline
210
0.0
220
0.0
230
1.0
 70
     8
 71
     3
 72
     8
 73
     4
 74
     0
 42
0.0000000001
 43
0.0000000001
 40
0.0
 40
0.0
 40
0.0
 40
0.0
 40
1.0
 40
1.0
 40
1.0
 40
1.0
 10
66.93315172733289
 20
140.3122718697925
 30
0.0
 10
66.93313985889033
 20
140.2986716397604
 30
0.0
 10
66.93313985889033
 20
140.2850714019626
 30
0.0
 10
66.93315172733289
 20
140.2714711719305
 30
0.0
  0
SPLINE
  5
1E1
330
1DB
100
AcDbEntity
  8
Sichtbar schmal (ISO)
 62
    18
420
        0
370
     5
100
AcDbSpline
210
0.0
220
0.0
230
1.0
 70
     8
 71
     3
 72
    17
 73
    13
 74
     0
 42
0.0000000001
 43
0.0000000001
 40
0.0
 40
0.0
 40
0.0
 40
0.0
 40
1.0
 40
1.0
 40
1.0
 40
2.0
 40
2.0
 40
2.0
 40
3.0
 40
3.0
 40
3.0
 40
4.0
 40
4.0
 40
4.0
 40
4.0
 10
66.47477777191522
 20
140.2710711650893
 30
0.0
 10
66.48626549108827
 20
127.1071178813294
 30
0.0
 10
77.16707065377881
 20
116.4449378875061
 30
0.0
 10
90.33102380922045
 20
116.4564256067905
 30
0.0
 10
103.4949769646624
 20
116.4679133260762
 30
0.0
 10
114.1571568545557
 20
127.1487185928789
 30
0.0
 10
114.145669135383
 20
140.3126718766375
 30
0.0
 10
114.1341814162096
 20
153.4766251603959
 30
0.0
 10
103.4533762535194
 20
164.1388051542204
 30
0.0
 10
90.28942309807746
 20
164.1273174349354
 30
0.0
 10
77.14171309209355
 20
164.1158438904754
 30
0.0
 10
66.48625131625905
 20
153.4603820107735
 30
0.0
 10
66.47477777191522
 20
140.3126718766311
 30
0.0
  0
LINE
  5
1E2
330
1DB
100
AcDbEntity
  8
Sichtbar schmal (ISO)
 62
    18
420
        0
370
     5
100
AcDbLine
 10
66.47477777191522
 20
140.2710711650855
 30
0.0
 11
66.93315172733289
 21
140.2714711719279
 31
0.0
  0
LINE
  5
1E3
330
1DB
100
AcDbEntity
  8
Sichtbar schmal (ISO)
 62
    18
420
        0
370
     5
100
AcDbLine
 10
66.47477777191072
 20
140.312671876635
 30
0.0
 11
66.93315172732294
 21
140.3122718697925
 31
0.0
  0
SPLINE
  5
1E4
330
1DB
100
AcDbEntity
  8
Sichtbar schmal (ISO)
 62
    18
420
        0
370
     5
100
AcDbSpline
210
0.0
220
0.0
230
1.0
 70
     8
 71
     3
 72
    17
 73
    13
 74
     0
 42
0.0000000001
 43
0.0000000001
 40
0.0
 40
0.0
 40
0.0
 40
0.0
 40
1.0
 40
1.0
 40
1.0
 40
2.0
 40
2.0
 40
2.0
 40
3.0
 40
3.0
 40
3.0
 40
4.0
 40
4.0
 40
4.0
 40
4.0
 10
66.93315172733289
 20
140.2714711719318
 30
0.0
 10
66.94441852882833
 20
127.3606708359373
 30
0.0
 10
77.41982359223481
 20
116.9035327650695
 30
0.0
 10
90.33062380237959
 20
116.9147995666757
 30
0.0
 10
103.2414240125247
 20
116.9260663682806
 30
0.0
 10
113.6985619814598
 20
127.4014715337967
 30
0.0
 10
113.6872951799653
 20
140.3122718697912
 30
0.0
 10
113.6760283784696
 20
153.2230722057847
 30
0.0
 10
103.2006233150631
 20
163.6802102766525
 30
0.0
 10
90.28982310491832
 20
163.6689434750476
 30
0.0
 10
77.39495367597268
 20
163.6576905756754
 30
0.0
 10
66.94440462659542
 20
153.20714142443
 30
0.0
 10
66.93315172733289
 20
140.3122718697912
 30
0.0
  0
LINE
  5
1E5
330
1DB
100
AcDbEntity
  8
Sichtbar schmal (ISO)
 62
    18
420
        0
370
     5
100
AcDbLine
 10
114.1454027444364
 20
140.4064650544658
 30
0.0
 11
114.1456782112508
 21
140.4064650544658
 31
0.0
  0
LINE
  5
1E6
330
1DB
100
AcDbEntity
  8
Sichtbar schmal (ISO)
 62
    18
420
        0
370
     5
100
AcDbLine
 10
114.1454027444364
 20
140.177277987256
 30
0.0
 11
114.1456782112508
 21
140.177277987256
 31
0.0
  0
LINE
  5
1E7
330
1DB
100
AcDbEntity
  8
Sichtbar schmal (ISO)
 62
    18
420
        0
370
     5
100
AcDbLine
 10
78.49187471849925
 20
119.5927037832711
 30
0.0
 11
78.49173698509237
 21
119.5924652220098
 31
0.0
  0
LINE
  5
1E8
330
1DB
100
AcDbEntity
  8
Sichtbar schmal (ISO)
 62
    18
420
        0
370
     5
100
AcDbLine
 10
78.29339289801071
 20
119.7072973168767
 30
0.0
 11
78.29325516460385
 21
119.7070587556153
 31
0.0
  0
LINE
  5
1E9
330
1DB
100
AcDbEntity
  8
Sichtbar schmal (ISO)
 62
    18
420
        0
370
     5
100
AcDbLine
 10
78.49187471849925
 20
160.9910392584509
 30
0.0
 11
78.49173698509237
 21
160.9912778197116
 31
0.0
  0
LINE
  5
1EA
330
1DB
100
AcDbEntity
  8
Sichtbar schmal (ISO)
 62
    18
420
        0
370
     5
100
AcDbLine
 10
113.4331425762901
 20
143.7296775290252
 30
0.0
 11
113.4122796033241
 21
143.7296775290252
 31
0.0
  0
LINE
  5
1EB
330
1DB
100
AcDbEntity
  8
Sichtbar schmal (ISO)
 62
    18
420
        0
370
     5
100
AcDbLine
 10
113.4122796033241
 20
143.7296775290252
 30
0.0
 11
113.4122796033241
 21
136.8540655126965
 31
0.0
  0
LINE
  5
1EC
330
1DB
100
AcDbEntity
  8
Sichtbar schmal (ISO)
 62
    18
420
        0
370
     5
100
AcDbLine
 10
113.4331425762901
 20
136.8540655126965
 30
0.0
 11
113.4122796033241
 21
136.8540655126965
 31
0.0
  0
LINE
  5
1ED
330
1DB
100
AcDbEntity
  8
Sichtbar schmal (ISO)
 62
    18
420
        0
370
     5
100
AcDbLine
 10
81.72599119966124
 20
118.5479329517229
 30
0.0
 11
81.73642268614356
 21
118.5660008164843
 31
0.0
  0
LINE
  5
1EE
330
1DB
100
AcDbEntity
  8
Sichtbar schmal (ISO)
 62
    18
420
        0
370
     5
100
AcDbLine
 10
81.73642268614356
 20
118.5660008164843
 30
0.0
 11
75.78196807147903
 21
122.0038068246493
 31
0.0
  0
LINE
  5
1EF
330
1DB
100
AcDbEntity
  8
Sichtbar schmal (ISO)
 62
    18
420
        0
370
     5
100
AcDbLine
 10
75.77153658499638
 20
121.9857389598867
 30
0.0
 11
75.78196807147903
 21
122.0038068246493
 31
0.0
  0
LINE
  5
1F0
330
1DB
100
AcDbEntity
  8
Sichtbar schmal (ISO)
 62
    18
420
        0
370
     5
100
AcDbLine
 10
75.77153658499638
 20
158.5980040818347
 30
0.0
 11
75.78196807147903
 21
158.5799362170721
 31
0.0
  0
LINE
  5
1F1
330
1DB
100
AcDbEntity
  8
Sichtbar schmal (ISO)
 62
    18
420
        0
370
     5
100
AcDbLine
 10
75.78196807147903
 20
158.5799362170721
 30
0.0
 11
81.73642268614356
 21
162.0177422252364
 31
0.0
  0
LINE
  5
1F2
330
1DB
100
AcDbEntity
  8
Sichtbar schmal (ISO)
 62
    18
420
        0
370
     5
100
AcDbLine
 10
81.72599119966124
 20
162.0358100899991
 30
0.0
 11
81.73642268614356
 21
162.0177422252364
 31
0.0
  0
CIRCLE
  5
1F3
330
1DB
100
AcDbEntity
  8
Sichtbar schmal (ISO)
 62
    18
420
        0
370
     5
100
AcDbCircle
 10
79.99680552968678
 20
129.9784534963678
 30
0.0
 40
0.4583741321880559
  0
CIRCLE
  5
1F4
330
1DB
100
AcDbEntity
  8
Sichtbar schmal (ISO)
 62
    18
420
        0
370
     5
100
AcDbCircle
 10
79.99680552968678
 20
150.6052895453541
 30
0.0
 40
0.4583741321878153
  0
CIRCLE
  5
1F5
330
1DB
100
AcDbEntity
  8
Sichtbar schmal (ISO)
 62
    18
420
        0
370
     5
100
AcDbCircle
 10
100.6236413776113
 20
150.6052895453541
 30
0.0
 40
0.4583741321878153
  0
CIRCLE
  5
1F6
330
1DB
100
AcDbEntity
  8
Sichtbar schmal (ISO)
 62
    18
420
        0
370
     5
100
AcDbCircle
 10
100.6236413776113
 20
129.9784534963678
 30
0.0
 40
0.4583741321880559
  0
ENDBLK
  5
1DE
330
1DB
100
AcDbEntity
  8
0
100
AcDbBlockEnd
  0
BLOCK
  5
1F9
330
1F7
100
AcDbEntity
  8
0
100
AcDbBlockBegin
  2
Block_17
 70
     0
 10
0.0
 20
0.0
 30
0.0
  3
Block_17
  1

  0
INSERT
  5
1FC
330
1F7
100
AcDbEntity
  8
Sichtbar schmal (ISO)
100
AcDbBlockReference
  2
Block_18
 10
0.0
 20
0.0
 30
0.0
  0
ENDBLK
  5
1FA
330
1F7
100
AcDbEntity
  8
0
100
AcDbBlockEnd
  0
BLOCK
  5
1FD
330
1FB
100
AcDbEntity
  8
0
100
AcDbBlockBegin
  2
Block_18
 70
     0
 10
0.0
 20
0.0
 30
0.0
  3
Block_18
  1

  0
LINE
  5
1FF
330
1FB
100
AcDbEntity
  8
Sichtbar schmal (ISO)
 62
    18
420
        0
370
     5
100
AcDbLine
 10
131.7492794131347
 20
162.6206400994544
 30
0.0
 11
131.7524122968416
 21
118.0967858761019
 31
0.0
  0
INSERT
  5
201
330
1FB
100
AcDbEntity
  8
Sichtbar schmal (ISO)
100
AcDbBlockReference
  2
Block_19
 10
0.0
 20
0.0
 30
0.0
  0
INSERT
  5
207
330
1FB
100
AcDbEntity
  8
Sichtbar schmal (ISO)
100
AcDbBlockReference
  2
Block_20
 10
0.0
 20
0.0
 30
0.0
  0
ENDBLK
  5
1FE
330
1FB
100
AcDbEntity
  8
0
100
AcDbBlockEnd
  0
BLOCK
  5
202
330
200
100
AcDbEntity
  8
0
100
AcDbBlockBegin
  2
Block_19
 70
     0
 10
0.0
 20
0.0
 30
0.0
  3
Block_19
  1

  0
LWPOLYLINE
  5
204
330
200
100
AcDbEntity
  8
Sichtbar schmal (ISO)
100
AcDbPolyline
 90
        3
 70
     1
 43
0.0
 10
131.5280181555945
 20
161.9881743979798
 10
131.7485150325739
 20
163.669370228858
 10
131.9706375639854
 20
161.9882066957497
  0
HATCH
  5
205
330
200
100
AcDbEntity
  8
Sichtbar schmal (ISO)
 62
    18
420
        0
440
 33554687
100
AcDbHatch
 10
0.0
 20
0.0
 30
0.0
210
0.0
220
0.0
230
1.0
  2
SOLID
 70
     1
 71
     1
 91
        1
 92
        1
 93
        3
 72
     1
 10
131.5280181555945
 20
161.9881743979798
 11
131.7485150325739
 21
163.669370228858
 72
     1
 10
131.7485150325739
 20
163.669370228858
 11
131.9706375639854
 21
161.9882066957497
 72
     1
 10
131.9706375639854
 20
161.9882066957497
 11
131.5280181555945
 21
161.9881743979798
 97
        1
330
204
 75
     2
 76
     1
 98
        1
 10
0.0
 20
0.0
450
        0
451
        0
460
0.0
461
0.0
452
        0
462
0.0
453
        0
470

  0
ENDBLK
  5
203
330
200
100
AcDbEntity
  8
0
100
AcDbBlockEnd
  0
BLOCK
  5
208
330
206
100
AcDbEntity
  8
0
100
AcDbBlockBegin
  2
Block_20
 70
     0
 10
0.0
 20
0.0
 30
0.0
  3
Block_20
  1

  0
LWPOLYLINE
  5
20A
330
206
100
AcDbEntity
  8
Sichtbar schmal (ISO)
100
AcDbPolyline
 90
        3
 70
     1
 43
0.0
 10
131.5310541459909
 20
118.72923004573
 10
131.7517986392083
 20
117.0480665126216
 10
131.9736843203052
 20
118.7292623435002
  0
HATCH
  5
20B
330
206
100
AcDbEntity
  8
Sichtbar schmal (ISO)
 62
    18
420
        0
440
 33554687
100
AcDbHatch
 10
0.0
 20
0.0
 30
0.0
210
0.0
220
0.0
230
1.0
  2
SOLID
 70
     1
 71
     1
 91
        1
 92
        1
 93
        3
 72
     1
 10
131.5310541459909
 20
118.72923004573
 11
131.7517986392083
 21
117.0480665126216
 72
     1
 10
131.7517986392083
 20
117.0480665126216
 11
131.9736843203052
 21
118.7292623435002
 72
     1
 10
131.9736843203052
 20
118.7292623435002
 11
131.5310541459909
 21
118.72923004573
 97
        1
330
20A
 75
     2
 76
     1
 98
        1
 10
0.0
 20
0.0
450
        0
451
        0
460
0.0
461
0.0
452
        0
462
0.0
453
        0
470

  0
ENDBLK
  5
209
330
206
100
AcDbEntity
  8
0
100
AcDbBlockEnd
  0
BLOCK
  5
211
330
20F
100
AcDbEntity
  8
0
100
AcDbBlockBegin
  2
Block_21
 70
     0
 10
0.0
 20
0.0
 30
0.0
  3
Block_21
  1

  0
INSERT
  5
214
330
20F
100
AcDbEntity
  8
Sichtbar schmal (ISO)
100
AcDbBlockReference
  2
Block_22
 10
0.0
 20
0.0
 30
0.0
  0
ENDBLK
  5
212
330
20F
100
AcDbEntity
  8
0
100
AcDbBlockEnd
  0
BLOCK
  5
215
330
213
100
AcDbEntity
  8
0
100
AcDbBlockBegin
  2
Block_22
 70
     0
 10
0.0
 20
0.0
 30
0.0
  3
Block_22
  1

  0
LINE
  5
217
330
213
100
AcDbEntity
  8
Sichtbar schmal (ISO)
 62
    18
420
        0
370
     5
100
AcDbLine
 10
138.8056424111807
 20
163.7930706886253
 30
0.0
 11
138.7978909463389
 21
116.8271605305534
 31
0.0
  0
INSERT
  5
219
330
213
100
AcDbEntity
  8
Sichtbar schmal (ISO)
100
AcDbBlockReference
  2
Block_23
 10
0.0
 20
0.0
 30
0.0
  0
INSERT
  5
21F
330
213
100
AcDbEntity
  8
Sichtbar schmal (ISO)
100
AcDbBlockReference
  2
Block_24
 10
0.0
 20
0.0
 30
0.0
  0
ENDBLK
  5
216
330
213
100
AcDbEntity
  8
0
100
AcDbBlockEnd
  0
BLOCK
  5
21A
330
218
100
AcDbEntity
  8
0
100
AcDbBlockBegin
  2
Block_23
 70
     0
 10
0.0
 20
0.0
 30
0.0
  3
Block_23
  1

  0
LWPOLYLINE
  5
21C
330
218
100
AcDbEntity
  8
Sichtbar schmal (ISO)
100
AcDbPolyline
 90
        3
 70
     1
 43
0.0
 10
138.5842304307131
 20
163.1606480508439
 10
138.8051256468579
 20
164.8417900521055
 10
139.0268498391039
 20
163.1605726893802
  0
HATCH
  5
21D
330
218
100
AcDbEntity
  8
Sichtbar schmal (ISO)
 62
    18
420
        0
440
 33554687
100
AcDbHatch
 10
0.0
 20
0.0
 30
0.0
210
0.0
220
0.0
230
1.0
  2
SOLID
 70
     1
 71
     1
 91
        1
 92
        1
 93
        3
 72
     1
 10
138.5842304307131
 20
163.1606480508439
 11
138.8051256468579
 21
164.8417900521055
 72
     1
 10
138.8051256468579
 20
164.8417900521055
 11
139.0268498391039
 21
163.1605726893802
 72
     1
 10
139.0268498391039
 20
163.1605726893802
 11
138.5842304307131
 21
163.1606480508439
 97
        1
330
21C
 75
     2
 76
     1
 98
        1
 10
0.0
 20
0.0
450
        0
451
        0
460
0.0
461
0.0
452
        0
462
0.0
453
        0
470

  0
ENDBLK
  5
21B
330
218
100
AcDbEntity
  8
0
100
AcDbBlockEnd
  0
BLOCK
  5
220
330
21E
100
AcDbEntity
  8
0
100
AcDbBlockBegin
  2
Block_24
 70
     0
 10
0.0
 20
0.0
 30
0.0
  3
Block_24
  1

  0
LWPOLYLINE
  5
222
330
21E
100
AcDbEntity
  8
Sichtbar schmal (ISO)
100
AcDbPolyline
 90
        3
 70
     1
 43
0.0
 10
138.5766835184157
 20
117.4596477638751
 10
138.7970296724676
 20
115.7784304011498
 10
139.0193029268066
 20
117.4595724024113
  0
HATCH
  5
223
330
21E
100
AcDbEntity
  8
Sichtbar schmal (ISO)
 62
    18
420
        0
440
 33554687
100
AcDbHatch
 10
0.0
 20
0.0
 30
0.0
210
0.0
220
0.0
230
1.0
  2
SOLID
 70
     1
 71
     1
 91
        1
 92
        1
 93
        3
 72
     1
 10
138.5766835184157
 20
117.4596477638751
 11
138.7970296724676
 21
115.7784304011498
 72
     1
 10
138.7970296724676
 20
115.7784304011498
 11
139.0193029268066
 21
117.4595724024113
 72
     1
 10
139.0193029268066
 20
117.4595724024113
 11
138.5766835184157
 21
117.4596477638751
 97
        1
330
222
 75
     2
 76
     1
 98
        1
 10
0.0
 20
0.0
450
        0
451
        0
460
0.0
461
0.0
452
        0
462
0.0
453
        0
470

  0
ENDBLK
  5
221
330
21E
100
AcDbEntity
  8
0
100
AcDbBlockEnd
  0
BLOCK
  5
22A
330
228
100
AcDbEntity
  8
0
100
AcDbBlockBegin
  2
Block_25
 70
     0
 10
0.0
 20
0.0
 30
0.0
  3
Block_25
  1

  0
INSERT
  5
22D
330
228
100
AcDbEntity
  8
Sichtbar schmal (ISO)
100
AcDbBlockReference
  2
Block_26
 10
0.0
 20
0.0
 30
0.0
  0
ENDBLK
  5
22B
330
228
100
AcDbEntity
  8
0
100
AcDbBlockEnd
  0
BLOCK
  5
22E
330
22C
100
AcDbEntity
  8
0
100
AcDbBlockBegin
  2
Block_26
 70
     0
 10
0.0
 20
0.0
 30
0.0
  3
Block_26
  1

  0
LINE
  5
230
330
22C
100
AcDbEntity
  8
Sichtbar schmal (ISO)
 62
    18
420
        0
370
     5
100
AcDbLine
 10
124.7726596096488
 20
179.3269954656937
 30
0.0
 11
124.7729825873506
 21
175.7144360420903
 31
0.0
  0
INSERT
  5
232
330
22C
100
AcDbEntity
  8
Sichtbar schmal (ISO)
100
AcDbBlockReference
  2
Block_27
 10
0.0
 20
0.0
 30
0.0
  0
ENDBLK
  5
22F
330
22C
100
AcDbEntity
  8
0
100
AcDbBlockEnd
  0
BLOCK
  5
233
330
231
100
AcDbEntity
  8
0
100
AcDbBlockBegin
  2
Block_27
 70
     0
 10
0.0
 20
0.0
 30
0.0
  3
Block_27
  1

  0
LWPOLYLINE
  5
235
330
231
100
AcDbEntity
  8
Sichtbar schmal (ISO)
100
AcDbPolyline
 90
        3
 70
     1
 43
0.0
 10
124.551409118032
 20
178.6945189982951
 10
124.7718844631646
 20
180.3757148291736
 10
124.9940285264229
 20
178.694562061989
  0
HATCH
  5
236
330
231
100
AcDbEntity
  8
Sichtbar schmal (ISO)
 62
    18
420
        0
440
 33554687
100
AcDbHatch
 10
0.0
 20
0.0
 30
0.0
210
0.0
220
0.0
230
1.0
  2
SOLID
 70
     1
 71
     1
 91
        1
 92
        1
 93
        3
 72
     1
 10
124.551409118032
 20
178.6945189982951
 11
124.7718844631646
 21
180.3757148291736
 72
     1
 10
124.7718844631646
 20
180.3757148291736
 11
124.9940285264229
 21
178.694562061989
 72
     1
 10
124.9940285264229
 20
178.694562061989
 11
124.551409118032
 21
178.6945189982951
 97
        1
330
235
 75
     2
 76
     1
 98
        1
 10
0.0
 20
0.0
450
        0
451
        0
460
0.0
461
0.0
452
        0
462
0.0
453
        0
470

  0
ENDBLK
  5
234
330
231
100
AcDbEntity
  8
0
100
AcDbBlockEnd
  0
BLOCK
  5
239
330
237
100
AcDbEntity
  8
0
100
AcDbBlockBegin
  2
Block_28
 70
     0
 10
0.0
 20
0.0
 30
0.0
  3
Block_28
  1

  0
INSERT
  5
23C
330
237
100
AcDbEntity
  8
Sichtbar schmal (ISO)
100
AcDbBlockReference
  2
Block_29
 10
0.0
 20
0.0
 30
0.0
  0
ENDBLK
  5
23A
330
237
100
AcDbEntity
  8
0
100
AcDbBlockEnd
  0
BLOCK
  5
23D
330
23B
100
AcDbEntity
  8
0
100
AcDbBlockBegin
  2
Block_29
 70
     0
 10
0.0
 20
0.0
 30
0.0
  3
Block_29
  1

  0
LINE
  5
23F
330
23B
100
AcDbEntity
  8
Sichtbar schmal (ISO)
 62
    18
420
        0
370
     5
100
AcDbLine
 10
138.7574218403106
 20
168.2591202209289
 30
0.0
 11
138.7396150030212
 21
183.836969965434
 31
0.0
  0
INSERT
  5
241
330
23B
100
AcDbEntity
  8
Sichtbar schmal (ISO)
100
AcDbBlockReference
  2
Block_30
 10
0.0
 20
0.0
 30
0.0
  0
INSERT
  5
247
330
23B
100
AcDbEntity
  8
Sichtbar schmal (ISO)
100
AcDbBlockReference
  2
Block_31
 10
0.0
 20
0.0
 30
0.0
  0
ENDBLK
  5
23E
330
23B
100
AcDbEntity
  8
0
100
AcDbBlockEnd
  0
BLOCK
  5
242
330
240
100
AcDbEntity
  8
0
100
AcDbBlockBegin
  2
Block_30
 70
     0
 10
0.0
 20
0.0
 30
0.0
  3
Block_30
  1

  0
LWPOLYLINE
  5
244
330
240
100
AcDbEntity
  8
Sichtbar schmal (ISO)
100
AcDbPolyline
 90
        3
 70
     1
 43
0.0
 10
138.9780048446771
 20
168.8918227727184
 10
138.7593058769041
 20
167.2104008574487
 10
138.5353854362863
 20
168.8913275402424
  0
HATCH
  5
245
330
240
100
AcDbEntity
  8
Sichtbar schmal (ISO)
 62
    18
420
        0
440
 33554687
100
AcDbHatch
 10
0.0
 20
0.0
 30
0.0
210
0.0
220
0.0
230
1.0
  2
SOLID
 70
     1
 71
     1
 91
        1
 92
        1
 93
        3
 72
     1
 10
138.9780048446771
 20
168.8918227727184
 11
138.7593058769041
 21
167.2104008574487
 72
     1
 10
138.7593058769041
 20
167.2104008574487
 11
138.5353854362863
 21
168.8913275402424
 72
     1
 10
138.5353854362863
 20
168.8913275402424
 11
138.9780048446771
 21
168.8918227727184
 97
        1
330
244
 75
     2
 76
     1
 98
        1
 10
0.0
 20
0.0
450
        0
451
        0
460
0.0
461
0.0
452
        0
462
0.0
453
        0
470

  0
ENDBLK
  5
243
330
240
100
AcDbEntity
  8
0
100
AcDbBlockEnd
  0
BLOCK
  5
248
330
246
100
AcDbEntity
  8
0
100
AcDbBlockBegin
  2
Block_31
 70
     0
 10
0.0
 20
0.0
 30
0.0
  3
Block_31
  1

  0
LWPOLYLINE
  5
24A
330
246
100
AcDbEntity
  8
Sichtbar schmal (ISO)
100
AcDbPolyline
 90
        3
 70
     1
 43
0.0
 10
138.9616514070456
 20
183.2047734120438
 10
138.7391090046218
 20
184.8857000948376
 10
138.5190319986547
 20
183.2042781795678
  0
HATCH
  5
24B
330
246
100
AcDbEntity
  8
Sichtbar schmal (ISO)
 62
    18
420
        0
440
 33554687
100
AcDbHatch
 10
0.0
 20
0.0
 30
0.0
210
0.0
220
0.0
230
1.0
  2
SOLID
 70
     1
 71
     1
 91
        1
 92
        1
 93
        3
 72
     1
 10
138.9616514070456
 20
183.2047734120438
 11
138.7391090046218
 21
184.8857000948376
 72
     1
 10
138.7391090046218
 20
184.8857000948376
 11
138.5190319986547
 21
183.2042781795678
 72
     1
 10
138.5190319986547
 20
183.2042781795678
 11
138.9616514070456
 21
183.2047734120438
 97
        1
330
24A
 75
     2
 76
     1
 98
        1
 10
0.0
 20
0.0
450
        0
451
        0
460
0.0
461
0.0
452
        0
462
0.0
453
        0
470

  0
ENDBLK
  5
249
330
246
100
AcDbEntity
  8
0
100
AcDbBlockEnd
  0
BLOCK
  5
24E
330
24C
100
AcDbEntity
  8
0
100
AcDbBlockBegin
  2
Block_32
 70
     0
 10
0.0
 20
0.0
 30
0.0
  3
Block_32
  1

  0
INSERT
  5
251
330
24C
100
AcDbEntity
  8
Sichtbar schmal (ISO)
100
AcDbBlockReference
  2
Block_33
 10
0.0
 20
0.0
 30
0.0
  0
ENDBLK
  5
24F
330
24C
100
AcDbEntity
  8
0
100
AcDbBlockEnd
  0
BLOCK
  5
252
330
250
100
AcDbEntity
  8
0
100
AcDbBlockBegin
  2
Block_33
 70
     0
 10
0.0
 20
0.0
 30
0.0
  3
Block_33
  1

  0
SPLINE
  5
254
330
250
100
AcDbEntity
  8
Sichtbar schmal (ISO)
100
AcDbSpline
210
0.0
220
0.0
230
1.0
 70
    11
 71
     3
 72
    26
 73
    22
 74
     0
 42
0.0000000001
 43
0.0000000001
 40
0.0
 40
0.0
 40
0.0
 40
0.0
 40
1.0
 40
1.0
 40
1.0
 40
2.0
 40
2.0
 40
2.0
 40
3.0
 40
3.0
 40
3.0
 40
4.0
 40
4.0
 40
4.0
 40
5.0
 40
5.0
 40
5.0
 40
6.0
 40
6.0
 40
6.0
 40
7.0
 40
7.0
 40
7.0
 40
7.0
 10
126.1728325422415
 20
176.3520263230995
 30
0.0
 10
126.1728325422415
 20
176.3520263230995
 30
0.0
 10
126.1728325422415
 20
175.8330226882466
 30
0.0
 10
126.1728325422415
 20
175.8330226882466
 30
0.0
 10
126.1728325422415
 20
175.8330226882466
 30
0.0
 10
125.9809407237131
 20
175.8330226882466
 30
0.0
 10
125.9809407237131
 20
175.8330226882466
 30
0.0
 10
125.9809407237131
 20
176.1065632697754
 30
0.0
 10
125.9103162662654
 20
176.3547823994877
 30
0.0
 10
125.6057698253694
 20
176.4083536342833
 30
0.0
 10
125.6057698253694
 20
176.4083536342833
 30
0.0
 10
125.6057698253694
 20
176.5918049688728
 30
0.0
 10
125.6057698253694
 20
176.5918049688728
 30
0.0
 10
125.6057698253694
 20
176.5918049688728
 30
0.0
 10
127.6056477545569
 20
176.5918049688728
 30
0.0
 10
127.6056477545569
 20
176.5918049688728
 30
0.0
 10
127.6056477545569
 20
176.5918049688728
 30
0.0
 10
127.6056477545569
 20
176.3520263230995
 30
0.0
 10
127.6056477545569
 20
176.3520263230995
 30
0.0
 10
127.6056477545569
 20
176.3520263230995
 30
0.0
 10
126.1728325422415
 20
176.3520263230995
 30
0.0
 10
126.1728325422415
 20
176.3520263230995
 30
0.0
  0
HATCH
  5
255
330
250
100
AcDbEntity
  8
Sichtbar schmal (ISO)
 62
    18
420
        0
440
 33554687
100
AcDbHatch
 10
0.0
 20
0.0
 30
0.0
210
0.0
220
0.0
230
1.0
  2
SOLID
 70
     1
 71
     1
 91
        1
 92
        1
 93
        1
 72
     4
 94
        3
 73
     0
 74
     0
 95
       26
 96
       22
 40
0.0
 40
0.0
 40
0.0
 40
0.0
 40
1.0
 40
1.0
 40
1.0
 40
2.0
 40
2.0
 40
2.0
 40
3.0
 40
3.0
 40
3.0
 40
4.0
 40
4.0
 40
4.0
 40
5.0
 40
5.0
 40
5.0
 40
6.0
 40
6.0
 40
6.0
 40
7.0
 40
7.0
 40
7.0
 40
7.0
 10
126.1728325422415
 20
176.3520263230995
 10
126.1728325422415
 20
176.3520263230995
 10
126.1728325422415
 20
175.8330226882466
 10
126.1728325422415
 20
175.8330226882466
 10
126.1728325422415
 20
175.8330226882466
 10
125.9809407237131
 20
175.8330226882466
 10
125.9809407237131
 20
175.8330226882466
 10
125.9809407237131
 20
176.1065632697754
 10
125.9103162662654
 20
176.3547823994877
 10
125.6057698253694
 20
176.4083536342833
 10
125.6057698253694
 20
176.4083536342833
 10
125.6057698253694
 20
176.5918049688728
 10
125.6057698253694
 20
176.5918049688728
 10
125.6057698253694
 20
176.5918049688728
 10
127.6056477545569
 20
176.5918049688728
 10
127.6056477545569
 20
176.5918049688728
 10
127.6056477545569
 20
176.5918049688728
 10
127.6056477545569
 20
176.3520263230995
 10
127.6056477545569
 20
176.3520263230995
 10
127.6056477545569
 20
176.3520263230995
 10
126.1728325422415
 20
176.3520263230995
 10
126.1728325422415
 20
176.3520263230995
 97
        0
 97
        1
330
254
 75
     2
 76
     1
 98
        1
 10
0.0
 20
0.0
450
        0
451
        0
460
0.0
461
0.0
452
        0
462
0.0
453
        0
470

  0
SPLINE
  5
256
330
250
100
AcDbEntity
  8
Sichtbar schmal (ISO)
100
AcDbSpline
210
0.0
220
0.0
230
1.0
 70
     9
 71
     3
 72
    53
 73
    49
 74
     0
 42
0.0000000001
 43
0.0000000001
 40
0.0
 40
0.0
 40
0.0
 40
0.0
 40
1.0
 40
1.0
 40
1.0
 40
2.0
 40
2.0
 40
2.0
 40
3.0
 40
3.0
 40
3.0
 40
4.0
 40
4.0
 40
4.0
 40
5.0
 40
5.0
 40
5.0
 40
6.0
 40
6.0
 40
6.0
 40
7.0
 40
7.0
 40
7.0
 40
8.0
 40
8.0
 40
8.0
 40
9.0
 40
9.0
 40
9.0
 40
10.0
 40
10.0
 40
10.0
 40
11.0
 40
11.0
 40
11.0
 40
12.0
 40
12.0
 40
12.0
 40
13.0
 40
13.0
 40
13.0
 40
14.0
 40
14.0
 40
14.0
 40
15.0
 40
15.0
 40
15.0
 40
16.0
 40
16.0
 40
16.0
 40
16.0
 10
127.0668348206638
 20
177.4952812598796
 30
0.0
 10
127.2728515306818
 20
177.5094061513692
 30
0.0
 10
127.427880827518
 20
177.6758042633067
 30
0.0
 10
127.427880827518
 20
177.9155829090801
 30
0.0
 10
127.427880827518
 20
178.1439927397522
 30
0.0
 10
127.269750944745
 20
178.3386406346688
 30
0.0
 10
126.9538356887476
 20
178.3386406346688
 30
0.0
 10
126.6916639223201
 20
178.3386406346688
 30
0.0
 10
126.4997721037917
 20
178.1581176312417
 30
0.0
 10
126.4997721037917
 20
177.887333126101
 30
0.0
 10
126.4997721037917
 20
177.7321315744906
 30
0.0
 10
126.5759087140157
 20
177.6081081370216
 30
0.0
 10
126.6889078459319
 20
177.5150905589198
 30
0.0
 10
126.6889078459319
 20
177.5150905589198
 30
0.0
 10
126.6775390308306
 20
177.3090738489019
 30
0.0
 10
126.6775390308306
 20
177.3090738489019
 30
0.0
 10
126.6775390308306
 20
177.3090738489019
 30
0.0
 10
125.6395317611248
 20
177.4952812598796
 30
0.0
 10
125.6395317611248
 20
177.4952812598796
 30
0.0
 10
125.6395317611248
 20
177.4952812598796
 30
0.0
 10
125.6395317611248
 20
178.482473371178
 30
0.0
 10
125.6395317611248
 20
178.482473371178
 30
0.0
 10
125.6395317611248
 20
178.482473371178
 30
0.0
 10
125.8510606239191
 20
178.482473371178
 30
0.0
 10
125.8510606239191
 20
178.482473371178
 30
0.0
 10
125.8510606239191
 20
178.482473371178
 30
0.0
 10
125.8510606239191
 20
177.6758042633067
 30
0.0
 10
125.8510606239191
 20
177.6758042633067
 30
0.0
 10
125.8510606239191
 20
177.6758042633067
 30
0.0
 10
126.4263915699559
 20
177.5686617937155
 30
0.0
 10
126.4263915699559
 20
177.5686617937155
 30
0.0
 10
126.4263915699559
 20
177.5686617937155
 30
0.0
 10
126.4322482322808
 20
177.5743462012661
 30
0.0
 10
126.4322482322808
 20
177.5743462012661
 30
0.0
 10
126.3333739918541
 20
177.6616793718172
 30
0.0
 10
126.2882432409974
 20
177.811196515877
 30
0.0
 10
126.2882432409974
 20
177.9465887684474
 30
0.0
 10
126.2882432409974
 20
178.3019503677509
 30
0.0
 10
126.5138969952812
 20
178.5925441719317
 30
0.0
 10
126.9738172425621
 20
178.5925441719317
 30
0.0
 10
127.3121256192136
 20
178.5925441719317
 30
0.0
 10
127.6394096903123
 20
178.358449933709
 30
0.0
 10
127.6394096903123
 20
177.8930175336517
 30
0.0
 10
127.6394096903123
 20
177.5460964182871
 30
0.0
 10
127.427880827518
 20
177.2639430980451
 30
0.0
 10
127.0668348206638
 20
177.2555026141063
 30
0.0
 10
127.0668348206638
 20
177.2555026141063
 30
0.0
 10
127.0668348206638
 20
177.4952812598796
 30
0.0
 10
127.0668348206638
 20
177.4952812598796
 30
0.0
  0
HATCH
  5
257
330
250
100
AcDbEntity
  8
Sichtbar schmal (ISO)
 62
    18
420
        0
440
 33554687
100
AcDbHatch
 10
0.0
 20
0.0
 30
0.0
210
0.0
220
0.0
230
1.0
  2
SOLID
 70
     1
 71
     1
 91
        1
 92
        1
 93
        1
 72
     4
 94
        3
 73
     0
 74
     0
 95
       53
 96
       49
 40
0.0
 40
0.0
 40
0.0
 40
0.0
 40
1.0
 40
1.0
 40
1.0
 40
2.0
 40
2.0
 40
2.0
 40
3.0
 40
3.0
 40
3.0
 40
4.0
 40
4.0
 40
4.0
 40
5.0
 40
5.0
 40
5.0
 40
6.0
 40
6.0
 40
6.0
 40
7.0
 40
7.0
 40
7.0
 40
8.0
 40
8.0
 40
8.0
 40
9.0
 40
9.0
 40
9.0
 40
10.0
 40
10.0
 40
10.0
 40
11.0
 40
11.0
 40
11.0
 40
12.0
 40
12.0
 40
12.0
 40
13.0
 40
13.0
 40
13.0
 40
14.0
 40
14.0
 40
14.0
 40
15.0
 40
15.0
 40
15.0
 40
16.0
 40
16.0
 40
16.0
 40
16.0
 10
127.0668348206638
 20
177.4952812598796
 10
127.2728515306818
 20
177.5094061513692
 10
127.427880827518
 20
177.6758042633067
 10
127.427880827518
 20
177.9155829090801
 10
127.427880827518
 20
178.1439927397522
 10
127.269750944745
 20
178.3386406346688
 10
126.9538356887476
 20
178.3386406346688
 10
126.6916639223201
 20
178.3386406346688
 10
126.4997721037917
 20
178.1581176312417
 10
126.4997721037917
 20
177.887333126101
 10
126.4997721037917
 20
177.7321315744906
 10
126.5759087140157
 20
177.6081081370216
 10
126.6889078459319
 20
177.5150905589198
 10
126.6889078459319
 20
177.5150905589198
 10
126.6775390308306
 20
177.3090738489019
 10
126.6775390308306
 20
177.3090738489019
 10
126.6775390308306
 20
177.3090738489019
 10
125.6395317611248
 20
177.4952812598796
 10
125.6395317611248
 20
177.4952812598796
 10
125.6395317611248
 20
177.4952812598796
 10
125.6395317611248
 20
178.482473371178
 10
125.6395317611248
 20
178.482473371178
 10
125.6395317611248
 20
178.482473371178
 10
125.8510606239191
 20
178.482473371178
 10
125.8510606239191
 20
178.482473371178
 10
125.8510606239191
 20
178.482473371178
 10
125.8510606239191
 20
177.6758042633067
 10
125.8510606239191
 20
177.6758042633067
 10
125.8510606239191
 20
177.6758042633067
 10
126.4263915699559
 20
177.5686617937155
 10
126.4263915699559
 20
177.5686617937155
 10
126.4263915699559
 20
177.5686617937155
 10
126.4322482322808
 20
177.5743462012661
 10
126.4322482322808
 20
177.5743462012661
 10
126.3333739918541
 20
177.6616793718172
 10
126.2882432409974
 20
177.811196515877
 10
126.2882432409974
 20
177.9465887684474
 10
126.2882432409974
 20
178.3019503677509
 10
126.5138969952812
 20
178.5925441719317
 10
126.9738172425621
 20
178.5925441719317
 10
127.3121256192136
 20
178.5925441719317
 10
127.6394096903123
 20
178.358449933709
 10
127.6394096903123
 20
177.8930175336517
 10
127.6394096903123
 20
177.5460964182871
 10
127.427880827518
 20
177.2639430980451
 10
127.0668348206638
 20
177.2555026141063
 10
127.0668348206638
 20
177.2555026141063
 10
127.0668348206638
 20
177.4952812598796
 10
127.0668348206638
 20
177.4952812598796
 97
        0
 97
        1
330
256
 75
     2
 76
     1
 98
        1
 10
0.0
 20
0.0
450
        0
451
        0
460
0.0
461
0.0
452
        0
462
0.0
453
        0
470

  0
ENDBLK
  5
253
330
250
100
AcDbEntity
  8
0
100
AcDbBlockEnd
  0
BLOCK
  5
25D
330
25B
100
AcDbEntity
  8
0
100
AcDbBlockBegin
  2
Block_34
 70
     0
 10
0.0
 20
0.0
 30
0.0
  3
Block_34
  1

  0
INSERT
  5
260
330
25B
100
AcDbEntity
  8
Sichtbar schmal (ISO)
100
AcDbBlockReference
  2
Block_35
 10
0.0
 20
0.0
 30
0.0
  0
ENDBLK
  5
25E
330
25B
100
AcDbEntity
  8
0
100
AcDbBlockEnd
  0
BLOCK
  5
261
330
25F
100
AcDbEntity
  8
0
100
AcDbBlockBegin
  2
Block_35
 70
     0
 10
0.0
 20
0.0
 30
0.0
  3
Block_35
  1

  0
SPLINE
  5
263
330
25F
100
AcDbEntity
  8
Sichtbar schmal (ISO)
100
AcDbSpline
210
0.0
220
0.0
230
1.0
 70
     9
 71
     3
 72
    17
 73
    13
 74
     0
 42
0.0000000001
 43
0.0000000001
 40
0.0
 40
0.0
 40
0.0
 40
0.0
 40
1.0
 40
1.0
 40
1.0
 40
2.0
 40
2.0
 40
2.0
 40
3.0
 40
3.0
 40
3.0
 40
4.0
 40
4.0
 40
4.0
 40
4.0
 10
141.568964265823
 20
175.1398694766143
 30
0.0
 10
141.568964265823
 20
175.3796481223877
 30
0.0
 10
141.4025661538855
 20
175.5489745654877
 30
0.0
 10
141.1796684759898
 20
175.5489745654877
 30
0.0
 10
140.9653835368072
 20
175.5489745654877
 30
0.0
 10
140.7989854248697
 20
175.36276715451
 30
0.0
 10
140.7989854248697
 20
175.1371134002261
 30
0.0
 10
140.7989854248697
 20
174.9002630856152
 30
0.0
 10
140.9485025689295
 20
174.7140556746375
 30
0.0
 10
141.182424552378
 20
174.7140556746375
 30
0.0
 10
141.4222031981514
 20
174.7140556746375
 30
0.0
 10
141.568964265823
 20
174.8916503469021
 30
0.0
 10
141.568964265823
 20
175.1398694766143
 30
0.0
  0
SPLINE
  5
264
330
25F
100
AcDbEntity
  8
Sichtbar schmal (ISO)
100
AcDbSpline
210
0.0
220
0.0
230
1.0
 70
     9
 71
     3
 72
    17
 73
    13
 74
     0
 42
0.0000000001
 43
0.0000000001
 40
0.0
 40
0.0
 40
0.0
 40
0.0
 40
1.0
 40
1.0
 40
1.0
 40
2.0
 40
2.0
 40
2.0
 40
3.0
 40
3.0
 40
3.0
 40
4.0
 40
4.0
 40
4.0
 40
4.0
 10
140.265684643753
 20
175.4699096241013
 30
0.0
 10
140.0627685196718
 20
175.4699096241013
 30
0.0
 10
139.9583821264687
 20
175.3288329639803
 30
0.0
 10
139.9583821264687
 20
175.1343573238379
 30
0.0
 10
139.9583821264687
 20
174.9424655053095
 30
0.0
 10
140.06552459606
 20
174.7845078773108
 30
0.0
 10
140.265684643753
 20
174.7845078773108
 30
0.0
 10
140.4830701688723
 20
174.7845078773108
 30
0.0
 10
140.5874565620754
 20
174.945393836472
 30
0.0
 10
140.5874565620754
 20
175.1398694766143
 30
0.0
 10
140.5874565620754
 20
175.3317612951427
 30
0.0
 10
140.4689452773828
 20
175.4699096241013
 30
0.0
 10
140.265684643753
 20
175.4699096241013
 30
0.0
  0
SPLINE
  5
265
330
25F
100
AcDbEntity
  8
Sichtbar schmal (ISO)
100
AcDbSpline
210
0.0
220
0.0
230
1.0
 70
     9
 71
     3
 72
    29
 73
    25
 74
     0
 42
0.0000000001
 43
0.0000000001
 40
0.0
 40
0.0
 40
0.0
 40
0.0
 40
1.0
 40
1.0
 40
1.0
 40
2.0
 40
2.0
 40
2.0
 40
3.0
 40
3.0
 40
3.0
 40
4.0
 40
4.0
 40
4.0
 40
5.0
 40
5.0
 40
5.0
 40
6.0
 40
6.0
 40
6.0
 40
7.0
 40
7.0
 40
7.0
 40
8.0
 40
8.0
 40
8.0
 40
8.0
 10
140.671861401464
 20
174.8100015839017
 30
0.0
 10
140.6043375299531
 20
174.6406751408016
 30
0.0
 10
140.4379394180155
 20
174.5306043400479
 30
0.0
 10
140.2574164145884
 20
174.5306043400479
 30
0.0
 10
139.9301323434897
 20
174.5306043400479
 30
0.0
 10
139.7468532636744
 20
174.8100015839017
 30
0.0
 10
139.7468532636744
 20
175.117304101186
 30
0.0
 10
139.7468532636744
 20
175.5544867182641
 30
0.0
 10
140.0007568009373
 20
175.7238131613642
 30
0.0
 10
140.2574164145884
 20
175.7238131613642
 30
0.0
 10
140.4379394180155
 20
175.7238131613642
 30
0.0
 10
140.59572479124
 20
175.6137423606104
 30
0.0
 10
140.671861401464
 20
175.4473442486729
 30
0.0
 10
140.747998011688
 20
175.6871228944462
 30
0.0
 10
140.9230088623387
 20
175.8028781027507
 30
0.0
 10
141.1714002468252
 20
175.8028781027507
 30
0.0
 10
141.5575954507217
 20
175.8028781027507
 30
0.0
 10
141.7804931286174
 20
175.5093559674074
 30
0.0
 10
141.7804931286174
 20
175.1398694766143
 30
0.0
 10
141.7804931286174
 20
174.7562580943317
 30
0.0
 10
141.5775770045362
 20
174.4601521373745
 30
0.0
 10
141.1714002468252
 20
174.4601521373745
 30
0.0
 10
140.93437767744
 20
174.4601521373745
 30
0.0
 10
140.7510985976247
 20
174.5843478296178
 30
0.0
 10
140.671861401464
 20
174.8100015839017
 30
0.0
  0
HATCH
  5
266
330
25F
100
AcDbEntity
  8
Sichtbar schmal (ISO)
 62
    18
420
        0
440
 33554687
100
AcDbHatch
 10
0.0
 20
0.0
 30
0.0
210
0.0
220
0.0
230
1.0
  2
SOLID
 70
     1
 71
     1
 91
        3
 92
        1
 93
        1
 72
     4
 94
        3
 73
     0
 74
     0
 95
       17
 96
       13
 40
0.0
 40
0.0
 40
0.0
 40
0.0
 40
1.0
 40
1.0
 40
1.0
 40
2.0
 40
2.0
 40
2.0
 40
3.0
 40
3.0
 40
3.0
 40
4.0
 40
4.0
 40
4.0
 40
4.0
 10
141.568964265823
 20
175.1398694766143
 10
141.568964265823
 20
175.3796481223877
 10
141.4025661538855
 20
175.5489745654877
 10
141.1796684759898
 20
175.5489745654877
 10
140.9653835368072
 20
175.5489745654877
 10
140.7989854248697
 20
175.36276715451
 10
140.7989854248697
 20
175.1371134002261
 10
140.7989854248697
 20
174.9002630856152
 10
140.9485025689295
 20
174.7140556746375
 10
141.182424552378
 20
174.7140556746375
 10
141.4222031981514
 20
174.7140556746375
 10
141.568964265823
 20
174.8916503469021
 10
141.568964265823
 20
175.1398694766143
 97
        0
 97
        1
330
263
 92
        1
 93
        1
 72
     4
 94
        3
 73
     0
 74
     0
 95
       17
 96
       13
 40
0.0
 40
0.0
 40
0.0
 40
0.0
 40
1.0
 40
1.0
 40
1.0
 40
2.0
 40
2.0
 40
2.0
 40
3.0
 40
3.0
 40
3.0
 40
4.0
 40
4.0
 40
4.0
 40
4.0
 10
140.265684643753
 20
175.4699096241013
 10
140.0627685196718
 20
175.4699096241013
 10
139.9583821264687
 20
175.3288329639803
 10
139.9583821264687
 20
175.1343573238379
 10
139.9583821264687
 20
174.9424655053095
 10
140.06552459606
 20
174.7845078773108
 10
140.265684643753
 20
174.7845078773108
 10
140.4830701688723
 20
174.7845078773108
 10
140.5874565620754
 20
174.945393836472
 10
140.5874565620754
 20
175.1398694766143
 10
140.5874565620754
 20
175.3317612951427
 10
140.4689452773828
 20
175.4699096241013
 10
140.265684643753
 20
175.4699096241013
 97
        0
 97
        1
330
264
 92
        1
 93
        1
 72
     4
 94
        3
 73
     0
 74
     0
 95
       29
 96
       25
 40
0.0
 40
0.0
 40
0.0
 40
0.0
 40
1.0
 40
1.0
 40
1.0
 40
2.0
 40
2.0
 40
2.0
 40
3.0
 40
3.0
 40
3.0
 40
4.0
 40
4.0
 40
4.0
 40
5.0
 40
5.0
 40
5.0
 40
6.0
 40
6.0
 40
6.0
 40
7.0
 40
7.0
 40
7.0
 40
8.0
 40
8.0
 40
8.0
 40
8.0
 10
140.671861401464
 20
174.8100015839017
 10
140.6043375299531
 20
174.6406751408016
 10
140.4379394180155
 20
174.5306043400479
 10
140.2574164145884
 20
174.5306043400479
 10
139.9301323434897
 20
174.5306043400479
 10
139.7468532636744
 20
174.8100015839017
 10
139.7468532636744
 20
175.117304101186
 10
139.7468532636744
 20
175.5544867182641
 10
140.0007568009373
 20
175.7238131613642
 10
140.2574164145884
 20
175.7238131613642
 10
140.4379394180155
 20
175.7238131613642
 10
140.59572479124
 20
175.6137423606104
 10
140.671861401464
 20
175.4473442486729
 10
140.747998011688
 20
175.6871228944462
 10
140.9230088623387
 20
175.8028781027507
 10
141.1714002468252
 20
175.8028781027507
 10
141.5575954507217
 20
175.8028781027507
 10
141.7804931286174
 20
175.5093559674074
 10
141.7804931286174
 20
175.1398694766143
 10
141.7804931286174
 20
174.7562580943317
 10
141.5775770045362
 20
174.4601521373745
 10
141.1714002468252
 20
174.4601521373745
 10
140.93437767744
 20
174.4601521373745
 10
140.7510985976247
 20
174.5843478296178
 10
140.671861401464
 20
174.8100015839017
 97
        0
 97
        1
330
265
 75
     2
 76
     1
 98
        1
 10
0.0
 20
0.0
450
        0
451
        0
460
0.0
461
0.0
452
        0
462
0.0
453
        0
470

  0
SPLINE
  5
267
330
25F
100
AcDbEntity
  8
Sichtbar schmal (ISO)
100
AcDbSpline
210
0.0
220
0.0
230
1.0
 70
     9
 71
     3
 72
    26
 73
    22
 74
     0
 42
0.0000000001
 43
0.0000000001
 40
0.0
 40
0.0
 40
0.0
 40
0.0
 40
1.0
 40
1.0
 40
1.0
 40
2.0
 40
2.0
 40
2.0
 40
3.0
 40
3.0
 40
3.0
 40
4.0
 40
4.0
 40
4.0
 40
5.0
 40
5.0
 40
5.0
 40
6.0
 40
6.0
 40
6.0
 40
7.0
 40
7.0
 40
7.0
 40
7.0
 10
140.0062689537137
 20
177.1068467439177
 30
0.0
 10
140.0062689537137
 20
177.1068467439177
 30
0.0
 10
140.0062689537137
 20
176.0576429138849
 30
0.0
 10
140.0062689537137
 20
176.0576429138849
 30
0.0
 10
140.0062689537137
 20
176.0576429138849
 30
0.0
 10
139.7806151994298
 20
176.0576429138849
 30
0.0
 10
139.7806151994298
 20
176.0576429138849
 30
0.0
 10
139.7806151994298
 20
176.0576429138849
 30
0.0
 10
139.7806151994298
 20
177.3523097972418
 30
0.0
 10
139.7806151994298
 20
177.3523097972418
 30
0.0
 10
139.7806151994298
 20
177.3523097972418
 30
0.0
 10
139.9866319094478
 20
177.3523097972418
 30
0.0
 10
139.9866319094478
 20
177.3523097972418
 30
0.0
 10
140.3841959284456
 20
176.948889115919
 30
0.0
 10
141.1231689100317
 20
176.6217772995945
 30
0.0
 10
141.7467311928619
 20
176.5850870326766
 30
0.0
 10
141.7467311928619
 20
176.5850870326766
 30
0.0
 10
141.7467311928619
 20
176.3170586039242
 30
0.0
 10
141.7467311928619
 20
176.3170586039242
 30
0.0
 10
141.0697699300103
 20
176.362189354781
 30
0.0
 10
140.4493082331168
 20
176.6865450947173
 30
0.0
 10
140.0062689537137
 20
177.1068467439177
 30
0.0
  0
HATCH
  5
268
330
25F
100
AcDbEntity
  8
Sichtbar schmal (ISO)
 62
    18
420
        0
440
 33554687
100
AcDbHatch
 10
0.0
 20
0.0
 30
0.0
210
0.0
220
0.0
230
1.0
  2
SOLID
 70
     1
 71
     1
 91
        1
 92
        1
 93
        1
 72
     4
 94
        3
 73
     0
 74
     0
 95
       26
 96
       22
 40
0.0
 40
0.0
 40
0.0
 40
0.0
 40
1.0
 40
1.0
 40
1.0
 40
2.0
 40
2.0
 40
2.0
 40
3.0
 40
3.0
 40
3.0
 40
4.0
 40
4.0
 40
4.0
 40
5.0
 40
5.0
 40
5.0
 40
6.0
 40
6.0
 40
6.0
 40
7.0
 40
7.0
 40
7.0
 40
7.0
 10
140.0062689537137
 20
177.1068467439177
 10
140.0062689537137
 20
177.1068467439177
 10
140.0062689537137
 20
176.0576429138849
 10
140.0062689537137
 20
176.0576429138849
 10
140.0062689537137
 20
176.0576429138849
 10
139.7806151994298
 20
176.0576429138849
 10
139.7806151994298
 20
176.0576429138849
 10
139.7806151994298
 20
176.0576429138849
 10
139.7806151994298
 20
177.3523097972418
 10
139.7806151994298
 20
177.3523097972418
 10
139.7806151994298
 20
177.3523097972418
 10
139.9866319094478
 20
177.3523097972418
 10
139.9866319094478
 20
177.3523097972418
 10
140.3841959284456
 20
176.948889115919
 10
141.1231689100317
 20
176.6217772995945
 10
141.7467311928619
 20
176.5850870326766
 10
141.7467311928619
 20
176.5850870326766
 10
141.7467311928619
 20
176.3170586039242
 10
141.7467311928619
 20
176.3170586039242
 10
141.0697699300103
 20
176.362189354781
 10
140.4493082331168
 20
176.6865450947173
 10
140.0062689537137
 20
177.1068467439177
 97
        0
 97
        1
330
267
 75
     2
 76
     1
 98
        1
 10
0.0
 20
0.0
450
        0
451
        0
460
0.0
461
0.0
452
        0
462
0.0
453
        0
470

  0
ENDBLK
  5
262
330
25F
100
AcDbEntity
  8
0
100
AcDbBlockEnd
  0
BLOCK
  5
26B
330
269
100
AcDbEntity
  8
0
100
AcDbBlockBegin
  2
Block_36
 70
     0
 10
0.0
 20
0.0
 30
0.0
  3
Block_36
  1

  0
INSERT
  5
26E
330
269
100
AcDbEntity
  8
Sichtbar schmal (ISO)
100
AcDbBlockReference
  2
Block_37
 10
0.0
 20
0.0
 30
0.0
  0
ENDBLK
  5
26C
330
269
100
AcDbEntity
  8
0
100
AcDbBlockEnd
  0
BLOCK
  5
26F
330
26D
100
AcDbEntity
  8
0
100
AcDbBlockBegin
  2
Block_37
 70
     0
 10
0.0
 20
0.0
 30
0.0
  3
Block_37
  1

  0
SPLINE
  5
271
330
26D
100
AcDbEntity
  8
Sichtbar schmal (ISO)
100
AcDbSpline
210
0.0
220
0.0
230
1.0
 70
     9
 71
     3
 72
    26
 73
    22
 74
     0
 42
0.0000000001
 43
0.0000000001
 40
0.0
 40
0.0
 40
0.0
 40
0.0
 40
1.0
 40
1.0
 40
1.0
 40
2.0
 40
2.0
 40
2.0
 40
3.0
 40
3.0
 40
3.0
 40
4.0
 40
4.0
 40
4.0
 40
5.0
 40
5.0
 40
5.0
 40
6.0
 40
6.0
 40
6.0
 40
7.0
 40
7.0
 40
7.0
 40
7.0
 10
134.5761094498629
 20
138.1118109463748
 30
0.0
 10
134.5943684559347
 20
138.1648654168476
 30
0.0
 10
134.6036702137449
 20
138.2186089064176
 30
0.0
 10
134.6036702137449
 20
138.2737304341816
 30
0.0
 10
134.6036702137449
 20
138.4490857943807
 30
0.0
 10
134.521676941196
 20
138.5734537413983
 30
0.0
 10
134.3583794151951
 20
138.6471787847826
 30
0.0
 10
134.2598496843169
 20
138.6916205165424
 30
0.0
 10
134.1468505524008
 20
138.7140136371965
 30
0.0
 10
134.0193820194465
 20
138.7140136371965
 30
0.0
 10
133.9366997278005
 20
138.7140136371965
 30
0.0
 10
133.8653862512559
 20
138.707123446226
 30
0.0
 10
133.805786099361
 20
138.6929985547364
 30
0.0
 10
133.7734022017997
 20
138.6854193446689
 30
0.0
 10
133.7358506610105
 20
138.6726724913735
 30
0.0
 10
133.6927869674449
 20
138.6547579948502
 30
0.0
 10
133.6927869674449
 20
138.6547579948502
 30
0.0
 10
134.4710340375628
 20
137.9640163500576
 30
0.0
 10
134.4710340375628
 20
137.9640163500576
 30
0.0
 10
134.52305497939
 20
138.0098361200114
 30
0.0
 10
134.5581949533396
 20
138.058756475902
 30
0.0
 10
134.5761094498629
 20
138.1118109463748
 30
0.0
  0
SPLINE
  5
272
330
26D
100
AcDbEntity
  8
Sichtbar schmal (ISO)
100
AcDbSpline
210
0.0
220
0.0
230
1.0
 70
     9
 71
     3
 72
    26
 73
    22
 74
     0
 42
0.0000000001
 43
0.0000000001
 40
0.0
 40
0.0
 40
0.0
 40
0.0
 40
1.0
 40
1.0
 40
1.0
 40
2.0
 40
2.0
 40
2.0
 40
3.0
 40
3.0
 40
3.0
 40
4.0
 40
4.0
 40
4.0
 40
5.0
 40
5.0
 40
5.0
 40
6.0
 40
6.0
 40
6.0
 40
7.0
 40
7.0
 40
7.0
 40
7.0
 10
133.5022731871105
 20
138.4756130296172
 30
0.0
 10
133.4757459518741
 20
138.4180799350135
 30
0.0
 10
133.4626545890301
 20
138.3540011589879
 30
0.0
 10
133.4626545890301
 20
138.2833767015402
 30
0.0
 10
133.4626545890301
 20
138.148673468067
 30
0.0
 10
133.5184651358912
 20
138.0408419793787
 30
0.0
 10
133.6304307391618
 20
137.9595377259268
 30
0.0
 10
133.7420518328839
 20
137.8782334724749
 30
0.0
 10
133.8857123146188
 20
137.8375813457489
 30
0.0
 10
134.0614121843666
 20
137.8375813457489
 30
0.0
 10
134.1279025272319
 20
137.8375813457489
 30
0.0
 10
134.1912922841605
 20
137.8444715367194
 30
0.0
 10
134.2519259647009
 20
137.8589409377575
 30
0.0
 10
134.2860324100048
 20
137.8672091669221
 30
0.0
 10
134.3290961035705
 20
137.8816785679601
 30
0.0
 10
134.3818060644948
 20
137.901315612226
 30
0.0
 10
134.3818060644948
 20
137.901315612226
 30
0.0
 10
133.5997693893431
 20
138.6010145052803
 30
0.0
 10
133.5997693893431
 20
138.6010145052803
 30
0.0
 10
133.5611843199083
 20
138.5748317795924
 30
0.0
 10
133.5288004223469
 20
138.5334906337694
 30
0.0
 10
133.5022731871105
 20
138.4756130296172
 30
0.0
  0
SPLINE
  5
273
330
26D
100
AcDbEntity
  8
Sichtbar schmal (ISO)
100
AcDbSpline
210
0.0
220
0.0
230
1.0
 70
    11
 71
     3
 72
    59
 73
    55
 74
     0
 42
0.0000000001
 43
0.0000000001
 40
0.0
 40
0.0
 40
0.0
 40
0.0
 40
1.0
 40
1.0
 40
1.0
 40
2.0
 40
2.0
 40
2.0
 40
3.0
 40
3.0
 40
3.0
 40
4.0
 40
4.0
 40
4.0
 40
5.0
 40
5.0
 40
5.0
 40
6.0
 40
6.0
 40
6.0
 40
7.0
 40
7.0
 40
7.0
 40
8.0
 40
8.0
 40
8.0
 40
9.0
 40
9.0
 40
9.0
 40
10.0
 40
10.0
 40
10.0
 40
11.0
 40
11.0
 40
11.0
 40
12.0
 40
12.0
 40
12.0
 40
13.0
 40
13.0
 40
13.0
 40
14.0
 40
14.0
 40
14.0
 40
15.0
 40
15.0
 40
15.0
 40
16.0
 40
16.0
 40
16.0
 40
17.0
 40
17.0
 40
17.0
 40
18.0
 40
18.0
 40
18.0
 40
18.0
 10
134.7580104914841
 20
137.5537054777643
 30
0.0
 10
134.7580104914841
 20
137.5537054777643
 30
0.0
 10
134.5726643543777
 20
137.7307833857062
 30
0.0
 10
134.5726643543777
 20
137.7307833857062
 30
0.0
 10
134.5047959733182
 20
137.6846191062038
 30
0.0
 10
134.4283148535457
 20
137.6487901131572
 30
0.0
 10
134.3439100141571
 20
137.6239854256634
 30
0.0
 10
134.2595051747684
 20
137.5991807381696
 30
0.0
 10
134.1592528961477
 20
137.5867783944227
 30
0.0
 10
134.0438421973918
 20
137.5867783944227
 30
0.0
 10
133.8354139205342
 20
137.5867783944227
 30
0.0
 10
133.6500677834278
 20
137.645345017672
 30
0.0
 10
133.4878037860725
 20
137.7624782641705
 30
0.0
 10
133.3258842982657
 20
137.8792670011204
 30
0.0
 10
133.2449245543624
 20
138.0497992276403
 30
0.0
 10
133.2449245543624
 20
138.2737304341816
 30
0.0
 10
133.2449245543624
 20
138.390174661583
 30
0.0
 10
133.2655951272739
 20
138.4924939974949
 30
0.0
 10
133.3072807826454
 20
138.5803439323688
 30
0.0
 10
133.3317409605907
 20
138.6320203646475
 30
0.0
 10
133.371359558671
 20
138.6912760069938
 30
0.0
 10
133.426481086435
 20
138.7581108594077
 30
0.0
 10
133.426481086435
 20
138.7581108594077
 30
0.0
 10
133.2325222106155
 20
138.9331217100584
 30
0.0
 10
133.2325222106155
 20
138.9331217100584
 30
0.0
 10
133.2325222106155
 20
138.9331217100584
 30
0.0
 10
133.3028021585146
 20
139.0047796961516
 30
0.0
 10
133.3028021585146
 20
139.0047796961516
 30
0.0
 10
133.3028021585146
 20
139.0047796961516
 30
0.0
 10
133.5002061298194
 20
138.8277017882097
 30
0.0
 10
133.5002061298194
 20
138.8277017882097
 30
0.0
 10
133.584610969208
 20
138.8855793923619
 30
0.0
 10
133.6814181523435
 20
138.9272650477334
 30
0.0
 10
133.7909721887744
 20
138.9524142447758
 30
0.0
 10
133.8615966462221
 20
138.9679171744594
 30
0.0
 10
133.9322211036697
 20
138.9758408940755
 30
0.0
 10
134.0028455611173
 20
138.9758408940755
 30
0.0
 10
134.2398681305025
 20
138.9758408940755
 30
0.0
 10
134.4352050445162
 20
138.9114176085013
 30
0.0
 10
134.5892008127069
 20
138.7825710373529
 30
0.0
 10
134.7431965808975
 20
138.6537244662046
 30
0.0
 10
134.8200222102186
 20
138.4821587110391
 30
0.0
 10
134.8200222102186
 20
138.2678737718566
 30
0.0
 10
134.8200222102186
 20
138.1658989454932
 30
0.0
 10
134.805208299632
 20
138.0752929342312
 30
0.0
 10
134.7752359689103
 20
137.9953667189734
 30
0.0
 10
134.7456081477372
 20
137.9154405037156
 30
0.0
 10
134.7049560210112
 20
137.8513617276899
 30
0.0
 10
134.653624098281
 20
137.8020968622508
 30
0.0
 10
134.653624098281
 20
137.8020968622508
 30
0.0
 10
134.8296684775773
 20
137.6350097312162
 30
0.0
 10
134.8296684775773
 20
137.6350097312162
 30
0.0
 10
134.8296684775773
 20
137.6350097312162
 30
0.0
 10
134.7580104914841
 20
137.5537054777643
 30
0.0
 10
134.7580104914841
 20
137.5537054777643
 30
0.0
  0
HATCH
  5
274
330
26D
100
AcDbEntity
  8
Sichtbar schmal (ISO)
 62
   250
420
  2039067
440
 33554687
100
AcDbHatch
 10
0.0
 20
0.0
 30
0.0
210
0.0
220
0.0
230
1.0
  2
SOLID
 70
     1
 71
     1
 91
        3
 92
        1
 93
        1
 72
     4
 94
        3
 73
     0
 74
     0
 95
       26
 96
       22
 40
0.0
 40
0.0
 40
0.0
 40
0.0
 40
1.0
 40
1.0
 40
1.0
 40
2.0
 40
2.0
 40
2.0
 40
3.0
 40
3.0
 40
3.0
 40
4.0
 40
4.0
 40
4.0
 40
5.0
 40
5.0
 40
5.0
 40
6.0
 40
6.0
 40
6.0
 40
7.0
 40
7.0
 40
7.0
 40
7.0
 10
134.5761094498629
 20
138.1118109463748
 10
134.5943684559347
 20
138.1648654168476
 10
134.6036702137449
 20
138.2186089064176
 10
134.6036702137449
 20
138.2737304341816
 10
134.6036702137449
 20
138.4490857943807
 10
134.521676941196
 20
138.5734537413983
 10
134.3583794151951
 20
138.6471787847826
 10
134.2598496843169
 20
138.6916205165424
 10
134.1468505524008
 20
138.7140136371965
 10
134.0193820194465
 20
138.7140136371965
 10
133.9366997278005
 20
138.7140136371965
 10
133.8653862512559
 20
138.707123446226
 10
133.805786099361
 20
138.6929985547364
 10
133.7734022017997
 20
138.6854193446689
 10
133.7358506610105
 20
138.6726724913735
 10
133.6927869674449
 20
138.6547579948502
 10
133.6927869674449
 20
138.6547579948502
 10
134.4710340375628
 20
137.9640163500576
 10
134.4710340375628
 20
137.9640163500576
 10
134.52305497939
 20
138.0098361200114
 10
134.5581949533396
 20
138.058756475902
 10
134.5761094498629
 20
138.1118109463748
 97
        0
 97
        1
330
271
 92
        1
 93
        1
 72
     4
 94
        3
 73
     0
 74
     0
 95
       26
 96
       22
 40
0.0
 40
0.0
 40
0.0
 40
0.0
 40
1.0
 40
1.0
 40
1.0
 40
2.0
 40
2.0
 40
2.0
 40
3.0
 40
3.0
 40
3.0
 40
4.0
 40
4.0
 40
4.0
 40
5.0
 40
5.0
 40
5.0
 40
6.0
 40
6.0
 40
6.0
 40
7.0
 40
7.0
 40
7.0
 40
7.0
 10
133.5022731871105
 20
138.4756130296172
 10
133.4757459518741
 20
138.4180799350135
 10
133.4626545890301
 20
138.3540011589879
 10
133.4626545890301
 20
138.2833767015402
 10
133.4626545890301
 20
138.148673468067
 10
133.5184651358912
 20
138.0408419793787
 10
133.6304307391618
 20
137.9595377259268
 10
133.7420518328839
 20
137.8782334724749
 10
133.8857123146188
 20
137.8375813457489
 10
134.0614121843666
 20
137.8375813457489
 10
134.1279025272319
 20
137.8375813457489
 10
134.1912922841605
 20
137.8444715367194
 10
134.2519259647009
 20
137.8589409377575
 10
134.2860324100048
 20
137.8672091669221
 10
134.3290961035705
 20
137.8816785679601
 10
134.3818060644948
 20
137.901315612226
 10
134.3818060644948
 20
137.901315612226
 10
133.5997693893431
 20
138.6010145052803
 10
133.5997693893431
 20
138.6010145052803
 10
133.5611843199083
 20
138.5748317795924
 10
133.5288004223469
 20
138.5334906337694
 10
133.5022731871105
 20
138.4756130296172
 97
        0
 97
        1
330
272
 92
        1
 93
        1
 72
     4
 94
        3
 73
     0
 74
     0
 95
       59
 96
       55
 40
0.0
 40
0.0
 40
0.0
 40
0.0
 40
1.0
 40
1.0
 40
1.0
 40
2.0
 40
2.0
 40
2.0
 40
3.0
 40
3.0
 40
3.0
 40
4.0
 40
4.0
 40
4.0
 40
5.0
 40
5.0
 40
5.0
 40
6.0
 40
6.0
 40
6.0
 40
7.0
 40
7.0
 40
7.0
 40
8.0
 40
8.0
 40
8.0
 40
9.0
 40
9.0
 40
9.0
 40
10.0
 40
10.0
 40
10.0
 40
11.0
 40
11.0
 40
11.0
 40
12.0
 40
12.0
 40
12.0
 40
13.0
 40
13.0
 40
13.0
 40
14.0
 40
14.0
 40
14.0
 40
15.0
 40
15.0
 40
15.0
 40
16.0
 40
16.0
 40
16.0
 40
17.0
 40
17.0
 40
17.0
 40
18.0
 40
18.0
 40
18.0
 40
18.0
 10
134.7580104914841
 20
137.5537054777643
 10
134.7580104914841
 20
137.5537054777643
 10
134.5726643543777
 20
137.7307833857062
 10
134.5726643543777
 20
137.7307833857062
 10
134.5047959733182
 20
137.6846191062038
 10
134.4283148535457
 20
137.6487901131572
 10
134.3439100141571
 20
137.6239854256634
 10
134.2595051747684
 20
137.5991807381696
 10
134.1592528961477
 20
137.5867783944227
 10
134.0438421973918
 20
137.5867783944227
 10
133.8354139205342
 20
137.5867783944227
 10
133.6500677834278
 20
137.645345017672
 10
133.4878037860725
 20
137.7624782641705
 10
133.3258842982657
 20
137.8792670011204
 10
133.2449245543624
 20
138.0497992276403
 10
133.2449245543624
 20
138.2737304341816
 10
133.2449245543624
 20
138.390174661583
 10
133.2655951272739
 20
138.4924939974949
 10
133.3072807826454
 20
138.5803439323688
 10
133.3317409605907
 20
138.6320203646475
 10
133.371359558671
 20
138.6912760069938
 10
133.426481086435
 20
138.7581108594077
 10
133.426481086435
 20
138.7581108594077
 10
133.2325222106155
 20
138.9331217100584
 10
133.2325222106155
 20
138.9331217100584
 10
133.2325222106155
 20
138.9331217100584
 10
133.3028021585146
 20
139.0047796961516
 10
133.3028021585146
 20
139.0047796961516
 10
133.3028021585146
 20
139.0047796961516
 10
133.5002061298194
 20
138.8277017882097
 10
133.5002061298194
 20
138.8277017882097
 10
133.584610969208
 20
138.8855793923619
 10
133.6814181523435
 20
138.9272650477334
 10
133.7909721887744
 20
138.9524142447758
 10
133.8615966462221
 20
138.9679171744594
 10
133.9322211036697
 20
138.9758408940755
 10
134.0028455611173
 20
138.9758408940755
 10
134.2398681305025
 20
138.9758408940755
 10
134.4352050445162
 20
138.9114176085013
 10
134.5892008127069
 20
138.7825710373529
 10
134.7431965808975
 20
138.6537244662046
 10
134.8200222102186
 20
138.4821587110391
 10
134.8200222102186
 20
138.2678737718566
 10
134.8200222102186
 20
138.1658989454932
 10
134.805208299632
 20
138.0752929342312
 10
134.7752359689103
 20
137.9953667189734
 10
134.7456081477372
 20
137.9154405037156
 10
134.7049560210112
 20
137.8513617276899
 10
134.653624098281
 20
137.8020968622508
 10
134.653624098281
 20
137.8020968622508
 10
134.8296684775773
 20
137.6350097312162
 10
134.8296684775773
 20
137.6350097312162
 10
134.8296684775773
 20
137.6350097312162
 10
134.7580104914841
 20
137.5537054777643
 10
134.7580104914841
 20
137.5537054777643
 97
        0
 97
        1
330
273
 75
     2
 76
     1
 98
        1
 10
0.0
 20
0.0
450
        0
451
        0
460
0.0
461
0.0
452
        0
462
0.0
453
        0
470

  0
SPLINE
  5
275
330
26D
100
AcDbEntity
  8
Sichtbar schmal (ISO)
100
AcDbSpline
210
0.0
220
0.0
230
1.0
 70
     9
 71
     3
 72
    41
 73
    37
 74
     0
 42
0.0000000001
 43
0.0000000001
 40
0.0
 40
0.0
 40
0.0
 40
0.0
 40
1.0
 40
1.0
 40
1.0
 40
2.0
 40
2.0
 40
2.0
 40
3.0
 40
3.0
 40
3.0
 40
4.0
 40
4.0
 40
4.0
 40
5.0
 40
5.0
 40
5.0
 40
6.0
 40
6.0
 40
6.0
 40
7.0
 40
7.0
 40
7.0
 40
8.0
 40
8.0
 40
8.0
 40
9.0
 40
9.0
 40
9.0
 40
10.0
 40
10.0
 40
10.0
 40
11.0
 40
11.0
 40
11.0
 40
12.0
 40
12.0
 40
12.0
 40
12.0
 10
133.9453124665137
 20
139.7799261803328
 30
0.0
 10
133.7337836037193
 20
140.1182345569843
 30
0.0
 10
133.6152723190267
 20
140.2904893312468
 30
0.0
 10
133.3362195847215
 20
140.2904893312468
 30
0.0
 10
133.1188340596022
 20
140.2904893312468
 30
0.0
 10
132.9751735778673
 20
140.1154784805961
 30
0.0
 10
132.9751735778673
 20
139.9039496178018
 30
0.0
 10
132.9751735778673
 20
139.6248968834965
 30
0.0
 10
133.2318331915184
 20
139.5063855988039
 30
0.0
 10
133.4716118372918
 20
139.5146538279685
 30
0.0
 10
133.4716118372918
 20
139.5146538279685
 30
0.0
 10
133.4716118372918
 20
139.2748751821952
 30
0.0
 10
133.4716118372918
 20
139.2748751821952
 30
0.0
 10
133.0654350795809
 20
139.252482061541
 30
0.0
 10
132.763644715073
 20
139.4950167837026
 30
0.0
 10
132.763644715073
 20
139.9180745092913
 30
0.0
 10
132.763644715073
 20
140.2649956246559
 30
0.0
 10
132.9665608391542
 20
140.5440483589612
 30
0.0
 10
133.3389756611097
 20
140.5440483589612
 30
0.0
 10
133.6917534387993
 20
140.5440483589612
 30
0.0
 10
133.8664197799014
 20
140.3073702991245
 30
0.0
 10
134.0245496626744
 20
140.058978914638
 30
0.0
 10
134.1740668067342
 20
139.8109320397
 30
0.0
 10
134.3063584733678
 20
139.5429036109476
 30
0.0
 10
134.5519937814661
 20
139.4977728600908
 30
0.0
 10
134.5519937814661
 20
139.4977728600908
 30
0.0
 10
134.5519937814661
 20
140.5247558242438
 30
0.0
 10
134.5519937814661
 20
140.5247558242438
 30
0.0
 10
134.5519937814661
 20
140.5247558242438
 30
0.0
 10
134.7635226442605
 20
140.5247558242438
 30
0.0
 10
134.7635226442605
 20
140.5247558242438
 30
0.0
 10
134.7635226442605
 20
140.5247558242438
 30
0.0
 10
134.7635226442605
 20
139.218375616237
 30
0.0
 10
134.7635226442605
 20
139.218375616237
 30
0.0
 10
134.2922335818783
 20
139.2552381379292
 30
0.0
 10
134.1148111643879
 20
139.4977728600908
 30
0.0
 10
133.9453124665137
 20
139.7799261803328
 30
0.0
  0
HATCH
  5
276
330
26D
100
AcDbEntity
  8
Sichtbar schmal (ISO)
 62
    18
420
        0
440
 33554687
100
AcDbHatch
 10
0.0
 20
0.0
 30
0.0
210
0.0
220
0.0
230
1.0
  2
SOLID
 70
     1
 71
     1
 91
        1
 92
        1
 93
        1
 72
     4
 94
        3
 73
     0
 74
     0
 95
       41
 96
       37
 40
0.0
 40
0.0
 40
0.0
 40
0.0
 40
1.0
 40
1.0
 40
1.0
 40
2.0
 40
2.0
 40
2.0
 40
3.0
 40
3.0
 40
3.0
 40
4.0
 40
4.0
 40
4.0
 40
5.0
 40
5.0
 40
5.0
 40
6.0
 40
6.0
 40
6.0
 40
7.0
 40
7.0
 40
7.0
 40
8.0
 40
8.0
 40
8.0
 40
9.0
 40
9.0
 40
9.0
 40
10.0
 40
10.0
 40
10.0
 40
11.0
 40
11.0
 40
11.0
 40
12.0
 40
12.0
 40
12.0
 40
12.0
 10
133.9453124665137
 20
139.7799261803328
 10
133.7337836037193
 20
140.1182345569843
 10
133.6152723190267
 20
140.2904893312468
 10
133.3362195847215
 20
140.2904893312468
 10
133.1188340596022
 20
140.2904893312468
 10
132.9751735778673
 20
140.1154784805961
 10
132.9751735778673
 20
139.9039496178018
 10
132.9751735778673
 20
139.6248968834965
 10
133.2318331915184
 20
139.5063855988039
 10
133.4716118372918
 20
139.5146538279685
 10
133.4716118372918
 20
139.5146538279685
 10
133.4716118372918
 20
139.2748751821952
 10
133.4716118372918
 20
139.2748751821952
 10
133.0654350795809
 20
139.252482061541
 10
132.763644715073
 20
139.4950167837026
 10
132.763644715073
 20
139.9180745092913
 10
132.763644715073
 20
140.2649956246559
 10
132.9665608391542
 20
140.5440483589612
 10
133.3389756611097
 20
140.5440483589612
 10
133.6917534387993
 20
140.5440483589612
 10
133.8664197799014
 20
140.3073702991245
 10
134.0245496626744
 20
140.058978914638
 10
134.1740668067342
 20
139.8109320397
 10
134.3063584733678
 20
139.5429036109476
 10
134.5519937814661
 20
139.4977728600908
 10
134.5519937814661
 20
139.4977728600908
 10
134.5519937814661
 20
140.5247558242438
 10
134.5519937814661
 20
140.5247558242438
 10
134.5519937814661
 20
140.5247558242438
 10
134.7635226442605
 20
140.5247558242438
 10
134.7635226442605
 20
140.5247558242438
 10
134.7635226442605
 20
140.5247558242438
 10
134.7635226442605
 20
139.218375616237
 10
134.7635226442605
 20
139.218375616237
 10
134.2922335818783
 20
139.2552381379292
 10
134.1148111643879
 20
139.4977728600908
 10
133.9453124665137
 20
139.7799261803328
 97
        0
 97
        1
330
275
 75
     2
 76
     1
 98
        1
 10
0.0
 20
0.0
450
        0
451
        0
460
0.0
461
0.0
452
        0
462
0.0
453
        0
470

  0
SPLINE
  5
277
330
26D
100
AcDbEntity
  8
Sichtbar schmal (ISO)
100
AcDbSpline
210
0.0
220
0.0
230
1.0
 70
     9
 71
     3
 72
    17
 73
    13
 74
     0
 42
0.0000000001
 43
0.0000000001
 40
0.0
 40
0.0
 40
0.0
 40
0.0
 40
1.0
 40
1.0
 40
1.0
 40
2.0
 40
2.0
 40
2.0
 40
3.0
 40
3.0
 40
3.0
 40
4.0
 40
4.0
 40
4.0
 40
4.0
 10
133.7789143545761
 20
141.9158853811877
 30
0.0
 10
133.4829806523931
 20
141.9158853811877
 30
0.0
 10
132.9751735778673
 20
141.9131293047995
 30
0.0
 10
132.9751735778673
 20
141.5041964707003
 30
0.0
 10
132.9751735778673
 20
141.0952636366012
 30
0.0
 10
133.4829806523931
 20
141.092507560213
 30
0.0
 10
133.7789143545761
 20
141.092507560213
 30
0.0
 10
134.0779486426958
 20
141.092507560213
 30
0.0
 10
134.5857557172216
 20
141.0952636366012
 30
0.0
 10
134.5857557172216
 20
141.5041964707003
 30
0.0
 10
134.5857557172216
 20
141.9131293047995
 30
0.0
 10
134.0779486426958
 20
141.9158853811877
 30
0.0
 10
133.7789143545761
 20
141.9158853811877
 30
0.0
  0
SPLINE
  5
278
330
26D
100
AcDbEntity
  8
Sichtbar schmal (ISO)
100
AcDbSpline
210
0.0
220
0.0
230
1.0
 70
     9
 71
     3
 72
    17
 73
    13
 74
     0
 42
0.0000000001
 43
0.0000000001
 40
0.0
 40
0.0
 40
0.0
 40
0.0
 40
1.0
 40
1.0
 40
1.0
 40
2.0
 40
2.0
 40
2.0
 40
3.0
 40
3.0
 40
3.0
 40
4.0
 40
4.0
 40
4.0
 40
4.0
 10
133.7820149405128
 20
140.83860402295
 30
0.0
 10
133.3417317374979
 20
140.83860402295
 30
0.0
 10
132.763644715073
 20
140.8782226210304
 30
0.0
 10
132.763644715073
 20
141.5041964707003
 30
0.0
 10
132.763644715073
 20
142.1305148299188
 30
0.0
 10
133.3417317374979
 20
142.1701334279991
 30
0.0
 10
133.7820149405128
 20
142.1701334279991
 30
0.0
 10
134.2219536339792
 20
142.1701334279991
 30
0.0
 10
134.7972845800159
 20
142.1305148299188
 30
0.0
 10
134.7972845800159
 20
141.5041964707003
 30
0.0
 10
134.7972845800159
 20
140.8782226210304
 30
0.0
 10
134.2219536339792
 20
140.83860402295
 30
0.0
 10
133.7820149405128
 20
140.83860402295
 30
0.0
  0
HATCH
  5
279
330
26D
100
AcDbEntity
  8
Sichtbar schmal (ISO)
 62
    18
420
        0
440
 33554687
100
AcDbHatch
 10
0.0
 20
0.0
 30
0.0
210
0.0
220
0.0
230
1.0
  2
SOLID
 70
     1
 71
     1
 91
        2
 92
        1
 93
        1
 72
     4
 94
        3
 73
     0
 74
     0
 95
       17
 96
       13
 40
0.0
 40
0.0
 40
0.0
 40
0.0
 40
1.0
 40
1.0
 40
1.0
 40
2.0
 40
2.0
 40
2.0
 40
3.0
 40
3.0
 40
3.0
 40
4.0
 40
4.0
 40
4.0
 40
4.0
 10
133.7789143545761
 20
141.9158853811877
 10
133.4829806523931
 20
141.9158853811877
 10
132.9751735778673
 20
141.9131293047995
 10
132.9751735778673
 20
141.5041964707003
 10
132.9751735778673
 20
141.0952636366012
 10
133.4829806523931
 20
141.092507560213
 10
133.7789143545761
 20
141.092507560213
 10
134.0779486426958
 20
141.092507560213
 10
134.5857557172216
 20
141.0952636366012
 10
134.5857557172216
 20
141.5041964707003
 10
134.5857557172216
 20
141.9131293047995
 10
134.0779486426958
 20
141.9158853811877
 10
133.7789143545761
 20
141.9158853811877
 97
        0
 97
        1
330
277
 92
        1
 93
        1
 72
     4
 94
        3
 73
     0
 74
     0
 95
       17
 96
       13
 40
0.0
 40
0.0
 40
0.0
 40
0.0
 40
1.0
 40
1.0
 40
1.0
 40
2.0
 40
2.0
 40
2.0
 40
3.0
 40
3.0
 40
3.0
 40
4.0
 40
4.0
 40
4.0
 40
4.0
 10
133.7820149405128
 20
140.83860402295
 10
133.3417317374979
 20
140.83860402295
 10
132.763644715073
 20
140.8782226210304
 10
132.763644715073
 20
141.5041964707003
 10
132.763644715073
 20
142.1305148299188
 10
133.3417317374979
 20
142.1701334279991
 10
133.7820149405128
 20
142.1701334279991
 10
134.2219536339792
 20
142.1701334279991
 10
134.7972845800159
 20
142.1305148299188
 10
134.7972845800159
 20
141.5041964707003
 10
134.7972845800159
 20
140.8782226210304
 10
134.2219536339792
 20
140.83860402295
 10
133.7820149405128
 20
140.83860402295
 97
        0
 97
        1
330
278
 75
     2
 76
     1
 98
        1
 10
0.0
 20
0.0
450
        0
451
        0
460
0.0
461
0.0
452
        0
462
0.0
453
        0
470

  0
SPLINE
  5
27A
330
26D
100
AcDbEntity
  8
Sichtbar schmal (ISO)
100
AcDbSpline
210
0.0
220
0.0
230
1.0
 70
    11
 71
     3
 72
    17
 73
    13
 74
     0
 42
0.0000000001
 43
0.0000000001
 40
0.0
 40
0.0
 40
0.0
 40
0.0
 40
1.0
 40
1.0
 40
1.0
 40
2.0
 40
2.0
 40
2.0
 40
3.0
 40
3.0
 40
3.0
 40
4.0
 40
4.0
 40
4.0
 40
4.0
 10
134.0838053050207
 20
143.2456922384941
 30
0.0
 10
134.0838053050207
 20
143.2456922384941
 30
0.0
 10
133.1050536776612
 20
143.2456922384941
 30
0.0
 10
133.1050536776612
 20
143.2456922384941
 30
0.0
 10
133.1050536776612
 20
143.2456922384941
 30
0.0
 10
133.1050536776612
 20
143.2398355761692
 30
0.0
 10
133.1050536776612
 20
143.2398355761692
 30
0.0
 10
133.1050536776612
 20
143.2398355761692
 30
0.0
 10
134.0838053050207
 20
142.5742431284189
 30
0.0
 10
134.0838053050207
 20
142.5742431284189
 30
0.0
 10
134.0838053050207
 20
142.5742431284189
 30
0.0
 10
134.0838053050207
 20
143.2456922384941
 30
0.0
 10
134.0838053050207
 20
143.2456922384941
 30
0.0
  0
SPLINE
  5
27B
330
26D
100
AcDbEntity
  8
Sichtbar schmal (ISO)
100
AcDbSpline
210
0.0
220
0.0
230
1.0
 70
    11
 71
     3
 72
    38
 73
    34
 74
     0
 42
0.0000000001
 43
0.0000000001
 40
0.0
 40
0.0
 40
0.0
 40
0.0
 40
1.0
 40
1.0
 40
1.0
 40
2.0
 40
2.0
 40
2.0
 40
3.0
 40
3.0
 40
3.0
 40
4.0
 40
4.0
 40
4.0
 40
5.0
 40
5.0
 40
5.0
 40
6.0
 40
6.0
 40
6.0
 40
7.0
 40
7.0
 40
7.0
 40
8.0
 40
8.0
 40
8.0
 40
9.0
 40
9.0
 40
9.0
 40
10.0
 40
10.0
 40
10.0
 40
11.0
 40
11.0
 40
11.0
 40
11.0
 10
134.0638237512063
 20
142.368226418401
 30
0.0
 10
134.0638237512063
 20
142.368226418401
 30
0.0
 10
132.763644715073
 20
143.2794541742496
 30
0.0
 10
132.763644715073
 20
143.2794541742496
 30
0.0
 10
132.763644715073
 20
143.2794541742496
 30
0.0
 10
132.763644715073
 20
143.4710014832295
 30
0.0
 10
132.763644715073
 20
143.4710014832295
 30
0.0
 10
132.763644715073
 20
143.4710014832295
 30
0.0
 10
134.0838053050207
 20
143.4710014832295
 30
0.0
 10
134.0838053050207
 20
143.4710014832295
 30
0.0
 10
134.0838053050207
 20
143.4710014832295
 30
0.0
 10
134.0838053050207
 20
143.7417859883701
 30
0.0
 10
134.0838053050207
 20
143.7417859883701
 30
0.0
 10
134.0838053050207
 20
143.7417859883701
 30
0.0
 10
134.295334167815
 20
143.7417859883701
 30
0.0
 10
134.295334167815
 20
143.7417859883701
 30
0.0
 10
134.295334167815
 20
143.7417859883701
 30
0.0
 10
134.295334167815
 20
143.4710014832295
 30
0.0
 10
134.295334167815
 20
143.4710014832295
 30
0.0
 10
134.295334167815
 20
143.4710014832295
 30
0.0
 10
134.7635226442605
 20
143.4710014832295
 30
0.0
 10
134.7635226442605
 20
143.4710014832295
 30
0.0
 10
134.7635226442605
 20
143.4710014832295
 30
0.0
 10
134.7635226442605
 20
143.2456922384941
 30
0.0
 10
134.7635226442605
 20
143.2456922384941
 30
0.0
 10
134.7635226442605
 20
143.2456922384941
 30
0.0
 10
134.295334167815
 20
143.2456922384941
 30
0.0
 10
134.295334167815
 20
143.2456922384941
 30
0.0
 10
134.295334167815
 20
143.2456922384941
 30
0.0
 10
134.295334167815
 20
142.368226418401
 30
0.0
 10
134.295334167815
 20
142.368226418401
 30
0.0
 10
134.295334167815
 20
142.368226418401
 30
0.0
 10
134.0638237512063
 20
142.368226418401
 30
0.0
 10
134.0638237512063
 20
142.368226418401
 30
0.0
  0
HATCH
  5
27C
330
26D
100
AcDbEntity
  8
Sichtbar schmal (ISO)
 62
    18
420
        0
440
 33554687
100
AcDbHatch
 10
0.0
 20
0.0
 30
0.0
210
0.0
220
0.0
230
1.0
  2
SOLID
 70
     1
 71
     1
 91
        2
 92
        1
 93
        1
 72
     4
 94
        3
 73
     0
 74
     0
 95
       17
 96
       13
 40
0.0
 40
0.0
 40
0.0
 40
0.0
 40
1.0
 40
1.0
 40
1.0
 40
2.0
 40
2.0
 40
2.0
 40
3.0
 40
3.0
 40
3.0
 40
4.0
 40
4.0
 40
4.0
 40
4.0
 10
134.0838053050207
 20
143.2456922384941
 10
134.0838053050207
 20
143.2456922384941
 10
133.1050536776612
 20
143.2456922384941
 10
133.1050536776612
 20
143.2456922384941
 10
133.1050536776612
 20
143.2456922384941
 10
133.1050536776612
 20
143.2398355761692
 10
133.1050536776612
 20
143.2398355761692
 10
133.1050536776612
 20
143.2398355761692
 10
134.0838053050207
 20
142.5742431284189
 10
134.0838053050207
 20
142.5742431284189
 10
134.0838053050207
 20
142.5742431284189
 10
134.0838053050207
 20
143.2456922384941
 10
134.0838053050207
 20
143.2456922384941
 97
        0
 97
        1
330
27A
 92
        1
 93
        1
 72
     4
 94
        3
 73
     0
 74
     0
 95
       38
 96
       34
 40
0.0
 40
0.0
 40
0.0
 40
0.0
 40
1.0
 40
1.0
 40
1.0
 40
2.0
 40
2.0
 40
2.0
 40
3.0
 40
3.0
 40
3.0
 40
4.0
 40
4.0
 40
4.0
 40
5.0
 40
5.0
 40
5.0
 40
6.0
 40
6.0
 40
6.0
 40
7.0
 40
7.0
 40
7.0
 40
8.0
 40
8.0
 40
8.0
 40
9.0
 40
9.0
 40
9.0
 40
10.0
 40
10.0
 40
10.0
 40
11.0
 40
11.0
 40
11.0
 40
11.0
 10
134.0638237512063
 20
142.368226418401
 10
134.0638237512063
 20
142.368226418401
 10
132.763644715073
 20
143.2794541742496
 10
132.763644715073
 20
143.2794541742496
 10
132.763644715073
 20
143.2794541742496
 10
132.763644715073
 20
143.4710014832295
 10
132.763644715073
 20
143.4710014832295
 10
132.763644715073
 20
143.4710014832295
 10
134.0838053050207
 20
143.4710014832295
 10
134.0838053050207
 20
143.4710014832295
 10
134.0838053050207
 20
143.4710014832295
 10
134.0838053050207
 20
143.7417859883701
 10
134.0838053050207
 20
143.7417859883701
 10
134.0838053050207
 20
143.7417859883701
 10
134.295334167815
 20
143.7417859883701
 10
134.295334167815
 20
143.7417859883701
 10
134.295334167815
 20
143.7417859883701
 10
134.295334167815
 20
143.4710014832295
 10
134.295334167815
 20
143.4710014832295
 10
134.295334167815
 20
143.4710014832295
 10
134.7635226442605
 20
143.4710014832295
 10
134.7635226442605
 20
143.4710014832295
 10
134.7635226442605
 20
143.4710014832295
 10
134.7635226442605
 20
143.2456922384941
 10
134.7635226442605
 20
143.2456922384941
 10
134.7635226442605
 20
143.2456922384941
 10
134.295334167815
 20
143.2456922384941
 10
134.295334167815
 20
143.2456922384941
 10
134.295334167815
 20
143.2456922384941
 10
134.295334167815
 20
142.368226418401
 10
134.295334167815
 20
142.368226418401
 10
134.295334167815
 20
142.368226418401
 10
134.0638237512063
 20
142.368226418401
 10
134.0638237512063
 20
142.368226418401
 97
        0
 97
        1
330
27B
 75
     2
 76
     1
 98
        1
 10
0.0
 20
0.0
450
        0
451
        0
460
0.0
461
0.0
452
        0
462
0.0
453
        0
470

  0
ENDBLK
  5
270
330
26D
100
AcDbEntity
  8
0
100
AcDbBlockEnd
  0
BLOCK
  5
27F
330
27D
100
AcDbEntity
  8
0
100
AcDbBlockBegin
  2
Block_38
 70
     0
 10
0.0
 20
0.0
 30
0.0
  3
Block_38
  1

  0
INSERT
  5
282
330
27D
100
AcDbEntity
  8
Sichtbar schmal (ISO)
100
AcDbBlockReference
  2
Block_39
 10
0.0
 20
0.0
 30
0.0
  0
ENDBLK
  5
280
330
27D
100
AcDbEntity
  8
0
100
AcDbBlockEnd
  0
BLOCK
  5
283
330
281
100
AcDbEntity
  8
0
100
AcDbBlockBegin
  2
Block_39
 70
     0
 10
0.0
 20
0.0
 30
0.0
  3
Block_39
  1

  0
SPLINE
  5
285
330
281
100
AcDbEntity
  8
Sichtbar schmal (ISO)
100
AcDbSpline
210
0.0
220
0.0
230
1.0
 70
     9
 71
     3
 72
    26
 73
    22
 74
     0
 42
0.0000000001
 43
0.0000000001
 40
0.0
 40
0.0
 40
0.0
 40
0.0
 40
1.0
 40
1.0
 40
1.0
 40
2.0
 40
2.0
 40
2.0
 40
3.0
 40
3.0
 40
3.0
 40
4.0
 40
4.0
 40
4.0
 40
5.0
 40
5.0
 40
5.0
 40
6.0
 40
6.0
 40
6.0
 40
7.0
 40
7.0
 40
7.0
 40
7.0
 10
141.6158175644224
 20
138.1249023092188
 30
0.0
 10
141.6340765704942
 20
138.1779567796916
 30
0.0
 10
141.6433783283044
 20
138.2317002692615
 30
0.0
 10
141.6433783283044
 20
138.2868217970255
 30
0.0
 10
141.6433783283044
 20
138.4621771572247
 30
0.0
 10
141.5613850557555
 20
138.5865451042422
 30
0.0
 10
141.3980875297546
 20
138.6602701476266
 30
0.0
 10
141.2995577988765
 20
138.7047118793863
 30
0.0
 10
141.1865586669603
 20
138.7271050000404
 30
0.0
 10
141.059090134006
 20
138.7271050000404
 30
0.0
 10
140.97640784236
 20
138.7271050000404
 30
0.0
 10
140.9050943658154
 20
138.7202148090699
 30
0.0
 10
140.8454942139206
 20
138.7060899175804
 30
0.0
 10
140.8131103163592
 20
138.6985107075128
 30
0.0
 10
140.77555877557
 20
138.6857638542174
 30
0.0
 10
140.7324950820044
 20
138.6678493576941
 30
0.0
 10
140.7324950820044
 20
138.6678493576941
 30
0.0
 10
141.5107421521223
 20
137.9771077129015
 30
0.0
 10
141.5107421521223
 20
137.9771077129015
 30
0.0
 10
141.5627630939496
 20
138.0229274828554
 30
0.0
 10
141.5979030678991
 20
138.0718478387459
 30
0.0
 10
141.6158175644224
 20
138.1249023092188
 30
0.0
  0
SPLINE
  5
286
330
281
100
AcDbEntity
  8
Sichtbar schmal (ISO)
100
AcDbSpline
210
0.0
220
0.0
230
1.0
 70
     9
 71
     3
 72
    26
 73
    22
 74
     0
 42
0.0000000001
 43
0.0000000001
 40
0.0
 40
0.0
 40
0.0
 40
0.0
 40
1.0
 40
1.0
 40
1.0
 40
2.0
 40
2.0
 40
2.0
 40
3.0
 40
3.0
 40
3.0
 40
4.0
 40
4.0
 40
4.0
 40
5.0
 40
5.0
 40
5.0
 40
6.0
 40
6.0
 40
6.0
 40
7.0
 40
7.0
 40
7.0
 40
7.0
 10
140.54198130167
 20
138.4887043924611
 30
0.0
 10
140.5154540664336
 20
138.4311712978575
 30
0.0
 10
140.5023627035897
 20
138.3670925218318
 30
0.0
 10
140.5023627035897
 20
138.2964680643842
 30
0.0
 10
140.5023627035897
 20
138.1617648309109
 30
0.0
 10
140.5581732504507
 20
138.0539333422226
 30
0.0
 10
140.6701388537213
 20
137.9726290887707
 30
0.0
 10
140.7817599474434
 20
137.8913248353188
 30
0.0
 10
140.9254204291783
 20
137.8506727085929
 30
0.0
 10
141.1011202989261
 20
137.8506727085929
 30
0.0
 10
141.1676106417914
 20
137.8506727085929
 30
0.0
 10
141.23100039872
 20
137.8575628995634
 30
0.0
 10
141.2916340792604
 20
137.8720323006014
 30
0.0
 10
141.3257405245644
 20
137.880300529766
 30
0.0
 10
141.36880421813
 20
137.8947699308041
 30
0.0
 10
141.4215141790543
 20
137.91440697507
 30
0.0
 10
141.4215141790543
 20
137.91440697507
 30
0.0
 10
140.6394775039026
 20
138.6141058681242
 30
0.0
 10
140.6394775039026
 20
138.6141058681242
 30
0.0
 10
140.6008924344678
 20
138.5879231424363
 30
0.0
 10
140.5685085369064
 20
138.5465819966133
 30
0.0
 10
140.54198130167
 20
138.4887043924611
 30
0.0
  0
SPLINE
  5
287
330
281
100
AcDbEntity
  8
Sichtbar schmal (ISO)
100
AcDbSpline
210
0.0
220
0.0
230
1.0
 70
    11
 71
     3
 72
    59
 73
    55
 74
     0
 42
0.0000000001
 43
0.0000000001
 40
0.0
 40
0.0
 40
0.0
 40
0.0
 40
1.0
 40
1.0
 40
1.0
 40
2.0
 40
2.0
 40
2.0
 40
3.0
 40
3.0
 40
3.0
 40
4.0
 40
4.0
 40
4.0
 40
5.0
 40
5.0
 40
5.0
 40
6.0
 40
6.0
 40
6.0
 40
7.0
 40
7.0
 40
7.0
 40
8.0
 40
8.0
 40
8.0
 40
9.0
 40
9.0
 40
9.0
 40
10.0
 40
10.0
 40
10.0
 40
11.0
 40
11.0
 40
11.0
 40
12.0
 40
12.0
 40
12.0
 40
13.0
 40
13.0
 40
13.0
 40
14.0
 40
14.0
 40
14.0
 40
15.0
 40
15.0
 40
15.0
 40
16.0
 40
16.0
 40
16.0
 40
17.0
 40
17.0
 40
17.0
 40
18.0
 40
18.0
 40
18.0
 40
18.0
 10
141.7977186060436
 20
137.5667968406083
 30
0.0
 10
141.7977186060436
 20
137.5667968406083
 30
0.0
 10
141.6123724689372
 20
137.7438747485501
 30
0.0
 10
141.6123724689372
 20
137.7438747485501
 30
0.0
 10
141.5445040878777
 20
137.6977104690478
 30
0.0
 10
141.4680229681052
 20
137.6618814760012
 30
0.0
 10
141.3836181287166
 20
137.6370767885074
 30
0.0
 10
141.2992132893279
 20
137.6122721010136
 30
0.0
 10
141.1989610107072
 20
137.5998697572667
 30
0.0
 10
141.0835503119513
 20
137.5998697572667
 30
0.0
 10
140.8751220350937
 20
137.5998697572667
 30
0.0
 10
140.6897758979873
 20
137.6584363805159
 30
0.0
 10
140.527511900632
 20
137.7755696270144
 30
0.0
 10
140.3655924128252
 20
137.8923583639644
 30
0.0
 10
140.2846326689219
 20
138.0628905904842
 30
0.0
 10
140.2846326689219
 20
138.2868217970255
 30
0.0
 10
140.2846326689219
 20
138.4032660244269
 30
0.0
 10
140.3053032418334
 20
138.5055853603389
 30
0.0
 10
140.3469888972049
 20
138.5934352952127
 30
0.0
 10
140.3714490751502
 20
138.6451117274915
 30
0.0
 10
140.4110676732305
 20
138.7043673698378
 30
0.0
 10
140.4661892009945
 20
138.7712022222516
 30
0.0
 10
140.4661892009945
 20
138.7712022222516
 30
0.0
 10
140.272230325175
 20
138.9462130729023
 30
0.0
 10
140.272230325175
 20
138.9462130729023
 30
0.0
 10
140.272230325175
 20
138.9462130729023
 30
0.0
 10
140.3425102730741
 20
139.0178710589955
 30
0.0
 10
140.3425102730741
 20
139.0178710589955
 30
0.0
 10
140.3425102730741
 20
139.0178710589955
 30
0.0
 10
140.5399142443789
 20
138.8407931510537
 30
0.0
 10
140.5399142443789
 20
138.8407931510537
 30
0.0
 10
140.6243190837675
 20
138.8986707552059
 30
0.0
 10
140.721126266903
 20
138.9403564105774
 30
0.0
 10
140.830680303334
 20
138.9655056076197
 30
0.0
 10
140.9013047607816
 20
138.9810085373033
 30
0.0
 10
140.9719292182292
 20
138.9889322569194
 30
0.0
 10
141.0425536756768
 20
138.9889322569194
 30
0.0
 10
141.279576245062
 20
138.9889322569194
 30
0.0
 10
141.4749131590757
 20
138.9245089713452
 30
0.0
 10
141.6289089272664
 20
138.7956624001969
 30
0.0
 10
141.782904695457
 20
138.6668158290486
 30
0.0
 10
141.8597303247781
 20
138.4952500738831
 30
0.0
 10
141.8597303247781
 20
138.2809651347006
 30
0.0
 10
141.8597303247781
 20
138.1789903083372
 30
0.0
 10
141.8449164141915
 20
138.0883842970751
 30
0.0
 10
141.8149440834698
 20
138.0084580818173
 30
0.0
 10
141.7853162622967
 20
137.9285318665595
 30
0.0
 10
141.7446641355708
 20
137.8644530905339
 30
0.0
 10
141.6933322128405
 20
137.8151882250948
 30
0.0
 10
141.6933322128405
 20
137.8151882250948
 30
0.0
 10
141.8693765921368
 20
137.6481010940602
 30
0.0
 10
141.8693765921368
 20
137.6481010940602
 30
0.0
 10
141.8693765921368
 20
137.6481010940602
 30
0.0
 10
141.7977186060436
 20
137.5667968406083
 30
0.0
 10
141.7977186060436
 20
137.5667968406083
 30
0.0
  0
HATCH
  5
288
330
281
100
AcDbEntity
  8
Sichtbar schmal (ISO)
 62
   250
420
  2039067
440
 33554687
100
AcDbHatch
 10
0.0
 20
0.0
 30
0.0
210
0.0
220
0.0
230
1.0
  2
SOLID
 70
     1
 71
     1
 91
        3
 92
        1
 93
        1
 72
     4
 94
        3
 73
     0
 74
     0
 95
       26
 96
       22
 40
0.0
 40
0.0
 40
0.0
 40
0.0
 40
1.0
 40
1.0
 40
1.0
 40
2.0
 40
2.0
 40
2.0
 40
3.0
 40
3.0
 40
3.0
 40
4.0
 40
4.0
 40
4.0
 40
5.0
 40
5.0
 40
5.0
 40
6.0
 40
6.0
 40
6.0
 40
7.0
 40
7.0
 40
7.0
 40
7.0
 10
141.6158175644224
 20
138.1249023092188
 10
141.6340765704942
 20
138.1779567796916
 10
141.6433783283044
 20
138.2317002692615
 10
141.6433783283044
 20
138.2868217970255
 10
141.6433783283044
 20
138.4621771572247
 10
141.5613850557555
 20
138.5865451042422
 10
141.3980875297546
 20
138.6602701476266
 10
141.2995577988765
 20
138.7047118793863
 10
141.1865586669603
 20
138.7271050000404
 10
141.059090134006
 20
138.7271050000404
 10
140.97640784236
 20
138.7271050000404
 10
140.9050943658154
 20
138.7202148090699
 10
140.8454942139206
 20
138.7060899175804
 10
140.8131103163592
 20
138.6985107075128
 10
140.77555877557
 20
138.6857638542174
 10
140.7324950820044
 20
138.6678493576941
 10
140.7324950820044
 20
138.6678493576941
 10
141.5107421521223
 20
137.9771077129015
 10
141.5107421521223
 20
137.9771077129015
 10
141.5627630939496
 20
138.0229274828554
 10
141.5979030678991
 20
138.0718478387459
 10
141.6158175644224
 20
138.1249023092188
 97
        0
 97
        1
330
285
 92
        1
 93
        1
 72
     4
 94
        3
 73
     0
 74
     0
 95
       26
 96
       22
 40
0.0
 40
0.0
 40
0.0
 40
0.0
 40
1.0
 40
1.0
 40
1.0
 40
2.0
 40
2.0
 40
2.0
 40
3.0
 40
3.0
 40
3.0
 40
4.0
 40
4.0
 40
4.0
 40
5.0
 40
5.0
 40
5.0
 40
6.0
 40
6.0
 40
6.0
 40
7.0
 40
7.0
 40
7.0
 40
7.0
 10
140.54198130167
 20
138.4887043924611
 10
140.5154540664336
 20
138.4311712978575
 10
140.5023627035897
 20
138.3670925218318
 10
140.5023627035897
 20
138.2964680643842
 10
140.5023627035897
 20
138.1617648309109
 10
140.5581732504507
 20
138.0539333422226
 10
140.6701388537213
 20
137.9726290887707
 10
140.7817599474434
 20
137.8913248353188
 10
140.9254204291783
 20
137.8506727085929
 10
141.1011202989261
 20
137.8506727085929
 10
141.1676106417914
 20
137.8506727085929
 10
141.23100039872
 20
137.8575628995634
 10
141.2916340792604
 20
137.8720323006014
 10
141.3257405245644
 20
137.880300529766
 10
141.36880421813
 20
137.8947699308041
 10
141.4215141790543
 20
137.91440697507
 10
141.4215141790543
 20
137.91440697507
 10
140.6394775039026
 20
138.6141058681242
 10
140.6394775039026
 20
138.6141058681242
 10
140.6008924344678
 20
138.5879231424363
 10
140.5685085369064
 20
138.5465819966133
 10
140.54198130167
 20
138.4887043924611
 97
        0
 97
        1
330
286
 92
        1
 93
        1
 72
     4
 94
        3
 73
     0
 74
     0
 95
       59
 96
       55
 40
0.0
 40
0.0
 40
0.0
 40
0.0
 40
1.0
 40
1.0
 40
1.0
 40
2.0
 40
2.0
 40
2.0
 40
3.0
 40
3.0
 40
3.0
 40
4.0
 40
4.0
 40
4.0
 40
5.0
 40
5.0
 40
5.0
 40
6.0
 40
6.0
 40
6.0
 40
7.0
 40
7.0
 40
7.0
 40
8.0
 40
8.0
 40
8.0
 40
9.0
 40
9.0
 40
9.0
 40
10.0
 40
10.0
 40
10.0
 40
11.0
 40
11.0
 40
11.0
 40
12.0
 40
12.0
 40
12.0
 40
13.0
 40
13.0
 40
13.0
 40
14.0
 40
14.0
 40
14.0
 40
15.0
 40
15.0
 40
15.0
 40
16.0
 40
16.0
 40
16.0
 40
17.0
 40
17.0
 40
17.0
 40
18.0
 40
18.0
 40
18.0
 40
18.0
 10
141.7977186060436
 20
137.5667968406083
 10
141.7977186060436
 20
137.5667968406083
 10
141.6123724689372
 20
137.7438747485501
 10
141.6123724689372
 20
137.7438747485501
 10
141.5445040878777
 20
137.6977104690478
 10
141.4680229681052
 20
137.6618814760012
 10
141.3836181287166
 20
137.6370767885074
 10
141.2992132893279
 20
137.6122721010136
 10
141.1989610107072
 20
137.5998697572667
 10
141.0835503119513
 20
137.5998697572667
 10
140.8751220350937
 20
137.5998697572667
 10
140.6897758979873
 20
137.6584363805159
 10
140.527511900632
 20
137.7755696270144
 10
140.3655924128252
 20
137.8923583639644
 10
140.2846326689219
 20
138.0628905904842
 10
140.2846326689219
 20
138.2868217970255
 10
140.2846326689219
 20
138.4032660244269
 10
140.3053032418334
 20
138.5055853603389
 10
140.3469888972049
 20
138.5934352952127
 10
140.3714490751502
 20
138.6451117274915
 10
140.4110676732305
 20
138.7043673698378
 10
140.4661892009945
 20
138.7712022222516
 10
140.4661892009945
 20
138.7712022222516
 10
140.272230325175
 20
138.9462130729023
 10
140.272230325175
 20
138.9462130729023
 10
140.272230325175
 20
138.9462130729023
 10
140.3425102730741
 20
139.0178710589955
 10
140.3425102730741
 20
139.0178710589955
 10
140.3425102730741
 20
139.0178710589955
 10
140.5399142443789
 20
138.8407931510537
 10
140.5399142443789
 20
138.8407931510537
 10
140.6243190837675
 20
138.8986707552059
 10
140.721126266903
 20
138.9403564105774
 10
140.830680303334
 20
138.9655056076197
 10
140.9013047607816
 20
138.9810085373033
 10
140.9719292182292
 20
138.9889322569194
 10
141.0425536756768
 20
138.9889322569194
 10
141.279576245062
 20
138.9889322569194
 10
141.4749131590757
 20
138.9245089713452
 10
141.6289089272664
 20
138.7956624001969
 10
141.782904695457
 20
138.6668158290486
 10
141.8597303247781
 20
138.4952500738831
 10
141.8597303247781
 20
138.2809651347006
 10
141.8597303247781
 20
138.1789903083372
 10
141.8449164141915
 20
138.0883842970751
 10
141.8149440834698
 20
138.0084580818173
 10
141.7853162622967
 20
137.9285318665595
 10
141.7446641355708
 20
137.8644530905339
 10
141.6933322128405
 20
137.8151882250948
 10
141.6933322128405
 20
137.8151882250948
 10
141.8693765921368
 20
137.6481010940602
 10
141.8693765921368
 20
137.6481010940602
 10
141.8693765921368
 20
137.6481010940602
 10
141.7977186060436
 20
137.5667968406083
 10
141.7977186060436
 20
137.5667968406083
 97
        0
 97
        1
330
287
 75
     2
 76
     1
 98
        1
 10
0.0
 20
0.0
450
        0
451
        0
460
0.0
461
0.0
452
        0
462
0.0
453
        0
470

  0
SPLINE
  5
289
330
281
100
AcDbEntity
  8
Sichtbar schmal (ISO)
100
AcDbSpline
210
0.0
220
0.0
230
1.0
 70
     9
 71
     3
 72
    41
 73
    37
 74
     0
 42
0.0000000001
 43
0.0000000001
 40
0.0
 40
0.0
 40
0.0
 40
0.0
 40
1.0
 40
1.0
 40
1.0
 40
2.0
 40
2.0
 40
2.0
 40
3.0
 40
3.0
 40
3.0
 40
4.0
 40
4.0
 40
4.0
 40
5.0
 40
5.0
 40
5.0
 40
6.0
 40
6.0
 40
6.0
 40
7.0
 40
7.0
 40
7.0
 40
8.0
 40
8.0
 40
8.0
 40
9.0
 40
9.0
 40
9.0
 40
10.0
 40
10.0
 40
10.0
 40
11.0
 40
11.0
 40
11.0
 40
12.0
 40
12.0
 40
12.0
 40
12.0
 10
140.9850205810732
 20
139.7930175431767
 30
0.0
 10
140.7734917182788
 20
140.1313259198283
 30
0.0
 10
140.6549804335863
 20
140.3035806940908
 30
0.0
 10
140.375927699281
 20
140.3035806940908
 30
0.0
 10
140.1585421741617
 20
140.3035806940908
 30
0.0
 10
140.0148816924268
 20
140.1285698434401
 30
0.0
 10
140.0148816924268
 20
139.9170409806457
 30
0.0
 10
140.0148816924268
 20
139.6379882463405
 30
0.0
 10
140.2715413060779
 20
139.5194769616479
 30
0.0
 10
140.5113199518513
 20
139.5277451908125
 30
0.0
 10
140.5113199518513
 20
139.5277451908125
 30
0.0
 10
140.5113199518513
 20
139.2879665450391
 30
0.0
 10
140.5113199518513
 20
139.2879665450391
 30
0.0
 10
140.1051431941404
 20
139.265573424385
 30
0.0
 10
139.8033528296325
 20
139.5081081465466
 30
0.0
 10
139.8033528296325
 20
139.9311658721352
 30
0.0
 10
139.8033528296325
 20
140.2780869874999
 30
0.0
 10
140.0062689537137
 20
140.5571397218051
 30
0.0
 10
140.3786837756692
 20
140.5571397218051
 30
0.0
 10
140.7314615533588
 20
140.5571397218051
 30
0.0
 10
140.9061278944609
 20
140.3204616619685
 30
0.0
 10
141.0642577772339
 20
140.072070277482
 30
0.0
 10
141.2137749212938
 20
139.824023402544
 30
0.0
 10
141.3460665879273
 20
139.5559949737915
 30
0.0
 10
141.5917018960256
 20
139.5108642229348
 30
0.0
 10
141.5917018960256
 20
139.5108642229348
 30
0.0
 10
141.5917018960256
 20
140.5378471870877
 30
0.0
 10
141.5917018960256
 20
140.5378471870877
 30
0.0
 10
141.5917018960256
 20
140.5378471870877
 30
0.0
 10
141.80323075882
 20
140.5378471870877
 30
0.0
 10
141.80323075882
 20
140.5378471870877
 30
0.0
 10
141.80323075882
 20
140.5378471870877
 30
0.0
 10
141.80323075882
 20
139.231466979081
 30
0.0
 10
141.80323075882
 20
139.231466979081
 30
0.0
 10
141.3319416964379
 20
139.2683295007732
 30
0.0
 10
141.1545192789475
 20
139.5108642229348
 30
0.0
 10
140.9850205810732
 20
139.7930175431767
 30
0.0
  0
HATCH
  5
28A
330
281
100
AcDbEntity
  8
Sichtbar schmal (ISO)
 62
    18
420
        0
440
 33554687
100
AcDbHatch
 10
0.0
 20
0.0
 30
0.0
210
0.0
220
0.0
230
1.0
  2
SOLID
 70
     1
 71
     1
 91
        1
 92
        1
 93
        1
 72
     4
 94
        3
 73
     0
 74
     0
 95
       41
 96
       37
 40
0.0
 40
0.0
 40
0.0
 40
0.0
 40
1.0
 40
1.0
 40
1.0
 40
2.0
 40
2.0
 40
2.0
 40
3.0
 40
3.0
 40
3.0
 40
4.0
 40
4.0
 40
4.0
 40
5.0
 40
5.0
 40
5.0
 40
6.0
 40
6.0
 40
6.0
 40
7.0
 40
7.0
 40
7.0
 40
8.0
 40
8.0
 40
8.0
 40
9.0
 40
9.0
 40
9.0
 40
10.0
 40
10.0
 40
10.0
 40
11.0
 40
11.0
 40
11.0
 40
12.0
 40
12.0
 40
12.0
 40
12.0
 10
140.9850205810732
 20
139.7930175431767
 10
140.7734917182788
 20
140.1313259198283
 10
140.6549804335863
 20
140.3035806940908
 10
140.375927699281
 20
140.3035806940908
 10
140.1585421741617
 20
140.3035806940908
 10
140.0148816924268
 20
140.1285698434401
 10
140.0148816924268
 20
139.9170409806457
 10
140.0148816924268
 20
139.6379882463405
 10
140.2715413060779
 20
139.5194769616479
 10
140.5113199518513
 20
139.5277451908125
 10
140.5113199518513
 20
139.5277451908125
 10
140.5113199518513
 20
139.2879665450391
 10
140.5113199518513
 20
139.2879665450391
 10
140.1051431941404
 20
139.265573424385
 10
139.8033528296325
 20
139.5081081465466
 10
139.8033528296325
 20
139.9311658721352
 10
139.8033528296325
 20
140.2780869874999
 10
140.0062689537137
 20
140.5571397218051
 10
140.3786837756692
 20
140.5571397218051
 10
140.7314615533588
 20
140.5571397218051
 10
140.9061278944609
 20
140.3204616619685
 10
141.0642577772339
 20
140.072070277482
 10
141.2137749212938
 20
139.824023402544
 10
141.3460665879273
 20
139.5559949737915
 10
141.5917018960256
 20
139.5108642229348
 10
141.5917018960256
 20
139.5108642229348
 10
141.5917018960256
 20
140.5378471870877
 10
141.5917018960256
 20
140.5378471870877
 10
141.5917018960256
 20
140.5378471870877
 10
141.80323075882
 20
140.5378471870877
 10
141.80323075882
 20
140.5378471870877
 10
141.80323075882
 20
140.5378471870877
 10
141.80323075882
 20
139.231466979081
 10
141.80323075882
 20
139.231466979081
 10
141.3319416964379
 20
139.2683295007732
 10
141.1545192789475
 20
139.5108642229348
 10
140.9850205810732
 20
139.7930175431767
 97
        0
 97
        1
330
289
 75
     2
 76
     1
 98
        1
 10
0.0
 20
0.0
450
        0
451
        0
460
0.0
461
0.0
452
        0
462
0.0
453
        0
470

  0
SPLINE
  5
28B
330
281
100
AcDbEntity
  8
Sichtbar schmal (ISO)
100
AcDbSpline
210
0.0
220
0.0
230
1.0
 70
    11
 71
     3
 72
    26
 73
    22
 74
     0
 42
0.0000000001
 43
0.0000000001
 40
0.0
 40
0.0
 40
0.0
 40
0.0
 40
1.0
 40
1.0
 40
1.0
 40
2.0
 40
2.0
 40
2.0
 40
3.0
 40
3.0
 40
3.0
 40
4.0
 40
4.0
 40
4.0
 40
5.0
 40
5.0
 40
5.0
 40
6.0
 40
6.0
 40
6.0
 40
7.0
 40
7.0
 40
7.0
 40
7.0
 10
140.3704155465046
 20
141.4976507892783
 30
0.0
 10
140.3704155465046
 20
141.4976507892783
 30
0.0
 10
140.3704155465046
 20
140.9788194091997
 30
0.0
 10
140.3704155465046
 20
140.9788194091997
 30
0.0
 10
140.3704155465046
 20
140.9788194091997
 30
0.0
 10
140.1785237279762
 20
140.9788194091997
 30
0.0
 10
140.1785237279762
 20
140.9788194091997
 30
0.0
 10
140.1785237279762
 20
141.2523599907286
 30
0.0
 10
140.1078992705286
 20
141.5004068656666
 30
0.0
 10
139.8033528296325
 20
141.5541503552364
 30
0.0
 10
139.8033528296325
 20
141.5541503552364
 30
0.0
 10
139.8033528296325
 20
141.7374294350517
 30
0.0
 10
139.8033528296325
 20
141.7374294350517
 30
0.0
 10
139.8033528296325
 20
141.7374294350517
 30
0.0
 10
141.80323075882
 20
141.7374294350517
 30
0.0
 10
141.80323075882
 20
141.7374294350517
 30
0.0
 10
141.80323075882
 20
141.7374294350517
 30
0.0
 10
141.80323075882
 20
141.4976507892783
 30
0.0
 10
141.80323075882
 20
141.4976507892783
 30
0.0
 10
141.80323075882
 20
141.4976507892783
 30
0.0
 10
140.3704155465046
 20
141.4976507892783
 30
0.0
 10
140.3704155465046
 20
141.4976507892783
 30
0.0
  0
HATCH
  5
28C
330
281
100
AcDbEntity
  8
Sichtbar schmal (ISO)
 62
    18
420
        0
440
 33554687
100
AcDbHatch
 10
0.0
 20
0.0
 30
0.0
210
0.0
220
0.0
230
1.0
  2
SOLID
 70
     1
 71
     1
 91
        1
 92
        1
 93
        1
 72
     4
 94
        3
 73
     0
 74
     0
 95
       26
 96
       22
 40
0.0
 40
0.0
 40
0.0
 40
0.0
 40
1.0
 40
1.0
 40
1.0
 40
2.0
 40
2.0
 40
2.0
 40
3.0
 40
3.0
 40
3.0
 40
4.0
 40
4.0
 40
4.0
 40
5.0
 40
5.0
 40
5.0
 40
6.0
 40
6.0
 40
6.0
 40
7.0
 40
7.0
 40
7.0
 40
7.0
 10
140.3704155465046
 20
141.4976507892783
 10
140.3704155465046
 20
141.4976507892783
 10
140.3704155465046
 20
140.9788194091997
 10
140.3704155465046
 20
140.9788194091997
 10
140.3704155465046
 20
140.9788194091997
 10
140.1785237279762
 20
140.9788194091997
 10
140.1785237279762
 20
140.9788194091997
 10
140.1785237279762
 20
141.2523599907286
 10
140.1078992705286
 20
141.5004068656666
 10
139.8033528296325
 20
141.5541503552364
 10
139.8033528296325
 20
141.5541503552364
 10
139.8033528296325
 20
141.7374294350517
 10
139.8033528296325
 20
141.7374294350517
 10
139.8033528296325
 20
141.7374294350517
 10
141.80323075882
 20
141.7374294350517
 10
141.80323075882
 20
141.7374294350517
 10
141.80323075882
 20
141.7374294350517
 10
141.80323075882
 20
141.4976507892783
 10
141.80323075882
 20
141.4976507892783
 10
141.80323075882
 20
141.4976507892783
 10
140.3704155465046
 20
141.4976507892783
 10
140.3704155465046
 20
141.4976507892783
 97
        0
 97
        1
330
28B
 75
     2
 76
     1
 98
        1
 10
0.0
 20
0.0
450
        0
451
        0
460
0.0
461
0.0
452
        0
462
0.0
453
        0
470

  0
SPLINE
  5
28D
330
281
100
AcDbEntity
  8
Sichtbar schmal (ISO)
100
AcDbSpline
210
0.0
220
0.0
230
1.0
 70
    11
 71
     3
 72
    17
 73
    13
 74
     0
 42
0.0000000001
 43
0.0000000001
 40
0.0
 40
0.0
 40
0.0
 40
0.0
 40
1.0
 40
1.0
 40
1.0
 40
2.0
 40
2.0
 40
2.0
 40
3.0
 40
3.0
 40
3.0
 40
4.0
 40
4.0
 40
4.0
 40
4.0
 10
141.1235134195802
 20
143.2587836013381
 30
0.0
 10
141.1235134195802
 20
143.2587836013381
 30
0.0
 10
140.1447617922207
 20
143.2587836013381
 30
0.0
 10
140.1447617922207
 20
143.2587836013381
 30
0.0
 10
140.1447617922207
 20
143.2587836013381
 30
0.0
 10
140.1447617922207
 20
143.2529269390131
 30
0.0
 10
140.1447617922207
 20
143.2529269390131
 30
0.0
 10
140.1447617922207
 20
143.2529269390131
 30
0.0
 10
141.1235134195802
 20
142.5873344912629
 30
0.0
 10
141.1235134195802
 20
142.5873344912629
 30
0.0
 10
141.1235134195802
 20
142.5873344912629
 30
0.0
 10
141.1235134195802
 20
143.2587836013381
 30
0.0
 10
141.1235134195802
 20
143.2587836013381
 30
0.0
  0
SPLINE
  5
28E
330
281
100
AcDbEntity
  8
Sichtbar schmal (ISO)
100
AcDbSpline
210
0.0
220
0.0
230
1.0
 70
    11
 71
     3
 72
    38
 73
    34
 74
     0
 42
0.0000000001
 43
0.0000000001
 40
0.0
 40
0.0
 40
0.0
 40
0.0
 40
1.0
 40
1.0
 40
1.0
 40
2.0
 40
2.0
 40
2.0
 40
3.0
 40
3.0
 40
3.0
 40
4.0
 40
4.0
 40
4.0
 40
5.0
 40
5.0
 40
5.0
 40
6.0
 40
6.0
 40
6.0
 40
7.0
 40
7.0
 40
7.0
 40
8.0
 40
8.0
 40
8.0
 40
9.0
 40
9.0
 40
9.0
 40
10.0
 40
10.0
 40
10.0
 40
11.0
 40
11.0
 40
11.0
 40
11.0
 10
141.1035318657658
 20
142.3813177812449
 30
0.0
 10
141.1035318657658
 20
142.3813177812449
 30
0.0
 10
139.8033528296325
 20
143.2925455370935
 30
0.0
 10
139.8033528296325
 20
143.2925455370935
 30
0.0
 10
139.8033528296325
 20
143.2925455370935
 30
0.0
 10
139.8033528296325
 20
143.4840928460734
 30
0.0
 10
139.8033528296325
 20
143.4840928460734
 30
0.0
 10
139.8033528296325
 20
143.4840928460734
 30
0.0
 10
141.1235134195802
 20
143.4840928460734
 30
0.0
 10
141.1235134195802
 20
143.4840928460734
 30
0.0
 10
141.1235134195802
 20
143.4840928460734
 30
0.0
 10
141.1235134195802
 20
143.7548773512141
 30
0.0
 10
141.1235134195802
 20
143.7548773512141
 30
0.0
 10
141.1235134195802
 20
143.7548773512141
 30
0.0
 10
141.3350422823746
 20
143.7548773512141
 30
0.0
 10
141.3350422823746
 20
143.7548773512141
 30
0.0
 10
141.3350422823746
 20
143.7548773512141
 30
0.0
 10
141.3350422823746
 20
143.4840928460734
 30
0.0
 10
141.3350422823746
 20
143.4840928460734
 30
0.0
 10
141.3350422823746
 20
143.4840928460734
 30
0.0
 10
141.80323075882
 20
143.4840928460734
 30
0.0
 10
141.80323075882
 20
143.4840928460734
 30
0.0
 10
141.80323075882
 20
143.4840928460734
 30
0.0
 10
141.80323075882
 20
143.2587836013381
 30
0.0
 10
141.80323075882
 20
143.2587836013381
 30
0.0
 10
141.80323075882
 20
143.2587836013381
 30
0.0
 10
141.3350422823746
 20
143.2587836013381
 30
0.0
 10
141.3350422823746
 20
143.2587836013381
 30
0.0
 10
141.3350422823746
 20
143.2587836013381
 30
0.0
 10
141.3350422823746
 20
142.3813177812449
 30
0.0
 10
141.3350422823746
 20
142.3813177812449
 30
0.0
 10
141.3350422823746
 20
142.3813177812449
 30
0.0
 10
141.1035318657658
 20
142.3813177812449
 30
0.0
 10
141.1035318657658
 20
142.3813177812449
 30
0.0
  0
HATCH
  5
28F
330
281
100
AcDbEntity
  8
Sichtbar schmal (ISO)
 62
    18
420
        0
440
 33554687
100
AcDbHatch
 10
0.0
 20
0.0
 30
0.0
210
0.0
220
0.0
230
1.0
  2
SOLID
 70
     1
 71
     1
 91
        2
 92
        1
 93
        1
 72
     4
 94
        3
 73
     0
 74
     0
 95
       17
 96
       13
 40
0.0
 40
0.0
 40
0.0
 40
0.0
 40
1.0
 40
1.0
 40
1.0
 40
2.0
 40
2.0
 40
2.0
 40
3.0
 40
3.0
 40
3.0
 40
4.0
 40
4.0
 40
4.0
 40
4.0
 10
141.1235134195802
 20
143.2587836013381
 10
141.1235134195802
 20
143.2587836013381
 10
140.1447617922207
 20
143.2587836013381
 10
140.1447617922207
 20
143.2587836013381
 10
140.1447617922207
 20
143.2587836013381
 10
140.1447617922207
 20
143.2529269390131
 10
140.1447617922207
 20
143.2529269390131
 10
140.1447617922207
 20
143.2529269390131
 10
141.1235134195802
 20
142.5873344912629
 10
141.1235134195802
 20
142.5873344912629
 10
141.1235134195802
 20
142.5873344912629
 10
141.1235134195802
 20
143.2587836013381
 10
141.1235134195802
 20
143.2587836013381
 97
        0
 97
        1
330
28D
 92
        1
 93
        1
 72
     4
 94
        3
 73
     0
 74
     0
 95
       38
 96
       34
 40
0.0
 40
0.0
 40
0.0
 40
0.0
 40
1.0
 40
1.0
 40
1.0
 40
2.0
 40
2.0
 40
2.0
 40
3.0
 40
3.0
 40
3.0
 40
4.0
 40
4.0
 40
4.0
 40
5.0
 40
5.0
 40
5.0
 40
6.0
 40
6.0
 40
6.0
 40
7.0
 40
7.0
 40
7.0
 40
8.0
 40
8.0
 40
8.0
 40
9.0
 40
9.0
 40
9.0
 40
10.0
 40
10.0
 40
10.0
 40
11.0
 40
11.0
 40
11.0
 40
11.0
 10
141.1035318657658
 20
142.3813177812449
 10
141.1035318657658
 20
142.3813177812449
 10
139.8033528296325
 20
143.2925455370935
 10
139.8033528296325
 20
143.2925455370935
 10
139.8033528296325
 20
143.2925455370935
 10
139.8033528296325
 20
143.4840928460734
 10
139.8033528296325
 20
143.4840928460734
 10
139.8033528296325
 20
143.4840928460734
 10
141.1235134195802
 20
143.4840928460734
 10
141.1235134195802
 20
143.4840928460734
 10
141.1235134195802
 20
143.4840928460734
 10
141.1235134195802
 20
143.7548773512141
 10
141.1235134195802
 20
143.7548773512141
 10
141.1235134195802
 20
143.7548773512141
 10
141.3350422823746
 20
143.7548773512141
 10
141.3350422823746
 20
143.7548773512141
 10
141.3350422823746
 20
143.7548773512141
 10
141.3350422823746
 20
143.4840928460734
 10
141.3350422823746
 20
143.4840928460734
 10
141.3350422823746
 20
143.4840928460734
 10
141.80323075882
 20
143.4840928460734
 10
141.80323075882
 20
143.4840928460734
 10
141.80323075882
 20
143.4840928460734
 10
141.80323075882
 20
143.2587836013381
 10
141.80323075882
 20
143.2587836013381
 10
141.80323075882
 20
143.2587836013381
 10
141.3350422823746
 20
143.2587836013381
 10
141.3350422823746
 20
143.2587836013381
 10
141.3350422823746
 20
143.2587836013381
 10
141.3350422823746
 20
142.3813177812449
 10
141.3350422823746
 20
142.3813177812449
 10
141.3350422823746
 20
142.3813177812449
 10
141.1035318657658
 20
142.3813177812449
 10
141.1035318657658
 20
142.3813177812449
 97
        0
 97
        1
330
28E
 75
     2
 76
     1
 98
        1
 10
0.0
 20
0.0
450
        0
451
        0
460
0.0
461
0.0
452
        0
462
0.0
453
        0
470

  0
ENDBLK
  5
284
330
281
100
AcDbEntity
  8
0
100
AcDbBlockEnd
  0
ENDSEC
  0
SECTION
  2
ENTITIES
  0
INSERT
  5
79
330
70
100
AcDbEntity
  8
0
100
AcDbBlockReference
  2
Block_0
 10
0.0
 20
0.0
 30
0.0
  0
INSERT
  5
7D
330
70
100
AcDbEntity
  8
0
100
AcDbBlockReference
  2
Block_1
 10
0.0
 20
0.0
 30
0.0
  0
INSERT
  5
81
330
70
100
AcDbEntity
  8
0
100
AcDbBlockReference
  2
Block_2
 10
0.0
 20
0.0
 30
0.0
  0
INSERT
  5
85
330
70
100
AcDbEntity
  8
0
100
AcDbBlockReference
  2
Block_3
 10
0.0
 20
0.0
 30
0.0
  0
INSERT
  5
89
330
70
100
AcDbEntity
  8
0
100
AcDbBlockReference
  2
Block_4
 10
0.0
 20
0.0
 30
0.0
  0
INSERT
  5
8F
330
70
100
AcDbEntity
  8
Titel (ISO)
100
AcDbBlockReference
  2
Block_5
 10
0.0
 20
0.0
 30
0.0
  0
INSERT
  5
93
330
70
100
AcDbEntity
  8
Titel (ISO)
100
AcDbBlockReference
  2
Block_6
 10
0.0
 20
0.0
 30
0.0
  0
INSERT
  5
97
330
70
100
AcDbEntity
  8
Titel (ISO)
100
AcDbBlockReference
  2
Block_7
 10
0.0
 20
0.0
 30
0.0
  0
INSERT
  5
9B
330
70
100
AcDbEntity
  8
Titel (ISO)
100
AcDbBlockReference
  2
Block_8
 10
0.0
 20
0.0
 30
0.0
  0
INSERT
  5
9F
330
70
100
AcDbEntity
  8
Titel (ISO)
100
AcDbBlockReference
  2
Block_9
 10
0.0
 20
0.0
 30
0.0
  0
INSERT
  5
A3
330
70
100
AcDbEntity
  8
Titel (ISO)
100
AcDbBlockReference
  2
Block_10
 10
0.0
 20
0.0
 30
0.0
  0
INSERT
  5
A7
330
70
100
AcDbEntity
  8
Titel (ISO)
100
AcDbBlockReference
  2
Block_11
 10
0.0
 20
0.0
 30
0.0
  0
INSERT
  5
AB
330
70
100
AcDbEntity
  8
Titel (ISO)
100
AcDbBlockReference
  2
Block_12
 10
0.0
 20
0.0
 30
0.0
  0
INSERT
  5
AF
330
70
100
AcDbEntity
  8
Titel (ISO)
100
AcDbBlockReference
  2
Block_13
 10
0.0
 20
0.0
 30
0.0
  0
INSERT
  5
B5
330
70
100
AcDbEntity
  8
Sichtbar schmal (ISO)
100
AcDbBlockReference
  2
Block_14
 10
0.0
 20
0.0
 30
0.0
  0
INSERT
  5
BB
330
70
100
AcDbEntity
  8
Sichtbar schmal (ISO)
100
AcDbBlockReference
  2
Block_15
 10
0.0
 20
0.0
 30
0.0
  0
INSERT
  5
1DC
330
70
100
AcDbEntity
  8
Sichtbar schmal (ISO)
100
AcDbBlockReference
  2
Block_16
 10
0.0
 20
0.0
 30
0.0
  0
INSERT
  5
1F8
330
70
100
AcDbEntity
  8
Sichtbar schmal (ISO)
100
AcDbBlockReference
  2
Block_17
 10
0.0
 20
0.0
 30
0.0
  0
LINE
  5
20C
330
70
100
AcDbEntity
  8
Sichtbar schmal (ISO)
 62
    18
420
        0
370
     5
100
AcDbLine
 10
90.30518728020764
 20
116.9097403859201
 30
0.0
 11
133.8194620664843
 21
117.0549628776257
 31
0.0
  0
LINE
  5
20D
330
70
100
AcDbEntity
  8
Sichtbar schmal (ISO)
 62
    18
420
        0
370
     5
100
AcDbLine
 10
90.28982310491832
 20
163.6657777997068
 30
0.0
 11
133.8156841011948
 21
163.6812505105339
 31
0.0
  0
LINE
  5
20E
330
70
100
AcDbEntity
  8
Sichtbar schmal (ISO)
 62
    18
420
        0
370
     5
100
AcDbLine
 10
90.44609533350463
 20
115.7668712879331
 30
0.0
 11
140.7724828875204
 21
115.7787095994094
 31
0.0
  0
INSERT
  5
210
330
70
100
AcDbEntity
  8
Sichtbar schmal (ISO)
100
AcDbBlockReference
  2
Block_21
 10
0.0
 20
0.0
 30
0.0
  0
LINE
  5
224
330
70
100
AcDbEntity
  8
Sichtbar schmal (ISO)
 62
    18
420
        0
370
     5
100
AcDbLine
 10
90.42931782868299
 20
164.8146735079459
 30
0.0
 11
140.7833695927024
 21
164.7883871917442
 31
0.0
  0
LINE
  5
225
330
70
100
AcDbEntity
  8
Sichtbar schmal (ISO)
 62
    18
420
        0
370
     5
100
AcDbLine
 10
114.2622094289699
 20
167.2039522799092
 30
0.0
 11
140.8315848974848
 21
167.2096362469572
 31
0.0
  0
LINE
  5
226
330
70
100
AcDbEntity
  8
Sichtbar schmal (ISO)
  6
AI-Linetype-0
 62
    18
420
        0
370
     5
100
AcDbLine
 10
126.7603219139218
 20
180.3948388060527
 30
0.0
 11
112.9824678052024
 21
180.352328719093
 31
0.0
  0
INSERT
  5
229
330
70
100
AcDbEntity
  8
Sichtbar schmal (ISO)
100
AcDbBlockReference
  2
Block_25
 10
0.0
 20
0.0
 30
0.0
  0
INSERT
  5
238
330
70
100
AcDbEntity
  8
Sichtbar schmal (ISO)
100
AcDbBlockReference
  2
Block_28
 10
0.0
 20
0.0
 30
0.0
  0
INSERT
  5
24D
330
70
100
AcDbEntity
  8
Sichtbar schmal (ISO)
100
AcDbBlockReference
  2
Block_32
 10
0.0
 20
0.0
 30
0.0
  0
LINE
  5
258
330
70
100
AcDbEntity
  8
Sichtbar schmal (ISO)
 62
    18
420
        0
370
     5
100
AcDbLine
 10
114.8352234475186
 20
184.86563803939
 30
0.0
 11
140.889160633666
 21
184.8849379856758
 31
0.0
  0
LINE
  5
259
330
70
100
AcDbEntity
  8
Sichtbar schmal (ISO)
  6
AI-Linetype-1
 62
    18
420
        0
370
     5
100
AcDbLine
 10
124.7768593059885
 20
184.8433290155947
 30
0.0
 11
124.7732182582801
 21
180.4264293536137
 31
0.0
  0
INSERT
  5
25C
330
70
100
AcDbEntity
  8
Sichtbar schmal (ISO)
100
AcDbBlockReference
  2
Block_34
 10
0.0
 20
0.0
 30
0.0
  0
INSERT
  5
26A
330
70
100
AcDbEntity
  8
Sichtbar schmal (ISO)
100
AcDbBlockReference
  2
Block_36
 10
0.0
 20
0.0
 30
0.0
  0
INSERT
  5
27E
330
70
100
AcDbEntity
  8
Sichtbar schmal (ISO)
100
AcDbBlockReference
  2
Block_38
 10
0.0
 20
0.0
 30
0.0
  0
ENDSEC
  0
SECTION
  2
OBJECTS
  0
DICTIONARY
  5
C
330
0
100
AcDbDictionary
281
     1
  3
ACAD_COLOR
350
63
  3
ACAD_DETAILVIEWSTYLE
350
6A
  3
ACAD_GROUP
350
D
  3
ACAD_LAYOUT
350
62
  3
ACAD_MATERIAL
350
10
  3
ACAD_MLEADERSTYLE
350
66
  3
ACAD_MLINESTYLE
350
5F
  3
ACAD_PLOTSETTINGS
350
61
  3
ACAD_PLOTSTYLENAME
350
E
  3
ACAD_SCALELIST
350
42
  3
ACAD_SECTIONVIEWSTYLE
350
68
  3
ACAD_TABLESTYLE
350
64
  3
ACAD_VISUALSTYLE
350
29
  3
ACDB_RECOMPOSE_DATA
350
298
  3
AcDbVariableDictionary
350
290
  0
DICTIONARY
  5
63
102
{ACAD_REACTORS
330
C
102
}
330
C
100
AcDbDictionary
281
     1
  0
DICTIONARY
  5
6A
102
{ACAD_REACTORS
330
C
102
}
330
C
100
AcDbDictionary
281
     1
  3
Imperial24
350
6B
  0
DICTIONARY
  5
D
102
{ACAD_REACTORS
330
C
102
}
330
C
100
AcDbDictionary
281
     1
  0
DICTIONARY
  5
62
102
{ACAD_REACTORS
330
C
102
}
330
C
100
AcDbDictionary
281
     1
  3
Layout1
350
6F
  3
Layout2
350
77
  3
Model
350
73
  0
DICTIONARY
  5
10
102
{ACAD_REACTORS
330
C
102
}
330
C
100
AcDbDictionary
281
     1
  3
ByBlock
350
19
  3
ByLayer
350
11
  3
Global
350
21
  0
DICTIONARY
  5
66
102
{ACAD_REACTORS
330
C
102
}
330
C
100
AcDbDictionary
281
     1
  3
Standard
350
67
  0
DICTIONARY
  5
5F
102
{ACAD_REACTORS
330
C
102
}
330
C
100
AcDbDictionary
281
     1
  3
Standard
350
60
  0
DICTIONARY
  5
61
102
{ACAD_REACTORS
330
C
102
}
330
C
100
AcDbDictionary
281
     1
  0
ACDBDICTIONARYWDFLT
  5
E
102
{ACAD_REACTORS
330
C
102
}
330
C
100
AcDbDictionary
281
     1
  3
Normal
350
F
100
AcDbDictionaryWithDefault
340
F
  0
DICTIONARY
  5
42
102
{ACAD_REACTORS
330
C
102
}
330
C
100
AcDbDictionary
281
     1
  3
A0
350
43
  3
A1
350
44
  3
A2
350
45
  3
A3
350
46
  3
A4
350
47
  3
A5
350
48
  3
A6
350
49
  3
A7
350
4A
  3
A8
350
4B
  3
A9
350
4C
  3
B0
350
4D
  3
B1
350
4E
  3
B2
350
4F
  3
B3
350
50
  3
B4
350
51
  3
B5
350
52
  3
B6
350
53
  0
DICTIONARY
  5
68
102
{ACAD_REACTORS
330
C
102
}
330
C
100
AcDbDictionary
281
     1
  3
Imperial24
350
69
  0
DICTIONARY
  5
64
102
{ACAD_REACTORS
330
C
102
}
330
C
100
AcDbDictionary
281
     1
  3
Standard
350
65
  0
DICTIONARY
  5
29
102
{ACAD_REACTORS
330
C
102
}
330
C
100
AcDbDictionary
281
     1
  3
2dWireframe
350
2F
  3
Basic
350
2E
  3
Brighten
350
35
  3
ColorChange
350
39
  3
Conceptual
350
32
  3
Dim
350
34
  3
EdgeColorOff
350
41
  3
Facepattern
350
38
  3
Flat
350
2A
  3
FlatWithEdges
350
2B
  3
Gouraud
350
2C
  3
GouraudWithEdges
350
2D
  3
Hidden
350
31
  3
JitterOff
350
3F
  3
Linepattern
350
37
  3
OverhangOff
350
40
  3
Realistic
350
33
  3
Shaded
350
3E
  3
Shaded with edges
350
3D
  3
Shades of Gray
350
3A
  3
Sketchy
350
3B
  3
Thicken
350
36
  3
Wireframe
350
30
  3
X-Ray
350
3C
  0
XRECORD
  5
298
102
{ACAD_REACTORS
330
C
102
}
330
C
100
AcDbXrecord
280
     1
 90
        1
330
65
  0
DICTIONARY
  5
290
102
{ACAD_REACTORS
330
C
102
}
330
C
100
AcDbDictionary
281
     1
  3
CANNOSCALE
350
295
  3
CMLEADERSTYLE
350
292
  3
CTABLESTYLE
350
291
  3
CVIEWDETAILSTYLE
350
293
  3
CVIEWSECTIONSTYLE
350
294
  0
ACDBDETAILVIEWSTYLE
  5
6B
102
{ACAD_REACTORS
330
6A
102
}
330
6A
100
AcDbModelDocViewStyle
 70
     0
  3
Imperial24
290
     1
300
Imperial24
 90
        0
100
AcDbDetailViewStyle
 70
     0
 71
     0
 90
        3
 71
     1
340
55
 62
   256
 40
0.24
340
0
 62
   256
 40
0.24
300

 40
0.36
280
     3
 71
     2
340
5D
 90
       25
 62
   256
 71
     3
340
55
 62
   256
 40
0.24
 90
        1
 40
0.75
 90
        1
300
%<\AcVar ViewType \f "%tc1">% %<\AcVar ViewDetailId>%\PSCALE %<\AcVar ViewScale \f "%sn">%
 71
     4
340
5D
 90
       25
 62
   256
340
5D
 90
       25
 62
   256
280
     0
  0
LAYOUT
  5
6F
102
{ACAD_REACTORS
330
62
102
}
330
62
100
AcDbPlotSettings
  1

  2

  4

  6

 40
0.0
 41
0.0
 42
0.0
 43
0.0
 44
0.0
 45
0.0
 46
0.0
 47
0.0
 48
0.0
 49
0.0
140
0.0
141
0.0
142
1.0
143
1.0
 70
   688
 72
     0
 73
     0
 74
     5
  7

 75
    16
147
1.0
 76
     0
 77
     2
 78
   300
148
0.0
149
0.0
100
AcDbLayout
  1
Layout1
 70
     1
 71
     1
 10
0.0
 20
0.0
 11
12.0
 21
9.0
 12
0.0
 22
0.0
 32
0.0
 14
0.0
 24
0.0
 34
0.0
 15
0.0
 25
0.0
 35
0.0
146
0.0
 13
0.0
 23
0.0
 33
0.0
 16
1.0
 26
0.0
 36
0.0
 17
0.0
 27
1.0
 37
0.0
 76
     0
330
6C
  0
LAYOUT
  5
77
102
{ACAD_REACTORS
330
62
102
}
330
62
100
AcDbPlotSettings
  1

  2

  4

  6

 40
0.0
 41
0.0
 42
0.0
 43
0.0
 44
0.0
 45
0.0
 46
0.0
 47
0.0
 48
0.0
 49
0.0
140
0.0
141
0.0
142
1.0
143
1.0
 70
   688
 72
     0
 73
     0
 74
     5
  7

 75
    16
147
1.0
 76
     0
 77
     2
 78
   300
148
0.0
149
0.0
100
AcDbLayout
  1
Layout2
 70
     1
 71
     2
 10
0.0
 20
0.0
 11
12.0
 21
9.0
 12
0.0
 22
0.0
 32
0.0
 14
0.0
 24
0.0
 34
0.0
 15
0.0
 25
0.0
 35
0.0
146
0.0
 13
0.0
 23
0.0
 33
0.0
 16
1.0
 26
0.0
 36
0.0
 17
0.0
 27
1.0
 37
0.0
 76
     0
330
74
  0
LAYOUT
  5
73
102
{ACAD_REACTORS
330
62
102
}
330
62
100
AcDbPlotSettings
  1

  2

  4

  6

 40
0.0
 41
0.0
 42
0.0
 43
0.0
 44
0.0
 45
0.0
 46
0.0
 47
0.0
 48
0.0
 49
0.0
140
0.0
141
0.0
142
1.0
143
1.0
 70
  1712
 72
     0
 73
     0
 74
     0
  7

 75
     0
147
1.0
 76
     0
 77
     2
 78
   300
148
0.0
149
0.0
100
AcDbLayout
  1
Model
 70
     1
 71
     0
 10
0.0
 20
0.0
 11
12.0
 21
9.0
 12
0.0
 22
0.0
 32
0.0
 14
0.0
 24
0.0
 34
0.0
 15
0.0
 25
0.0
 35
0.0
146
0.0
 13
0.0
 23
0.0
 33
0.0
 16
1.0
 26
0.0
 36
0.0
 17
0.0
 27
1.0
 37
0.0
 76
     0
330
70
  0
MATERIAL
  5
19
102
{ACAD_XDICTIONARY
360
1A
102
}
102
{ACAD_REACTORS
330
10
102
}
330
10
100
AcDbMaterial
  1
ByBlock
 72
     0
 43
0.0208333333333333
 43
0.0
 43
0.0
 43
0.0
 43
0.0
 43
0.0208333333333333
 43
0.0
 43
0.0
 43
0.0
 43
0.0
 43
1.0
 43
0.0
 43
0.0
 43
0.0
 43
0.0
 43
1.0
 77
     0
 47
0.0208333333333333
 47
0.0
 47
0.0
 47
0.0
 47
0.0
 47
0.0208333333333333
 47
0.0
 47
0.0
 47
0.0
 47
0.0
 47
1.0
 47
0.0
 47
0.0
 47
0.0
 47
0.0
 47
1.0
171
     0
 49
0.0208333333333333
 49
0.0
 49
0.0
 49
0.0
 49
0.0
 49
0.0208333333333333
 49
0.0
 49
0.0
 49
0.0
 49
0.0
 49
1.0
 49
0.0
 49
0.0
 49
0.0
 49
0.0
 49
1.0
175
     0
142
0.0208333333333333
142
0.0
142
0.0
142
0.0
142
0.0
142
0.0208333333333333
142
0.0
142
0.0
142
0.0
142
0.0
142
1.0
142
0.0
142
0.0
142
0.0
142
0.0
142
1.0
179
     0
144
0.0208333333333333
144
0.0
144
0.0
144
0.0
144
0.0
144
0.0208333333333333
144
0.0
144
0.0
144
0.0
144
0.0
144
1.0
144
0.0
144
0.0
144
0.0
144
0.0
144
1.0
147
0.0208333333333333
147
0.0
147
0.0
147
0.0
147
0.0
147
0.0208333333333333
147
0.0
147
0.0
147
0.0
147
0.0
147
1.0
147
0.0
147
0.0
147
0.0
147
0.0
147
1.0
  0
MATERIAL
  5
11
102
{ACAD_XDICTIONARY
360
12
102
}
102
{ACAD_REACTORS
330
10
102
}
330
10
100
AcDbMaterial
  1
ByLayer
 72
     0
 43
0.0208333333333333
 43
0.0
 43
0.0
 43
0.0
 43
0.0
 43
0.0208333333333333
 43
0.0
 43
0.0
 43
0.0
 43
0.0
 43
1.0
 43
0.0
 43
0.0
 43
0.0
 43
0.0
 43
1.0
 77
     0
 47
0.0208333333333333
 47
0.0
 47
0.0
 47
0.0
 47
0.0
 47
0.0208333333333333
 47
0.0
 47
0.0
 47
0.0
 47
0.0
 47
1.0
 47
0.0
 47
0.0
 47
0.0
 47
0.0
 47
1.0
171
     0
 49
0.0208333333333333
 49
0.0
 49
0.0
 49
0.0
 49
0.0
 49
0.0208333333333333
 49
0.0
 49
0.0
 49
0.0
 49
0.0
 49
1.0
 49
0.0
 49
0.0
 49
0.0
 49
0.0
 49
1.0
175
     0
142
0.0208333333333333
142
0.0
142
0.0
142
0.0
142
0.0
142
0.0208333333333333
142
0.0
142
0.0
142
0.0
142
0.0
142
1.0
142
0.0
142
0.0
142
0.0
142
0.0
142
1.0
179
     0
144
0.0208333333333333
144
0.0
144
0.0
144
0.0
144
0.0
144
0.0208333333333333
144
0.0
144
0.0
144
0.0
144
0.0
144
1.0
144
0.0
144
0.0
144
0.0
144
0.0
144
1.0
147
0.0208333333333333
147
0.0
147
0.0
147
0.0
147
0.0
147
0.0208333333333333
147
0.0
147
0.0
147
0.0
147
0.0
147
1.0
147
0.0
147
0.0
147
0.0
147
0.0
147
1.0
  0
MATERIAL
  5
21
102
{ACAD_XDICTIONARY
360
22
102
}
102
{ACAD_REACTORS
330
10
102
}
330
10
100
AcDbMaterial
  1
Global
 72
     0
 43
0.0208333333333333
 43
0.0
 43
0.0
 43
0.0
 43
0.0
 43
0.0208333333333333
 43
0.0
 43
0.0
 43
0.0
 43
0.0
 43
1.0
 43
0.0
 43
0.0
 43
0.0
 43
0.0
 43
1.0
 77
     0
 47
0.0208333333333333
 47
0.0
 47
0.0
 47
0.0
 47
0.0
 47
0.0208333333333333
 47
0.0
 47
0.0
 47
0.0
 47
0.0
 47
1.0
 47
0.0
 47
0.0
 47
0.0
 47
0.0
 47
1.0
171
     0
 49
0.0208333333333333
 49
0.0
 49
0.0
 49
0.0
 49
0.0
 49
0.0208333333333333
 49
0.0
 49
0.0
 49
0.0
 49
0.0
 49
1.0
 49
0.0
 49
0.0
 49
0.0
 49
0.0
 49
1.0
175
     0
142
0.0208333333333333
142
0.0
142
0.0
142
0.0
142
0.0
142
0.0208333333333333
142
0.0
142
0.0
142
0.0
142
0.0
142
1.0
142
0.0
142
0.0
142
0.0
142
0.0
142
1.0
179
     0
144
0.0208333333333333
144
0.0
144
0.0
144
0.0
144
0.0
144
0.0208333333333333
144
0.0
144
0.0
144
0.0
144
0.0
144
1.0
144
0.0
144
0.0
144
0.0
144
0.0
144
1.0
147
0.0208333333333333
147
0.0
147
0.0
147
0.0
147
0.0
147
0.0208333333333333
147
0.0
147
0.0
147
0.0
147
0.0
147
1.0
147
0.0
147
0.0
147
0.0
147
0.0
147
1.0
  0
MLEADERSTYLE
  5
67
102
{ACAD_REACTORS
330
66
102
}
330
66
100
AcDbMLeaderStyle
179
     2
170
     2
171
     1
172
     0
 90
        2
 40
0.0
 41
0.0
173
     1
 91
-1056964608
340
5B
 92
       -2
290
     1
 42
0.09
291
     1
 43
0.36
  3
Standard
 44
0.18
300

342
55
174
     1
178
     6
175
     1
176
     0
 93
-1056964608
 45
0.18
292
     0
297
     0
 46
0.18
 94
-1056964608
 47
1.0
 49
1.0
140
1.0
293
     1
141
0.0
294
     1
177
     0
142
1.0
295
     1
296
     0
143
0.125
271
     0
272
     9
273
     9
298
     1
  0
MLINESTYLE
  5
60
102
{ACAD_REACTORS
330
5F
102
}
330
5F
100
AcDbMlineStyle
  2
STANDARD
 70
     0
  3

 62
   256
 51
90.0
 52
90.0
 71
     2
 49
0.5
 62
   256
  6
BYLAYER
 49
-0.5
 62
   256
  6
BYLAYER
  0
ACDBPLACEHOLDER
  5
F
102
{ACAD_REACTORS
330
E
102
}
330
E
  0
SCALE
  5
43
102
{ACAD_REACTORS
330
42
102
}
330
42
100
AcDbScale
 70
     0
300
1:1
140
1.0
141
1.0
290
     1
  0
SCALE
  5
44
102
{ACAD_REACTORS
330
42
102
}
330
42
100
AcDbScale
 70
     0
300
1/128" = 1'-0"
140
0.0078125
141
12.0
290
     0
  0
SCALE
  5
45
102
{ACAD_REACTORS
330
42
102
}
330
42
100
AcDbScale
 70
     0
300
1/64" = 1'-0"
140
0.015625
141
12.0
290
     0
  0
SCALE
  5
46
102
{ACAD_REACTORS
330
42
102
}
330
42
100
AcDbScale
 70
     0
300
1/32" = 1'-0"
140
0.03125
141
12.0
290
     0
  0
SCALE
  5
47
102
{ACAD_REACTORS
330
42
102
}
330
42
100
AcDbScale
 70
     0
300
1/16" = 1'-0"
140
0.0625
141
12.0
290
     0
  0
SCALE
  5
48
102
{ACAD_REACTORS
330
42
102
}
330
42
100
AcDbScale
 70
     0
300
3/32" = 1'-0"
140
0.09375
141
12.0
290
     0
  0
SCALE
  5
49
102
{ACAD_REACTORS
330
42
102
}
330
42
100
AcDbScale
 70
     0
300
1/8" = 1'-0"
140
0.125
141
12.0
290
     0
  0
SCALE
  5
4A
102
{ACAD_REACTORS
330
42
102
}
330
42
100
AcDbScale
 70
     0
300
3/16" = 1'-0"
140
0.1875
141
12.0
290
     0
  0
SCALE
  5
4B
102
{ACAD_REACTORS
330
42
102
}
330
42
100
AcDbScale
 70
     0
300
1/4" = 1'-0"
140
0.25
141
12.0
290
     0
  0
SCALE
  5
4C
102
{ACAD_REACTORS
330
42
102
}
330
42
100
AcDbScale
 70
     0
300
3/8" = 1'-0"
140
0.375
141
12.0
290
     0
  0
SCALE
  5
4D
102
{ACAD_REACTORS
330
42
102
}
330
42
100
AcDbScale
 70
     0
300
1/2" = 1'-0"
140
0.5
141
12.0
290
     0
  0
SCALE
  5
4E
102
{ACAD_REACTORS
330
42
102
}
330
42
100
AcDbScale
 70
     0
300
3/4" = 1'-0"
140
0.75
141
12.0
290
     0
  0
SCALE
  5
4F
102
{ACAD_REACTORS
330
42
102
}
330
42
100
AcDbScale
 70
     0
300
1" = 1'-0"
140
1.0
141
12.0
290
     0
  0
SCALE
  5
50
102
{ACAD_REACTORS
330
42
102
}
330
42
100
AcDbScale
 70
     0
300
1-1/2" = 1'-0"
140
1.5
141
12.0
290
     0
  0
SCALE
  5
51
102
{ACAD_REACTORS
330
42
102
}
330
42
100
AcDbScale
 70
     0
300
3" = 1'-0"
140
3.0
141
12.0
290
     0
  0
SCALE
  5
52
102
{ACAD_REACTORS
330
42
102
}
330
42
100
AcDbScale
 70
     0
300
6" = 1'-0"
140
6.0
141
12.0
290
     0
  0
SCALE
  5
53
102
{ACAD_REACTORS
330
42
102
}
330
42
100
AcDbScale
 70
     0
300
1'-0" = 1'-0"
140
12.0
141
12.0
290
     0
  0
ACDBSECTIONVIEWSTYLE
  5
69
102
{ACAD_REACTORS
330
68
102
}
330
68
100
AcDbModelDocViewStyle
 70
     0
  3
Imperial24
290
     1
300
Imperial24
 90
        0
100
AcDbSectionViewStyle
 70
     0
 71
     0
 90
       78
 71
     1
340
55
 62
   256
 40
0.24
340
0
340
0
 62
   256
 40
0.24
300
I, O, Q, S, X, Z
 40
0.48
 90
        3
 40
0.18
 90
        1
 71
     2
340
5D
 90
       25
 62
   256
340
5D
 90
       50
 62
   256
 40
0.24
 40
0.0
 40
0.24
 71
     3
340
55
 62
   256
 40
0.24
 90
        1
 40
0.75
 90
        1
300
%<\AcVar ViewType \f "%tc1">% %<\AcVar ViewSectionStartId>%-%<\AcVar ViewSectionEndId>%\PSCALE %<\AcVar ViewScale \f "%sn">%
 71
     4
 62
   256
 62
   257
300
ANSI31
 40
1.0
 90
        0
290
     0
290
     0
 90
        6
 40
0.0
 40
1.570796326794896
 40
0.2617993877991494
 40
1.308996938995747
 40
-0.2617993877991494
 40
1.832595714594046
  0
TABLESTYLE
  5
65
102
{ACAD_XDICTIONARY
360
296
102
}
102
{ACAD_REACTORS
330
64
102
}
330
64
100
AcDbTableStyle
280
     0
  3
Standard
 70
     0
 71
     0
 40
0.06
 41
0.06
280
     0
281
     0
  7
Standard
140
0.18
170
     2
 62
     0
 63
     7
283
     0
 90
      512
 91
        0
  1

274
    -2
284
     1
 64
     0
275
    -2
285
     1
 65
     0
276
    -2
286
     1
 66
     0
277
    -2
287
     1
 67
     0
278
    -2
288
     1
 68
     0
279
    -2
289
     1
 69
     0
  7
Standard
140
0.25
170
     5
 62
     0
 63
     7
283
     0
 90
      512
 91
        0
  1

274
    -2
284
     1
 64
     0
275
    -2
285
     1
 65
     0
276
    -2
286
     1
 66
     0
277
    -2
287
     1
 67
     0
278
    -2
288
     1
 68
     0
279
    -2
289
     1
 69
     0
  7
Standard
140
0.18
170
     5
 62
     0
 63
     7
283
     0
 90
      512
 91
        0
  1

274
    -2
284
     1
 64
     0
275
    -2
285
     1
 65
     0
276
    -2
286
     1
 66
     0
277
    -2
287
     1
 67
     0
278
    -2
288
     1
 68
     0
279
    -2
289
     1
 69
     0
  0
VISUALSTYLE
  5
2F
102
{ACAD_REACTORS
330
29
102
}
330
29
100
AcDbVisualStyle
  2
2dWireframe
 70
     4
177
     3
291
     0
 70
    58
 90
        0
176
     1
 90
        2
176
     1
 90
        0
176
     1
 90
        0
176
     1
 40
0.6
176
     1
 40
30.0
176
     1
 62
     7
420
 16777215
176
     1
 90
        1
176
     1
 90
        4
176
     1
 62
     7
176
     1
 62
   257
176
     1
 90
        1
176
     1
 90
        1
176
     1
 40
1.0
176
     1
 90
        0
176
     1
 62
   257
176
     1
 40
1.0
176
     1
 90
        1
176
     1
 90
        6
176
     1
 90
        2
176
     1
 62
     7
176
     1
 90
        5
176
     1
 90
        0
176
     1
 90
        0
176
     1
290
     0
176
     1
 90
        1
176
     1
 40
0.0
176
     1
 90
        0
176
     1
290
     1
176
     1
290
     1
176
     1
290
     0
176
     1
290
     0
176
     1
290
     0
176
     1
290
     0
176
     1
290
     0
176
     1
290
     0
176
     1
290
     0
176
     1
 90
       50
176
     1
 40
0.0
176
     1
 40
1.0
176
     1
 90
        0
176
     1
 62
    18
420
        0
176
     1
 90
       50
176
     1
 90
        3
176
     1
 62
     5
420
      255
176
     1
290
     0
176
     1
 90
       50
176
     1
 90
       50
176
     1
 90
       50
176
     1
290
     0
176
     1
 90
       50
176
     1
 62
   256
176
     0
 40
1.0
176
     0
 90
        2
176
     1
  1
strokes_ogs.tif
176
     1
290
     0
176
     1
 40
1.0
176
     1
 40
1.0
176
     1
  0
VISUALSTYLE
  5
2E
102
{ACAD_REACTORS
330
29
102
}
330
29
100
AcDbVisualStyle
  2
Basic
 70
     7
177
     3
291
     1
 70
    58
 90
        1
176
     1
 90
        0
176
     1
 90
        1
176
     1
 90
        0
176
     1
 40
0.6
176
     1
 40
30.0
176
     1
 62
     7
420
 16777215
176
     1
 90
        0
176
     1
 90
        4
176
     1
 62
     7
176
     1
 62
   257
176
     1
 90
        1
176
     1
 90
        1
176
     1
 40
1.0
176
     1
 90
        8
176
     1
 62
     7
176
     1
 40
1.0
176
     1
 90
        1
176
     1
 90
        6
176
     1
 90
        2
176
     1
 62
     7
176
     1
 90
        5
176
     1
 90
        0
176
     1
 90
        0
176
     1
290
     0
176
     1
 90
        1
176
     1
 40
0.0
176
     1
 90
        0
176
     1
290
     0
176
     1
290
     1
176
     1
290
     1
176
     1
290
     0
176
     1
290
     0
176
     1
290
     0
176
     1
290
     0
176
     1
290
     0
176
     1
290
     0
176
     1
 90
       50
176
     1
 40
0.0
176
     1
 40
1.0
176
     1
 90
        0
176
     1
 62
    18
420
        0
176
     1
 90
       50
176
     1
 90
        3
176
     1
 62
     5
420
      255
176
     1
290
     0
176
     1
 90
       50
176
     1
 90
       50
176
     1
 90
       50
176
     1
290
     0
176
     1
 90
       50
176
     1
 62
   256
176
     0
 40
1.0
176
     0
 90
        2
176
     1
  1
strokes_ogs.tif
176
     1
290
     0
176
     1
 40
1.0
176
     1
 40
1.0
176
     1
  0
VISUALSTYLE
  5
35
102
{ACAD_REACTORS
330
29
102
}
330
29
100
AcDbVisualStyle
  2
Brighten
 70
    12
177
     3
291
     1
 70
    58
 90
        2
176
     1
 90
        2
176
     1
 90
        0
176
     1
 90
        0
176
     1
 40
0.6
176
     1
 40
30.0
176
     1
 62
     7
420
 16777215
176
     1
 90
        1
176
     1
 90
        4
176
     1
 62
     7
176
     1
 62
   257
176
     1
 90
        1
176
     1
 90
        1
176
     1
 40
1.0
176
     1
 90
        8
176
     1
 62
     7
176
     1
 40
1.0
176
     1
 90
        1
176
     1
 90
        6
176
     1
 90
        2
176
     1
 62
     7
176
     1
 90
        5
176
     1
 90
        0
176
     1
 90
        0
176
     1
290
     0
176
     1
 90
        1
176
     1
 40
50.0
176
     1
 90
        0
176
     1
290
     0
176
     1
290
     1
176
     1
290
     1
176
     1
290
     0
176
     1
290
     0
176
     1
290
     0
176
     1
290
     0
176
     1
290
     0
176
     1
290
     0
176
     1
 90
       50
176
     1
 40
0.0
176
     1
 40
1.0
176
     1
 90
        0
176
     1
 62
    18
420
        0
176
     1
 90
       50
176
     1
 90
        3
176
     1
 62
     5
420
      255
176
     1
290
     0
176
     1
 90
       50
176
     1
 90
       50
176
     1
 90
       50
176
     1
290
     0
176
     1
 90
       50
176
     1
 62
   256
176
     0
 40
1.0
176
     0
 90
        2
176
     1
  1
strokes_ogs.tif
176
     1
290
     0
176
     1
 40
1.0
176
     1
 40
1.0
176
     1
  0
VISUALSTYLE
  5
39
102
{ACAD_REACTORS
330
29
102
}
330
29
100
AcDbVisualStyle
  2
ColorChange
 70
    16
177
     3
291
     1
 70
    58
 90
        2
176
     1
 90
        2
176
     1
 90
        3
176
     1
 90
        0
176
     1
 40
0.6
176
     1
 40
30.0
176
     1
 62
     8
420
  8421504
176
     1
 90
        1
176
     1
 90
        4
176
     1
 62
     7
176
     1
 62
   257
176
     1
 90
        1
176
     1
 90
        1
176
     1
 40
1.0
176
     1
 90
        8
176
     1
 62
     8
420
  8421504
176
     1
 40
1.0
176
     1
 90
        1
176
     1
 90
        6
176
     1
 90
        2
176
     1
 62
     7
176
     1
 90
        5
176
     1
 90
        0
176
     1
 90
        0
176
     1
290
     0
176
     1
 90
        1
176
     1
 40
0.0
176
     1
 90
        0
176
     1
290
     0
176
     1
290
     1
176
     1
290
     1
176
     1
290
     0
176
     1
290
     0
176
     1
290
     0
176
     1
290
     0
176
     1
290
     0
176
     1
290
     0
176
     1
 90
       50
176
     1
 40
0.0
176
     1
 40
1.0
176
     1
 90
        0
176
     1
 62
    18
420
        0
176
     1
 90
       50
176
     1
 90
        3
176
     1
 62
     5
420
      255
176
     1
290
     0
176
     1
 90
       50
176
     1
 90
       50
176
     1
 90
       50
176
     1
290
     0
176
     1
 90
       50
176
     1
 62
   256
176
     0
 40
1.0
176
     0
 90
        2
176
     1
  1
strokes_ogs.tif
176
     1
290
     0
176
     1
 40
1.0
176
     1
 40
1.0
176
     1
  0
VISUALSTYLE
  5
32
102
{ACAD_REACTORS
330
29
102
}
330
29
100
AcDbVisualStyle
  2
Conceptual
 70
     9
177
     3
291
     0
 70
    58
 90
        3
176
     1
 90
        2
176
     1
 90
        0
176
     1
 90
        0
176
     1
 40
0.6
176
     1
 40
30.0
176
     1
 62
     7
420
 16777215
176
     1
 90
        2
176
     1
 90
        2
176
     1
 62
     7
176
     1
 62
   257
176
     1
 90
        1
176
     1
 90
        1
176
     1
 40
179.0
176
     1
 90
        8
176
     1
 62
     7
176
     1
 40
1.0
176
     1
 90
        1
176
     1
 90
        6
176
     1
 90
        2
176
     1
 62
     7
176
     1
 90
        3
176
     1
 90
        0
176
     1
 90
        0
176
     1
290
     0
176
     1
 90
        1
176
     1
 40
0.0
176
     1
 90
        0
176
     1
290
     0
176
     1
290
     1
176
     1
290
     1
176
     1
290
     0
176
     1
290
     0
176
     1
290
     0
176
     1
290
     0
176
     1
290
     0
176
     1
290
     0
176
     1
 90
       50
176
     1
 40
0.0
176
     1
 40
1.0
176
     1
 90
        0
176
     1
 62
    18
420
        0
176
     1
 90
       50
176
     1
 90
        3
176
     1
 62
     5
420
      255
176
     1
290
     0
176
     1
 90
       50
176
     1
 90
       50
176
     1
 90
       50
176
     1
290
     0
176
     1
 90
       50
176
     1
 62
   256
176
     0
 40
1.0
176
     0
 90
        2
176
     1
  1
strokes_ogs.tif
176
     1
290
     0
176
     1
 40
1.0
176
     1
 40
1.0
176
     1
  0
VISUALSTYLE
  5
34
102
{ACAD_REACTORS
330
29
102
}
330
29
100
AcDbVisualStyle
  2
Dim
 70
    11
177
     3
291
     1
 70
    58
 90
        2
176
     1
 90
        2
176
     1
 90
        0
176
     1
 90
        0
176
     1
 40
0.6
176
     1
 40
30.0
176
     1
 62
     7
420
 16777215
176
     1
 90
        1
176
     1
 90
        4
176
     1
 62
     7
176
     1
 62
   257
176
     1
 90
        1
176
     1
 90
        1
176
     1
 40
1.0
176
     1
 90
        8
176
     1
 62
     7
176
     1
 40
1.0
176
     1
 90
        1
176
     1
 90
        6
176
     1
 90
        2
176
     1
 62
     7
176
     1
 90
        5
176
     1
 90
        0
176
     1
 90
        0
176
     1
290
     0
176
     1
 90
        1
176
     1
 40
-50.0
176
     1
 90
        0
176
     1
290
     0
176
     1
290
     1
176
     1
290
     1
176
     1
290
     0
176
     1
290
     0
176
     1
290
     0
176
     1
290
     0
176
     1
290
     0
176
     1
290
     0
176
     1
 90
       50
176
     1
 40
0.0
176
     1
 40
1.0
176
     1
 90
        0
176
     1
 62
    18
420
        0
176
     1
 90
       50
176
     1
 90
        3
176
     1
 62
     5
420
      255
176
     1
290
     0
176
     1
 90
       50
176
     1
 90
       50
176
     1
 90
       50
176
     1
290
     0
176
     1
 90
       50
176
     1
 62
   256
176
     0
 40
1.0
176
     0
 90
        2
176
     1
  1
strokes_ogs.tif
176
     1
290
     0
176
     1
 40
1.0
176
     1
 40
1.0
176
     1
  0
VISUALSTYLE
  5
41
102
{ACAD_REACTORS
330
29
102
}
330
29
100
AcDbVisualStyle
  2
EdgeColorOff
 70
    22
177
     3
291
     1
 70
    58
 90
        2
176
     0
 90
        2
176
     0
 90
        0
176
     0
 90
        0
176
     0
 40
0.6
176
     0
 40
30.0
176
     0
 62
     7
420
 16777215
176
     0
 90
        1
176
     0
 90
        4
176
     0
 62
     7
176
     0
 62
   257
176
     0
 90
        1
176
     0
 90
        1
176
     0
 40
1.0
176
     0
 90
        8
176
     2
 62
     7
176
     0
 40
1.0
176
     0
 90
        1
176
     0
 90
        6
176
     0
 90
        2
176
     0
 62
     7
176
     0
 90
        5
176
     0
 90
        0
176
     0
 90
        0
176
     0
290
     0
176
     0
 90
        1
176
     0
 40
0.0
176
     0
 90
        0
176
     0
290
     0
176
     0
290
     1
176
     0
290
     1
176
     0
290
     0
176
     0
290
     0
176
     0
290
     0
176
     0
290
     0
176
     0
290
     0
176
     0
290
     0
176
     0
 90
       50
176
     0
 40
0.0
176
     0
 40
1.0
176
     0
 90
        0
176
     0
 62
    18
420
        0
176
     0
 90
       50
176
     0
 90
        3
176
     0
 62
     5
420
      255
176
     0
290
     0
176
     0
 90
       50
176
     0
 90
       50
176
     0
 90
       50
176
     0
290
     0
176
     0
 90
       50
176
     0
 62
   256
176
     0
 40
1.0
176
     0
 90
        2
176
     0
  1
strokes_ogs.tif
176
     0
290
     0
176
     0
 40
1.0
176
     0
 40
1.0
176
     0
  0
VISUALSTYLE
  5
38
102
{ACAD_REACTORS
330
29
102
}
330
29
100
AcDbVisualStyle
  2
Facepattern
 70
    15
177
     3
291
     1
 70
    58
 90
        2
176
     1
 90
        2
176
     1
 90
        0
176
     1
 90
        0
176
     1
 40
0.6
176
     1
 40
30.0
176
     1
 62
     7
420
 16777215
176
     1
 90
        1
176
     1
 90
        4
176
     1
 62
     7
176
     1
 62
   257
176
     1
 90
        1
176
     1
 90
        1
176
     1
 40
1.0
176
     1
 90
        8
176
     1
 62
     7
176
     1
 40
1.0
176
     1
 90
        1
176
     1
 90
        6
176
     1
 90
        2
176
     1
 62
     7
176
     1
 90
        5
176
     1
 90
        0
176
     1
 90
        0
176
     1
290
     0
176
     1
 90
        1
176
     1
 40
0.0
176
     1
 90
        0
176
     1
290
     0
176
     1
290
     1
176
     1
290
     1
176
     1
290
     0
176
     1
290
     0
176
     1
290
     0
176
     1
290
     0
176
     1
290
     0
176
     1
290
     0
176
     1
 90
       50
176
     1
 40
0.0
176
     1
 40
1.0
176
     1
 90
        0
176
     1
 62
    18
420
        0
176
     1
 90
       50
176
     1
 90
        3
176
     1
 62
     5
420
      255
176
     1
290
     0
176
     1
 90
       50
176
     1
 90
       50
176
     1
 90
       50
176
     1
290
     0
176
     1
 90
       50
176
     1
 62
   256
176
     0
 40
1.0
176
     0
 90
        2
176
     1
  1
strokes_ogs.tif
176
     1
290
     0
176
     1
 40
1.0
176
     1
 40
1.0
176
     1
  0
VISUALSTYLE
  5
2A
102
{ACAD_REACTORS
330
29
102
}
330
29
100
AcDbVisualStyle
  2
Flat
 70
     0
177
     3
291
     1
 70
    58
 90
        2
176
     1
 90
        1
176
     1
 90
        1
176
     1
 90
        2
176
     1
 40
0.6
176
     1
 40
30.0
176
     1
 62
     7
420
 16777215
176
     1
 90
        0
176
     1
 90
        0
176
     1
 62
     7
176
     1
 62
   257
176
     1
 90
        1
176
     1
 90
        1
176
     1
 40
1.0
176
     1
 90
        8
176
     1
 62
     7
176
     1
 40
1.0
176
     1
 90
        1
176
     1
 90
        6
176
     1
 90
        2
176
     1
 62
     7
176
     1
 90
        5
176
     1
 90
        0
176
     1
 90
        0
176
     1
290
     0
176
     1
 90
       13
176
     1
 40
0.0
176
     1
 90
        0
176
     1
290
     0
176
     1
290
     1
176
     1
290
     1
176
     1
290
     0
176
     1
290
     0
176
     1
290
     0
176
     1
290
     0
176
     1
290
     0
176
     1
290
     0
176
     1
 90
       50
176
     1
 40
0.0
176
     1
 40
1.0
176
     1
 90
        0
176
     1
 62
    18
420
        0
176
     1
 90
       50
176
     1
 90
        3
176
     1
 62
     5
420
      255
176
     1
290
     0
176
     1
 90
       50
176
     1
 90
       50
176
     1
 90
       50
176
     1
290
     0
176
     1
 90
       50
176
     1
 62
   256
176
     0
 40
1.0
176
     0
 90
        2
176
     1
  1
strokes_ogs.tif
176
     1
290
     0
176
     1
 40
1.0
176
     1
 40
1.0
176
     1
  0
VISUALSTYLE
  5
2B
102
{ACAD_REACTORS
330
29
102
}
330
29
100
AcDbVisualStyle
  2
FlatWithEdges
 70
     1
177
     3
291
     1
 70
    58
 90
        2
176
     1
 90
        1
176
     1
 90
        1
176
     1
 90
        2
176
     1
 40
0.6
176
     1
 40
30.0
176
     1
 62
     7
420
 16777215
176
     1
 90
        1
176
     1
 90
        0
176
     1
 62
     7
176
     1
 62
   257
176
     1
 90
        1
176
     1
 90
        1
176
     1
 40
1.0
176
     1
 90
        0
176
     1
 62
   257
176
     1
 40
1.0
176
     1
 90
        1
176
     1
 90
        6
176
     1
 90
        2
176
     1
 62
     7
176
     1
 90
        5
176
     1
 90
        0
176
     1
 90
        0
176
     1
290
     0
176
     1
 90
       13
176
     1
 40
0.0
176
     1
 90
        0
176
     1
290
     0
176
     1
290
     1
176
     1
290
     1
176
     1
290
     0
176
     1
290
     0
176
     1
290
     0
176
     1
290
     0
176
     1
290
     0
176
     1
290
     0
176
     1
 90
       50
176
     1
 40
0.0
176
     1
 40
1.0
176
     1
 90
        0
176
     1
 62
    18
420
        0
176
     1
 90
       50
176
     1
 90
        3
176
     1
 62
     5
420
      255
176
     1
290
     0
176
     1
 90
       50
176
     1
 90
       50
176
     1
 90
       50
176
     1
290
     0
176
     1
 90
       50
176
     1
 62
   256
176
     0
 40
1.0
176
     0
 90
        2
176
     1
  1
strokes_ogs.tif
176
     1
290
     0
176
     1
 40
1.0
176
     1
 40
1.0
176
     1
  0
VISUALSTYLE
  5
2C
102
{ACAD_REACTORS
330
29
102
}
330
29
100
AcDbVisualStyle
  2
Gouraud
 70
     2
177
     3
291
     1
 70
    58
 90
        2
176
     1
 90
        2
176
     1
 90
        1
176
     1
 90
        2
176
     1
 40
0.6
176
     1
 40
30.0
176
     1
 62
     7
420
 16777215
176
     1
 90
        0
176
     1
 90
        0
176
     1
 62
     7
176
     1
 62
   257
176
     1
 90
        1
176
     1
 90
        1
176
     1
 40
1.0
176
     1
 90
        0
176
     1
 62
     7
176
     1
 40
1.0
176
     1
 90
        1
176
     1
 90
        6
176
     1
 90
        2
176
     1
 62
     7
176
     1
 90
        5
176
     1
 90
        0
176
     1
 90
        0
176
     1
290
     0
176
     1
 90
       13
176
     1
 40
0.0
176
     1
 90
        0
176
     1
290
     0
176
     1
290
     1
176
     1
290
     1
176
     1
290
     0
176
     1
290
     0
176
     1
290
     0
176
     1
290
     0
176
     1
290
     0
176
     1
290
     0
176
     1
 90
       50
176
     1
 40
0.0
176
     1
 40
1.0
176
     1
 90
        0
176
     1
 62
    18
420
        0
176
     1
 90
       50
176
     1
 90
        3
176
     1
 62
     5
420
      255
176
     1
290
     0
176
     1
 90
       50
176
     1
 90
       50
176
     1
 90
       50
176
     1
290
     0
176
     1
 90
       50
176
     1
 62
   256
176
     0
 40
1.0
176
     0
 90
        2
176
     1
  1
strokes_ogs.tif
176
     1
290
     0
176
     1
 40
1.0
176
     1
 40
1.0
176
     1
  0
VISUALSTYLE
  5
2D
102
{ACAD_REACTORS
330
29
102
}
330
29
100
AcDbVisualStyle
  2
GouraudWithEdges
 70
     3
177
     3
291
     1
 70
    58
 90
        2
176
     1
 90
        2
176
     1
 90
        1
176
     1
 90
        2
176
     1
 40
0.6
176
     1
 40
30.0
176
     1
 62
     7
420
 16777215
176
     1
 90
        1
176
     1
 90
        0
176
     1
 62
     7
176
     1
 62
   257
176
     1
 90
        1
176
     1
 90
        1
176
     1
 40
1.0
176
     1
 90
        0
176
     1
 62
   257
176
     1
 40
1.0
176
     1
 90
        1
176
     1
 90
        6
176
     1
 90
        2
176
     1
 62
     7
176
     1
 90
        5
176
     1
 90
        0
176
     1
 90
        0
176
     1
290
     0
176
     1
 90
       13
176
     1
 40
0.0
176
     1
 90
        0
176
     1
290
     0
176
     1
290
     1
176
     1
290
     1
176
     1
290
     0
176
     1
290
     0
176
     1
290
     0
176
     1
290
     0
176
     1
290
     0
176
     1
290
     0
176
     1
 90
       50
176
     1
 40
0.0
176
     1
 40
1.0
176
     1
 90
        0
176
     1
 62
    18
420
        0
176
     1
 90
       50
176
     1
 90
        3
176
     1
 62
     5
420
      255
176
     1
290
     0
176
     1
 90
       50
176
     1
 90
       50
176
     1
 90
       50
176
     1
290
     0
176
     1
 90
       50
176
     1
 62
   256
176
     0
 40
1.0
176
     0
 90
        2
176
     1
  1
strokes_ogs.tif
176
     1
290
     0
176
     1
 40
1.0
176
     1
 40
1.0
176
     1
  0
VISUALSTYLE
  5
31
102
{ACAD_REACTORS
330
29
102
}
330
29
100
AcDbVisualStyle
  2
Hidden
 70
     6
177
     3
291
     0
 70
    58
 90
        1
176
     1
 90
        2
176
     1
 90
        2
176
     1
 90
        0
176
     1
 40
0.6
176
     1
 40
30.0
176
     1
 62
     7
420
 16777215
176
     1
 90
        2
176
     1
 90
        2
176
     1
 62
     7
176
     1
 62
   257
176
     1
 90
        2
176
     1
 90
        1
176
     1
 40
40.0
176
     1
 90
        0
176
     1
 62
   257
176
     1
 40
1.0
176
     1
 90
        1
176
     1
 90
        6
176
     1
 90
        2
176
     1
 62
     7
176
     1
 90
        3
176
     1
 90
        0
176
     1
 90
        0
176
     1
290
     0
176
     1
 90
        1
176
     1
 40
0.0
176
     1
 90
        0
176
     1
290
     0
176
     1
290
     1
176
     1
290
     1
176
     1
290
     0
176
     1
290
     0
176
     1
290
     0
176
     1
290
     0
176
     1
290
     0
176
     1
290
     0
176
     1
 90
       50
176
     1
 40
0.0
176
     1
 40
1.0
176
     1
 90
        0
176
     1
 62
    18
420
        0
176
     1
 90
       50
176
     1
 90
        3
176
     1
 62
     5
420
      255
176
     1
290
     0
176
     1
 90
       50
176
     1
 90
       50
176
     1
 90
       50
176
     1
290
     0
176
     1
 90
       50
176
     1
 62
   256
176
     0
 40
1.0
176
     0
 90
        2
176
     1
  1
strokes_ogs.tif
176
     1
290
     0
176
     1
 40
1.0
176
     1
 40
1.0
176
     1
  0
VISUALSTYLE
  5
3F
102
{ACAD_REACTORS
330
29
102
}
330
29
100
AcDbVisualStyle
  2
JitterOff
 70
    20
177
     3
291
     1
 70
    58
 90
        2
176
     0
 90
        2
176
     0
 90
        0
176
     0
 90
        0
176
     0
 40
0.6
176
     0
 40
30.0
176
     0
 62
     7
420
 16777215
176
     0
 90
        1
176
     0
 90
        4
176
     0
 62
     7
176
     0
 62
   257
176
     0
 90
        1
176
     0
 90
        1
176
     0
 40
1.0
176
     0
 90
       10
176
     2
 62
     7
176
     0
 40
1.0
176
     0
 90
        1
176
     0
 90
        6
176
     0
 90
        2
176
     0
 62
     7
176
     0
 90
        5
176
     0
 90
        0
176
     0
 90
        0
176
     0
290
     0
176
     0
 90
        1
176
     0
 40
0.0
176
     0
 90
        0
176
     0
290
     0
176
     0
290
     1
176
     0
290
     1
176
     0
290
     0
176
     0
290
     0
176
     0
290
     0
176
     0
290
     0
176
     0
290
     0
176
     0
290
     0
176
     0
 90
       50
176
     0
 40
0.0
176
     0
 40
1.0
176
     0
 90
        0
176
     0
 62
    18
420
        0
176
     0
 90
       50
176
     0
 90
        3
176
     0
 62
     5
420
      255
176
     0
290
     0
176
     0
 90
       50
176
     0
 90
       50
176
     0
 90
       50
176
     0
290
     0
176
     0
 90
       50
176
     0
 62
   256
176
     0
 40
1.0
176
     0
 90
        2
176
     0
  1
strokes_ogs.tif
176
     0
290
     0
176
     0
 40
1.0
176
     0
 40
1.0
176
     0
  0
VISUALSTYLE
  5
37
102
{ACAD_REACTORS
330
29
102
}
330
29
100
AcDbVisualStyle
  2
Linepattern
 70
    14
177
     3
291
     1
 70
    58
 90
        2
176
     1
 90
        2
176
     1
 90
        0
176
     1
 90
        0
176
     1
 40
0.6
176
     1
 40
30.0
176
     1
 62
     7
420
 16777215
176
     1
 90
        1
176
     1
 90
        4
176
     1
 62
     7
176
     1
 62
   257
176
     1
 90
        7
176
     1
 90
        7
176
     1
 40
1.0
176
     1
 90
        8
176
     1
 62
     7
176
     1
 40
1.0
176
     1
 90
        1
176
     1
 90
        6
176
     1
 90
        2
176
     1
 62
     7
176
     1
 90
        5
176
     1
 90
        0
176
     1
 90
        0
176
     1
290
     0
176
     1
 90
        1
176
     1
 40
0.0
176
     1
 90
        0
176
     1
290
     0
176
     1
290
     1
176
     1
290
     1
176
     1
290
     0
176
     1
290
     0
176
     1
290
     0
176
     1
290
     0
176
     1
290
     0
176
     1
290
     0
176
     1
 90
       50
176
     1
 40
0.0
176
     1
 40
1.0
176
     1
 90
        0
176
     1
 62
    18
420
        0
176
     1
 90
       50
176
     1
 90
        3
176
     1
 62
     5
420
      255
176
     1
290
     0
176
     1
 90
       50
176
     1
 90
       50
176
     1
 90
       50
176
     1
290
     0
176
     1
 90
       50
176
     1
 62
   256
176
     0
 40
1.0
176
     0
 90
        2
176
     1
  1
strokes_ogs.tif
176
     1
290
     0
176
     1
 40
1.0
176
     1
 40
1.0
176
     1
  0
VISUALSTYLE
  5
40
102
{ACAD_REACTORS
330
29
102
}
330
29
100
AcDbVisualStyle
  2
OverhangOff
 70
    21
177
     3
291
     1
 70
    58
 90
        2
176
     0
 90
        2
176
     0
 90
        0
176
     0
 90
        0
176
     0
 40
0.6
176
     0
 40
30.0
176
     0
 62
     7
420
 16777215
176
     0
 90
        1
176
     0
 90
        4
176
     0
 62
     7
176
     0
 62
   257
176
     0
 90
        1
176
     0
 90
        1
176
     0
 40
1.0
176
     0
 90
        9
176
     2
 62
     7
176
     0
 40
1.0
176
     0
 90
        1
176
     0
 90
        6
176
     0
 90
        2
176
     0
 62
     7
176
     0
 90
        5
176
     0
 90
        0
176
     0
 90
        0
176
     0
290
     0
176
     0
 90
        1
176
     0
 40
0.0
176
     0
 90
        0
176
     0
290
     0
176
     0
290
     1
176
     0
290
     1
176
     0
290
     0
176
     0
290
     0
176
     0
290
     0
176
     0
290
     0
176
     0
290
     0
176
     0
290
     0
176
     0
 90
       50
176
     0
 40
0.0
176
     0
 40
1.0
176
     0
 90
        0
176
     0
 62
    18
420
        0
176
     0
 90
       50
176
     0
 90
        3
176
     0
 62
     5
420
      255
176
     0
290
     0
176
     0
 90
       50
176
     0
 90
       50
176
     0
 90
       50
176
     0
290
     0
176
     0
 90
       50
176
     0
 62
   256
176
     0
 40
1.0
176
     0
 90
        2
176
     0
  1
strokes_ogs.tif
176
     0
290
     0
176
     0
 40
1.0
176
     0
 40
1.0
176
     0
  0
VISUALSTYLE
  5
33
102
{ACAD_REACTORS
330
29
102
}
330
29
100
AcDbVisualStyle
  2
Realistic
 70
     8
177
     3
291
     0
 70
    58
 90
        2
176
     1
 90
        3
176
     1
 90
        0
176
     1
 90
        2
176
     1
 40
0.6
176
     1
 40
30.0
176
     1
 62
     7
420
 16777215
176
     1
 90
        0
176
     1
 90
        0
176
     1
 62
     7
176
     1
 62
   257
176
     1
 90
        1
176
     1
 90
        1
176
     1
 40
1.0
176
     1
 90
        8
176
     1
 62
   257
176
     1
 40
1.0
176
     1
 90
        1
176
     1
 90
        6
176
     1
 90
        2
176
     1
 62
     7
176
     1
 90
        3
176
     1
 90
        0
176
     1
 90
        0
176
     1
290
     0
176
     1
 90
       13
176
     1
 40
0.0
176
     1
 90
        0
176
     1
290
     0
176
     1
290
     1
176
     1
290
     1
176
     1
290
     0
176
     1
290
     0
176
     1
290
     0
176
     1
290
     0
176
     1
290
     0
176
     1
290
     0
176
     1
 90
       50
176
     1
 40
0.0
176
     1
 40
1.0
176
     1
 90
        0
176
     1
 62
    18
420
        0
176
     1
 90
       50
176
     1
 90
        3
176
     1
 62
     5
420
      255
176
     1
290
     0
176
     1
 90
       50
176
     1
 90
       50
176
     1
 90
       50
176
     1
290
     0
176
     1
 90
       50
176
     1
 62
   256
176
     0
 40
1.0
176
     0
 90
        2
176
     1
  1
strokes_ogs.tif
176
     1
290
     0
176
     1
 40
1.0
176
     1
 40
1.0
176
     1
  0
VISUALSTYLE
  5
3E
102
{ACAD_REACTORS
330
29
102
}
330
29
100
AcDbVisualStyle
  2
Shaded
 70
    27
177
     3
291
     0
 70
    58
 90
        2
176
     1
 90
        2
176
     1
 90
        1
176
     1
 90
        2
176
     1
 40
0.6
176
     1
 40
30.0
176
     1
 62
     7
420
 16777215
176
     1
 90
        0
176
     1
 90
        4
176
     1
 62
     7
176
     1
 62
   257
176
     1
 90
        1
176
     1
 90
        1
176
     1
 40
1.0
176
     1
 90
        8
176
     1
 62
   257
176
     1
 40
1.0
176
     1
 90
        1
176
     1
 90
        6
176
     1
 90
        2
176
     1
 62
     8
420
  7895160
176
     1
 90
        3
176
     1
 90
        0
176
     1
 90
        0
176
     1
290
     0
176
     1
 90
        5
176
     1
 40
0.0
176
     1
 90
        0
176
     1
290
     0
176
     1
290
     1
176
     1
290
     1
176
     1
290
     0
176
     1
290
     0
176
     1
290
     0
176
     1
290
     0
176
     1
290
     0
176
     1
290
     0
176
     1
 90
       50
176
     1
 40
0.0
176
     1
 40
1.0
176
     1
 90
        0
176
     1
 62
    18
420
        0
176
     1
 90
       50
176
     1
 90
        3
176
     1
 62
     5
420
      255
176
     1
290
     0
176
     1
 90
       50
176
     1
 90
       50
176
     1
 90
       50
176
     1
290
     0
176
     1
 90
       50
176
     1
 62
   256
176
     0
 40
1.0
176
     0
 90
        2
176
     1
  1
strokes_ogs.tif
176
     1
290
     0
176
     1
 40
1.0
176
     1
 40
1.0
176
     1
  0
VISUALSTYLE
  5
3D
102
{ACAD_REACTORS
330
29
102
}
330
29
100
AcDbVisualStyle
  2
Shaded with edges
 70
    26
177
     3
291
     0
 70
    58
 90
        2
176
     1
 90
        2
176
     1
 90
        1
176
     1
 90
        2
176
     1
 40
0.6
176
     1
 40
30.0
176
     1
 62
     7
420
 16777215
176
     1
 90
        1
176
     1
 90
        2
176
     1
 62
     7
176
     1
 62
   257
176
     1
 90
        2
176
     1
 90
        1
176
     1
 40
1.0
176
     1
 90
        8
176
     1
 62
   257
176
     1
 40
1.0
176
     1
 90
        1
176
     1
 90
        6
176
     1
 90
        2
176
     1
 62
     7
176
     1
 90
        3
176
     1
 90
        0
176
     1
 90
        0
176
     1
290
     0
176
     1
 90
        5
176
     1
 40
0.0
176
     1
 90
        0
176
     1
290
     0
176
     1
290
     1
176
     1
290
     1
176
     1
290
     0
176
     1
290
     0
176
     1
290
     0
176
     1
290
     0
176
     1
290
     0
176
     1
290
     0
176
     1
 90
       50
176
     1
 40
0.0
176
     1
 40
1.0
176
     1
 90
        0
176
     1
 62
    18
420
        0
176
     1
 90
       50
176
     1
 90
        3
176
     1
 62
     5
420
      255
176
     1
290
     0
176
     1
 90
       50
176
     1
 90
       50
176
     1
 90
       50
176
     1
290
     0
176
     1
 90
       50
176
     1
 62
   256
176
     0
 40
1.0
176
     0
 90
        2
176
     1
  1
strokes_ogs.tif
176
     1
290
     0
176
     1
 40
1.0
176
     1
 40
1.0
176
     1
  0
VISUALSTYLE
  5
3A
102
{ACAD_REACTORS
330
29
102
}
330
29
100
AcDbVisualStyle
  2
Shades of Gray
 70
    23
177
     3
291
     0
 70
    58
 90
        2
176
     1
 90
        2
176
     1
 90
        3
176
     1
 90
        0
176
     1
 40
0.6
176
     1
 40
30.0
176
     1
 62
     7
420
 16777215
176
     1
 90
        2
176
     1
 90
        2
176
     1
 62
     7
176
     1
 62
     7
176
     1
 90
        1
176
     1
 90
        1
176
     1
 40
40.0
176
     1
 90
        8
176
     1
 62
     7
176
     1
 40
1.0
176
     1
 90
        1
176
     1
 90
        6
176
     1
 90
        2
176
     1
 62
     7
176
     1
 90
        3
176
     1
 90
        0
176
     1
 90
        0
176
     1
290
     0
176
     1
 90
        1
176
     1
 40
0.0
176
     1
 90
        0
176
     1
290
     0
176
     1
290
     1
176
     1
290
     1
176
     1
290
     0
176
     1
290
     0
176
     1
290
     0
176
     1
290
     0
176
     1
290
     0
176
     1
290
     0
176
     1
 90
       50
176
     1
 40
0.0
176
     1
 40
1.0
176
     1
 90
        0
176
     1
 62
    18
420
        0
176
     1
 90
       50
176
     1
 90
        3
176
     1
 62
     5
420
      255
176
     1
290
     0
176
     1
 90
       50
176
     1
 90
       50
176
     1
 90
       50
176
     1
290
     0
176
     1
 90
       50
176
     1
 62
   256
176
     0
 40
1.0
176
     0
 90
        2
176
     1
  1
strokes_ogs.tif
176
     1
290
     0
176
     1
 40
1.0
176
     1
 40
1.0
176
     1
  0
VISUALSTYLE
  5
3B
102
{ACAD_REACTORS
330
29
102
}
330
29
100
AcDbVisualStyle
  2
Sketchy
 70
    24
177
     3
291
     0
 70
    58
 90
        1
176
     1
 90
        2
176
     1
 90
        2
176
     1
 90
        0
176
     1
 40
0.6
176
     1
 40
30.0
176
     1
 62
     7
420
 16777215
176
     1
 90
        2
176
     1
 90
        2
176
     1
 62
     7
176
     1
 62
     7
176
     1
 90
        1
176
     1
 90
        1
176
     1
 40
40.0
176
     1
 90
       11
176
     1
 62
     7
176
     1
 40
1.0
176
     1
 90
        1
176
     1
 90
        6
176
     1
 90
        2
176
     1
 62
     7
176
     1
 90
        6
176
     1
 90
        0
176
     1
 90
        0
176
     1
290
     0
176
     1
 90
        1
176
     1
 40
0.0
176
     1
 90
        0
176
     1
290
     0
176
     1
290
     1
176
     1
290
     1
176
     1
290
     0
176
     1
290
     0
176
     1
290
     0
176
     1
290
     0
176
     1
290
     0
176
     1
290
     0
176
     1
 90
       50
176
     1
 40
0.0
176
     1
 40
1.0
176
     1
 90
        0
176
     1
 62
    18
420
        0
176
     1
 90
       50
176
     1
 90
        3
176
     1
 62
     5
420
      255
176
     1
290
     0
176
     1
 90
       50
176
     1
 90
       50
176
     1
 90
       50
176
     1
290
     0
176
     1
 90
       50
176
     1
 62
   256
176
     0
 40
1.0
176
     0
 90
        2
176
     1
  1
strokes_ogs.tif
176
     1
290
     0
176
     1
 40
1.0
176
     1
 40
1.0
176
     1
  0
VISUALSTYLE
  5
36
102
{ACAD_REACTORS
330
29
102
}
330
29
100
AcDbVisualStyle
  2
Thicken
 70
    13
177
     3
291
     1
 70
    58
 90
        2
176
     1
 90
        2
176
     1
 90
        0
176
     1
 90
        0
176
     1
 40
0.6
176
     1
 40
30.0
176
     1
 62
     7
420
 16777215
176
     1
 90
        1
176
     1
 90
        4
176
     1
 62
     7
176
     1
 62
   257
176
     1
 90
        1
176
     1
 90
        1
176
     1
 40
1.0
176
     1
 90
       12
176
     1
 62
     7
176
     1
 40
1.0
176
     1
 90
        1
176
     1
 90
        6
176
     1
 90
        2
176
     1
 62
     7
176
     1
 90
        5
176
     1
 90
        0
176
     1
 90
        0
176
     1
290
     0
176
     1
 90
        1
176
     1
 40
0.0
176
     1
 90
        0
176
     1
290
     0
176
     1
290
     1
176
     1
290
     1
176
     1
290
     0
176
     1
290
     0
176
     1
290
     0
176
     1
290
     0
176
     1
290
     0
176
     1
290
     0
176
     1
 90
       50
176
     1
 40
0.0
176
     1
 40
1.0
176
     1
 90
        0
176
     1
 62
    18
420
        0
176
     1
 90
       50
176
     1
 90
        3
176
     1
 62
     5
420
      255
176
     1
290
     0
176
     1
 90
       50
176
     1
 90
       50
176
     1
 90
       50
176
     1
290
     0
176
     1
 90
       50
176
     1
 62
   256
176
     0
 40
1.0
176
     0
 90
        2
176
     1
  1
strokes_ogs.tif
176
     1
290
     0
176
     1
 40
1.0
176
     1
 40
1.0
176
     1
  0
VISUALSTYLE
  5
30
102
{ACAD_REACTORS
330
29
102
}
330
29
100
AcDbVisualStyle
  2
Wireframe
 70
     5
177
     3
291
     0
 70
    58
 90
        0
176
     1
 90
        2
176
     1
 90
        0
176
     1
 90
        0
176
     1
 40
0.6
176
     1
 40
30.0
176
     1
 62
     7
420
 16777215
176
     1
 90
        1
176
     1
 90
        4
176
     1
 62
     7
176
     1
 62
   257
176
     1
 90
        1
176
     1
 90
        1
176
     1
 40
1.0
176
     1
 90
        0
176
     1
 62
   257
176
     1
 40
1.0
176
     1
 90
        1
176
     1
 90
        6
176
     1
 90
        2
176
     1
 62
     7
176
     1
 90
        3
176
     1
 90
        0
176
     1
 90
        0
176
     1
290
     0
176
     1
 90
        1
176
     1
 40
0.0
176
     1
 90
        0
176
     1
290
     0
176
     1
290
     1
176
     1
290
     1
176
     1
290
     0
176
     1
290
     0
176
     1
290
     0
176
     1
290
     0
176
     1
290
     0
176
     1
290
     0
176
     1
 90
       50
176
     1
 40
0.0
176
     1
 40
1.0
176
     1
 90
        0
176
     1
 62
    18
420
        0
176
     1
 90
       50
176
     1
 90
        3
176
     1
 62
     5
420
      255
176
     1
290
     0
176
     1
 90
       50
176
     1
 90
       50
176
     1
 90
       50
176
     1
290
     0
176
     1
 90
       50
176
     1
 62
   256
176
     0
 40
1.0
176
     0
 90
        2
176
     1
  1
strokes_ogs.tif
176
     1
290
     0
176
     1
 40
1.0
176
     1
 40
1.0
176
     1
  0
VISUALSTYLE
  5
3C
102
{ACAD_REACTORS
330
29
102
}
330
29
100
AcDbVisualStyle
  2
X-Ray
 70
    25
177
     3
291
     0
 70
    58
 90
        2
176
     1
 90
        2
176
     1
 90
        1
176
     1
 90
        1
176
     1
 40
0.5
176
     1
 40
30.0
176
     1
 62
     7
420
 16777215
176
     1
 90
        1
176
     1
 90
        0
176
     1
 62
     7
176
     1
 62
   257
176
     1
 90
        1
176
     1
 90
        1
176
     1
 40
1.0
176
     1
 90
        8
176
     1
 62
     7
176
     1
 40
1.0
176
     1
 90
        1
176
     1
 90
        6
176
     1
 90
        2
176
     1
 62
     7
176
     1
 90
        3
176
     1
 90
        0
176
     1
 90
        0
176
     1
290
     0
176
     1
 90
       13
176
     1
 40
0.0
176
     1
 90
        0
176
     1
290
     0
176
     1
290
     1
176
     1
290
     1
176
     1
290
     0
176
     1
290
     0
176
     1
290
     0
176
     1
290
     0
176
     1
290
     0
176
     1
290
     0
176
     1
 90
       50
176
     1
 40
0.0
176
     1
 40
1.0
176
     1
 90
        0
176
     1
 62
    18
420
        0
176
     1
 90
       50
176
     1
 90
        3
176
     1
 62
     5
420
      255
176
     1
290
     0
176
     1
 90
       50
176
     1
 90
       50
176
     1
 90
       50
176
     1
290
     0
176
     1
 90
       50
176
     1
 62
   256
176
     0
 40
1.0
176
     0
 90
        2
176
     1
  1
strokes_ogs.tif
176
     1
290
     0
176
     1
 40
1.0
176
     1
 40
1.0
176
     1
  0
DICTIONARYVAR
  5
295
102
{ACAD_REACTORS
330
290
102
}
330
290
100
DictionaryVariables
280
     0
  1
1:1
  0
DICTIONARYVAR
  5
292
102
{ACAD_REACTORS
330
290
102
}
330
290
100
DictionaryVariables
280
     0
  1
STANDARD
  0
DICTIONARYVAR
  5
291
102
{ACAD_REACTORS
330
290
102
}
330
290
100
DictionaryVariables
280
     0
  1
STANDARD
  0
DICTIONARYVAR
  5
293
102
{ACAD_REACTORS
330
290
102
}
330
290
100
DictionaryVariables
280
     0
  1
Imperial24
  0
DICTIONARYVAR
  5
294
102
{ACAD_REACTORS
330
290
102
}
330
290
100
DictionaryVariables
280
     0
  1
Imperial24
  0
DICTIONARY
  5
1A
330
19
100
AcDbDictionary
280
     1
281
     1
  3
BUMPTILE
360
1C
  3
DIFFUSETILE
360
1B
  3
OPACITYTILE
360
1F
  3
REFLECTIONTILE
360
1E
  3
REFRACTIONTILE
360
20
  3
SPECULARTILE
360
1D
  0
DICTIONARY
  5
12
330
11
100
AcDbDictionary
280
     1
281
     1
  3
BUMPTILE
360
14
  3
DIFFUSETILE
360
13
  3
OPACITYTILE
360
17
  3
REFLECTIONTILE
360
16
  3
REFRACTIONTILE
360
18
  3
SPECULARTILE
360
15
  0
DICTIONARY
  5
22
330
21
100
AcDbDictionary
280
     1
281
     1
  3
BUMPTILE
360
24
  3
DIFFUSETILE
360
23
  3
OPACITYTILE
360
27
  3
REFLECTIONTILE
360
26
  3
REFRACTIONTILE
360
28
  3
SPECULARTILE
360
25
  0
DICTIONARY
  5
296
330
65
100
AcDbDictionary
280
     1
281
     1
  3
ACAD_ROUNDTRIP_2008_TABLESTYLE_CELLSTYLEMAP
360
297
  0
XRECORD
  5
1C
102
{ACAD_REACTORS
330
1A
102
}
330
1A
100
AcDbXrecord
280
     1
270
     1
271
     1
  0
XRECORD
  5
1B
102
{ACAD_REACTORS
330
1A
102
}
330
1A
100
AcDbXrecord
280
     1
270
     1
271
     1
  0
XRECORD
  5
1F
102
{ACAD_REACTORS
330
1A
102
}
330
1A
100
AcDbXrecord
280
     1
270
     1
271
     1
  0
XRECORD
  5
1E
102
{ACAD_REACTORS
330
1A
102
}
330
1A
100
AcDbXrecord
280
     1
270
     1
271
     1
  0
XRECORD
  5
20
102
{ACAD_REACTORS
330
1A
102
}
330
1A
100
AcDbXrecord
280
     1
270
     1
271
     1
  0
XRECORD
  5
1D
102
{ACAD_REACTORS
330
1A
102
}
330
1A
100
AcDbXrecord
280
     1
270
     1
271
     1
  0
XRECORD
  5
14
102
{ACAD_REACTORS
330
12
102
}
330
12
100
AcDbXrecord
280
     1
270
     1
271
     1
  0
XRECORD
  5
13
102
{ACAD_REACTORS
330
12
102
}
330
12
100
AcDbXrecord
280
     1
270
     1
271
     1
  0
XRECORD
  5
17
102
{ACAD_REACTORS
330
12
102
}
330
12
100
AcDbXrecord
280
     1
270
     1
271
     1
  0
XRECORD
  5
16
102
{ACAD_REACTORS
330
12
102
}
330
12
100
AcDbXrecord
280
     1
270
     1
271
     1
  0
XRECORD
  5
18
102
{ACAD_REACTORS
330
12
102
}
330
12
100
AcDbXrecord
280
     1
270
     1
271
     1
  0
XRECORD
  5
15
102
{ACAD_REACTORS
330
12
102
}
330
12
100
AcDbXrecord
280
     1
270
     1
271
     1
  0
XRECORD
  5
24
102
{ACAD_REACTORS
330
22
102
}
330
22
100
AcDbXrecord
280
     1
270
     1
271
     1
  0
XRECORD
  5
23
102
{ACAD_REACTORS
330
22
102
}
330
22
100
AcDbXrecord
280
     1
270
     1
271
     1
  0
XRECORD
  5
27
102
{ACAD_REACTORS
330
22
102
}
330
22
100
AcDbXrecord
280
     1
270
     1
271
     1
  0
XRECORD
  5
26
102
{ACAD_REACTORS
330
22
102
}
330
22
100
AcDbXrecord
280
     1
270
     1
271
     1
  0
XRECORD
  5
28
102
{ACAD_REACTORS
330
22
102
}
330
22
100
AcDbXrecord
280
     1
270
     1
271
     1
  0
XRECORD
  5
25
102
{ACAD_REACTORS
330
22
102
}
330
22
100
AcDbXrecord
280
     1
270
     1
271
     1
  0
CELLSTYLEMAP
  5
297
102
{ACAD_REACTORS
330
296
102
}
330
296
100
AcDbCellStyleMap
 90
        3
300
CELLSTYLE
  1
TABLEFORMAT_BEGIN
 90
        5
170
     1
 91
        0
 92
    32768
 62
   257
 93
        1
300
CONTENTFORMAT
  1
CONTENTFORMAT_BEGIN
 90
        0
 91
        0
 92
      512
 93
        0
300

 40
0.0
140
1.0
 94
        5
 62
     0
340
55
144
0.25
309
CONTENTFORMAT_END
171
     0
 94
        0
309
TABLEFORMAT_END
  1
CELLSTYLE_BEGIN
 90
        1
 91
        1
300
_TITLE
309
CELLSTYLE_END
300
CELLSTYLE
  1
TABLEFORMAT_BEGIN
 90
        5
170
     1
 91
        0
 92
        0
 62
   257
 93
        1
300
CONTENTFORMAT
  1
CONTENTFORMAT_BEGIN
 90
        0
 91
        0
 92
      512
 93
        0
300

 40
0.0
140
1.0
 94
        5
 62
     0
340
55
144
0.18
309
CONTENTFORMAT_END
171
     0
 94
        0
309
TABLEFORMAT_END
  1
CELLSTYLE_BEGIN
 90
        2
 91
        1
300
_HEADER
309
CELLSTYLE_END
300
CELLSTYLE
  1
TABLEFORMAT_BEGIN
 90
        5
170
     1
 91
        0
 92
        0
 62
   257
 93
        1
300
CONTENTFORMAT
  1
CONTENTFORMAT_BEGIN
 90
        0
 91
        0
 92
      512
 93
        0
300

 40
0.0
140
1.0
 94
        2
 62
     0
340
55
144
0.18
309
CONTENTFORMAT_END
171
     0
 94
        0
309
TABLEFORMAT_END
  1
CELLSTYLE_BEGIN
 90
        3
 91
        2
300
_DATA
309
CELLSTYLE_END
  0
ENDSEC
  0
EOF
