  0
SECTION
  2
HEADER
  9
$ACADVER
  1
AC1032
  9
$ACADMAINTVER
 90
      251
  9
$DWGCODEPAGE
  3
ANSI_1252
  9
$REQUIREDVERSIONS
160
                 0
  9
$INSBASE
 10
0.0
 20
0.0
 30
0.0
  9
$EXTMIN
 10
1.000000000000000E+20
 20
1.000000000000000E+20
 30
1.000000000000000E+20
  9
$EXTMAX
 10
-1.000000000000000E+20
 20
-1.000000000000000E+20
 30
-1.000000000000000E+20
  9
$LIMMIN
 10
0.0
 20
0.0
  9
$LIMMAX
 10
12.0
 20
9.0
  9
$ORTHOMODE
 70
     0
  9
$REGENMODE
 70
     1
  9
$FILLMODE
 70
     1
  9
$QTEXTMODE
 70
     0
  9
$MIRRTEXT
 70
     0
  9
$LTSCALE
 40
1.0
  9
$ATTMODE
 70
     1
  9
$TEXTSIZE
 40
0.2
  9
$TRACEWID
 40
0.05
  9
$TEXTSTYLE
  7
Standard
  9
$CLAYER
  8
0
  9
$CELTYPE
  6
ByLayer
  9
$CECOLOR
 62
   256
  9
$CELTSCALE
 40
1.0
  9
$DISPSILH
 70
     0
  9
$DIMSCALE
 40
1.0
  9
$DIMASZ
 40
0.18
  9
$DIMEXO
 40
0.0625
  9
$DIMDLI
 40
0.38
  9
$DIMRND
 40
0.0
  9
$DIMDLE
 40
0.0
  9
$DIMEXE
 40
0.18
  9
$DIMTP
 40
0.0
  9
$DIMTM
 40
0.0
  9
$DIMTXT
 40
0.18
  9
$DIMCEN
 40
0.09
  9
$DIMTSZ
 40
0.0
  9
$DIMTOL
 70
     0
  9
$DIMLIM
 70
     0
  9
$DIMTIH
 70
     1
  9
$DIMTOH
 70
     1
  9
$DIMSE1
 70
     0
  9
$DIMSE2
 70
     0
  9
$DIMTAD
 70
     0
  9
$DIMZIN
 70
     0
  9
$DIMBLK
  1

  9
$DIMASO
 70
     1
  9
$DIMSHO
 70
     1
  9
$DIMPOST
  1

  9
$DIMAPOST
  1

  9
$DIMALT
 70
     0
  9
$DIMALTD
 70
     2
  9
$DIMALTF
 40
25.4
  9
$DIMLFAC
 40
1.0
  9
$DIMTOFL
 70
     0
  9
$DIMTVP
 40
0.0
  9
$DIMTIX
 70
     0
  9
$DIMSOXD
 70
     0
  9
$DIMSAH
 70
     0
  9
$DIMBLK1
  1

  9
$DIMBLK2
  1

  9
$DIMSTYLE
  2
Standard
  9
$DIMCLRD
 70
     0
  9
$DIMCLRE
 70
     0
  9
$DIMCLRT
 70
     0
  9
$DIMTFAC
 40
1.0
  9
$DIMGAP
 40
0.09
  9
$DIMJUST
 70
     0
  9
$DIMSD1
 70
     0
  9
$DIMSD2
 70
     0
  9
$DIMTOLJ
 70
     1
  9
$DIMTZIN
 70
     0
  9
$DIMALTZ
 70
     0
  9
$DIMALTTZ
 70
     0
  9
$DIMUPT
 70
     0
  9
$DIMDEC
 70
     4
  9
$DIMTDEC
 70
     4
  9
$DIMALTU
 70
     2
  9
$DIMALTTD
 70
     2
  9
$DIMTXSTY
  7
Standard
  9
$DIMAUNIT
 70
     0
  9
$DIMADEC
 70
     0
  9
$DIMALTRND
 40
0.0
  9
$DIMAZIN
 70
     0
  9
$DIMDSEP
 70
    46
  9
$DIMATFIT
 70
     3
  9
$DIMFRAC
 70
     0
  9
$DIMLDRBLK
  1

  9
$DIMLUNIT
 70
     2
  9
$DIMLWD
 70
    -2
  9
$DIMLWE
 70
    -2
  9
$DIMTMOVE
 70
     0
  9
$DIMFXL
 40
1.0
  9
$DIMFXLON
 70
     0
  9
$DIMJOGANG
 40
0.7853981633974483
  9
$DIMTFILL
 70
     0
  9
$DIMTFILLCLR
 70
     0
  9
$DIMARCSYM
 70
     0
  9
$DIMLTYPE
  6

  9
$DIMLTEX1
  6

  9
$DIMLTEX2
  6

  9
$DIMTXTDIRECTION
 70
     0
  9
$LUNITS
 70
     2
  9
$LUPREC
 70
     4
  9
$SKETCHINC
 40
0.1
  9
$FILLETRAD
 40
0.0
  9
$AUNITS
 70
     0
  9
$AUPREC
 70
     0
  9
$MENU
  1
.
  9
$ELEVATION
 40
0.0
  9
$PELEVATION
 40
0.0
  9
$THICKNESS
 40
0.0
  9
$LIMCHECK
 70
     0
  9
$CHAMFERA
 40
0.0
  9
$CHAMFERB
 40
0.0
  9
$CHAMFERC
 40
0.0
  9
$CHAMFERD
 40
0.0
  9
$SKPOLY
 70
     0
  9
$TDCREATE
 40
2459963.396284722
  9
$TDUCREATE
 40
2459963.354618056
  9
$TDUPDATE
 40
2459963.396284722
  9
$TDUUPDATE
 40
2459963.354618056
  9
$TDINDWG
 40
0.0000115741
  9
$TDUSRTIMER
 40
0.0000115741
  9
$USRTIMER
 70
     1
  9
$ANGBASE
 50
0.0
  9
$ANGDIR
 70
     0
  9
$PDMODE
 70
     0
  9
$PDSIZE
 40
0.0
  9
$PLINEWID
 40
0.0
  9
$SPLFRAME
 70
     0
  9
$SPLINETYPE
 70
     6
  9
$SPLINESEGS
 70
     8
  9
$HANDSEED
  5
298
  9
$SURFTAB1
 70
     6
  9
$SURFTAB2
 70
     6
  9
$SURFTYPE
 70
     6
  9
$SURFU
 70
     6
  9
$SURFV
 70
     6
  9
$UCSBASE
  2

  9
$UCSNAME
  2

  9
$UCSORG
 10
0.0
 20
0.0
 30
0.0
  9
$UCSXDIR
 10
1.0
 20
0.0
 30
0.0
  9
$UCSYDIR
 10
0.0
 20
1.0
 30
0.0
  9
$UCSORTHOREF
  2

  9
$UCSORTHOVIEW
 70
     0
  9
$UCSORGTOP
 10
0.0
 20
0.0
 30
0.0
  9
$UCSORGBOTTOM
 10
0.0
 20
0.0
 30
0.0
  9
$UCSORGLEFT
 10
0.0
 20
0.0
 30
0.0
  9
$UCSORGRIGHT
 10
0.0
 20
0.0
 30
0.0
  9
$UCSORGFRONT
 10
0.0
 20
0.0
 30
0.0
  9
$UCSORGBACK
 10
0.0
 20
0.0
 30
0.0
  9
$PUCSBASE
  2

  9
$PUCSNAME
  2

  9
$PUCSORG
 10
0.0
 20
0.0
 30
0.0
  9
$PUCSXDIR
 10
1.0
 20
0.0
 30
0.0
  9
$PUCSYDIR
 10
0.0
 20
1.0
 30
0.0
  9
$PUCSORTHOREF
  2

  9
$PUCSORTHOVIEW
 70
     0
  9
$PUCSORGTOP
 10
0.0
 20
0.0
 30
0.0
  9
$PUCSORGBOTTOM
 10
0.0
 20
0.0
 30
0.0
  9
$PUCSORGLEFT
 10
0.0
 20
0.0
 30
0.0
  9
$PUCSORGRIGHT
 10
0.0
 20
0.0
 30
0.0
  9
$PUCSORGFRONT
 10
0.0
 20
0.0
 30
0.0
  9
$PUCSORGBACK
 10
0.0
 20
0.0
 30
0.0
  9
$USERI1
 70
     0
  9
$USERI2
 70
     0
  9
$USERI3
 70
     0
  9
$USERI4
 70
     0
  9
$USERI5
 70
     0
  9
$USERR1
 40
0.0
  9
$USERR2
 40
0.0
  9
$USERR3
 40
0.0
  9
$USERR4
 40
0.0
  9
$USERR5
 40
0.0
  9
$WORLDVIEW
 70
     1
  9
$SHADEDGE
 70
     3
  9
$SHADEDIF
 70
    70
  9
$TILEMODE
 70
     1
  9
$MAXACTVP
 70
    64
  9
$PINSBASE
 10
0.0
 20
0.0
 30
0.0
  9
$PLIMCHECK
 70
     0
  9
$PEXTMIN
 10
1.000000000000000E+20
 20
1.000000000000000E+20
 30
1.000000000000000E+20
  9
$PEXTMAX
 10
-1.000000000000000E+20
 20
-1.000000000000000E+20
 30
-1.000000000000000E+20
  9
$PLIMMIN
 10
0.0
 20
0.0
  9
$PLIMMAX
 10
12.0
 20
9.0
  9
$UNITMODE
 70
     0
  9
$VISRETAIN
 70
     1
  9
$PLINEGEN
 70
     0
  9
$PSLTSCALE
 70
     1
  9
$TREEDEPTH
 70
  3020
  9
$CMLSTYLE
  2
Standard
  9
$CMLJUST
 70
     0
  9
$CMLSCALE
 40
1.0
  9
$PROXYGRAPHICS
 70
     1
  9
$MEASUREMENT
 70
     0
  9
$CELWEIGHT
370
    -1
  9
$ENDCAPS
280
     0
  9
$JOINSTYLE
280
     0
  9
$LWDISPLAY
290
     1
  9
$INSUNITS
 70
     4
  9
$HYPERLINKBASE
  1

  9
$STYLESHEET
  1

  9
$XEDIT
290
     1
  9
$CEPSNTYPE
380
     0
  9
$PSTYLEMODE
290
     1
  9
$FINGERPRINTGUID
  2
{E8AF9F98-AE8D-9740-9CA9-9C52854F71BC}
  9
$VERSIONGUID
  2
{F7A54421-912B-874A-8BAE-194F2E7C877A}
  9
$EXTNAMES
290
     1
  9
$PSVPSCALE
 40
0.0
  9
$OLESTARTUP
290
     0
  9
$SORTENTS
280
   127
  9
$INDEXCTL
280
     0
  9
$HIDETEXT
280
     1
  9
$XCLIPFRAME
280
     2
  9
$HALOGAP
280
     0
  9
$OBSCOLOR
 70
   257
  9
$OBSLTYPE
280
     0
  9
$INTERSECTIONDISPLAY
280
     0
  9
$INTERSECTIONCOLOR
 70
   257
  9
$DIMASSOC
280
     2
  9
$PROJECTNAME
  1

  9
$CAMERADISPLAY
290
     0
  9
$LENSLENGTH
 40
50.0
  9
$CAMERAHEIGHT
 40
0.0
  9
$STEPSPERSEC
 40
2.0
  9
$STEPSIZE
 40
6.0
  9
$3DDWFPREC
 40
2.0
  9
$PSOLWIDTH
 40
0.25
  9
$PSOLHEIGHT
 40
4.0
  9
$LOFTANG1
 40
1.570796326794896
  9
$LOFTANG2
 40
1.570796326794896
  9
$LOFTMAG1
 40
0.0
  9
$LOFTMAG2
 40
0.0
  9
$LOFTPARAM
 70
     7
  9
$LOFTNORMALS
280
     1
  9
$LATITUDE
 40
37.795
  9
$LONGITUDE
 40
-122.394
  9
$NORTHDIRECTION
 40
0.0
  9
$TIMEZONE
 70
 -8000
  9
$LIGHTGLYPHDISPLAY
280
     1
  9
$TILEMODELIGHTSYNCH
280
     1
  9
$CMATERIAL
347
11
  9
$SOLIDHIST
280
     0
  9
$SHOWHIST
280
     1
  9
$DWFFRAME
280
     2
  9
$DGNFRAME
280
     0
  9
$REALWORLDSCALE
290
     1
  9
$INTERFERECOLOR
 62
     1
  9
$INTERFEREOBJVS
345
33
  9
$INTERFEREVPVS
346
30
  9
$CSHADOW
280
     0
  9
$SHADOWPLANELOCATION
 40
0.0
  0
ENDSEC
  0
SECTION
  2
CLASSES
  0
CLASS
  1
ACDBDICTIONARYWDFLT
  2
AcDbDictionaryWithDefault
  3
ObjectDBX Classes
 90
        0
 91
        1
280
     0
281
     0
  0
CLASS
  1
MATERIAL
  2
AcDbMaterial
  3
ObjectDBX Classes
 90
     1153
 91
        3
280
     0
281
     0
  0
CLASS
  1
VISUALSTYLE
  2
AcDbVisualStyle
  3
ObjectDBX Classes
 90
     4095
 91
       24
280
     0
281
     0
  0
CLASS
  1
SCALE
  2
AcDbScale
  3
ObjectDBX Classes
 90
     1153
 91
       17
280
     0
281
     0
  0
CLASS
  1
TABLESTYLE
  2
AcDbTableStyle
  3
ObjectDBX Classes
 90
     4095
 91
        1
280
     0
281
     0
  0
CLASS
  1
MLEADERSTYLE
  2
AcDbMLeaderStyle
  3
ACDB_MLEADERSTYLE_CLASS
 90
     4095
 91
        1
280
     0
281
     0
  0
CLASS
  1
ACDBSECTIONVIEWSTYLE
  2
AcDbSectionViewStyle
  3
ObjectDBX Classes
 90
     1025
 91
        1
280
     0
281
     0
  0
CLASS
  1
ACDBDETAILVIEWSTYLE
  2
AcDbDetailViewStyle
  3
ObjectDBX Classes
 90
     1025
 91
        1
280
     0
281
     0
  0
CLASS
  1
DICTIONARYVAR
  2
AcDbDictionaryVar
  3
ObjectDBX Classes
 90
        0
 91
        5
280
     0
281
     0
  0
CLASS
  1
CELLSTYLEMAP
  2
AcDbCellStyleMap
  3
ObjectDBX Classes
 90
     1152
 91
        1
280
     0
281
     0
  0
ENDSEC
  0
SECTION
  2
TABLES
  0
TABLE
  2
VPORT
  5
8
330
0
100
AcDbSymbolTable
 70
     1
  0
VPORT
  5
57
330
8
100
AcDbSymbolTableRecord
100
AcDbViewportTableRecord
  2
*Active
 70
     0
 10
0.0
 20
0.0
 11
1.0
 21
1.0
 12
0.0
 22
0.0
 13
0.0
 23
0.0
 14
1.0
 24
1.0
 15
0.0
 25
0.0
 16
0.0
 26
0.0
 36
1.0
 17
105.0000721959721
 27
148.5000416295418
 37
0.0
 40
89.75999997755987
 41
1.0
 42
50.0
 43
0.0
 44
0.0
 50
0.0
 51
0.0
 71
     0
 72
   100
 73
     1
 74
     1
 75
     0
 76
     0
 77
     0
 78
     0
281
     0
 65
     1
110
0.0
120
0.0
130
0.0
111
1.0
121
0.0
131
0.0
112
0.0
122
1.0
132
0.0
 79
     0
146
0.0
 60
     3
 61
     5
292
     1
282
     1
141
0.0
142
0.0
 63
   250
421
  3355443
  0
ENDTAB
  0
TABLE
  2
LTYPE
  5
5
330
0
100
AcDbSymbolTable
 70
     2
  0
LTYPE
  5
5B
330
5
100
AcDbSymbolTableRecord
100
AcDbLinetypeTableRecord
  2
ByBlock
 70
     0
  3

 72
    65
 73
     0
 40
0.0
  0
LTYPE
  5
5C
330
5
100
AcDbSymbolTableRecord
100
AcDbLinetypeTableRecord
  2
ByLayer
 70
     0
  3

 72
    65
 73
     0
 40
0.0
  0
LTYPE
  5
5D
330
5
100
AcDbSymbolTableRecord
100
AcDbLinetypeTableRecord
  2
Continuous
 70
     0
  3
Solid line
 72
    65
 73
     0
 40
0.0
  0
LTYPE
  5
223
330
5
100
AcDbSymbolTableRecord
100
AcDbLinetypeTableRecord
  2
AI-Linetype-0
 70
     0
  3
Adobe Illustrator Linetype No. 0
 72
    65
 73
     2
 40
1.411111110758333
 49
0.7055555553791667
 74
     0
 49
-0.7055555553791667
 74
     0
  0
ENDTAB
  0
TABLE
  2
LAYER
  5
2
330
0
100
AcDbSymbolTable
 70
     5
  0
LAYER
  5
54
330
2
100
AcDbSymbolTableRecord
100
AcDbLayerTableRecord
  2
0
 70
     0
 62
     7
  6
Continuous
370
     0
390
F
347
21
348
0
  0
LAYER
  5
8C
330
2
100
AcDbSymbolTableRecord
100
AcDbLayerTableRecord
  2
Rahmen (ISO)
 70
     0
 62
     7
  6
Continuous
370
     0
390
F
347
21
348
0
  0
LAYER
  5
8D
330
2
100
AcDbSymbolTableRecord
100
AcDbLayerTableRecord
  2
Titel (ISO)
 70
     0
 62
     7
  6
Continuous
370
     0
390
F
347
21
348
0
  0
LAYER
  5
B2
330
2
100
AcDbSymbolTableRecord
100
AcDbLayerTableRecord
  2
Sichtbar (ISO)
 70
     0
 62
     7
  6
Continuous
370
     0
390
F
347
21
348
0
  0
LAYER
  5
B3
330
2
100
AcDbSymbolTableRecord
100
AcDbLayerTableRecord
  2
Sichtbar schmal (ISO)
 70
     0
 62
     7
  6
Continuous
370
     0
390
F
347
21
348
0
  0
ENDTAB
  0
TABLE
  2
STYLE
  5
3
330
0
100
AcDbSymbolTable
 70
     2
  0
STYLE
  5
55
330
3
100
AcDbSymbolTableRecord
100
AcDbTextStyleTableRecord
  2
Standard
 70
     0
 40
0.0
 41
1.0
 50
0.0
 71
     0
 42
0.2
  3
txt
  4

  0
STYLE
  5
5A
330
3
100
AcDbSymbolTableRecord
100
AcDbTextStyleTableRecord
  2
Annotative
 70
     0
 40
0.0
 41
1.0
 50
0.0
 71
     0
 42
0.2
  3
txt
  4

1001
AcadAnnotative
1000
AnnotativeData
1002
{
1070
     1
1070
     1
1002
}
  0
ENDTAB
  0
TABLE
  2
VIEW
  5
6
330
0
100
AcDbSymbolTable
 70
     0
  0
ENDTAB
  0
TABLE
  2
UCS
  5
7
330
0
100
AcDbSymbolTable
 70
     0
  0
ENDTAB
  0
TABLE
  2
APPID
  5
9
330
0
100
AcDbSymbolTable
 70
     2
  0
APPID
  5
56
330
9
100
AcDbSymbolTableRecord
100
AcDbRegAppTableRecord
  2
ACAD
 70
     0
  0
APPID
  5
5E
330
9
100
AcDbSymbolTableRecord
100
AcDbRegAppTableRecord
  2
AcadAnnotative
 70
     0
  0
ENDTAB
  0
TABLE
  2
DIMSTYLE
  5
A
330
0
100
AcDbSymbolTable
 70
     2
100
AcDbDimStyleTable
 71
     0
  0
DIMSTYLE
105
58
330
A
100
AcDbSymbolTableRecord
100
AcDbDimStyleTableRecord
  2
Standard
 70
     0
340
55
  0
DIMSTYLE
105
59
330
A
100
AcDbSymbolTableRecord
100
AcDbDimStyleTableRecord
  2
Annotative
 70
     0
340
55
1001
AcadAnnotative
1000
AnnotativeData
1002
{
1070
     1
1070
     1
1002
}
  0
ENDTAB
  0
TABLE
  2
BLOCK_RECORD
  5
1
330
0
100
AcDbSymbolTable
 70
    42
  0
BLOCK_RECORD
  5
70
330
1
100
AcDbSymbolTableRecord
100
AcDbBlockTableRecord
  2
*Model_Space
340
73
 70
     0
280
     1
281
     0
  0
BLOCK_RECORD
  5
6C
330
1
100
AcDbSymbolTableRecord
100
AcDbBlockTableRecord
  2
*Paper_Space
340
6F
 70
     0
280
     1
281
     0
  0
BLOCK_RECORD
  5
74
330
1
100
AcDbSymbolTableRecord
100
AcDbBlockTableRecord
  2
*Paper_Space0
340
77
 70
     0
280
     1
281
     0
  0
BLOCK_RECORD
  5
78
330
1
100
AcDbSymbolTableRecord
100
AcDbBlockTableRecord
  2
Block_0
340
0
102
{BLKREFS
331
79
102
}
 70
     0
280
     1
281
     0
  0
BLOCK_RECORD
  5
7C
330
1
100
AcDbSymbolTableRecord
100
AcDbBlockTableRecord
  2
Block_1
340
0
102
{BLKREFS
331
7D
102
}
 70
     0
280
     1
281
     0
  0
BLOCK_RECORD
  5
80
330
1
100
AcDbSymbolTableRecord
100
AcDbBlockTableRecord
  2
Block_2
340
0
102
{BLKREFS
331
81
102
}
 70
     0
280
     1
281
     0
  0
BLOCK_RECORD
  5
84
330
1
100
AcDbSymbolTableRecord
100
AcDbBlockTableRecord
  2
Block_3
340
0
102
{BLKREFS
331
85
102
}
 70
     0
280
     1
281
     0
  0
BLOCK_RECORD
  5
88
330
1
100
AcDbSymbolTableRecord
100
AcDbBlockTableRecord
  2
Block_4
340
0
102
{BLKREFS
331
89
102
}
 70
     0
280
     1
281
     0
  0
BLOCK_RECORD
  5
8E
330
1
100
AcDbSymbolTableRecord
100
AcDbBlockTableRecord
  2
Block_5
340
0
102
{BLKREFS
331
8F
102
}
 70
     0
280
     1
281
     0
  0
BLOCK_RECORD
  5
92
330
1
100
AcDbSymbolTableRecord
100
AcDbBlockTableRecord
  2
Block_6
340
0
102
{BLKREFS
331
93
102
}
 70
     0
280
     1
281
     0
  0
BLOCK_RECORD
  5
96
330
1
100
AcDbSymbolTableRecord
100
AcDbBlockTableRecord
  2
Block_7
340
0
102
{BLKREFS
331
97
102
}
 70
     0
280
     1
281
     0
  0
BLOCK_RECORD
  5
9A
330
1
100
AcDbSymbolTableRecord
100
AcDbBlockTableRecord
  2
Block_8
340
0
102
{BLKREFS
331
9B
102
}
 70
     0
280
     1
281
     0
  0
BLOCK_RECORD
  5
9E
330
1
100
AcDbSymbolTableRecord
100
AcDbBlockTableRecord
  2
Block_9
340
0
102
{BLKREFS
331
9F
102
}
 70
     0
280
     1
281
     0
  0
BLOCK_RECORD
  5
A2
330
1
100
AcDbSymbolTableRecord
100
AcDbBlockTableRecord
  2
Block_10
340
0
102
{BLKREFS
331
A3
102
}
 70
     0
280
     1
281
     0
  0
BLOCK_RECORD
  5
A6
330
1
100
AcDbSymbolTableRecord
100
AcDbBlockTableRecord
  2
Block_11
340
0
102
{BLKREFS
331
A7
102
}
 70
     0
280
     1
281
     0
  0
BLOCK_RECORD
  5
AA
330
1
100
AcDbSymbolTableRecord
100
AcDbBlockTableRecord
  2
Block_12
340
0
102
{BLKREFS
331
AB
102
}
 70
     0
280
     1
281
     0
  0
BLOCK_RECORD
  5
AE
330
1
100
AcDbSymbolTableRecord
100
AcDbBlockTableRecord
  2
Block_13
340
0
102
{BLKREFS
331
AF
102
}
 70
     0
280
     1
281
     0
  0
BLOCK_RECORD
  5
B4
330
1
100
AcDbSymbolTableRecord
100
AcDbBlockTableRecord
  2
Block_14
340
0
102
{BLKREFS
331
B5
102
}
 70
     0
280
     1
281
     0
  0
BLOCK_RECORD
  5
BA
330
1
100
AcDbSymbolTableRecord
100
AcDbBlockTableRecord
  2
Block_15
340
0
102
{BLKREFS
331
BB
102
}
 70
     0
280
     1
281
     0
  0
BLOCK_RECORD
  5
1D8
330
1
100
AcDbSymbolTableRecord
100
AcDbBlockTableRecord
  2
Block_16
340
0
102
{BLKREFS
331
1D9
102
}
 70
     0
280
     1
281
     0
  0
BLOCK_RECORD
  5
1F3
330
1
100
AcDbSymbolTableRecord
100
AcDbBlockTableRecord
  2
Block_17
340
0
102
{BLKREFS
331
1F4
102
}
 70
     0
280
     1
281
     0
  0
BLOCK_RECORD
  5
1F7
330
1
100
AcDbSymbolTableRecord
100
AcDbBlockTableRecord
  2
Block_18
340
0
102
{BLKREFS
331
1F8
102
}
 70
     0
280
     1
281
     0
  0
BLOCK_RECORD
  5
1FC
330
1
100
AcDbSymbolTableRecord
100
AcDbBlockTableRecord
  2
Block_19
340
0
102
{BLKREFS
331
1FD
102
}
 70
     0
280
     1
281
     0
  0
BLOCK_RECORD
  5
202
330
1
100
AcDbSymbolTableRecord
100
AcDbBlockTableRecord
  2
Block_20
340
0
102
{BLKREFS
331
203
102
}
 70
     0
280
     1
281
     0
  0
BLOCK_RECORD
  5
20B
330
1
100
AcDbSymbolTableRecord
100
AcDbBlockTableRecord
  2
Block_21
340
0
102
{BLKREFS
331
20C
102
}
 70
     0
280
     1
281
     0
  0
BLOCK_RECORD
  5
20F
330
1
100
AcDbSymbolTableRecord
100
AcDbBlockTableRecord
  2
Block_22
340
0
102
{BLKREFS
331
210
102
}
 70
     0
280
     1
281
     0
  0
BLOCK_RECORD
  5
214
330
1
100
AcDbSymbolTableRecord
100
AcDbBlockTableRecord
  2
Block_23
340
0
102
{BLKREFS
331
215
102
}
 70
     0
280
     1
281
     0
  0
BLOCK_RECORD
  5
21A
330
1
100
AcDbSymbolTableRecord
100
AcDbBlockTableRecord
  2
Block_24
340
0
102
{BLKREFS
331
21B
102
}
 70
     0
280
     1
281
     0
  0
BLOCK_RECORD
  5
224
330
1
100
AcDbSymbolTableRecord
100
AcDbBlockTableRecord
  2
Block_25
340
0
102
{BLKREFS
331
225
102
}
 70
     0
280
     1
281
     0
  0
BLOCK_RECORD
  5
228
330
1
100
AcDbSymbolTableRecord
100
AcDbBlockTableRecord
  2
Block_26
340
0
102
{BLKREFS
331
229
102
}
 70
     0
280
     1
281
     0
  0
BLOCK_RECORD
  5
22D
330
1
100
AcDbSymbolTableRecord
100
AcDbBlockTableRecord
  2
Block_27
340
0
102
{BLKREFS
331
22E
102
}
 70
     0
280
     1
281
     0
  0
BLOCK_RECORD
  5
233
330
1
100
AcDbSymbolTableRecord
100
AcDbBlockTableRecord
  2
Block_28
340
0
102
{BLKREFS
331
234
102
}
 70
     0
280
     1
281
     0
  0
BLOCK_RECORD
  5
239
330
1
100
AcDbSymbolTableRecord
100
AcDbBlockTableRecord
  2
Block_29
340
0
102
{BLKREFS
331
23A
102
}
 70
     0
280
     1
281
     0
  0
BLOCK_RECORD
  5
23D
330
1
100
AcDbSymbolTableRecord
100
AcDbBlockTableRecord
  2
Block_30
340
0
102
{BLKREFS
331
23E
102
}
 70
     0
280
     1
281
     0
  0
BLOCK_RECORD
  5
242
330
1
100
AcDbSymbolTableRecord
100
AcDbBlockTableRecord
  2
Block_31
340
0
102
{BLKREFS
331
243
102
}
 70
     0
280
     1
281
     0
  0
BLOCK_RECORD
  5
248
330
1
100
AcDbSymbolTableRecord
100
AcDbBlockTableRecord
  2
Block_32
340
0
102
{BLKREFS
331
249
102
}
 70
     0
280
     1
281
     0
  0
BLOCK_RECORD
  5
24E
330
1
100
AcDbSymbolTableRecord
100
AcDbBlockTableRecord
  2
Block_33
340
0
102
{BLKREFS
331
24F
102
}
 70
     0
280
     1
281
     0
  0
BLOCK_RECORD
  5
252
330
1
100
AcDbSymbolTableRecord
100
AcDbBlockTableRecord
  2
Block_34
340
0
102
{BLKREFS
331
253
102
}
 70
     0
280
     1
281
     0
  0
BLOCK_RECORD
  5
25B
330
1
100
AcDbSymbolTableRecord
100
AcDbBlockTableRecord
  2
Block_35
340
0
102
{BLKREFS
331
25C
102
}
 70
     0
280
     1
281
     0
  0
BLOCK_RECORD
  5
25F
330
1
100
AcDbSymbolTableRecord
100
AcDbBlockTableRecord
  2
Block_36
340
0
102
{BLKREFS
331
260
102
}
 70
     0
280
     1
281
     0
  0
BLOCK_RECORD
  5
268
330
1
100
AcDbSymbolTableRecord
100
AcDbBlockTableRecord
  2
Block_37
340
0
102
{BLKREFS
331
269
102
}
 70
     0
280
     1
281
     0
  0
BLOCK_RECORD
  5
26C
330
1
100
AcDbSymbolTableRecord
100
AcDbBlockTableRecord
  2
Block_38
340
0
102
{BLKREFS
331
26D
102
}
 70
     0
280
     1
281
     0
  0
BLOCK_RECORD
  5
27C
330
1
100
AcDbSymbolTableRecord
100
AcDbBlockTableRecord
  2
Block_39
340
0
102
{BLKREFS
331
27D
102
}
 70
     0
280
     1
281
     0
  0
BLOCK_RECORD
  5
280
330
1
100
AcDbSymbolTableRecord
100
AcDbBlockTableRecord
  2
Block_40
340
0
102
{BLKREFS
331
281
102
}
 70
     0
280
     1
281
     0
  0
ENDTAB
  0
ENDSEC
  0
SECTION
  2
BLOCKS
  0
BLOCK
  5
71
330
70
100
AcDbEntity
  8
0
100
AcDbBlockBegin
  2
*Model_Space
 70
     0
 10
0.0
 20
0.0
 30
0.0
  3
*Model_Space
  1

  0
ENDBLK
  5
72
330
70
100
AcDbEntity
  8
0
100
AcDbBlockEnd
  0
BLOCK
  5
6D
330
6C
100
AcDbEntity
 67
     1
  8
0
100
AcDbBlockBegin
  2
*Paper_Space
 70
     0
 10
0.0
 20
0.0
 30
0.0
  3
*Paper_Space
  1

  0
ENDBLK
  5
6E
330
6C
100
AcDbEntity
 67
     1
  8
0
100
AcDbBlockEnd
  0
BLOCK
  5
75
330
74
100
AcDbEntity
 67
     1
  8
0
100
AcDbBlockBegin
  2
*Paper_Space0
 70
     0
 10
0.0
 20
0.0
 30
0.0
  3
*Paper_Space0
  1

  0
ENDBLK
  5
76
330
74
100
AcDbEntity
 67
     1
  8
0
100
AcDbBlockEnd
  0
BLOCK
  5
7A
330
78
100
AcDbEntity
  8
0
100
AcDbBlockBegin
  2
Block_0
 70
     0
 10
0.0
 20
0.0
 30
0.0
  3
Block_0
  1

  0
ENDBLK
  5
7B
330
78
100
AcDbEntity
  8
0
100
AcDbBlockEnd
  0
BLOCK
  5
7E
330
7C
100
AcDbEntity
  8
0
100
AcDbBlockBegin
  2
Block_1
 70
     0
 10
0.0
 20
0.0
 30
0.0
  3
Block_1
  1

  0
ENDBLK
  5
7F
330
7C
100
AcDbEntity
  8
0
100
AcDbBlockEnd
  0
BLOCK
  5
82
330
80
100
AcDbEntity
  8
0
100
AcDbBlockBegin
  2
Block_2
 70
     0
 10
0.0
 20
0.0
 30
0.0
  3
Block_2
  1

  0
ENDBLK
  5
83
330
80
100
AcDbEntity
  8
0
100
AcDbBlockEnd
  0
BLOCK
  5
86
330
84
100
AcDbEntity
  8
0
100
AcDbBlockBegin
  2
Block_3
 70
     0
 10
0.0
 20
0.0
 30
0.0
  3
Block_3
  1

  0
ENDBLK
  5
87
330
84
100
AcDbEntity
  8
0
100
AcDbBlockEnd
  0
BLOCK
  5
8A
330
88
100
AcDbEntity
  8
0
100
AcDbBlockBegin
  2
Block_4
 70
     0
 10
0.0
 20
0.0
 30
0.0
  3
Block_4
  1

  0
ENDBLK
  5
8B
330
88
100
AcDbEntity
  8
0
100
AcDbBlockEnd
  0
BLOCK
  5
90
330
8E
100
AcDbEntity
  8
0
100
AcDbBlockBegin
  2
Block_5
 70
     0
 10
0.0
 20
0.0
 30
0.0
  3
Block_5
  1

  0
ENDBLK
  5
91
330
8E
100
AcDbEntity
  8
0
100
AcDbBlockEnd
  0
BLOCK
  5
94
330
92
100
AcDbEntity
  8
0
100
AcDbBlockBegin
  2
Block_6
 70
     0
 10
0.0
 20
0.0
 30
0.0
  3
Block_6
  1

  0
ENDBLK
  5
95
330
92
100
AcDbEntity
  8
0
100
AcDbBlockEnd
  0
BLOCK
  5
98
330
96
100
AcDbEntity
  8
0
100
AcDbBlockBegin
  2
Block_7
 70
     0
 10
0.0
 20
0.0
 30
0.0
  3
Block_7
  1

  0
ENDBLK
  5
99
330
96
100
AcDbEntity
  8
0
100
AcDbBlockEnd
  0
BLOCK
  5
9C
330
9A
100
AcDbEntity
  8
0
100
AcDbBlockBegin
  2
Block_8
 70
     0
 10
0.0
 20
0.0
 30
0.0
  3
Block_8
  1

  0
ENDBLK
  5
9D
330
9A
100
AcDbEntity
  8
0
100
AcDbBlockEnd
  0
BLOCK
  5
A0
330
9E
100
AcDbEntity
  8
0
100
AcDbBlockBegin
  2
Block_9
 70
     0
 10
0.0
 20
0.0
 30
0.0
  3
Block_9
  1

  0
ENDBLK
  5
A1
330
9E
100
AcDbEntity
  8
0
100
AcDbBlockEnd
  0
BLOCK
  5
A4
330
A2
100
AcDbEntity
  8
0
100
AcDbBlockBegin
  2
Block_10
 70
     0
 10
0.0
 20
0.0
 30
0.0
  3
Block_10
  1

  0
ENDBLK
  5
A5
330
A2
100
AcDbEntity
  8
0
100
AcDbBlockEnd
  0
BLOCK
  5
A8
330
A6
100
AcDbEntity
  8
0
100
AcDbBlockBegin
  2
Block_11
 70
     0
 10
0.0
 20
0.0
 30
0.0
  3
Block_11
  1

  0
ENDBLK
  5
A9
330
A6
100
AcDbEntity
  8
0
100
AcDbBlockEnd
  0
BLOCK
  5
AC
330
AA
100
AcDbEntity
  8
0
100
AcDbBlockBegin
  2
Block_12
 70
     0
 10
0.0
 20
0.0
 30
0.0
  3
Block_12
  1

  0
ENDBLK
  5
AD
330
AA
100
AcDbEntity
  8
0
100
AcDbBlockEnd
  0
BLOCK
  5
B0
330
AE
100
AcDbEntity
  8
0
100
AcDbBlockBegin
  2
Block_13
 70
     0
 10
0.0
 20
0.0
 30
0.0
  3
Block_13
  1

  0
ENDBLK
  5
B1
330
AE
100
AcDbEntity
  8
0
100
AcDbBlockEnd
  0
BLOCK
  5
B6
330
B4
100
AcDbEntity
  8
0
100
AcDbBlockBegin
  2
Block_14
 70
     0
 10
0.0
 20
0.0
 30
0.0
  3
Block_14
  1

  0
SPLINE
  5
B8
330
B4
100
AcDbEntity
  8
Sichtbar schmal (ISO)
100
AcDbSpline
210
0.0
220
0.0
230
1.0
 70
     8
 71
     3
 72
    38
 73
    34
 74
     0
 42
0.0000000001
 43
0.0000000001
 40
0.0
 40
0.0
 40
0.0
 40
0.0
 40
1.0
 40
1.0
 40
1.0
 40
2.0
 40
2.0
 40
2.0
 40
3.0
 40
3.0
 40
3.0
 40
4.0
 40
4.0
 40
4.0
 40
5.0
 40
5.0
 40
5.0
 40
6.0
 40
6.0
 40
6.0
 40
7.0
 40
7.0
 40
7.0
 40
8.0
 40
8.0
 40
8.0
 40
9.0
 40
9.0
 40
9.0
 40
10.0
 40
10.0
 40
10.0
 40
11.0
 40
11.0
 40
11.0
 40
11.0
 10
116.0611757284222
 20
180.171919513139
 30
0.0
 10
116.0611757284222
 20
180.171919513139
 30
0.0
 10
116.5310667088103
 20
180.171919513139
 30
0.0
 10
116.5310667088103
 20
180.171919513139
 30
0.0
 10
116.5310667088103
 20
180.171919513139
 30
0.0
 10
116.5310667088103
 20
176.2473856067497
 30
0.0
 10
116.5310667088103
 20
176.2473856067497
 30
0.0
 10
116.5310667088103
 20
176.2473856067497
 30
0.0
 10
116.5310667088103
 20
175.8537376960377
 30
0.0
 10
116.5310667088103
 20
175.8537376960377
 30
0.0
 10
116.5310667088103
 20
175.4771799121556
 30
0.0
 10
116.2155006720564
 20
175.1719195143889
 30
0.0
 10
115.8262302382298
 20
175.1719195143889
 30
0.0
 10
115.8262302382298
 20
175.1719195143889
 30
0.0
 10
70.48175063094181
 20
175.1719195143889
 30
0.0
 10
70.48175063094181
 20
175.1719195143889
 30
0.0
 10
70.09248019711652
 20
175.1719195143889
 30
0.0
 10
69.77691416036157
 20
175.4771799121556
 30
0.0
 10
69.77691416036157
 20
175.8537376960377
 30
0.0
 10
69.77691416036157
 20
175.8537376960377
 30
0.0
 10
69.77691416036157
 20
176.2473856067497
 30
0.0
 10
69.77691416036157
 20
176.2473856067497
 30
0.0
 10
69.77691416036157
 20
176.2473856067497
 30
0.0
 10
69.77691416036157
 20
180.171919513139
 30
0.0
 10
69.77691416036157
 20
180.171919513139
 30
0.0
 10
69.77691416036157
 20
180.171919513139
 30
0.0
 10
70.24680514074936
 20
180.171919513139
 30
0.0
 10
70.24680514074936
 20
180.171919513139
 30
0.0
 10
70.24680514074936
 20
180.171919513139
 30
0.0
 10
70.27029968976802
 20
180.171919513139
 30
0.0
 10
70.27029968976802
 20
180.171919513139
 30
0.0
 10
70.27029968976802
 20
180.171919513139
 30
0.0
 10
116.0376811794039
 20
180.171919513139
 30
0.0
 10
116.0376811794039
 20
180.171919513139
 30
0.0
  0
HATCH
  5
B9
330
B4
100
AcDbEntity
  8
Sichtbar schmal (ISO)
 62
   254
420
 14606046
440
 33554687
100
AcDbHatch
 10
0.0
 20
0.0
 30
0.0
210
0.0
220
0.0
230
1.0
  2
SOLID
 70
     1
 71
     1
 91
        1
 92
        1
 93
        2
 72
     4
 94
        3
 73
     0
 74
     0
 95
       38
 96
       34
 40
0.0
 40
0.0
 40
0.0
 40
0.0
 40
1.0
 40
1.0
 40
1.0
 40
2.0
 40
2.0
 40
2.0
 40
3.0
 40
3.0
 40
3.0
 40
4.0
 40
4.0
 40
4.0
 40
5.0
 40
5.0
 40
5.0
 40
6.0
 40
6.0
 40
6.0
 40
7.0
 40
7.0
 40
7.0
 40
8.0
 40
8.0
 40
8.0
 40
9.0
 40
9.0
 40
9.0
 40
10.0
 40
10.0
 40
10.0
 40
11.0
 40
11.0
 40
11.0
 40
11.0
 10
116.0611757284222
 20
180.171919513139
 10
116.0611757284222
 20
180.171919513139
 10
116.5310667088103
 20
180.171919513139
 10
116.5310667088103
 20
180.171919513139
 10
116.5310667088103
 20
180.171919513139
 10
116.5310667088103
 20
176.2473856067497
 10
116.5310667088103
 20
176.2473856067497
 10
116.5310667088103
 20
176.2473856067497
 10
116.5310667088103
 20
175.8537376960377
 10
116.5310667088103
 20
175.8537376960377
 10
116.5310667088103
 20
175.4771799121556
 10
116.2155006720564
 20
175.1719195143889
 10
115.8262302382298
 20
175.1719195143889
 10
115.8262302382298
 20
175.1719195143889
 10
70.48175063094181
 20
175.1719195143889
 10
70.48175063094181
 20
175.1719195143889
 10
70.09248019711652
 20
175.1719195143889
 10
69.77691416036157
 20
175.4771799121556
 10
69.77691416036157
 20
175.8537376960377
 10
69.77691416036157
 20
175.8537376960377
 10
69.77691416036157
 20
176.2473856067497
 10
69.77691416036157
 20
176.2473856067497
 10
69.77691416036157
 20
176.2473856067497
 10
69.77691416036157
 20
180.171919513139
 10
69.77691416036157
 20
180.171919513139
 10
69.77691416036157
 20
180.171919513139
 10
70.24680514074936
 20
180.171919513139
 10
70.24680514074936
 20
180.171919513139
 10
70.24680514074936
 20
180.171919513139
 10
70.27029968976802
 20
180.171919513139
 10
70.27029968976802
 20
180.171919513139
 10
70.27029968976802
 20
180.171919513139
 10
116.0376811794039
 20
180.171919513139
 10
116.0376811794039
 20
180.171919513139
 97
        0
 72
     1
 10
116.0376811794039
 20
180.171919513139
 11
116.0611757284222
 21
180.171919513139
 97
        0
 75
     2
 76
     1
 98
        1
 10
0.0
 20
0.0
450
        0
451
        0
460
0.0
461
0.0
452
        0
462
0.0
453
        0
470

  0
ENDBLK
  5
B7
330
B4
100
AcDbEntity
  8
0
100
AcDbBlockEnd
  0
BLOCK
  5
BC
330
BA
100
AcDbEntity
  8
0
100
AcDbBlockBegin
  2
Block_15
 70
     0
 10
0.0
 20
0.0
 30
0.0
  3
Block_15
  1

  0
LINE
  5
BE
330
BA
100
AcDbEntity
  8
Sichtbar schmal (ISO)
 62
    18
420
        0
370
     5
100
AcDbLine
 10
75.16134570426061
 20
172.3490226078783
 30
0.0
 11
75.16134570426061
 21
172.1670947728722
 31
0.0
  0
SPLINE
  5
BF
330
BA
100
AcDbEntity
  8
Sichtbar schmal (ISO)
 62
    18
420
        0
370
     5
100
AcDbSpline
210
0.0
220
0.0
230
1.0
 70
     8
 71
     3
 72
     8
 73
     4
 74
     0
 42
0.0000000001
 43
0.0000000001
 40
0.0
 40
0.0
 40
0.0
 40
0.0
 40
1.0
 40
1.0
 40
1.0
 40
1.0
 10
75.16134570426061
 20
172.3490226078783
 30
0.0
 10
75.16134570426061
 20
172.4494985767214
 30
0.0
 10
75.05872685839449
 20
172.5309504428843
 30
0.0
 10
74.93214009684088
 20
172.5309504428843
 30
0.0
  0
LINE
  5
C0
330
BA
100
AcDbEntity
  8
Sichtbar schmal (ISO)
 62
    18
420
        0
370
     5
100
AcDbLine
 10
68.62898589280927
 20
172.5309504428843
 30
0.0
 11
117.6789858805467
 21
172.5309504428843
 31
0.0
  0
LINE
  5
C1
330
BA
100
AcDbEntity
  8
Sichtbar schmal (ISO)
 62
    18
420
        0
370
     5
100
AcDbLine
 10
68.62898589280927
 20
180.171919513139
 30
0.0
 11
117.6789858805467
 21
180.171919513139
 31
0.0
  0
LINE
  5
C2
330
BA
100
AcDbEntity
  8
Sichtbar schmal (ISO)
 62
    18
420
        0
370
     5
100
AcDbLine
 10
117.6789858805467
 20
180.171919513139
 30
0.0
 11
117.6789858805467
 21
172.5309504428843
 31
0.0
  0
LINE
  5
C3
330
BA
100
AcDbEntity
  8
Sichtbar schmal (ISO)
 62
    18
420
        0
370
     5
100
AcDbLine
 10
68.62898589280927
 20
180.171919513139
 30
0.0
 11
68.62898589280927
 21
172.5309504428843
 31
0.0
  0
LINE
  5
C4
330
BA
100
AcDbEntity
  8
Sichtbar schmal (ISO)
 62
    18
420
        0
370
     5
100
AcDbLine
 10
91.77875224216201
 20
162.5249195175505
 30
0.0
 11
94.52921953119394
 21
162.5249195175505
 31
0.0
  0
LINE
  5
C5
330
BA
100
AcDbEntity
  8
Sichtbar schmal (ISO)
 62
    18
420
        0
370
     5
100
AcDbLine
 10
94.52921953119394
 20
172.5309504428843
 30
0.0
 11
94.52921953119394
 21
162.5249195175505
 31
0.0
  0
LINE
  5
C6
330
BA
100
AcDbEntity
  8
Sichtbar schmal (ISO)
 62
    18
420
        0
370
     5
100
AcDbLine
 10
91.77875224216201
 20
172.5309504428843
 30
0.0
 11
91.77875224216201
 21
162.5249195175505
 31
0.0
  0
LINE
  5
C7
330
BA
100
AcDbEntity
  8
Sichtbar schmal (ISO)
 62
    18
420
        0
370
     5
100
AcDbLine
 10
69.20199991135763
 20
162.5249195175505
 30
0.0
 11
71.95246720038955
 21
162.5249195175505
 31
0.0
  0
LINE
  5
C8
330
BA
100
AcDbEntity
  8
Sichtbar schmal (ISO)
 62
    18
420
        0
370
     5
100
AcDbLine
 10
71.95246720038955
 20
172.5309504428843
 30
0.0
 11
71.95246720038955
 21
162.5249195175505
 31
0.0
  0
LINE
  5
C9
330
BA
100
AcDbEntity
  8
Sichtbar schmal (ISO)
 62
    18
420
        0
370
     5
100
AcDbLine
 10
69.20199991135763
 20
172.5309504428843
 30
0.0
 11
69.20199991135763
 21
162.5249195175505
 31
0.0
  0
LINE
  5
CA
330
BA
100
AcDbEntity
  8
Sichtbar schmal (ISO)
 62
    18
420
        0
370
     5
100
AcDbLine
 10
114.3555045729664
 20
162.5249195175505
 30
0.0
 11
117.1059718619986
 21
162.5249195175505
 31
0.0
  0
LINE
  5
CB
330
BA
100
AcDbEntity
  8
Sichtbar schmal (ISO)
 62
    18
420
        0
370
     5
100
AcDbLine
 10
117.1059718619986
 20
172.5309504428843
 30
0.0
 11
117.1059718619986
 21
162.5249195175505
 31
0.0
  0
LINE
  5
CC
330
BA
100
AcDbEntity
  8
Sichtbar schmal (ISO)
 62
    18
420
        0
370
     5
100
AcDbLine
 10
114.3555045729664
 20
172.5309504428843
 30
0.0
 11
114.3555045729664
 21
162.5249195175505
 31
0.0
  0
LINE
  5
CD
330
BA
100
AcDbEntity
  8
Sichtbar schmal (ISO)
 62
    18
420
        0
370
     5
100
AcDbLine
 10
83.7671133758022
 20
170.7116720928234
 30
0.0
 11
83.7671133758022
 21
171.2574555978417
 31
0.0
  0
LINE
  5
CE
330
BA
100
AcDbEntity
  8
Sichtbar schmal (ISO)
 62
    18
420
        0
370
     5
100
AcDbLine
 10
83.87115878619487
 20
170.7116720928234
 30
0.0
 11
83.87115878619487
 21
170.8026360103265
 31
0.0
  0
LINE
  5
CF
330
BA
100
AcDbEntity
  8
Sichtbar schmal (ISO)
 62
    18
420
        0
370
     5
100
AcDbLine
 10
83.87115878619455
 20
170.8026360103265
 30
0.0
 11
84.20440980400664
 21
170.8026360103265
 31
0.0
  0
LINE
  5
D0
330
BA
100
AcDbEntity
  8
Sichtbar schmal (ISO)
 62
    18
420
        0
370
     5
100
AcDbLine
 10
84.20440980400728
 20
170.8026360103265
 30
0.0
 11
84.20440980400728
 21
171.2574555978417
 31
0.0
  0
LINE
  5
D1
330
BA
100
AcDbEntity
  8
Sichtbar schmal (ISO)
 62
    18
420
        0
370
     5
100
AcDbLine
 10
90.1743129902265
 20
171.2574555978417
 30
0.0
 11
89.02828495313009
 21
171.2574555978417
 31
0.0
  0
LINE
  5
D2
330
BA
100
AcDbEntity
  8
Sichtbar schmal (ISO)
 62
    18
420
        0
370
     5
100
AcDbLine
 10
88.11146252345279
 20
171.2574555978417
 30
0.0
 11
81.08860271212416
 21
171.2574555978417
 31
0.0
  0
LINE
  5
D3
330
BA
100
AcDbEntity
  8
Sichtbar schmal (ISO)
 62
    18
420
        0
370
     5
100
AcDbLine
 10
81.08860271212416
 20
171.2574555978417
 30
0.0
 11
80.7447943009952
 21
171.2574555978417
 31
0.0
  0
LINE
  5
D4
330
BA
100
AcDbEntity
  8
Sichtbar schmal (ISO)
 62
    18
420
        0
370
     5
100
AcDbLine
 10
91.38910270954925
 20
165.0719092076358
 30
0.0
 11
91.09113541990412
 21
165.0719092076358
 31
0.0
  0
LINE
  5
D5
330
BA
100
AcDbEntity
  8
Sichtbar schmal (ISO)
 62
    18
420
        0
370
     5
100
AcDbLine
 10
79.69961673116301
 20
171.2574555978417
 30
0.0
 11
79.69961673116301
 21
165.0719092076358
 31
0.0
  0
LINE
  5
D6
330
BA
100
AcDbEntity
  8
Sichtbar schmal (ISO)
 62
    18
420
        0
370
     5
100
AcDbLine
 10
80.31847187119518
 20
171.2574555978417
 30
0.0
 11
80.31847187119518
 21
165.0719092076358
 31
0.0
  0
LINE
  5
D7
330
BA
100
AcDbEntity
  8
Sichtbar schmal (ISO)
 62
    18
420
        0
370
     5
100
AcDbLine
 10
88.11146252345279
 20
165.0719092076358
 30
0.0
 11
80.31847187119518
 21
165.0719092076358
 31
0.0
  0
LINE
  5
D8
330
BA
100
AcDbEntity
  8
Sichtbar schmal (ISO)
 62
    18
420
        0
370
     5
100
AcDbLine
 10
85.24639243071099
 20
170.8026360103265
 30
0.0
 11
84.20440980400728
 21
170.8026360103265
 31
0.0
  0
LINE
  5
D9
330
BA
100
AcDbEntity
  8
Sichtbar schmal (ISO)
 62
    18
420
        0
370
     5
100
AcDbLine
 10
85.24639243071099
 20
170.6207081753204
 30
0.0
 11
85.24639243071099
 21
170.8026360103265
 31
0.0
  0
LINE
  5
DA
330
BA
100
AcDbEntity
  8
Sichtbar schmal (ISO)
 62
    18
420
        0
370
     5
100
AcDbLine
 10
87.76765411232352
 20
170.6207081753204
 30
0.0
 11
85.24639243071099
 21
170.6207081753204
 31
0.0
  0
SPLINE
  5
DB
330
BA
100
AcDbEntity
  8
Sichtbar schmal (ISO)
 62
    18
420
        0
370
     5
100
AcDbSpline
210
0.0
220
0.0
230
1.0
 70
     8
 71
     3
 72
     8
 73
     4
 74
     0
 42
0.0000000001
 43
0.0000000001
 40
0.0
 40
0.0
 40
0.0
 40
0.0
 40
1.0
 40
1.0
 40
1.0
 40
1.0
 10
87.99685971974293
 20
170.4387803403143
 30
0.0
 10
87.99685971974293
 20
170.539256309158
 30
0.0
 10
87.89424087387713
 20
170.6207081753204
 30
0.0
 10
87.76765411232352
 20
170.6207081753204
 30
0.0
  0
LINE
  5
DC
330
BA
100
AcDbEntity
  8
Sichtbar schmal (ISO)
 62
    18
420
        0
370
     5
100
AcDbLine
 10
87.99685971974293
 20
170.284141680559
 30
0.0
 11
87.99685971974293
 21
170.4387803403143
 31
0.0
  0
SPLINE
  5
DD
330
BA
100
AcDbEntity
  8
Sichtbar schmal (ISO)
 62
    18
420
        0
370
     5
100
AcDbSpline
210
0.0
220
0.0
230
1.0
 70
     8
 71
     3
 72
     8
 73
     4
 74
     0
 42
0.0000000001
 43
0.0000000001
 40
0.0
 40
0.0
 40
0.0
 40
0.0
 40
1.0
 40
1.0
 40
1.0
 40
1.0
 10
87.76765411232352
 20
170.1022138455529
 30
0.0
 10
87.89424087387713
 20
170.1022138455529
 30
0.0
 10
87.99685971974293
 20
170.1836657117159
 30
0.0
 10
87.99685971974293
 20
170.284141680559
 30
0.0
  0
LINE
  5
DE
330
BA
100
AcDbEntity
  8
Sichtbar schmal (ISO)
 62
    18
420
        0
370
     5
100
AcDbLine
 10
85.2578527110818
 20
170.1022138455529
 30
0.0
 11
87.76765411232352
 21
170.1022138455529
 31
0.0
  0
LINE
  5
DF
330
BA
100
AcDbEntity
  8
Sichtbar schmal (ISO)
 62
    18
420
        0
370
     5
100
AcDbLine
 10
85.2578527110818
 20
170.284141680559
 30
0.0
 11
85.2578527110818
 21
170.1022138455529
 31
0.0
  0
LINE
  5
E0
330
BA
100
AcDbEntity
  8
Sichtbar schmal (ISO)
 62
    18
420
        0
370
     5
100
AcDbLine
 10
83.85969850582409
 20
170.284141680559
 30
0.0
 11
85.2578527110818
 21
170.284141680559
 31
0.0
  0
LINE
  5
E1
330
BA
100
AcDbEntity
  8
Sichtbar schmal (ISO)
 62
    18
420
        0
370
     5
100
AcDbLine
 10
83.85969850582409
 20
170.1022138455529
 30
0.0
 11
83.85969850582409
 21
170.284141680559
 31
0.0
  0
LINE
  5
E2
330
BA
100
AcDbEntity
  8
Sichtbar schmal (ISO)
 62
    18
420
        0
370
     5
100
AcDbLine
 10
81.34989710458237
 20
170.1022138455529
 30
0.0
 11
83.85969850582409
 21
170.1022138455529
 31
0.0
  0
SPLINE
  5
E3
330
BA
100
AcDbEntity
  8
Sichtbar schmal (ISO)
 62
    18
420
        0
370
     5
100
AcDbSpline
210
0.0
220
0.0
230
1.0
 70
     8
 71
     3
 72
     8
 73
     4
 74
     0
 42
0.0000000001
 43
0.0000000001
 40
0.0
 40
0.0
 40
0.0
 40
0.0
 40
1.0
 40
1.0
 40
1.0
 40
1.0
 10
81.12069149716296
 20
170.284141680559
 30
0.0
 10
81.12069149716296
 20
170.1836657117159
 30
0.0
 10
81.22331034302874
 20
170.1022138455529
 30
0.0
 10
81.34989710458237
 20
170.1022138455529
 30
0.0
  0
LINE
  5
E4
330
BA
100
AcDbEntity
  8
Sichtbar schmal (ISO)
 62
    18
420
        0
370
     5
100
AcDbLine
 10
81.12069149716296
 20
170.4387803403143
 30
0.0
 11
81.12069149716296
 21
170.284141680559
 31
0.0
  0
SPLINE
  5
E5
330
BA
100
AcDbEntity
  8
Sichtbar schmal (ISO)
 62
    18
420
        0
370
     5
100
AcDbSpline
210
0.0
220
0.0
230
1.0
 70
     8
 71
     3
 72
     8
 73
     4
 74
     0
 42
0.0000000001
 43
0.0000000001
 40
0.0
 40
0.0
 40
0.0
 40
0.0
 40
1.0
 40
1.0
 40
1.0
 40
1.0
 10
81.34989710458237
 20
170.6207081753204
 30
0.0
 10
81.22331034302874
 20
170.6207081753204
 30
0.0
 10
81.12069149716296
 20
170.539256309158
 30
0.0
 10
81.12069149716296
 20
170.4387803403143
 30
0.0
  0
LINE
  5
E6
330
BA
100
AcDbEntity
  8
Sichtbar schmal (ISO)
 62
    18
420
        0
370
     5
100
AcDbLine
 10
83.87115878619487
 20
170.6207081753204
 30
0.0
 11
81.34989710458237
 21
170.6207081753204
 31
0.0
  0
LINE
  5
E7
330
BA
100
AcDbEntity
  8
Sichtbar schmal (ISO)
 62
    18
420
        0
370
     5
100
AcDbLine
 10
83.87115878619487
 20
170.7116720928234
 30
0.0
 11
83.87115878619487
 21
170.6207081753204
 31
0.0
  0
LINE
  5
E8
330
BA
100
AcDbEntity
  8
Sichtbar schmal (ISO)
 62
    18
420
        0
370
     5
100
AcDbLine
 10
83.7671133758022
 20
170.7116720928234
 30
0.0
 11
83.87115878619487
 21
170.7116720928234
 31
0.0
  0
LINE
  5
E9
330
BA
100
AcDbEntity
  8
Sichtbar schmal (ISO)
 62
    18
420
        0
370
     5
100
AcDbLine
 10
79.36969328689979
 20
172.4399865253813
 30
0.0
 11
79.36969328689979
 21
172.5309504428843
 31
0.0
  0
LINE
  5
EA
330
BA
100
AcDbEntity
  8
Sichtbar schmal (ISO)
 62
    18
420
        0
370
     5
100
AcDbLine
 10
79.36969328689979
 20
172.4399865253813
 30
0.0
 11
79.36969328689979
 21
165.0719092076358
 31
0.0
  0
LINE
  5
EB
330
BA
100
AcDbEntity
  8
Sichtbar schmal (ISO)
 62
    18
420
        0
370
     5
100
AcDbLine
 10
79.69961673116301
 20
165.0719092076358
 30
0.0
 11
79.36969328689979
 21
165.0719092076358
 31
0.0
  0
LINE
  5
EC
330
BA
100
AcDbEntity
  8
Sichtbar schmal (ISO)
 62
    18
420
        0
370
     5
100
AcDbLine
 10
85.2578527110818
 20
165.9178736404141
 30
0.0
 11
85.2578527110818
 21
165.735945805408
 31
0.0
  0
LINE
  5
ED
330
BA
100
AcDbEntity
  8
Sichtbar schmal (ISO)
 62
    18
420
        0
370
     5
100
AcDbLine
 10
83.85969850582409
 20
165.9178736404141
 30
0.0
 11
85.2578527110818
 21
165.9178736404141
 31
0.0
  0
LINE
  5
EE
330
BA
100
AcDbEntity
  8
Sichtbar schmal (ISO)
 62
    18
420
        0
370
     5
100
AcDbLine
 10
83.85969850582409
 20
165.735945805408
 30
0.0
 11
83.85969850582409
 21
165.9178736404141
 31
0.0
  0
LINE
  5
EF
330
BA
100
AcDbEntity
  8
Sichtbar schmal (ISO)
 62
    18
420
        0
370
     5
100
AcDbLine
 10
81.34989710458237
 20
165.735945805408
 30
0.0
 11
83.85969850582409
 21
165.735945805408
 31
0.0
  0
SPLINE
  5
F0
330
BA
100
AcDbEntity
  8
Sichtbar schmal (ISO)
 62
    18
420
        0
370
     5
100
AcDbSpline
210
0.0
220
0.0
230
1.0
 70
     8
 71
     3
 72
     8
 73
     4
 74
     0
 42
0.0000000001
 43
0.0000000001
 40
0.0
 40
0.0
 40
0.0
 40
0.0
 40
1.0
 40
1.0
 40
1.0
 40
1.0
 10
81.12069149716296
 20
165.9178736404141
 30
0.0
 10
81.12069149716296
 20
165.8173976715703
 30
0.0
 10
81.22331034302874
 20
165.735945805408
 30
0.0
 10
81.34989710458237
 20
165.735945805408
 30
0.0
  0
LINE
  5
F1
330
BA
100
AcDbEntity
  8
Sichtbar schmal (ISO)
 62
    18
420
        0
370
     5
100
AcDbLine
 10
81.12069149716296
 20
166.0725123001687
 30
0.0
 11
81.12069149716296
 21
165.9178736404141
 31
0.0
  0
SPLINE
  5
F2
330
BA
100
AcDbEntity
  8
Sichtbar schmal (ISO)
 62
    18
420
        0
370
     5
100
AcDbSpline
210
0.0
220
0.0
230
1.0
 70
     8
 71
     3
 72
     8
 73
     4
 74
     0
 42
0.0000000001
 43
0.0000000001
 40
0.0
 40
0.0
 40
0.0
 40
0.0
 40
1.0
 40
1.0
 40
1.0
 40
1.0
 10
81.34989710458237
 20
166.2544401351748
 30
0.0
 10
81.22331034302874
 20
166.2544401351748
 30
0.0
 10
81.12069149716296
 20
166.1729882690124
 30
0.0
 10
81.12069149716296
 20
166.0725123001687
 30
0.0
  0
LINE
  5
F3
330
BA
100
AcDbEntity
  8
Sichtbar schmal (ISO)
 62
    18
420
        0
370
     5
100
AcDbLine
 10
83.87115878619487
 20
166.2544401351748
 30
0.0
 11
81.34989710458237
 21
166.2544401351748
 31
0.0
  0
LINE
  5
F4
330
BA
100
AcDbEntity
  8
Sichtbar schmal (ISO)
 62
    18
420
        0
370
     5
100
AcDbLine
 10
83.87115878619487
 20
166.4363679701808
 30
0.0
 11
83.87115878619487
 21
166.2544401351748
 31
0.0
  0
LINE
  5
F5
330
BA
100
AcDbEntity
  8
Sichtbar schmal (ISO)
 62
    18
420
        0
370
     5
100
AcDbLine
 10
85.24639243071099
 20
166.4363679701808
 30
0.0
 11
83.87115878619487
 21
166.4363679701808
 31
0.0
  0
LINE
  5
F6
330
BA
100
AcDbEntity
  8
Sichtbar schmal (ISO)
 62
    18
420
        0
370
     5
100
AcDbLine
 10
85.24639243071099
 20
166.2544401351748
 30
0.0
 11
85.24639243071099
 21
166.4363679701808
 31
0.0
  0
LINE
  5
F7
330
BA
100
AcDbEntity
  8
Sichtbar schmal (ISO)
 62
    18
420
        0
370
     5
100
AcDbLine
 10
87.76765411232352
 20
166.2544401351748
 30
0.0
 11
85.24639243071099
 21
166.2544401351748
 31
0.0
  0
SPLINE
  5
F8
330
BA
100
AcDbEntity
  8
Sichtbar schmal (ISO)
 62
    18
420
        0
370
     5
100
AcDbSpline
210
0.0
220
0.0
230
1.0
 70
     8
 71
     3
 72
     8
 73
     4
 74
     0
 42
0.0000000001
 43
0.0000000001
 40
0.0
 40
0.0
 40
0.0
 40
0.0
 40
1.0
 40
1.0
 40
1.0
 40
1.0
 10
87.99685971974293
 20
166.0725123001687
 30
0.0
 10
87.99685971974293
 20
166.1729882690124
 30
0.0
 10
87.89424087387713
 20
166.2544401351748
 30
0.0
 10
87.76765411232352
 20
166.2544401351748
 30
0.0
  0
LINE
  5
F9
330
BA
100
AcDbEntity
  8
Sichtbar schmal (ISO)
 62
    18
420
        0
370
     5
100
AcDbLine
 10
87.99685971974293
 20
165.9178736404141
 30
0.0
 11
87.99685971974293
 21
166.0725123001687
 31
0.0
  0
SPLINE
  5
FA
330
BA
100
AcDbEntity
  8
Sichtbar schmal (ISO)
 62
    18
420
        0
370
     5
100
AcDbSpline
210
0.0
220
0.0
230
1.0
 70
     8
 71
     3
 72
     8
 73
     4
 74
     0
 42
0.0000000001
 43
0.0000000001
 40
0.0
 40
0.0
 40
0.0
 40
0.0
 40
1.0
 40
1.0
 40
1.0
 40
1.0
 10
87.76765411232352
 20
165.735945805408
 30
0.0
 10
87.89424087387713
 20
165.735945805408
 30
0.0
 10
87.99685971974293
 20
165.8173976715703
 30
0.0
 10
87.99685971974293
 20
165.9178736404141
 30
0.0
  0
LINE
  5
FB
330
BA
100
AcDbEntity
  8
Sichtbar schmal (ISO)
 62
    18
420
        0
370
     5
100
AcDbLine
 10
85.2578527110818
 20
165.735945805408
 30
0.0
 11
87.76765411232352
 21
165.735945805408
 31
0.0
  0
LINE
  5
FC
330
BA
100
AcDbEntity
  8
Sichtbar schmal (ISO)
 62
    18
420
        0
370
     5
100
AcDbLine
 10
85.2578527110818
 20
167.00944065045
 30
0.0
 11
85.2578527110818
 21
166.8275128154439
 31
0.0
  0
LINE
  5
FD
330
BA
100
AcDbEntity
  8
Sichtbar schmal (ISO)
 62
    18
420
        0
370
     5
100
AcDbLine
 10
83.85969850582409
 20
167.00944065045
 30
0.0
 11
85.2578527110818
 21
167.00944065045
 31
0.0
  0
LINE
  5
FE
330
BA
100
AcDbEntity
  8
Sichtbar schmal (ISO)
 62
    18
420
        0
370
     5
100
AcDbLine
 10
83.85969850582409
 20
166.8275128154439
 30
0.0
 11
83.85969850582409
 21
167.00944065045
 31
0.0
  0
LINE
  5
FF
330
BA
100
AcDbEntity
  8
Sichtbar schmal (ISO)
 62
    18
420
        0
370
     5
100
AcDbLine
 10
81.34989710458237
 20
166.8275128154439
 30
0.0
 11
83.85969850582409
 21
166.8275128154439
 31
0.0
  0
SPLINE
  5
100
330
BA
100
AcDbEntity
  8
Sichtbar schmal (ISO)
 62
    18
420
        0
370
     5
100
AcDbSpline
210
0.0
220
0.0
230
1.0
 70
     8
 71
     3
 72
     8
 73
     4
 74
     0
 42
0.0000000001
 43
0.0000000001
 40
0.0
 40
0.0
 40
0.0
 40
0.0
 40
1.0
 40
1.0
 40
1.0
 40
1.0
 10
81.12069149716296
 20
167.00944065045
 30
0.0
 10
81.12069149716296
 20
166.9089646816068
 30
0.0
 10
81.22331034302874
 20
166.8275128154439
 30
0.0
 10
81.34989710458237
 20
166.8275128154439
 30
0.0
  0
LINE
  5
101
330
BA
100
AcDbEntity
  8
Sichtbar schmal (ISO)
 62
    18
420
        0
370
     5
100
AcDbLine
 10
81.12069149716296
 20
167.1640793102052
 30
0.0
 11
81.12069149716296
 21
167.00944065045
 31
0.0
  0
SPLINE
  5
102
330
BA
100
AcDbEntity
  8
Sichtbar schmal (ISO)
 62
    18
420
        0
370
     5
100
AcDbSpline
210
0.0
220
0.0
230
1.0
 70
     8
 71
     3
 72
     8
 73
     4
 74
     0
 42
0.0000000001
 43
0.0000000001
 40
0.0
 40
0.0
 40
0.0
 40
0.0
 40
1.0
 40
1.0
 40
1.0
 40
1.0
 10
81.34989710458237
 20
167.3460071452113
 30
0.0
 10
81.22331034302874
 20
167.3460071452113
 30
0.0
 10
81.12069149716296
 20
167.264555279049
 30
0.0
 10
81.12069149716296
 20
167.1640793102052
 30
0.0
  0
LINE
  5
103
330
BA
100
AcDbEntity
  8
Sichtbar schmal (ISO)
 62
    18
420
        0
370
     5
100
AcDbLine
 10
83.87115878619487
 20
167.3460071452113
 30
0.0
 11
81.34989710458237
 21
167.3460071452113
 31
0.0
  0
LINE
  5
104
330
BA
100
AcDbEntity
  8
Sichtbar schmal (ISO)
 62
    18
420
        0
370
     5
100
AcDbLine
 10
83.87115878619487
 20
167.5279349802174
 30
0.0
 11
83.87115878619487
 21
167.3460071452113
 31
0.0
  0
LINE
  5
105
330
BA
100
AcDbEntity
  8
Sichtbar schmal (ISO)
 62
    18
420
        0
370
     5
100
AcDbLine
 10
85.24639243071099
 20
167.5279349802174
 30
0.0
 11
83.87115878619487
 21
167.5279349802174
 31
0.0
  0
LINE
  5
106
330
BA
100
AcDbEntity
  8
Sichtbar schmal (ISO)
 62
    18
420
        0
370
     5
100
AcDbLine
 10
85.24639243071099
 20
167.3460071452113
 30
0.0
 11
85.24639243071099
 21
167.5279349802174
 31
0.0
  0
LINE
  5
107
330
BA
100
AcDbEntity
  8
Sichtbar schmal (ISO)
 62
    18
420
        0
370
     5
100
AcDbLine
 10
87.76765411232352
 20
167.3460071452113
 30
0.0
 11
85.24639243071099
 21
167.3460071452113
 31
0.0
  0
SPLINE
  5
108
330
BA
100
AcDbEntity
  8
Sichtbar schmal (ISO)
 62
    18
420
        0
370
     5
100
AcDbSpline
210
0.0
220
0.0
230
1.0
 70
     8
 71
     3
 72
     8
 73
     4
 74
     0
 42
0.0000000001
 43
0.0000000001
 40
0.0
 40
0.0
 40
0.0
 40
0.0
 40
1.0
 40
1.0
 40
1.0
 40
1.0
 10
87.99685971974293
 20
167.1640793102052
 30
0.0
 10
87.99685971974293
 20
167.264555279049
 30
0.0
 10
87.89424087387713
 20
167.3460071452113
 30
0.0
 10
87.76765411232352
 20
167.3460071452113
 30
0.0
  0
LINE
  5
109
330
BA
100
AcDbEntity
  8
Sichtbar schmal (ISO)
 62
    18
420
        0
370
     5
100
AcDbLine
 10
87.99685971974293
 20
167.00944065045
 30
0.0
 11
87.99685971974293
 21
167.1640793102052
 31
0.0
  0
SPLINE
  5
10A
330
BA
100
AcDbEntity
  8
Sichtbar schmal (ISO)
 62
    18
420
        0
370
     5
100
AcDbSpline
210
0.0
220
0.0
230
1.0
 70
     8
 71
     3
 72
     8
 73
     4
 74
     0
 42
0.0000000001
 43
0.0000000001
 40
0.0
 40
0.0
 40
0.0
 40
0.0
 40
1.0
 40
1.0
 40
1.0
 40
1.0
 10
87.76765411232352
 20
166.8275128154439
 30
0.0
 10
87.89424087387713
 20
166.8275128154439
 30
0.0
 10
87.99685971974293
 20
166.9089646816068
 30
0.0
 10
87.99685971974293
 20
167.00944065045
 30
0.0
  0
LINE
  5
10B
330
BA
100
AcDbEntity
  8
Sichtbar schmal (ISO)
 62
    18
420
        0
370
     5
100
AcDbLine
 10
85.2578527110818
 20
166.8275128154439
 30
0.0
 11
87.76765411232352
 21
166.8275128154439
 31
0.0
  0
LINE
  5
10C
330
BA
100
AcDbEntity
  8
Sichtbar schmal (ISO)
 62
    18
420
        0
370
     5
100
AcDbLine
 10
85.2578527110818
 20
168.1010076604865
 30
0.0
 11
85.2578527110818
 21
167.9190798254805
 31
0.0
  0
LINE
  5
10D
330
BA
100
AcDbEntity
  8
Sichtbar schmal (ISO)
 62
    18
420
        0
370
     5
100
AcDbLine
 10
83.85969850582409
 20
168.1010076604865
 30
0.0
 11
85.2578527110818
 21
168.1010076604865
 31
0.0
  0
LINE
  5
10E
330
BA
100
AcDbEntity
  8
Sichtbar schmal (ISO)
 62
    18
420
        0
370
     5
100
AcDbLine
 10
83.85969850582409
 20
167.9190798254805
 30
0.0
 11
83.85969850582409
 21
168.1010076604865
 31
0.0
  0
LINE
  5
10F
330
BA
100
AcDbEntity
  8
Sichtbar schmal (ISO)
 62
    18
420
        0
370
     5
100
AcDbLine
 10
81.34989710458237
 20
167.9190798254805
 30
0.0
 11
83.85969850582409
 21
167.9190798254805
 31
0.0
  0
SPLINE
  5
110
330
BA
100
AcDbEntity
  8
Sichtbar schmal (ISO)
 62
    18
420
        0
370
     5
100
AcDbSpline
210
0.0
220
0.0
230
1.0
 70
     8
 71
     3
 72
     8
 73
     4
 74
     0
 42
0.0000000001
 43
0.0000000001
 40
0.0
 40
0.0
 40
0.0
 40
0.0
 40
1.0
 40
1.0
 40
1.0
 40
1.0
 10
81.12069149716296
 20
168.1010076604865
 30
0.0
 10
81.12069149716296
 20
168.0005316916427
 30
0.0
 10
81.22331034302874
 20
167.9190798254805
 30
0.0
 10
81.34989710458237
 20
167.9190798254805
 30
0.0
  0
LINE
  5
111
330
BA
100
AcDbEntity
  8
Sichtbar schmal (ISO)
 62
    18
420
        0
370
     5
100
AcDbLine
 10
81.12069149716296
 20
168.2556463202418
 30
0.0
 11
81.12069149716296
 21
168.1010076604865
 31
0.0
  0
SPLINE
  5
112
330
BA
100
AcDbEntity
  8
Sichtbar schmal (ISO)
 62
    18
420
        0
370
     5
100
AcDbSpline
210
0.0
220
0.0
230
1.0
 70
     8
 71
     3
 72
     8
 73
     4
 74
     0
 42
0.0000000001
 43
0.0000000001
 40
0.0
 40
0.0
 40
0.0
 40
0.0
 40
1.0
 40
1.0
 40
1.0
 40
1.0
 10
81.34989710458237
 20
168.4375741552479
 30
0.0
 10
81.22331034302874
 20
168.4375741552479
 30
0.0
 10
81.12069149716296
 20
168.3561222890849
 30
0.0
 10
81.12069149716296
 20
168.2556463202418
 30
0.0
  0
LINE
  5
113
330
BA
100
AcDbEntity
  8
Sichtbar schmal (ISO)
 62
    18
420
        0
370
     5
100
AcDbLine
 10
83.87115878619487
 20
168.4375741552479
 30
0.0
 11
81.34989710458237
 21
168.4375741552479
 31
0.0
  0
LINE
  5
114
330
BA
100
AcDbEntity
  8
Sichtbar schmal (ISO)
 62
    18
420
        0
370
     5
100
AcDbLine
 10
83.87115878619487
 20
168.619501990254
 30
0.0
 11
83.87115878619487
 21
168.4375741552479
 31
0.0
  0
LINE
  5
115
330
BA
100
AcDbEntity
  8
Sichtbar schmal (ISO)
 62
    18
420
        0
370
     5
100
AcDbLine
 10
85.24639243071099
 20
168.619501990254
 30
0.0
 11
83.87115878619487
 21
168.619501990254
 31
0.0
  0
LINE
  5
116
330
BA
100
AcDbEntity
  8
Sichtbar schmal (ISO)
 62
    18
420
        0
370
     5
100
AcDbLine
 10
85.24639243071099
 20
168.4375741552479
 30
0.0
 11
85.24639243071099
 21
168.619501990254
 31
0.0
  0
LINE
  5
117
330
BA
100
AcDbEntity
  8
Sichtbar schmal (ISO)
 62
    18
420
        0
370
     5
100
AcDbLine
 10
87.76765411232352
 20
168.4375741552479
 30
0.0
 11
85.24639243071099
 21
168.4375741552479
 31
0.0
  0
SPLINE
  5
118
330
BA
100
AcDbEntity
  8
Sichtbar schmal (ISO)
 62
    18
420
        0
370
     5
100
AcDbSpline
210
0.0
220
0.0
230
1.0
 70
     8
 71
     3
 72
     8
 73
     4
 74
     0
 42
0.0000000001
 43
0.0000000001
 40
0.0
 40
0.0
 40
0.0
 40
0.0
 40
1.0
 40
1.0
 40
1.0
 40
1.0
 10
87.99685971974293
 20
168.2556463202418
 30
0.0
 10
87.99685971974293
 20
168.3561222890849
 30
0.0
 10
87.89424087387713
 20
168.4375741552479
 30
0.0
 10
87.76765411232352
 20
168.4375741552479
 30
0.0
  0
LINE
  5
119
330
BA
100
AcDbEntity
  8
Sichtbar schmal (ISO)
 62
    18
420
        0
370
     5
100
AcDbLine
 10
87.99685971974293
 20
168.1010076604865
 30
0.0
 11
87.99685971974293
 21
168.2556463202418
 31
0.0
  0
SPLINE
  5
11A
330
BA
100
AcDbEntity
  8
Sichtbar schmal (ISO)
 62
    18
420
        0
370
     5
100
AcDbSpline
210
0.0
220
0.0
230
1.0
 70
     8
 71
     3
 72
     8
 73
     4
 74
     0
 42
0.0000000001
 43
0.0000000001
 40
0.0
 40
0.0
 40
0.0
 40
0.0
 40
1.0
 40
1.0
 40
1.0
 40
1.0
 10
87.76765411232352
 20
167.9190798254805
 30
0.0
 10
87.89424087387713
 20
167.9190798254805
 30
0.0
 10
87.99685971974293
 20
168.0005316916427
 30
0.0
 10
87.99685971974293
 20
168.1010076604865
 30
0.0
  0
LINE
  5
11B
330
BA
100
AcDbEntity
  8
Sichtbar schmal (ISO)
 62
    18
420
        0
370
     5
100
AcDbLine
 10
85.2578527110818
 20
167.9190798254805
 30
0.0
 11
87.76765411232352
 21
167.9190798254805
 31
0.0
  0
LINE
  5
11C
330
BA
100
AcDbEntity
  8
Sichtbar schmal (ISO)
 62
    18
420
        0
370
     5
100
AcDbLine
 10
85.2578527110818
 20
169.1925746705231
 30
0.0
 11
85.2578527110818
 21
169.010646835517
 31
0.0
  0
LINE
  5
11D
330
BA
100
AcDbEntity
  8
Sichtbar schmal (ISO)
 62
    18
420
        0
370
     5
100
AcDbLine
 10
83.85969850582409
 20
169.1925746705231
 30
0.0
 11
85.2578527110818
 21
169.1925746705231
 31
0.0
  0
LINE
  5
11E
330
BA
100
AcDbEntity
  8
Sichtbar schmal (ISO)
 62
    18
420
        0
370
     5
100
AcDbLine
 10
83.85969850582409
 20
169.010646835517
 30
0.0
 11
83.85969850582409
 21
169.1925746705231
 31
0.0
  0
LINE
  5
11F
330
BA
100
AcDbEntity
  8
Sichtbar schmal (ISO)
 62
    18
420
        0
370
     5
100
AcDbLine
 10
81.34989710458237
 20
169.010646835517
 30
0.0
 11
83.85969850582409
 21
169.010646835517
 31
0.0
  0
SPLINE
  5
120
330
BA
100
AcDbEntity
  8
Sichtbar schmal (ISO)
 62
    18
420
        0
370
     5
100
AcDbSpline
210
0.0
220
0.0
230
1.0
 70
     8
 71
     3
 72
     8
 73
     4
 74
     0
 42
0.0000000001
 43
0.0000000001
 40
0.0
 40
0.0
 40
0.0
 40
0.0
 40
1.0
 40
1.0
 40
1.0
 40
1.0
 10
81.12069149716296
 20
169.1925746705231
 30
0.0
 10
81.12069149716296
 20
169.0920987016793
 30
0.0
 10
81.22331034302874
 20
169.010646835517
 30
0.0
 10
81.34989710458237
 20
169.010646835517
 30
0.0
  0
LINE
  5
121
330
BA
100
AcDbEntity
  8
Sichtbar schmal (ISO)
 62
    18
420
        0
370
     5
100
AcDbLine
 10
81.12069149716296
 20
169.3472133302777
 30
0.0
 11
81.12069149716296
 21
169.1925746705231
 31
0.0
  0
SPLINE
  5
122
330
BA
100
AcDbEntity
  8
Sichtbar schmal (ISO)
 62
    18
420
        0
370
     5
100
AcDbSpline
210
0.0
220
0.0
230
1.0
 70
     8
 71
     3
 72
     8
 73
     4
 74
     0
 42
0.0000000001
 43
0.0000000001
 40
0.0
 40
0.0
 40
0.0
 40
0.0
 40
1.0
 40
1.0
 40
1.0
 40
1.0
 10
81.34989710458237
 20
169.5291411652838
 30
0.0
 10
81.22331034302874
 20
169.5291411652838
 30
0.0
 10
81.12069149716296
 20
169.4476892991215
 30
0.0
 10
81.12069149716296
 20
169.3472133302777
 30
0.0
  0
LINE
  5
123
330
BA
100
AcDbEntity
  8
Sichtbar schmal (ISO)
 62
    18
420
        0
370
     5
100
AcDbLine
 10
83.87115878619487
 20
169.5291411652838
 30
0.0
 11
81.34989710458237
 21
169.5291411652838
 31
0.0
  0
LINE
  5
124
330
BA
100
AcDbEntity
  8
Sichtbar schmal (ISO)
 62
    18
420
        0
370
     5
100
AcDbLine
 10
83.87115878619487
 20
169.7110690002899
 30
0.0
 11
83.87115878619487
 21
169.5291411652838
 31
0.0
  0
LINE
  5
125
330
BA
100
AcDbEntity
  8
Sichtbar schmal (ISO)
 62
    18
420
        0
370
     5
100
AcDbLine
 10
85.24639243071099
 20
169.7110690002899
 30
0.0
 11
83.87115878619487
 21
169.7110690002899
 31
0.0
  0
LINE
  5
126
330
BA
100
AcDbEntity
  8
Sichtbar schmal (ISO)
 62
    18
420
        0
370
     5
100
AcDbLine
 10
85.24639243071099
 20
169.5291411652838
 30
0.0
 11
85.24639243071099
 21
169.7110690002899
 31
0.0
  0
LINE
  5
127
330
BA
100
AcDbEntity
  8
Sichtbar schmal (ISO)
 62
    18
420
        0
370
     5
100
AcDbLine
 10
87.76765411232352
 20
169.5291411652838
 30
0.0
 11
85.24639243071099
 21
169.5291411652838
 31
0.0
  0
SPLINE
  5
128
330
BA
100
AcDbEntity
  8
Sichtbar schmal (ISO)
 62
    18
420
        0
370
     5
100
AcDbSpline
210
0.0
220
0.0
230
1.0
 70
     8
 71
     3
 72
     8
 73
     4
 74
     0
 42
0.0000000001
 43
0.0000000001
 40
0.0
 40
0.0
 40
0.0
 40
0.0
 40
1.0
 40
1.0
 40
1.0
 40
1.0
 10
87.99685971974293
 20
169.3472133302777
 30
0.0
 10
87.99685971974293
 20
169.4476892991215
 30
0.0
 10
87.89424087387713
 20
169.5291411652838
 30
0.0
 10
87.76765411232352
 20
169.5291411652838
 30
0.0
  0
LINE
  5
129
330
BA
100
AcDbEntity
  8
Sichtbar schmal (ISO)
 62
    18
420
        0
370
     5
100
AcDbLine
 10
87.99685971974293
 20
169.1925746705231
 30
0.0
 11
87.99685971974293
 21
169.3472133302777
 31
0.0
  0
SPLINE
  5
12A
330
BA
100
AcDbEntity
  8
Sichtbar schmal (ISO)
 62
    18
420
        0
370
     5
100
AcDbSpline
210
0.0
220
0.0
230
1.0
 70
     8
 71
     3
 72
     8
 73
     4
 74
     0
 42
0.0000000001
 43
0.0000000001
 40
0.0
 40
0.0
 40
0.0
 40
0.0
 40
1.0
 40
1.0
 40
1.0
 40
1.0
 10
87.76765411232352
 20
169.010646835517
 30
0.0
 10
87.89424087387713
 20
169.010646835517
 30
0.0
 10
87.99685971974293
 20
169.0920987016793
 30
0.0
 10
87.99685971974293
 20
169.1925746705231
 30
0.0
  0
LINE
  5
12B
330
BA
100
AcDbEntity
  8
Sichtbar schmal (ISO)
 62
    18
420
        0
370
     5
100
AcDbLine
 10
85.2578527110818
 20
169.010646835517
 30
0.0
 11
87.76765411232352
 21
169.010646835517
 31
0.0
  0
LINE
  5
12C
330
BA
100
AcDbEntity
  8
Sichtbar schmal (ISO)
 62
    18
420
        0
370
     5
100
AcDbLine
 10
90.1743129902265
 20
167.400585495713
 30
0.0
 11
89.02828495313009
 21
167.400585495713
 31
0.0
  0
LINE
  5
12D
330
BA
100
AcDbEntity
  8
Sichtbar schmal (ISO)
 62
    18
420
        0
370
     5
100
AcDbLine
 10
89.02828495313009
 20
165.9451628156649
 30
0.0
 11
90.1743129902265
 21
165.9451628156649
 31
0.0
  0
LINE
  5
12E
330
BA
100
AcDbEntity
  8
Sichtbar schmal (ISO)
 62
    18
420
        0
370
     5
100
AcDbLine
 10
90.1743129902265
 20
165.0719092076358
 30
0.0
 11
89.02828495313009
 21
165.0719092076358
 31
0.0
  0
LINE
  5
12F
330
BA
100
AcDbEntity
  8
Sichtbar schmal (ISO)
 62
    18
420
        0
370
     5
100
AcDbLine
 10
97.2796868202262
 20
165.9451628156649
 30
0.0
 11
96.13365878312883
 21
165.9451628156649
 31
0.0
  0
LINE
  5
130
330
BA
100
AcDbEntity
  8
Sichtbar schmal (ISO)
 62
    18
420
        0
370
     5
100
AcDbLine
 10
96.13365878312883
 20
165.0719092076358
 30
0.0
 11
97.2796868202262
 21
165.0719092076358
 31
0.0
  0
LINE
  5
131
330
BA
100
AcDbEntity
  8
Sichtbar schmal (ISO)
 62
    18
420
        0
370
     5
100
AcDbLine
 10
96.13365878312883
 20
167.400585495713
 30
0.0
 11
97.2796868202262
 21
167.400585495713
 31
0.0
  0
LINE
  5
132
330
BA
100
AcDbEntity
  8
Sichtbar schmal (ISO)
 62
    18
420
        0
370
     5
100
AcDbLine
 10
106.6083550421929
 20
171.2574555978417
 30
0.0
 11
106.6083550421929
 21
165.0719092076358
 31
0.0
  0
LINE
  5
133
330
BA
100
AcDbEntity
  8
Sichtbar schmal (ISO)
 62
    18
420
        0
370
     5
100
AcDbLine
 10
106.6083550421929
 20
165.0719092076358
 30
0.0
 11
106.9382784864558
 21
165.0719092076358
 31
0.0
  0
LINE
  5
134
330
BA
100
AcDbEntity
  8
Sichtbar schmal (ISO)
 62
    18
420
        0
370
     5
100
AcDbLine
 10
106.9382784864558
 20
172.4399865253813
 30
0.0
 11
106.9382784864558
 21
165.0719092076358
 31
0.0
  0
LINE
  5
135
330
BA
100
AcDbEntity
  8
Sichtbar schmal (ISO)
 62
    18
420
        0
370
     5
100
AcDbLine
 10
106.9382784864558
 20
172.4399865253813
 30
0.0
 11
106.9382784864558
 21
172.5309504428843
 31
0.0
  0
LINE
  5
136
330
BA
100
AcDbEntity
  8
Sichtbar schmal (ISO)
 62
    18
420
        0
370
     5
100
AcDbLine
 10
102.5408583975544
 20
170.7116720928234
 30
0.0
 11
102.5408583975544
 21
171.2574555978417
 31
0.0
  0
LINE
  5
137
330
BA
100
AcDbEntity
  8
Sichtbar schmal (ISO)
 62
    18
420
        0
370
     5
100
AcDbLine
 10
102.5408583975544
 20
170.7116720928234
 30
0.0
 11
102.4368129871611
 21
170.7116720928234
 31
0.0
  0
LINE
  5
138
330
BA
100
AcDbEntity
  8
Sichtbar schmal (ISO)
 62
    18
420
        0
370
     5
100
AcDbLine
 10
102.4368129871611
 20
170.7116720928234
 30
0.0
 11
102.4368129871611
 21
170.6207081753204
 31
0.0
  0
LINE
  5
139
330
BA
100
AcDbEntity
  8
Sichtbar schmal (ISO)
 62
    18
420
        0
370
     5
100
AcDbLine
 10
102.4368129871611
 20
170.6207081753204
 30
0.0
 11
104.9580746687736
 21
170.6207081753204
 31
0.0
  0
SPLINE
  5
13A
330
BA
100
AcDbEntity
  8
Sichtbar schmal (ISO)
 62
    18
420
        0
370
     5
100
AcDbSpline
210
0.0
220
0.0
230
1.0
 70
     8
 71
     3
 72
     8
 73
     4
 74
     0
 42
0.0000000001
 43
0.0000000001
 40
0.0
 40
0.0
 40
0.0
 40
0.0
 40
1.0
 40
1.0
 40
1.0
 40
1.0
 10
105.1872802761933
 20
170.4387803403143
 30
0.0
 10
105.1872802761933
 20
170.539256309158
 30
0.0
 10
105.0846614303272
 20
170.6207081753204
 30
0.0
 10
104.9580746687736
 20
170.6207081753204
 30
0.0
  0
LINE
  5
13B
330
BA
100
AcDbEntity
  8
Sichtbar schmal (ISO)
 62
    18
420
        0
370
     5
100
AcDbLine
 10
105.1872802761933
 20
170.4387803403143
 30
0.0
 11
105.1872802761933
 21
170.284141680559
 31
0.0
  0
SPLINE
  5
13C
330
BA
100
AcDbEntity
  8
Sichtbar schmal (ISO)
 62
    18
420
        0
370
     5
100
AcDbSpline
210
0.0
220
0.0
230
1.0
 70
     8
 71
     3
 72
     8
 73
     4
 74
     0
 42
0.0000000001
 43
0.0000000001
 40
0.0
 40
0.0
 40
0.0
 40
0.0
 40
1.0
 40
1.0
 40
1.0
 40
1.0
 10
104.9580746687736
 20
170.1022138455529
 30
0.0
 10
105.0846614303272
 20
170.1022138455529
 30
0.0
 10
105.1872802761933
 20
170.1836657117159
 30
0.0
 10
105.1872802761933
 20
170.284141680559
 30
0.0
  0
LINE
  5
13D
330
BA
100
AcDbEntity
  8
Sichtbar schmal (ISO)
 62
    18
420
        0
370
     5
100
AcDbLine
 10
104.9580746687736
 20
170.1022138455529
 30
0.0
 11
102.4482732675318
 21
170.1022138455529
 31
0.0
  0
LINE
  5
13E
330
BA
100
AcDbEntity
  8
Sichtbar schmal (ISO)
 62
    18
420
        0
370
     5
100
AcDbLine
 10
102.4482732675318
 20
170.1022138455529
 30
0.0
 11
102.4482732675318
 21
170.284141680559
 31
0.0
  0
LINE
  5
13F
330
BA
100
AcDbEntity
  8
Sichtbar schmal (ISO)
 62
    18
420
        0
370
     5
100
AcDbLine
 10
102.4482732675318
 20
170.284141680559
 30
0.0
 11
101.0501190622738
 21
170.284141680559
 31
0.0
  0
LINE
  5
140
330
BA
100
AcDbEntity
  8
Sichtbar schmal (ISO)
 62
    18
420
        0
370
     5
100
AcDbLine
 10
101.0501190622738
 20
170.284141680559
 30
0.0
 11
101.0501190622738
 21
170.1022138455529
 31
0.0
  0
LINE
  5
141
330
BA
100
AcDbEntity
  8
Sichtbar schmal (ISO)
 62
    18
420
        0
370
     5
100
AcDbLine
 10
101.0501190622738
 20
170.1022138455529
 30
0.0
 11
98.54031766103277
 21
170.1022138455529
 31
0.0
  0
SPLINE
  5
142
330
BA
100
AcDbEntity
  8
Sichtbar schmal (ISO)
 62
    18
420
        0
370
     5
100
AcDbSpline
210
0.0
220
0.0
230
1.0
 70
     8
 71
     3
 72
     8
 73
     4
 74
     0
 42
0.0000000001
 43
0.0000000001
 40
0.0
 40
0.0
 40
0.0
 40
0.0
 40
1.0
 40
1.0
 40
1.0
 40
1.0
 10
98.31111205361304
 20
170.284141680559
 30
0.0
 10
98.31111205361304
 20
170.1836657117159
 30
0.0
 10
98.41373089947916
 20
170.1022138455529
 30
0.0
 10
98.54031766103277
 20
170.1022138455529
 30
0.0
  0
LINE
  5
143
330
BA
100
AcDbEntity
  8
Sichtbar schmal (ISO)
 62
    18
420
        0
370
     5
100
AcDbLine
 10
98.31111205361304
 20
170.284141680559
 30
0.0
 11
98.31111205361304
 21
170.4387803403143
 31
0.0
  0
SPLINE
  5
144
330
BA
100
AcDbEntity
  8
Sichtbar schmal (ISO)
 62
    18
420
        0
370
     5
100
AcDbSpline
210
0.0
220
0.0
230
1.0
 70
     8
 71
     3
 72
     8
 73
     4
 74
     0
 42
0.0000000001
 43
0.0000000001
 40
0.0
 40
0.0
 40
0.0
 40
0.0
 40
1.0
 40
1.0
 40
1.0
 40
1.0
 10
98.54031766103277
 20
170.6207081753204
 30
0.0
 10
98.41373089947916
 20
170.6207081753204
 30
0.0
 10
98.31111205361304
 20
170.539256309158
 30
0.0
 10
98.31111205361304
 20
170.4387803403143
 30
0.0
  0
LINE
  5
145
330
BA
100
AcDbEntity
  8
Sichtbar schmal (ISO)
 62
    18
420
        0
370
     5
100
AcDbLine
 10
98.54031766103277
 20
170.6207081753204
 30
0.0
 11
101.0615793426446
 21
170.6207081753204
 31
0.0
  0
LINE
  5
146
330
BA
100
AcDbEntity
  8
Sichtbar schmal (ISO)
 62
    18
420
        0
370
     5
100
AcDbLine
 10
101.0615793426446
 20
170.6207081753204
 30
0.0
 11
101.0615793426446
 21
170.8026360103265
 31
0.0
  0
LINE
  5
147
330
BA
100
AcDbEntity
  8
Sichtbar schmal (ISO)
 62
    18
420
        0
370
     5
100
AcDbLine
 10
101.0615793426446
 20
170.8026360103265
 30
0.0
 11
102.1035619693486
 21
170.8026360103265
 31
0.0
  0
LINE
  5
148
330
BA
100
AcDbEntity
  8
Sichtbar schmal (ISO)
 62
    18
420
        0
370
     5
100
AcDbLine
 10
102.1035619693486
 20
170.8026360103265
 30
0.0
 11
102.1035619693486
 21
171.2574555978417
 31
0.0
  0
LINE
  5
149
330
BA
100
AcDbEntity
  8
Sichtbar schmal (ISO)
 62
    18
420
        0
370
     5
100
AcDbLine
 10
98.19650924990318
 20
165.0719092076358
 30
0.0
 11
105.9894999021604
 21
165.0719092076358
 31
0.0
  0
LINE
  5
14A
330
BA
100
AcDbEntity
  8
Sichtbar schmal (ISO)
 62
    18
420
        0
370
     5
100
AcDbLine
 10
105.9894999021604
 20
171.2574555978417
 30
0.0
 11
105.9894999021604
 21
165.0719092076358
 31
0.0
  0
LINE
  5
14B
330
BA
100
AcDbEntity
  8
Sichtbar schmal (ISO)
 62
    18
420
        0
370
     5
100
AcDbLine
 10
101.0501190622738
 20
169.1925746705231
 30
0.0
 11
101.0501190622738
 21
169.010646835517
 31
0.0
  0
LINE
  5
14C
330
BA
100
AcDbEntity
  8
Sichtbar schmal (ISO)
 62
    18
420
        0
370
     5
100
AcDbLine
 10
101.0501190622738
 20
169.010646835517
 30
0.0
 11
98.54031766103277
 21
169.010646835517
 31
0.0
  0
SPLINE
  5
14D
330
BA
100
AcDbEntity
  8
Sichtbar schmal (ISO)
 62
    18
420
        0
370
     5
100
AcDbSpline
210
0.0
220
0.0
230
1.0
 70
     8
 71
     3
 72
     8
 73
     4
 74
     0
 42
0.0000000001
 43
0.0000000001
 40
0.0
 40
0.0
 40
0.0
 40
0.0
 40
1.0
 40
1.0
 40
1.0
 40
1.0
 10
98.31111205361304
 20
169.1925746705231
 30
0.0
 10
98.31111205361304
 20
169.0920987016793
 30
0.0
 10
98.41373089947916
 20
169.010646835517
 30
0.0
 10
98.54031766103277
 20
169.010646835517
 30
0.0
  0
LINE
  5
14E
330
BA
100
AcDbEntity
  8
Sichtbar schmal (ISO)
 62
    18
420
        0
370
     5
100
AcDbLine
 10
98.31111205361304
 20
169.1925746705231
 30
0.0
 11
98.31111205361304
 21
169.3472133302777
 31
0.0
  0
SPLINE
  5
14F
330
BA
100
AcDbEntity
  8
Sichtbar schmal (ISO)
 62
    18
420
        0
370
     5
100
AcDbSpline
210
0.0
220
0.0
230
1.0
 70
     8
 71
     3
 72
     8
 73
     4
 74
     0
 42
0.0000000001
 43
0.0000000001
 40
0.0
 40
0.0
 40
0.0
 40
0.0
 40
1.0
 40
1.0
 40
1.0
 40
1.0
 10
98.54031766103277
 20
169.5291411652838
 30
0.0
 10
98.41373089947916
 20
169.5291411652838
 30
0.0
 10
98.31111205361304
 20
169.4476892991215
 30
0.0
 10
98.31111205361304
 20
169.3472133302777
 30
0.0
  0
LINE
  5
150
330
BA
100
AcDbEntity
  8
Sichtbar schmal (ISO)
 62
    18
420
        0
370
     5
100
AcDbLine
 10
98.54031766103277
 20
169.5291411652838
 30
0.0
 11
101.0615793426446
 21
169.5291411652838
 31
0.0
  0
LINE
  5
151
330
BA
100
AcDbEntity
  8
Sichtbar schmal (ISO)
 62
    18
420
        0
370
     5
100
AcDbLine
 10
101.0615793426446
 20
169.5291411652838
 30
0.0
 11
101.0615793426446
 21
169.7110690002899
 31
0.0
  0
LINE
  5
152
330
BA
100
AcDbEntity
  8
Sichtbar schmal (ISO)
 62
    18
420
        0
370
     5
100
AcDbLine
 10
101.0615793426446
 20
169.7110690002899
 30
0.0
 11
102.4368129871611
 21
169.7110690002899
 31
0.0
  0
LINE
  5
153
330
BA
100
AcDbEntity
  8
Sichtbar schmal (ISO)
 62
    18
420
        0
370
     5
100
AcDbLine
 10
102.4368129871611
 20
169.7110690002899
 30
0.0
 11
102.4368129871611
 21
169.5291411652838
 31
0.0
  0
LINE
  5
154
330
BA
100
AcDbEntity
  8
Sichtbar schmal (ISO)
 62
    18
420
        0
370
     5
100
AcDbLine
 10
102.4368129871611
 20
169.5291411652838
 30
0.0
 11
104.9580746687736
 21
169.5291411652838
 31
0.0
  0
SPLINE
  5
155
330
BA
100
AcDbEntity
  8
Sichtbar schmal (ISO)
 62
    18
420
        0
370
     5
100
AcDbSpline
210
0.0
220
0.0
230
1.0
 70
     8
 71
     3
 72
     8
 73
     4
 74
     0
 42
0.0000000001
 43
0.0000000001
 40
0.0
 40
0.0
 40
0.0
 40
0.0
 40
1.0
 40
1.0
 40
1.0
 40
1.0
 10
105.1872802761933
 20
169.3472133302777
 30
0.0
 10
105.1872802761933
 20
169.4476892991215
 30
0.0
 10
105.0846614303272
 20
169.5291411652838
 30
0.0
 10
104.9580746687736
 20
169.5291411652838
 30
0.0
  0
LINE
  5
156
330
BA
100
AcDbEntity
  8
Sichtbar schmal (ISO)
 62
    18
420
        0
370
     5
100
AcDbLine
 10
105.1872802761933
 20
169.3472133302777
 30
0.0
 11
105.1872802761933
 21
169.1925746705231
 31
0.0
  0
SPLINE
  5
157
330
BA
100
AcDbEntity
  8
Sichtbar schmal (ISO)
 62
    18
420
        0
370
     5
100
AcDbSpline
210
0.0
220
0.0
230
1.0
 70
     8
 71
     3
 72
     8
 73
     4
 74
     0
 42
0.0000000001
 43
0.0000000001
 40
0.0
 40
0.0
 40
0.0
 40
0.0
 40
1.0
 40
1.0
 40
1.0
 40
1.0
 10
104.9580746687736
 20
169.010646835517
 30
0.0
 10
105.0846614303272
 20
169.010646835517
 30
0.0
 10
105.1872802761933
 20
169.0920987016793
 30
0.0
 10
105.1872802761933
 20
169.1925746705231
 30
0.0
  0
LINE
  5
158
330
BA
100
AcDbEntity
  8
Sichtbar schmal (ISO)
 62
    18
420
        0
370
     5
100
AcDbLine
 10
104.9580746687736
 20
169.010646835517
 30
0.0
 11
102.4482732675318
 21
169.010646835517
 31
0.0
  0
LINE
  5
159
330
BA
100
AcDbEntity
  8
Sichtbar schmal (ISO)
 62
    18
420
        0
370
     5
100
AcDbLine
 10
102.4482732675318
 20
169.010646835517
 30
0.0
 11
102.4482732675318
 21
169.1925746705231
 31
0.0
  0
LINE
  5
15A
330
BA
100
AcDbEntity
  8
Sichtbar schmal (ISO)
 62
    18
420
        0
370
     5
100
AcDbLine
 10
102.4482732675318
 20
169.1925746705231
 30
0.0
 11
101.0501190622738
 21
169.1925746705231
 31
0.0
  0
LINE
  5
15B
330
BA
100
AcDbEntity
  8
Sichtbar schmal (ISO)
 62
    18
420
        0
370
     5
100
AcDbLine
 10
101.0501190622738
 20
168.1010076604865
 30
0.0
 11
101.0501190622738
 21
167.9190798254805
 31
0.0
  0
LINE
  5
15C
330
BA
100
AcDbEntity
  8
Sichtbar schmal (ISO)
 62
    18
420
        0
370
     5
100
AcDbLine
 10
101.0501190622738
 20
167.9190798254805
 30
0.0
 11
98.54031766103277
 21
167.9190798254805
 31
0.0
  0
SPLINE
  5
15D
330
BA
100
AcDbEntity
  8
Sichtbar schmal (ISO)
 62
    18
420
        0
370
     5
100
AcDbSpline
210
0.0
220
0.0
230
1.0
 70
     8
 71
     3
 72
     8
 73
     4
 74
     0
 42
0.0000000001
 43
0.0000000001
 40
0.0
 40
0.0
 40
0.0
 40
0.0
 40
1.0
 40
1.0
 40
1.0
 40
1.0
 10
98.31111205361304
 20
168.1010076604865
 30
0.0
 10
98.31111205361304
 20
168.0005316916427
 30
0.0
 10
98.41373089947916
 20
167.9190798254805
 30
0.0
 10
98.54031766103277
 20
167.9190798254805
 30
0.0
  0
LINE
  5
15E
330
BA
100
AcDbEntity
  8
Sichtbar schmal (ISO)
 62
    18
420
        0
370
     5
100
AcDbLine
 10
98.31111205361304
 20
168.1010076604865
 30
0.0
 11
98.31111205361304
 21
168.2556463202418
 31
0.0
  0
SPLINE
  5
15F
330
BA
100
AcDbEntity
  8
Sichtbar schmal (ISO)
 62
    18
420
        0
370
     5
100
AcDbSpline
210
0.0
220
0.0
230
1.0
 70
     8
 71
     3
 72
     8
 73
     4
 74
     0
 42
0.0000000001
 43
0.0000000001
 40
0.0
 40
0.0
 40
0.0
 40
0.0
 40
1.0
 40
1.0
 40
1.0
 40
1.0
 10
98.54031766103277
 20
168.4375741552479
 30
0.0
 10
98.41373089947916
 20
168.4375741552479
 30
0.0
 10
98.31111205361304
 20
168.3561222890849
 30
0.0
 10
98.31111205361304
 20
168.2556463202418
 30
0.0
  0
LINE
  5
160
330
BA
100
AcDbEntity
  8
Sichtbar schmal (ISO)
 62
    18
420
        0
370
     5
100
AcDbLine
 10
98.54031766103277
 20
168.4375741552479
 30
0.0
 11
101.0615793426446
 21
168.4375741552479
 31
0.0
  0
LINE
  5
161
330
BA
100
AcDbEntity
  8
Sichtbar schmal (ISO)
 62
    18
420
        0
370
     5
100
AcDbLine
 10
101.0615793426446
 20
168.4375741552479
 30
0.0
 11
101.0615793426446
 21
168.619501990254
 31
0.0
  0
LINE
  5
162
330
BA
100
AcDbEntity
  8
Sichtbar schmal (ISO)
 62
    18
420
        0
370
     5
100
AcDbLine
 10
101.0615793426446
 20
168.619501990254
 30
0.0
 11
102.4368129871611
 21
168.619501990254
 31
0.0
  0
LINE
  5
163
330
BA
100
AcDbEntity
  8
Sichtbar schmal (ISO)
 62
    18
420
        0
370
     5
100
AcDbLine
 10
102.4368129871611
 20
168.619501990254
 30
0.0
 11
102.4368129871611
 21
168.4375741552479
 31
0.0
  0
LINE
  5
164
330
BA
100
AcDbEntity
  8
Sichtbar schmal (ISO)
 62
    18
420
        0
370
     5
100
AcDbLine
 10
102.4368129871611
 20
168.4375741552479
 30
0.0
 11
104.9580746687736
 21
168.4375741552479
 31
0.0
  0
SPLINE
  5
165
330
BA
100
AcDbEntity
  8
Sichtbar schmal (ISO)
 62
    18
420
        0
370
     5
100
AcDbSpline
210
0.0
220
0.0
230
1.0
 70
     8
 71
     3
 72
     8
 73
     4
 74
     0
 42
0.0000000001
 43
0.0000000001
 40
0.0
 40
0.0
 40
0.0
 40
0.0
 40
1.0
 40
1.0
 40
1.0
 40
1.0
 10
105.1872802761933
 20
168.2556463202418
 30
0.0
 10
105.1872802761933
 20
168.3561222890849
 30
0.0
 10
105.0846614303272
 20
168.4375741552479
 30
0.0
 10
104.9580746687736
 20
168.4375741552479
 30
0.0
  0
LINE
  5
166
330
BA
100
AcDbEntity
  8
Sichtbar schmal (ISO)
 62
    18
420
        0
370
     5
100
AcDbLine
 10
105.1872802761933
 20
168.2556463202418
 30
0.0
 11
105.1872802761933
 21
168.1010076604865
 31
0.0
  0
SPLINE
  5
167
330
BA
100
AcDbEntity
  8
Sichtbar schmal (ISO)
 62
    18
420
        0
370
     5
100
AcDbSpline
210
0.0
220
0.0
230
1.0
 70
     8
 71
     3
 72
     8
 73
     4
 74
     0
 42
0.0000000001
 43
0.0000000001
 40
0.0
 40
0.0
 40
0.0
 40
0.0
 40
1.0
 40
1.0
 40
1.0
 40
1.0
 10
104.9580746687736
 20
167.9190798254805
 30
0.0
 10
105.0846614303272
 20
167.9190798254805
 30
0.0
 10
105.1872802761933
 20
168.0005316916427
 30
0.0
 10
105.1872802761933
 20
168.1010076604865
 30
0.0
  0
LINE
  5
168
330
BA
100
AcDbEntity
  8
Sichtbar schmal (ISO)
 62
    18
420
        0
370
     5
100
AcDbLine
 10
104.9580746687736
 20
167.9190798254805
 30
0.0
 11
102.4482732675318
 21
167.9190798254805
 31
0.0
  0
LINE
  5
169
330
BA
100
AcDbEntity
  8
Sichtbar schmal (ISO)
 62
    18
420
        0
370
     5
100
AcDbLine
 10
102.4482732675318
 20
167.9190798254805
 30
0.0
 11
102.4482732675318
 21
168.1010076604865
 31
0.0
  0
LINE
  5
16A
330
BA
100
AcDbEntity
  8
Sichtbar schmal (ISO)
 62
    18
420
        0
370
     5
100
AcDbLine
 10
102.4482732675318
 20
168.1010076604865
 30
0.0
 11
101.0501190622738
 21
168.1010076604865
 31
0.0
  0
LINE
  5
16B
330
BA
100
AcDbEntity
  8
Sichtbar schmal (ISO)
 62
    18
420
        0
370
     5
100
AcDbLine
 10
101.0501190622738
 20
167.00944065045
 30
0.0
 11
101.0501190622738
 21
166.8275128154439
 31
0.0
  0
LINE
  5
16C
330
BA
100
AcDbEntity
  8
Sichtbar schmal (ISO)
 62
    18
420
        0
370
     5
100
AcDbLine
 10
101.0501190622738
 20
166.8275128154439
 30
0.0
 11
98.54031766103277
 21
166.8275128154439
 31
0.0
  0
SPLINE
  5
16D
330
BA
100
AcDbEntity
  8
Sichtbar schmal (ISO)
 62
    18
420
        0
370
     5
100
AcDbSpline
210
0.0
220
0.0
230
1.0
 70
     8
 71
     3
 72
     8
 73
     4
 74
     0
 42
0.0000000001
 43
0.0000000001
 40
0.0
 40
0.0
 40
0.0
 40
0.0
 40
1.0
 40
1.0
 40
1.0
 40
1.0
 10
98.31111205361304
 20
167.00944065045
 30
0.0
 10
98.31111205361304
 20
166.9089646816068
 30
0.0
 10
98.41373089947916
 20
166.8275128154439
 30
0.0
 10
98.54031766103277
 20
166.8275128154439
 30
0.0
  0
LINE
  5
16E
330
BA
100
AcDbEntity
  8
Sichtbar schmal (ISO)
 62
    18
420
        0
370
     5
100
AcDbLine
 10
98.31111205361304
 20
167.00944065045
 30
0.0
 11
98.31111205361304
 21
167.1640793102052
 31
0.0
  0
SPLINE
  5
16F
330
BA
100
AcDbEntity
  8
Sichtbar schmal (ISO)
 62
    18
420
        0
370
     5
100
AcDbSpline
210
0.0
220
0.0
230
1.0
 70
     8
 71
     3
 72
     8
 73
     4
 74
     0
 42
0.0000000001
 43
0.0000000001
 40
0.0
 40
0.0
 40
0.0
 40
0.0
 40
1.0
 40
1.0
 40
1.0
 40
1.0
 10
98.54031766103277
 20
167.3460071452113
 30
0.0
 10
98.41373089947916
 20
167.3460071452113
 30
0.0
 10
98.31111205361304
 20
167.264555279049
 30
0.0
 10
98.31111205361304
 20
167.1640793102052
 30
0.0
  0
LINE
  5
170
330
BA
100
AcDbEntity
  8
Sichtbar schmal (ISO)
 62
    18
420
        0
370
     5
100
AcDbLine
 10
98.54031766103277
 20
167.3460071452113
 30
0.0
 11
101.0615793426446
 21
167.3460071452113
 31
0.0
  0
LINE
  5
171
330
BA
100
AcDbEntity
  8
Sichtbar schmal (ISO)
 62
    18
420
        0
370
     5
100
AcDbLine
 10
101.0615793426446
 20
167.3460071452113
 30
0.0
 11
101.0615793426446
 21
167.5279349802174
 31
0.0
  0
LINE
  5
172
330
BA
100
AcDbEntity
  8
Sichtbar schmal (ISO)
 62
    18
420
        0
370
     5
100
AcDbLine
 10
101.0615793426446
 20
167.5279349802174
 30
0.0
 11
102.4368129871611
 21
167.5279349802174
 31
0.0
  0
LINE
  5
173
330
BA
100
AcDbEntity
  8
Sichtbar schmal (ISO)
 62
    18
420
        0
370
     5
100
AcDbLine
 10
102.4368129871611
 20
167.5279349802174
 30
0.0
 11
102.4368129871611
 21
167.3460071452113
 31
0.0
  0
LINE
  5
174
330
BA
100
AcDbEntity
  8
Sichtbar schmal (ISO)
 62
    18
420
        0
370
     5
100
AcDbLine
 10
102.4368129871611
 20
167.3460071452113
 30
0.0
 11
104.9580746687736
 21
167.3460071452113
 31
0.0
  0
SPLINE
  5
175
330
BA
100
AcDbEntity
  8
Sichtbar schmal (ISO)
 62
    18
420
        0
370
     5
100
AcDbSpline
210
0.0
220
0.0
230
1.0
 70
     8
 71
     3
 72
     8
 73
     4
 74
     0
 42
0.0000000001
 43
0.0000000001
 40
0.0
 40
0.0
 40
0.0
 40
0.0
 40
1.0
 40
1.0
 40
1.0
 40
1.0
 10
105.1872802761933
 20
167.1640793102052
 30
0.0
 10
105.1872802761933
 20
167.264555279049
 30
0.0
 10
105.0846614303272
 20
167.3460071452113
 30
0.0
 10
104.9580746687736
 20
167.3460071452113
 30
0.0
  0
LINE
  5
176
330
BA
100
AcDbEntity
  8
Sichtbar schmal (ISO)
 62
    18
420
        0
370
     5
100
AcDbLine
 10
105.1872802761933
 20
167.1640793102052
 30
0.0
 11
105.1872802761933
 21
167.00944065045
 31
0.0
  0
SPLINE
  5
177
330
BA
100
AcDbEntity
  8
Sichtbar schmal (ISO)
 62
    18
420
        0
370
     5
100
AcDbSpline
210
0.0
220
0.0
230
1.0
 70
     8
 71
     3
 72
     8
 73
     4
 74
     0
 42
0.0000000001
 43
0.0000000001
 40
0.0
 40
0.0
 40
0.0
 40
0.0
 40
1.0
 40
1.0
 40
1.0
 40
1.0
 10
104.9580746687736
 20
166.8275128154439
 30
0.0
 10
105.0846614303272
 20
166.8275128154439
 30
0.0
 10
105.1872802761933
 20
166.9089646816062
 30
0.0
 10
105.1872802761933
 20
167.00944065045
 30
0.0
  0
LINE
  5
178
330
BA
100
AcDbEntity
  8
Sichtbar schmal (ISO)
 62
    18
420
        0
370
     5
100
AcDbLine
 10
104.9580746687736
 20
166.8275128154439
 30
0.0
 11
102.4482732675318
 21
166.8275128154439
 31
0.0
  0
LINE
  5
179
330
BA
100
AcDbEntity
  8
Sichtbar schmal (ISO)
 62
    18
420
        0
370
     5
100
AcDbLine
 10
102.4482732675318
 20
166.8275128154439
 30
0.0
 11
102.4482732675318
 21
167.00944065045
 31
0.0
  0
LINE
  5
17A
330
BA
100
AcDbEntity
  8
Sichtbar schmal (ISO)
 62
    18
420
        0
370
     5
100
AcDbLine
 10
102.4482732675318
 20
167.00944065045
 30
0.0
 11
101.0501190622738
 21
167.00944065045
 31
0.0
  0
LINE
  5
17B
330
BA
100
AcDbEntity
  8
Sichtbar schmal (ISO)
 62
    18
420
        0
370
     5
100
AcDbLine
 10
101.0501190622738
 20
165.9178736404141
 30
0.0
 11
101.0501190622738
 21
165.735945805408
 31
0.0
  0
LINE
  5
17C
330
BA
100
AcDbEntity
  8
Sichtbar schmal (ISO)
 62
    18
420
        0
370
     5
100
AcDbLine
 10
101.0501190622738
 20
165.735945805408
 30
0.0
 11
98.54031766103277
 21
165.735945805408
 31
0.0
  0
SPLINE
  5
17D
330
BA
100
AcDbEntity
  8
Sichtbar schmal (ISO)
 62
    18
420
        0
370
     5
100
AcDbSpline
210
0.0
220
0.0
230
1.0
 70
     8
 71
     3
 72
     8
 73
     4
 74
     0
 42
0.0000000001
 43
0.0000000001
 40
0.0
 40
0.0
 40
0.0
 40
0.0
 40
1.0
 40
1.0
 40
1.0
 40
1.0
 10
98.31111205361304
 20
165.9178736404141
 30
0.0
 10
98.31111205361304
 20
165.8173976715703
 30
0.0
 10
98.41373089947916
 20
165.735945805408
 30
0.0
 10
98.54031766103277
 20
165.735945805408
 30
0.0
  0
LINE
  5
17E
330
BA
100
AcDbEntity
  8
Sichtbar schmal (ISO)
 62
    18
420
        0
370
     5
100
AcDbLine
 10
98.31111205361304
 20
165.9178736404141
 30
0.0
 11
98.31111205361304
 21
166.0725123001687
 31
0.0
  0
SPLINE
  5
17F
330
BA
100
AcDbEntity
  8
Sichtbar schmal (ISO)
 62
    18
420
        0
370
     5
100
AcDbSpline
210
0.0
220
0.0
230
1.0
 70
     8
 71
     3
 72
     8
 73
     4
 74
     0
 42
0.0000000001
 43
0.0000000001
 40
0.0
 40
0.0
 40
0.0
 40
0.0
 40
1.0
 40
1.0
 40
1.0
 40
1.0
 10
98.54031766103277
 20
166.2544401351748
 30
0.0
 10
98.41373089947916
 20
166.2544401351748
 30
0.0
 10
98.31111205361304
 20
166.1729882690124
 30
0.0
 10
98.31111205361304
 20
166.0725123001687
 30
0.0
  0
LINE
  5
180
330
BA
100
AcDbEntity
  8
Sichtbar schmal (ISO)
 62
    18
420
        0
370
     5
100
AcDbLine
 10
98.54031766103277
 20
166.2544401351748
 30
0.0
 11
101.0615793426446
 21
166.2544401351748
 31
0.0
  0
LINE
  5
181
330
BA
100
AcDbEntity
  8
Sichtbar schmal (ISO)
 62
    18
420
        0
370
     5
100
AcDbLine
 10
101.0615793426446
 20
166.2544401351748
 30
0.0
 11
101.0615793426446
 21
166.4363679701808
 31
0.0
  0
LINE
  5
182
330
BA
100
AcDbEntity
  8
Sichtbar schmal (ISO)
 62
    18
420
        0
370
     5
100
AcDbLine
 10
101.0615793426446
 20
166.4363679701808
 30
0.0
 11
102.4368129871611
 21
166.4363679701808
 31
0.0
  0
LINE
  5
183
330
BA
100
AcDbEntity
  8
Sichtbar schmal (ISO)
 62
    18
420
        0
370
     5
100
AcDbLine
 10
102.4368129871611
 20
166.4363679701808
 30
0.0
 11
102.4368129871611
 21
166.2544401351748
 31
0.0
  0
LINE
  5
184
330
BA
100
AcDbEntity
  8
Sichtbar schmal (ISO)
 62
    18
420
        0
370
     5
100
AcDbLine
 10
102.4368129871611
 20
166.2544401351748
 30
0.0
 11
104.9580746687736
 21
166.2544401351748
 31
0.0
  0
SPLINE
  5
185
330
BA
100
AcDbEntity
  8
Sichtbar schmal (ISO)
 62
    18
420
        0
370
     5
100
AcDbSpline
210
0.0
220
0.0
230
1.0
 70
     8
 71
     3
 72
     8
 73
     4
 74
     0
 42
0.0000000001
 43
0.0000000001
 40
0.0
 40
0.0
 40
0.0
 40
0.0
 40
1.0
 40
1.0
 40
1.0
 40
1.0
 10
105.1872802761933
 20
166.0725123001687
 30
0.0
 10
105.1872802761933
 20
166.1729882690124
 30
0.0
 10
105.0846614303272
 20
166.2544401351748
 30
0.0
 10
104.9580746687736
 20
166.2544401351748
 30
0.0
  0
LINE
  5
186
330
BA
100
AcDbEntity
  8
Sichtbar schmal (ISO)
 62
    18
420
        0
370
     5
100
AcDbLine
 10
105.1872802761933
 20
166.0725123001687
 30
0.0
 11
105.1872802761933
 21
165.9178736404141
 31
0.0
  0
SPLINE
  5
187
330
BA
100
AcDbEntity
  8
Sichtbar schmal (ISO)
 62
    18
420
        0
370
     5
100
AcDbSpline
210
0.0
220
0.0
230
1.0
 70
     8
 71
     3
 72
     8
 73
     4
 74
     0
 42
0.0000000001
 43
0.0000000001
 40
0.0
 40
0.0
 40
0.0
 40
0.0
 40
1.0
 40
1.0
 40
1.0
 40
1.0
 10
104.9580746687736
 20
165.735945805408
 30
0.0
 10
105.0846614303272
 20
165.735945805408
 30
0.0
 10
105.1872802761933
 20
165.8173976715703
 30
0.0
 10
105.1872802761933
 20
165.9178736404141
 30
0.0
  0
LINE
  5
188
330
BA
100
AcDbEntity
  8
Sichtbar schmal (ISO)
 62
    18
420
        0
370
     5
100
AcDbLine
 10
104.9580746687736
 20
165.735945805408
 30
0.0
 11
102.4482732675318
 21
165.735945805408
 31
0.0
  0
LINE
  5
189
330
BA
100
AcDbEntity
  8
Sichtbar schmal (ISO)
 62
    18
420
        0
370
     5
100
AcDbLine
 10
102.4482732675318
 20
165.735945805408
 30
0.0
 11
102.4482732675318
 21
165.9178736404141
 31
0.0
  0
LINE
  5
18A
330
BA
100
AcDbEntity
  8
Sichtbar schmal (ISO)
 62
    18
420
        0
370
     5
100
AcDbLine
 10
102.4482732675318
 20
165.9178736404141
 30
0.0
 11
101.0501190622738
 21
165.9178736404141
 31
0.0
  0
LINE
  5
18B
330
BA
100
AcDbEntity
  8
Sichtbar schmal (ISO)
 62
    18
420
        0
370
     5
100
AcDbLine
 10
94.91886906380671
 20
165.0719092076358
 30
0.0
 11
95.21683635345249
 21
165.0719092076358
 31
0.0
  0
LINE
  5
18C
330
BA
100
AcDbEntity
  8
Sichtbar schmal (ISO)
 62
    18
420
        0
370
     5
100
AcDbLine
 10
95.21683635345249
 20
169.4381772477808
 30
0.0
 11
94.52921953119394
 21
169.4381772477808
 31
0.0
  0
LINE
  5
18D
330
BA
100
AcDbEntity
  8
Sichtbar schmal (ISO)
 62
    18
420
        0
370
     5
100
AcDbLine
 10
91.77875224216201
 20
169.4381772477808
 30
0.0
 11
91.09113541990412
 21
169.4381772477808
 31
0.0
  0
LINE
  5
18E
330
BA
100
AcDbEntity
  8
Sichtbar schmal (ISO)
 62
    18
420
        0
370
     5
100
AcDbLine
 10
95.21683635345249
 20
169.0743215777692
 30
0.0
 11
95.21683635345249
 21
165.0719092076358
 31
0.0
  0
LINE
  5
18F
330
BA
100
AcDbEntity
  8
Sichtbar schmal (ISO)
 62
    18
420
        0
370
     5
100
AcDbLine
 10
95.21683635345249
 20
171.6213112678539
 30
0.0
 11
95.21683635345249
 21
169.4381772477808
 31
0.0
  0
LINE
  5
190
330
BA
100
AcDbEntity
  8
Sichtbar schmal (ISO)
 62
    18
420
        0
370
     5
100
AcDbLine
 10
91.09113541990412
 20
169.0743215777692
 30
0.0
 11
91.77875224216201
 21
169.0743215777692
 31
0.0
  0
LINE
  5
191
330
BA
100
AcDbEntity
  8
Sichtbar schmal (ISO)
 62
    18
420
        0
370
     5
100
AcDbLine
 10
94.52921953119394
 20
169.0743215777692
 30
0.0
 11
95.21683635345249
 21
169.0743215777692
 31
0.0
  0
LINE
  5
192
330
BA
100
AcDbEntity
  8
Sichtbar schmal (ISO)
 62
    18
420
        0
370
     5
100
AcDbLine
 10
96.13365878312883
 20
165.0719092076358
 30
0.0
 11
95.21683635345249
 21
165.0719092076358
 31
0.0
  0
LINE
  5
193
330
BA
100
AcDbEntity
  8
Sichtbar schmal (ISO)
 62
    18
420
        0
370
     5
100
AcDbLine
 10
96.13365878312883
 20
165.0719092076358
 30
0.0
 11
96.13365878312947
 21
171.2574555978417
 31
0.0
  0
LINE
  5
194
330
BA
100
AcDbEntity
  8
Sichtbar schmal (ISO)
 62
    18
420
        0
370
     5
100
AcDbLine
 10
96.13365878312947
 20
171.2574555978417
 30
0.0
 11
97.2796868202262
 21
171.2574555978417
 31
0.0
  0
LINE
  5
195
330
BA
100
AcDbEntity
  8
Sichtbar schmal (ISO)
 62
    18
420
        0
370
     5
100
AcDbLine
 10
97.2796868202262
 20
165.0719092076358
 30
0.0
 11
97.2796868202262
 21
171.2574555978417
 31
0.0
  0
LINE
  5
196
330
BA
100
AcDbEntity
  8
Sichtbar schmal (ISO)
 62
    18
420
        0
370
     5
100
AcDbLine
 10
98.19650924990318
 20
165.0719092076358
 30
0.0
 11
97.2796868202262
 21
165.0719092076358
 31
0.0
  0
LINE
  5
197
330
BA
100
AcDbEntity
  8
Sichtbar schmal (ISO)
 62
    18
420
        0
370
     5
100
AcDbLine
 10
98.19650924990318
 20
165.0719092076358
 30
0.0
 11
98.19650924990318
 21
171.2574555978417
 31
0.0
  0
LINE
  5
198
330
BA
100
AcDbEntity
  8
Sichtbar schmal (ISO)
 62
    18
420
        0
370
     5
100
AcDbLine
 10
98.19650924990318
 20
171.2574555978417
 30
0.0
 11
105.2193690612318
 21
171.2574555978417
 31
0.0
  0
LINE
  5
199
330
BA
100
AcDbEntity
  8
Sichtbar schmal (ISO)
 62
    18
420
        0
370
     5
100
AcDbLine
 10
95.21683635345249
 20
171.6213112678539
 30
0.0
 11
105.2193690612318
 21
171.6213112678539
 31
0.0
  0
LINE
  5
19A
330
BA
100
AcDbEntity
  8
Sichtbar schmal (ISO)
 62
    18
420
        0
370
     5
100
AcDbLine
 10
91.09113541990412
 20
171.6213112678539
 30
0.0
 11
91.09113541990412
 21
169.4381772477808
 31
0.0
  0
LINE
  5
19B
330
BA
100
AcDbEntity
  8
Sichtbar schmal (ISO)
 62
    18
420
        0
370
     5
100
AcDbLine
 10
91.09113541990412
 20
171.6213112678539
 30
0.0
 11
81.08860271212416
 21
171.6213112678539
 31
0.0
  0
LINE
  5
19C
330
BA
100
AcDbEntity
  8
Sichtbar schmal (ISO)
 62
    18
420
        0
370
     5
100
AcDbLine
 10
88.11146252345279
 20
165.0719092076358
 30
0.0
 11
88.11146252345279
 21
171.2574555978417
 31
0.0
  0
LINE
  5
19D
330
BA
100
AcDbEntity
  8
Sichtbar schmal (ISO)
 62
    18
420
        0
370
     5
100
AcDbLine
 10
88.11146252345279
 20
165.0719092076358
 30
0.0
 11
89.02828495313009
 21
165.0719092076358
 31
0.0
  0
LINE
  5
19E
330
BA
100
AcDbEntity
  8
Sichtbar schmal (ISO)
 62
    18
420
        0
370
     5
100
AcDbLine
 10
89.02828495313009
 20
165.0719092076358
 30
0.0
 11
89.02828495313009
 21
171.2574555978417
 31
0.0
  0
LINE
  5
19F
330
BA
100
AcDbEntity
  8
Sichtbar schmal (ISO)
 62
    18
420
        0
370
     5
100
AcDbLine
 10
90.1743129902265
 20
165.0719092076358
 30
0.0
 11
90.1743129902265
 21
171.2574555978417
 31
0.0
  0
LINE
  5
1A0
330
BA
100
AcDbEntity
  8
Sichtbar schmal (ISO)
 62
    18
420
        0
370
     5
100
AcDbLine
 10
90.1743129902265
 20
165.0719092076358
 30
0.0
 11
91.09113541990412
 21
165.0719092076358
 31
0.0
  0
LINE
  5
1A1
330
BA
100
AcDbEntity
  8
Sichtbar schmal (ISO)
 62
    18
420
        0
370
     5
100
AcDbLine
 10
91.09113541990412
 20
169.0743215777692
 30
0.0
 11
91.09113541990412
 21
165.0719092076358
 31
0.0
  0
LINE
  5
1A2
330
BA
100
AcDbEntity
  8
Sichtbar schmal (ISO)
 62
    18
420
        0
370
     5
100
AcDbLine
 10
111.1924671905791
 20
165.0719092076358
 30
0.0
 11
111.6050372839341
 21
165.0719092076358
 31
0.0
  0
LINE
  5
1A3
330
BA
100
AcDbEntity
  8
Sichtbar schmal (ISO)
 62
    18
420
        0
370
     5
100
AcDbLine
 10
111.0320232653855
 20
165.0719092076358
 30
0.0
 11
111.1924671905791
 21
165.0719092076358
 31
0.0
  0
LINE
  5
1A4
330
BA
100
AcDbEntity
  8
Sichtbar schmal (ISO)
 62
    18
420
        0
370
     5
100
AcDbLine
 10
111.0320232653861
 20
165.0719092076358
 30
0.0
 11
106.9382784864558
 21
165.0719092076358
 31
0.0
  0
LINE
  5
1A5
330
BA
100
AcDbEntity
  8
Sichtbar schmal (ISO)
 62
    18
420
        0
370
     5
100
AcDbLine
 10
105.9894999021604
 20
165.0719092076358
 30
0.0
 11
106.6083550421929
 21
165.0719092076358
 31
0.0
  0
LINE
  5
1A6
330
BA
100
AcDbEntity
  8
Sichtbar schmal (ISO)
 62
    18
420
        0
370
     5
100
AcDbLine
 10
94.52921953119394
 20
165.0719092076358
 30
0.0
 11
94.91886906380671
 21
165.0719092076358
 31
0.0
  0
LINE
  5
1A7
330
BA
100
AcDbEntity
  8
Sichtbar schmal (ISO)
 62
    18
420
        0
370
     5
100
AcDbLine
 10
91.77875224216201
 20
165.0719092076358
 30
0.0
 11
91.38910270954925
 21
165.0719092076358
 31
0.0
  0
LINE
  5
1A8
330
BA
100
AcDbEntity
  8
Sichtbar schmal (ISO)
 62
    18
420
        0
370
     5
100
AcDbLine
 10
80.31847187119518
 20
165.0719092076358
 30
0.0
 11
79.69961673116301
 21
165.0719092076358
 31
0.0
  0
LINE
  5
1A9
330
BA
100
AcDbEntity
  8
Sichtbar schmal (ISO)
 62
    18
420
        0
370
     5
100
AcDbLine
 10
75.27594850796983
 20
165.0719092076358
 30
0.0
 11
79.36969328689979
 21
165.0719092076358
 31
0.0
  0
LINE
  5
1AA
330
BA
100
AcDbEntity
  8
Sichtbar schmal (ISO)
 62
    18
420
        0
370
     5
100
AcDbLine
 10
75.11550458277743
 20
165.0719092076358
 30
0.0
 11
75.27594850797015
 21
165.0719092076358
 31
0.0
  0
LINE
  5
1AB
330
BA
100
AcDbEntity
  8
Sichtbar schmal (ISO)
 62
    18
420
        0
370
     5
100
AcDbLine
 10
74.70293448942179
 20
165.0719092076358
 30
0.0
 11
75.11550458277743
 21
165.0719092076358
 31
0.0
  0
LINE
  5
1AC
330
BA
100
AcDbEntity
  8
Sichtbar schmal (ISO)
 62
    18
420
        0
370
     5
100
AcDbLine
 10
111.0320232653861
 20
172.5309504428843
 30
0.0
 11
111.0320232653861
 21
172.4399865253813
 31
0.0
  0
LINE
  5
1AD
330
BA
100
AcDbEntity
  8
Sichtbar schmal (ISO)
 62
    18
420
        0
370
     5
100
AcDbLine
 10
111.0320232653861
 20
172.4399865253813
 30
0.0
 11
111.0320232653861
 21
165.0719092076358
 31
0.0
  0
LINE
  5
1AE
330
BA
100
AcDbEntity
  8
Sichtbar schmal (ISO)
 62
    18
420
        0
370
     5
100
AcDbLine
 10
111.6050372839341
 20
170.7116720928234
 30
0.0
 11
111.6050372839341
 21
165.0719092076358
 31
0.0
  0
LINE
  5
1AF
330
BA
100
AcDbEntity
  8
Sichtbar schmal (ISO)
 62
    18
420
        0
370
     5
100
AcDbLine
 10
111.1924671905791
 20
170.7116720928234
 30
0.0
 11
111.6050372839341
 21
170.7116720928234
 31
0.0
  0
LINE
  5
1B0
330
BA
100
AcDbEntity
  8
Sichtbar schmal (ISO)
 62
    18
420
        0
370
     5
100
AcDbLine
 10
111.6050372839341
 20
172.5309504428843
 30
0.0
 11
111.6050372839341
 21
170.7116720928234
 31
0.0
  0
LINE
  5
1B1
330
BA
100
AcDbEntity
  8
Sichtbar schmal (ISO)
 62
    18
420
        0
370
     5
100
AcDbLine
 10
111.0320232653855
 20
171.2574555978417
 30
0.0
 11
111.1924671905791
 21
171.2574555978417
 31
0.0
  0
LINE
  5
1B2
330
BA
100
AcDbEntity
  8
Sichtbar schmal (ISO)
 62
    18
420
        0
370
     5
100
AcDbLine
 10
75.27594850796983
 20
172.4399865253813
 30
0.0
 11
75.27594850796983
 21
165.0719092076358
 31
0.0
  0
LINE
  5
1B3
330
BA
100
AcDbEntity
  8
Sichtbar schmal (ISO)
 62
    18
420
        0
370
     5
100
AcDbLine
 10
75.27594850796983
 20
172.5309504428843
 30
0.0
 11
75.27594850796983
 21
172.4399865253813
 31
0.0
  0
LINE
  5
1B4
330
BA
100
AcDbEntity
  8
Sichtbar schmal (ISO)
 62
    18
420
        0
370
     5
100
AcDbLine
 10
74.70293448942179
 20
172.5309504428843
 30
0.0
 11
74.70293448942179
 21
171.8305282781112
 31
0.0
  0
LINE
  5
1B5
330
BA
100
AcDbEntity
  8
Sichtbar schmal (ISO)
 62
    18
420
        0
370
     5
100
AcDbLine
 10
74.70293448942179
 20
170.6843829175726
 30
0.0
 11
74.70293448942179
 21
165.0719092076358
 31
0.0
  0
LINE
  5
1B6
330
BA
100
AcDbEntity
  8
Sichtbar schmal (ISO)
 62
    18
420
        0
370
     5
100
AcDbLine
 10
75.11550458277743
 20
171.2574555978417
 30
0.0
 11
75.27594850797015
 21
171.2574555978417
 31
0.0
  0
LINE
  5
1B7
330
BA
100
AcDbEntity
  8
Sichtbar schmal (ISO)
 62
    18
420
        0
370
     5
100
AcDbLine
 10
102.4368129871617
 20
170.8026360103265
 30
0.0
 11
102.1035619693493
 21
170.8026360103265
 31
0.0
  0
LINE
  5
1B8
330
BA
100
AcDbEntity
  8
Sichtbar schmal (ISO)
 62
    18
420
        0
370
     5
100
AcDbLine
 10
102.4368129871611
 20
170.7116720928234
 30
0.0
 11
102.4368129871611
 21
170.8026360103265
 31
0.0
  0
LINE
  5
1B9
330
BA
100
AcDbEntity
  8
Sichtbar schmal (ISO)
 62
    18
420
        0
370
     5
100
AcDbLine
 10
105.2193690612318
 20
171.2574555978417
 30
0.0
 11
105.5631774723607
 21
171.2574555978417
 31
0.0
  0
LINE
  5
1BA
330
BA
100
AcDbEntity
  8
Sichtbar schmal (ISO)
 62
    18
420
        0
370
     5
100
AcDbLine
 10
105.5631774723607
 20
171.6213112678539
 30
0.0
 11
105.5631774723607
 21
171.2574555978417
 31
0.0
  0
LINE
  5
1BB
330
BA
100
AcDbEntity
  8
Sichtbar schmal (ISO)
 62
    18
420
        0
370
     5
100
AcDbLine
 10
105.5631774723607
 20
171.6213112678539
 30
0.0
 11
105.2193690612318
 21
171.6213112678539
 31
0.0
  0
LINE
  5
1BC
330
BA
100
AcDbEntity
  8
Sichtbar schmal (ISO)
 62
    18
420
        0
370
     5
100
AcDbLine
 10
101.6345933611933
 20
172.5309504428843
 30
0.0
 11
101.6345933611933
 21
171.6213112678539
 31
0.0
  0
LINE
  5
1BD
330
BA
100
AcDbEntity
  8
Sichtbar schmal (ISO)
 62
    18
420
        0
370
     5
100
AcDbLine
 10
103.0098270057091
 20
172.5309504428843
 30
0.0
 11
103.0098270057091
 21
171.6213112678539
 31
0.0
  0
LINE
  5
1BE
330
BA
100
AcDbEntity
  8
Sichtbar schmal (ISO)
 62
    18
420
        0
370
     5
100
AcDbLine
 10
80.31847187119518
 20
171.2574555978417
 30
0.0
 11
79.69961673116301
 21
171.2574555978417
 31
0.0
  0
LINE
  5
1BF
330
BA
100
AcDbEntity
  8
Sichtbar schmal (ISO)
 62
    18
420
        0
370
     5
100
AcDbLine
 10
105.9894999021604
 20
171.2574555978417
 30
0.0
 11
106.6083550421929
 21
171.2574555978417
 31
0.0
  0
LINE
  5
1C0
330
BA
100
AcDbEntity
  8
Sichtbar schmal (ISO)
 62
    18
420
        0
370
     5
100
AcDbLine
 10
80.7447943009952
 20
171.6213112678539
 30
0.0
 11
81.08860271212416
 21
171.6213112678539
 31
0.0
  0
LINE
  5
1C1
330
BA
100
AcDbEntity
  8
Sichtbar schmal (ISO)
 62
    18
420
        0
370
     5
100
AcDbLine
 10
84.67337841216265
 20
172.5309504428843
 30
0.0
 11
84.67337841216265
 21
171.6213112678539
 31
0.0
  0
LINE
  5
1C2
330
BA
100
AcDbEntity
  8
Sichtbar schmal (ISO)
 62
    18
420
        0
370
     5
100
AcDbLine
 10
83.29814476764685
 20
172.5309504428843
 30
0.0
 11
83.29814476764685
 21
171.6213112678539
 31
0.0
  0
LINE
  5
1C3
330
BA
100
AcDbEntity
  8
Sichtbar schmal (ISO)
 62
    18
420
        0
370
     5
100
AcDbLine
 10
80.7447943009952
 20
171.6213112678539
 30
0.0
 11
80.7447943009952
 21
171.2574555978417
 31
0.0
  0
LINE
  5
1C4
330
BA
100
AcDbEntity
  8
Sichtbar schmal (ISO)
 62
    18
420
        0
370
     5
100
AcDbLine
 10
111.1924671905791
 20
171.2574555978417
 30
0.0
 11
111.1924671905791
 21
165.0719092076358
 31
0.0
  0
LINE
  5
1C5
330
BA
100
AcDbEntity
  8
Sichtbar schmal (ISO)
 62
    18
420
        0
370
     5
100
AcDbLine
 10
75.11550458277743
 20
171.2574555978417
 30
0.0
 11
75.11550458277743
 21
165.0719092076358
 31
0.0
  0
LINE
  5
1C6
330
BA
100
AcDbEntity
  8
Sichtbar schmal (ISO)
 62
    18
420
        0
370
     5
100
AcDbLine
 10
102.4851317201045
 20
171.2573357657239
 30
0.0
 11
102.4851317201045
 21
171.2574555978417
 31
0.0
  0
LINE
  5
1C7
330
BA
100
AcDbEntity
  8
Sichtbar schmal (ISO)
 62
    18
420
        0
370
     5
100
AcDbLine
 10
102.4852334886003
 20
171.2574556005432
 30
0.0
 11
102.4851658687927
 21
171.2573757198611
 31
0.0
  0
LINE
  5
1C8
330
BA
100
AcDbEntity
  8
Sichtbar schmal (ISO)
 62
    18
420
        0
370
     5
100
AcDbLine
 10
84.14868312655809
 20
171.2573357657246
 30
0.0
 11
84.14868312655809
 21
171.2574555978417
 31
0.0
  0
LINE
  5
1C9
330
BA
100
AcDbEntity
  8
Sichtbar schmal (ISO)
 62
    18
420
        0
370
     5
100
AcDbLine
 10
84.14878489505385
 20
171.2574556005432
 30
0.0
 11
84.14871727524593
 21
171.2573757198611
 31
0.0
  0
LINE
  5
1CA
330
BA
100
AcDbEntity
  8
Sichtbar schmal (ISO)
 62
    18
420
        0
370
     5
100
AcDbLine
 10
73.70269015063048
 20
171.8305282781112
 30
0.0
 11
74.70293448942179
 21
171.8305282781112
 31
0.0
  0
LINE
  5
1CB
330
BA
100
AcDbEntity
  8
Sichtbar schmal (ISO)
 62
    18
420
        0
370
     5
100
AcDbLine
 10
73.70269015063048
 20
170.6843829175726
 30
0.0
 11
73.70269015063048
 21
171.8305282781112
 31
0.0
  0
LINE
  5
1CC
330
BA
100
AcDbEntity
  8
Sichtbar schmal (ISO)
 62
    18
420
        0
370
     5
100
AcDbLine
 10
74.70293448942179
 20
170.6843829175726
 30
0.0
 11
73.70269015063048
 21
170.6843829175726
 31
0.0
  0
LINE
  5
1CD
330
BA
100
AcDbEntity
  8
Sichtbar schmal (ISO)
 62
    18
420
        0
370
     5
100
AcDbLine
 10
74.837200025676
 20
172.1670947728722
 30
0.0
 11
75.0431920323565
 21
172.1670947728722
 31
0.0
  0
ELLIPSE
  5
1CE
330
BA
100
AcDbEntity
  8
Sichtbar schmal (ISO)
 62
    18
420
        0
370
     5
100
AcDbEllipse
 10
74.22456469315138
 20
171.2574555978417
 30
0.0
 11
0.0
 21
0.1591868556304929
 31
0.0
210
0.0
220
0.0
230
1.0
 40
0.8908633430759493
 41
0.0
 42
6.283185307179586
  0
LINE
  5
1CF
330
BA
100
AcDbEntity
  8
Sichtbar schmal (ISO)
 62
    18
420
        0
370
     5
100
AcDbLine
 10
73.70269015063048
 20
171.8305282781112
 30
0.0
 11
73.57951479276848
 21
171.8305282781112
 31
0.0
  0
LINE
  5
1D0
330
BA
100
AcDbEntity
  8
Sichtbar schmal (ISO)
 62
    18
420
        0
370
     5
100
AcDbLine
 10
73.57951479276848
 20
170.6843829175726
 30
0.0
 11
73.70269015063048
 21
170.6843829175726
 31
0.0
  0
LINE
  5
1D1
330
BA
100
AcDbEntity
  8
Sichtbar schmal (ISO)
 62
    18
420
        0
370
     5
100
AcDbLine
 10
74.70293448942179
 20
170.3478164228112
 30
0.0
 11
75.11550458277743
 21
170.3478164228112
 31
0.0
  0
LINE
  5
1D2
330
BA
100
AcDbEntity
  8
Sichtbar schmal (ISO)
 62
    18
420
        0
370
     5
100
AcDbLine
 10
75.16134570426061
 20
171.2574555978417
 30
0.0
 11
75.16134570426061
 21
172.1670947728722
 31
0.0
  0
LINE
  5
1D3
330
BA
100
AcDbEntity
  8
Sichtbar schmal (ISO)
 62
    18
420
        0
370
     5
100
AcDbLine
 10
75.16134570426061
 20
172.1670947728722
 30
0.0
 11
75.0431920323565
 21
172.1670947728722
 31
0.0
  0
LINE
  5
1D4
330
BA
100
AcDbEntity
  8
Sichtbar schmal (ISO)
 62
    18
420
        0
370
     5
100
AcDbLine
 10
74.71402466781367
 20
172.1670947728722
 30
0.0
 11
74.837200025676
 21
172.1670947728722
 31
0.0
  0
LINE
  5
1D5
330
BA
100
AcDbEntity
  8
Sichtbar schmal (ISO)
 62
    18
420
        0
370
     5
100
AcDbLine
 10
73.57951479276848
 20
170.6843829175726
 30
0.0
 11
73.46086923987913
 21
170.8663107525787
 31
0.0
  0
LINE
  5
1D6
330
BA
100
AcDbEntity
  8
Sichtbar schmal (ISO)
 62
    18
420
        0
370
     5
100
AcDbLine
 10
73.46086923987913
 20
170.8663107525787
 30
0.0
 11
73.46086923987913
 21
171.6486004431047
 31
0.0
  0
LINE
  5
1D7
330
BA
100
AcDbEntity
  8
Sichtbar schmal (ISO)
 62
    18
420
        0
370
     5
100
AcDbLine
 10
73.46086923987913
 20
171.6486004431047
 30
0.0
 11
73.57951479276848
 21
171.8305282781112
 31
0.0
  0
ENDBLK
  5
BD
330
BA
100
AcDbEntity
  8
0
100
AcDbBlockEnd
  0
BLOCK
  5
1DA
330
1D8
100
AcDbEntity
  8
0
100
AcDbBlockBegin
  2
Block_16
 70
     0
 10
0.0
 20
0.0
 30
0.0
  3
Block_16
  1

  0
SPLINE
  5
1DC
330
1D8
100
AcDbEntity
  8
Sichtbar schmal (ISO)
 62
    18
420
        0
370
     5
100
AcDbSpline
210
0.0
220
0.0
230
1.0
 70
     8
 71
     3
 72
    17
 73
    13
 74
     0
 42
0.0000000001
 43
0.0000000001
 40
0.0
 40
0.0
 40
0.0
 40
0.0
 40
1.0
 40
1.0
 40
1.0
 40
2.0
 40
2.0
 40
2.0
 40
3.0
 40
3.0
 40
3.0
 40
4.0
 40
4.0
 40
4.0
 40
4.0
 10
68.76530958141876
 20
135.8994286840737
 30
0.0
 10
67.34960871597822
 20
122.4299345608242
 30
0.0
 10
77.12113872251627
 20
110.3630998231297
 30
0.0
 10
90.5906327144706
 20
108.9473989438898
 30
0.0
 10
104.0601267064246
 20
107.5316980646491
 30
0.0
 10
116.1269613264963
 20
117.3032281664362
 30
0.0
 10
117.5426621919365
 20
130.7727222896857
 30
0.0
 10
118.9583630573774
 20
144.2422164129345
 30
0.0
 10
109.1868330508397
 20
156.309051150629
 30
0.0
 10
95.71733905888505
 20
157.7247520298696
 30
0.0
 10
82.24867621754585
 20
159.1403655516586
 30
0.0
 10
70.18232223420868
 20
149.3700963735966
 30
0.0
 10
68.76553336904752
 20
135.9015569878394
 30
0.0
  0
SPLINE
  5
1DD
330
1D8
100
AcDbEntity
  8
Sichtbar schmal (ISO)
 62
    18
420
        0
370
     5
100
AcDbSpline
210
0.0
220
0.0
230
1.0
 70
     8
 71
     3
 72
     8
 73
     4
 74
     0
 42
0.0000000001
 43
0.0000000001
 40
0.0
 40
0.0
 40
0.0
 40
0.0
 40
1.0
 40
1.0
 40
1.0
 40
1.0
 10
69.77691416036157
 20
133.3564758358113
 30
0.0
 10
69.77690229191903
 20
133.3428756057793
 30
0.0
 10
69.77690229191903
 20
133.329275367982
 30
0.0
 10
69.77691416036157
 20
133.3156751379493
 30
0.0
  0
SPLINE
  5
1DE
330
1D8
100
AcDbEntity
  8
Sichtbar schmal (ISO)
 62
    18
420
        0
370
     5
100
AcDbSpline
210
0.0
220
0.0
230
1.0
 70
     8
 71
     3
 72
    17
 73
    13
 74
     0
 42
0.0000000001
 43
0.0000000001
 40
0.0
 40
0.0
 40
0.0
 40
0.0
 40
1.0
 40
1.0
 40
1.0
 40
2.0
 40
2.0
 40
2.0
 40
3.0
 40
3.0
 40
3.0
 40
4.0
 40
4.0
 40
4.0
 40
4.0
 10
69.3185402049436
 20
133.3152751311075
 30
0.0
 10
69.33002792411698
 20
120.1513218473488
 30
0.0
 10
80.01083308680751
 20
109.4891418535243
 30
0.0
 10
93.17478624224916
 20
109.5006295728093
 30
0.0
 10
106.3387393976914
 20
109.512117292095
 30
0.0
 10
117.0009192875851
 20
120.1929225588971
 30
0.0
 10
116.9894315684117
 20
133.3568758426564
 30
0.0
 10
116.9779438492383
 20
146.520829126415
 30
0.0
 10
106.2971386865481
 20
157.1830091202389
 30
0.0
 10
93.13318553110617
 20
157.1715214009539
 30
0.0
 10
79.98547552512258
 20
157.1600478564946
 30
0.0
 10
69.33001374928808
 20
146.5045859767921
 30
0.0
 10
69.3185402049436
 20
133.3568758426499
 30
0.0
  0
LINE
  5
1DF
330
1D8
100
AcDbEntity
  8
Sichtbar schmal (ISO)
 62
    18
420
        0
370
     5
100
AcDbLine
 10
69.3185402049436
 20
133.315275131105
 30
0.0
 11
69.77691416036157
 21
133.3156751379467
 31
0.0
  0
LINE
  5
1E0
330
1D8
100
AcDbEntity
  8
Sichtbar schmal (ISO)
 62
    18
420
        0
370
     5
100
AcDbLine
 10
69.31854020493975
 20
133.3568758426532
 30
0.0
 11
69.77691416035163
 21
133.3564758358113
 31
0.0
  0
SPLINE
  5
1E1
330
1D8
100
AcDbEntity
  8
Sichtbar schmal (ISO)
 62
    18
420
        0
370
     5
100
AcDbSpline
210
0.0
220
0.0
230
1.0
 70
     8
 71
     3
 72
    17
 73
    13
 74
     0
 42
0.0000000001
 43
0.0000000001
 40
0.0
 40
0.0
 40
0.0
 40
0.0
 40
1.0
 40
1.0
 40
1.0
 40
2.0
 40
2.0
 40
2.0
 40
3.0
 40
3.0
 40
3.0
 40
4.0
 40
4.0
 40
4.0
 40
4.0
 10
69.77691416036157
 20
133.3156751379506
 30
0.0
 10
69.78818096185671
 20
120.4048748019561
 30
0.0
 10
80.2635860252635
 20
109.947736731089
 30
0.0
 10
93.17438623540862
 20
109.9590035326939
 30
0.0
 10
106.0851864455534
 20
109.9702703342987
 30
0.0
 10
116.5423244144892
 20
120.4456754998156
 30
0.0
 10
116.5310576129934
 20
133.3564758358094
 30
0.0
 10
116.5197908114989
 20
146.2672761718039
 30
0.0
 10
106.0443857480918
 20
156.724414242671
 30
0.0
 10
93.13358553794703
 20
156.7131474410662
 30
0.0
 10
80.23871610900139
 20
156.7018945416939
 30
0.0
 10
69.78816705962413
 20
146.2513453904491
 30
0.0
 10
69.77691416036157
 20
133.3564758358094
 30
0.0
  0
LINE
  5
1E2
330
1D8
100
AcDbEntity
  8
Sichtbar schmal (ISO)
 62
    18
420
        0
370
     5
100
AcDbLine
 10
116.9891651774658
 20
133.4506690204852
 30
0.0
 11
116.9894406442795
 21
133.4506690204852
 31
0.0
  0
LINE
  5
1E3
330
1D8
100
AcDbEntity
  8
Sichtbar schmal (ISO)
 62
    18
420
        0
370
     5
100
AcDbLine
 10
116.9891651774658
 20
133.2214819532742
 30
0.0
 11
116.9894406442795
 21
133.2214819532742
 31
0.0
  0
LINE
  5
1E4
330
1D8
100
AcDbEntity
  8
Sichtbar schmal (ISO)
 62
    18
420
        0
370
     5
100
AcDbLine
 10
81.33563715152826
 20
112.6369077492893
 30
0.0
 11
81.33549941812107
 21
112.6366691880286
 31
0.0
  0
LINE
  5
1E5
330
1D8
100
AcDbEntity
  8
Sichtbar schmal (ISO)
 62
    18
420
        0
370
     5
100
AcDbLine
 10
81.1371553310394
 20
153.9206496908639
 30
0.0
 11
81.13701759763255
 21
153.9208882521252
 31
0.0
  0
LINE
  5
1E6
330
1D8
100
AcDbEntity
  8
Sichtbar schmal (ISO)
 62
    18
420
        0
370
     5
100
AcDbLine
 10
116.2769050093181
 20
136.773881495044
 30
0.0
 11
116.2560420363535
 21
136.773881495044
 31
0.0
  0
LINE
  5
1E7
330
1D8
100
AcDbEntity
  8
Sichtbar schmal (ISO)
 62
    18
420
        0
370
     5
100
AcDbLine
 10
116.2560420363535
 20
136.773881495044
 30
0.0
 11
116.2560420363535
 21
129.8982694787153
 31
0.0
  0
LINE
  5
1E8
330
1D8
100
AcDbEntity
  8
Sichtbar schmal (ISO)
 62
    18
420
        0
370
     5
100
AcDbLine
 10
116.2769050093181
 20
129.8982694787153
 30
0.0
 11
116.2560420363535
 21
129.8982694787153
 31
0.0
  0
LINE
  5
1E9
330
1D8
100
AcDbEntity
  8
Sichtbar schmal (ISO)
 62
    18
420
        0
370
     5
100
AcDbLine
 10
84.56975363268993
 20
111.5921369177418
 30
0.0
 11
84.58018511917225
 21
111.6102047825038
 31
0.0
  0
LINE
  5
1EA
330
1D8
100
AcDbEntity
  8
Sichtbar schmal (ISO)
 62
    18
420
        0
370
     5
100
AcDbLine
 10
84.58018511917225
 20
111.6102047825038
 30
0.0
 11
78.62573050450773
 21
115.0480107906682
 31
0.0
  0
LINE
  5
1EB
330
1D8
100
AcDbEntity
  8
Sichtbar schmal (ISO)
 62
    18
420
        0
370
     5
100
AcDbLine
 10
78.61529901802509
 20
115.0299429259055
 30
0.0
 11
78.62573050450741
 21
115.0480107906682
 31
0.0
  0
LINE
  5
1EC
330
1D8
100
AcDbEntity
  8
Sichtbar schmal (ISO)
 62
    18
420
        0
370
     5
100
AcDbLine
 10
78.61529901802509
 20
151.6422080478526
 30
0.0
 11
78.62573050450741
 21
151.6241401830906
 31
0.0
  0
LINE
  5
1ED
330
1D8
100
AcDbEntity
  8
Sichtbar schmal (ISO)
 62
    18
420
        0
370
     5
100
AcDbLine
 10
78.62573050450741
 20
151.6241401830906
 30
0.0
 11
84.58018511917225
 21
155.0619461912556
 31
0.0
  0
LINE
  5
1EE
330
1D8
100
AcDbEntity
  8
Sichtbar schmal (ISO)
 62
    18
420
        0
370
     5
100
AcDbLine
 10
84.56975363268993
 20
155.0800140560179
 30
0.0
 11
84.58018511917225
 21
155.0619461912556
 31
0.0
  0
CIRCLE
  5
1EF
330
1D8
100
AcDbEntity
  8
Sichtbar schmal (ISO)
 62
    18
420
        0
370
     5
100
AcDbCircle
 10
82.84056796271515
 20
123.0226574623861
 30
0.0
 40
0.4583741321878153
  0
CIRCLE
  5
1F0
330
1D8
100
AcDbEntity
  8
Sichtbar schmal (ISO)
 62
    18
420
        0
370
     5
100
AcDbCircle
 10
82.84056796271515
 20
143.6494935113728
 30
0.0
 40
0.4583741321878955
  0
CIRCLE
  5
1F1
330
1D8
100
AcDbEntity
  8
Sichtbar schmal (ISO)
 62
    18
420
        0
370
     5
100
AcDbCircle
 10
103.4674038106399
 20
143.6494935113728
 30
0.0
 40
0.4583741321880157
  0
CIRCLE
  5
1F2
330
1D8
100
AcDbEntity
  8
Sichtbar schmal (ISO)
 62
    18
420
        0
370
     5
100
AcDbCircle
 10
103.4674038106399
 20
123.0226574623861
 30
0.0
 40
0.4583741321879355
  0
ENDBLK
  5
1DB
330
1D8
100
AcDbEntity
  8
0
100
AcDbBlockEnd
  0
BLOCK
  5
1F5
330
1F3
100
AcDbEntity
  8
0
100
AcDbBlockBegin
  2
Block_17
 70
     0
 10
0.0
 20
0.0
 30
0.0
  3
Block_17
  1

  0
INSERT
  5
1F8
330
1F3
100
AcDbEntity
  8
Sichtbar schmal (ISO)
100
AcDbBlockReference
  2
Block_18
 10
0.0
 20
0.0
 30
0.0
  0
ENDBLK
  5
1F6
330
1F3
100
AcDbEntity
  8
0
100
AcDbBlockEnd
  0
BLOCK
  5
1F9
330
1F7
100
AcDbEntity
  8
0
100
AcDbBlockBegin
  2
Block_18
 70
     0
 10
0.0
 20
0.0
 30
0.0
  3
Block_18
  1

  0
LINE
  5
1FB
330
1F7
100
AcDbEntity
  8
Sichtbar schmal (ISO)
 62
    18
420
        0
370
     5
100
AcDbLine
 10
134.4739516028018
 20
155.6648523577309
 30
0.0
 11
134.4770844865087
 21
111.145939693215
 31
0.0
  0
INSERT
  5
1FD
330
1F7
100
AcDbEntity
  8
Sichtbar schmal (ISO)
100
AcDbBlockReference
  2
Block_19
 10
0.0
 20
0.0
 30
0.0
  0
INSERT
  5
203
330
1F7
100
AcDbEntity
  8
Sichtbar schmal (ISO)
100
AcDbBlockReference
  2
Block_20
 10
0.0
 20
0.0
 30
0.0
  0
ENDBLK
  5
1FA
330
1F7
100
AcDbEntity
  8
0
100
AcDbBlockEnd
  0
BLOCK
  5
1FE
330
1FC
100
AcDbEntity
  8
0
100
AcDbBlockBegin
  2
Block_19
 70
     0
 10
0.0
 20
0.0
 30
0.0
  3
Block_19
  1

  0
LWPOLYLINE
  5
200
330
1FC
100
AcDbEntity
  8
Sichtbar schmal (ISO)
100
AcDbPolyline
 90
        3
 70
     1
 43
0.0
 10
134.2526903452617
 20
155.0323758903326
 10
134.4731979881645
 20
156.7135717212111
 10
134.6953097536525
 20
155.0324081881028
  0
HATCH
  5
201
330
1FC
100
AcDbEntity
  8
Sichtbar schmal (ISO)
 62
    18
420
        0
440
 33554687
100
AcDbHatch
 10
0.0
 20
0.0
 30
0.0
210
0.0
220
0.0
230
1.0
  2
SOLID
 70
     1
 71
     1
 91
        1
 92
        1
 93
        3
 72
     1
 10
134.2526903452617
 20
155.0323758903326
 11
134.4731979881645
 21
156.7135717212111
 72
     1
 10
134.4731979881645
 20
156.7135717212111
 11
134.6953097536525
 21
155.0324081881028
 72
     1
 10
134.6953097536525
 20
155.0324081881028
 11
134.2526903452617
 21
155.0323758903326
 97
        1
330
200
 75
     2
 76
     1
 98
        1
 10
0.0
 20
0.0
450
        0
451
        0
460
0.0
461
0.0
452
        0
462
0.0
453
        0
470

  0
ENDBLK
  5
1FF
330
1FC
100
AcDbEntity
  8
0
100
AcDbBlockEnd
  0
BLOCK
  5
204
330
202
100
AcDbEntity
  8
0
100
AcDbBlockBegin
  2
Block_20
 70
     0
 10
0.0
 20
0.0
 30
0.0
  3
Block_20
  1

  0
LWPOLYLINE
  5
206
330
202
100
AcDbEntity
  8
Sichtbar schmal (ISO)
100
AcDbPolyline
 90
        3
 70
     1
 43
0.0
 10
134.255726335658
 20
111.7783730969198
 10
134.4764708288754
 20
110.0972095638114
 10
134.6983565099723
 20
111.7784053946899
  0
HATCH
  5
207
330
202
100
AcDbEntity
  8
Sichtbar schmal (ISO)
 62
    18
420
        0
440
 33554687
100
AcDbHatch
 10
0.0
 20
0.0
 30
0.0
210
0.0
220
0.0
230
1.0
  2
SOLID
 70
     1
 71
     1
 91
        1
 92
        1
 93
        3
 72
     1
 10
134.255726335658
 20
111.7783730969198
 11
134.4764708288754
 21
110.0972095638114
 72
     1
 10
134.4764708288754
 20
110.0972095638114
 11
134.6983565099723
 21
111.7784053946899
 72
     1
 10
134.6983565099723
 20
111.7784053946899
 11
134.255726335658
 21
111.7783730969198
 97
        1
330
206
 75
     2
 76
     1
 98
        1
 10
0.0
 20
0.0
450
        0
451
        0
460
0.0
461
0.0
452
        0
462
0.0
453
        0
470

  0
ENDBLK
  5
205
330
202
100
AcDbEntity
  8
0
100
AcDbBlockEnd
  0
BLOCK
  5
20D
330
20B
100
AcDbEntity
  8
0
100
AcDbBlockBegin
  2
Block_21
 70
     0
 10
0.0
 20
0.0
 30
0.0
  3
Block_21
  1

  0
INSERT
  5
210
330
20B
100
AcDbEntity
  8
Sichtbar schmal (ISO)
100
AcDbBlockReference
  2
Block_22
 10
0.0
 20
0.0
 30
0.0
  0
ENDBLK
  5
20E
330
20B
100
AcDbEntity
  8
0
100
AcDbBlockEnd
  0
BLOCK
  5
211
330
20F
100
AcDbEntity
  8
0
100
AcDbBlockBegin
  2
Block_22
 70
     0
 10
0.0
 20
0.0
 30
0.0
  3
Block_22
  1

  0
LINE
  5
213
330
20F
100
AcDbEntity
  8
Sichtbar schmal (ISO)
 62
    18
420
        0
370
     5
100
AcDbLine
 10
141.5303146008479
 20
156.8372721809784
 30
0.0
 11
141.5225631360061
 21
109.8713620229065
 31
0.0
  0
INSERT
  5
215
330
20F
100
AcDbEntity
  8
Sichtbar schmal (ISO)
100
AcDbBlockReference
  2
Block_23
 10
0.0
 20
0.0
 30
0.0
  0
INSERT
  5
21B
330
20F
100
AcDbEntity
  8
Sichtbar schmal (ISO)
100
AcDbBlockReference
  2
Block_24
 10
0.0
 20
0.0
 30
0.0
  0
ENDBLK
  5
212
330
20F
100
AcDbEntity
  8
0
100
AcDbBlockEnd
  0
BLOCK
  5
216
330
214
100
AcDbEntity
  8
0
100
AcDbBlockBegin
  2
Block_23
 70
     0
 10
0.0
 20
0.0
 30
0.0
  3
Block_23
  1

  0
LWPOLYLINE
  5
218
330
214
100
AcDbEntity
  8
Sichtbar schmal (ISO)
100
AcDbPolyline
 90
        3
 70
     1
 43
0.0
 10
141.3089026203802
 20
156.204849543197
 10
141.5297978365251
 20
157.8859915444586
 10
141.7515220287711
 20
156.2047741817333
  0
HATCH
  5
219
330
214
100
AcDbEntity
  8
Sichtbar schmal (ISO)
 62
    18
420
        0
440
 33554687
100
AcDbHatch
 10
0.0
 20
0.0
 30
0.0
210
0.0
220
0.0
230
1.0
  2
SOLID
 70
     1
 71
     1
 91
        1
 92
        1
 93
        3
 72
     1
 10
141.3089026203802
 20
156.204849543197
 11
141.5297978365251
 21
157.8859915444586
 72
     1
 10
141.5297978365251
 20
157.8859915444586
 11
141.7515220287711
 21
156.2047741817333
 72
     1
 10
141.7515220287711
 20
156.2047741817333
 11
141.3089026203802
 21
156.204849543197
 97
        1
330
218
 75
     2
 76
     1
 98
        1
 10
0.0
 20
0.0
450
        0
451
        0
460
0.0
461
0.0
452
        0
462
0.0
453
        0
470

  0
ENDBLK
  5
217
330
214
100
AcDbEntity
  8
0
100
AcDbBlockEnd
  0
BLOCK
  5
21C
330
21A
100
AcDbEntity
  8
0
100
AcDbBlockBegin
  2
Block_24
 70
     0
 10
0.0
 20
0.0
 30
0.0
  3
Block_24
  1

  0
LWPOLYLINE
  5
21E
330
21A
100
AcDbEntity
  8
Sichtbar schmal (ISO)
100
AcDbPolyline
 90
        3
 70
     1
 43
0.0
 10
141.3013557080828
 20
110.5038492562282
 10
141.5217018621348
 20
108.8226426594263
 10
141.7439751164737
 20
110.5037846606878
  0
HATCH
  5
21F
330
21A
100
AcDbEntity
  8
Sichtbar schmal (ISO)
 62
    18
420
        0
440
 33554687
100
AcDbHatch
 10
0.0
 20
0.0
 30
0.0
210
0.0
220
0.0
230
1.0
  2
SOLID
 70
     1
 71
     1
 91
        1
 92
        1
 93
        3
 72
     1
 10
141.3013557080828
 20
110.5038492562282
 11
141.5217018621348
 21
108.8226426594263
 72
     1
 10
141.5217018621348
 20
108.8226426594263
 11
141.7439751164737
 21
110.5037846606878
 72
     1
 10
141.7439751164737
 20
110.5037846606878
 11
141.3013557080828
 21
110.5038492562282
 97
        1
330
21E
 75
     2
 76
     1
 98
        1
 10
0.0
 20
0.0
450
        0
451
        0
460
0.0
461
0.0
452
        0
462
0.0
453
        0
470

  0
ENDBLK
  5
21D
330
21A
100
AcDbEntity
  8
0
100
AcDbBlockEnd
  0
BLOCK
  5
226
330
224
100
AcDbEntity
  8
0
100
AcDbBlockBegin
  2
Block_25
 70
     0
 10
0.0
 20
0.0
 30
0.0
  3
Block_25
  1

  0
INSERT
  5
229
330
224
100
AcDbEntity
  8
Sichtbar schmal (ISO)
100
AcDbBlockReference
  2
Block_26
 10
0.0
 20
0.0
 30
0.0
  0
ENDBLK
  5
227
330
224
100
AcDbEntity
  8
0
100
AcDbBlockEnd
  0
BLOCK
  5
22A
330
228
100
AcDbEntity
  8
0
100
AcDbBlockBegin
  2
Block_26
 70
     0
 10
0.0
 20
0.0
 30
0.0
  3
Block_26
  1

  0
LINE
  5
22C
330
228
100
AcDbEntity
  8
Sichtbar schmal (ISO)
 62
    18
420
        0
370
     5
100
AcDbLine
 10
127.497331799316
 20
179.107241437428
 30
0.0
 11
127.4975686496306
 21
176.2361634555612
 31
0.0
  0
INSERT
  5
22E
330
228
100
AcDbEntity
  8
Sichtbar schmal (ISO)
100
AcDbBlockReference
  2
Block_27
 10
0.0
 20
0.0
 30
0.0
  0
INSERT
  5
234
330
228
100
AcDbEntity
  8
Sichtbar schmal (ISO)
100
AcDbBlockReference
  2
Block_28
 10
0.0
 20
0.0
 30
0.0
  0
ENDBLK
  5
22B
330
228
100
AcDbEntity
  8
0
100
AcDbBlockEnd
  0
BLOCK
  5
22F
330
22D
100
AcDbEntity
  8
0
100
AcDbBlockBegin
  2
Block_27
 70
     0
 10
0.0
 20
0.0
 30
0.0
  3
Block_27
  1

  0
LWPOLYLINE
  5
231
330
22D
100
AcDbEntity
  8
Sichtbar schmal (ISO)
100
AcDbPolyline
 90
        3
 70
     1
 43
0.0
 10
127.2760705417758
 20
178.47476497003
 10
127.4965566528318
 20
180.1559608009083
 10
127.7187007160901
 20
178.4747972677999
  0
HATCH
  5
232
330
22D
100
AcDbEntity
  8
Sichtbar schmal (ISO)
 62
    18
420
        0
440
 33554687
100
AcDbHatch
 10
0.0
 20
0.0
 30
0.0
210
0.0
220
0.0
230
1.0
  2
SOLID
 70
     1
 71
     1
 91
        1
 92
        1
 93
        3
 72
     1
 10
127.2760705417758
 20
178.47476497003
 11
127.4965566528318
 21
180.1559608009083
 72
     1
 10
127.4965566528318
 20
180.1559608009083
 11
127.7187007160901
 21
178.4747972677999
 72
     1
 10
127.7187007160901
 20
178.4747972677999
 11
127.2760705417758
 21
178.47476497003
 97
        1
330
231
 75
     2
 76
     1
 98
        1
 10
0.0
 20
0.0
450
        0
451
        0
460
0.0
461
0.0
452
        0
462
0.0
453
        0
470

  0
ENDBLK
  5
230
330
22D
100
AcDbEntity
  8
0
100
AcDbBlockEnd
  0
BLOCK
  5
235
330
233
100
AcDbEntity
  8
0
100
AcDbBlockBegin
  2
Block_28
 70
     0
 10
0.0
 20
0.0
 30
0.0
  3
Block_28
  1

  0
LWPOLYLINE
  5
237
330
233
100
AcDbEntity
  8
Sichtbar schmal (ISO)
100
AcDbPolyline
 90
        3
 70
     1
 43
0.0
 10
127.2762104987799
 20
176.8685968592659
 10
127.4969765238441
 20
175.1874333261576
 10
127.7188299071708
 20
176.8686291570361
  0
HATCH
  5
238
330
233
100
AcDbEntity
  8
Sichtbar schmal (ISO)
 62
    18
420
        0
440
 33554687
100
AcDbHatch
 10
0.0
 20
0.0
 30
0.0
210
0.0
220
0.0
230
1.0
  2
SOLID
 70
     1
 71
     1
 91
        1
 92
        1
 93
        3
 72
     1
 10
127.2762104987799
 20
176.8685968592659
 11
127.4969765238441
 21
175.1874333261576
 72
     1
 10
127.4969765238441
 20
175.1874333261576
 11
127.7188299071708
 21
176.8686291570361
 72
     1
 10
127.7188299071708
 20
176.8686291570361
 11
127.2762104987799
 21
176.8685968592659
 97
        1
330
237
 75
     2
 76
     1
 98
        1
 10
0.0
 20
0.0
450
        0
451
        0
460
0.0
461
0.0
452
        0
462
0.0
453
        0
470

  0
ENDBLK
  5
236
330
233
100
AcDbEntity
  8
0
100
AcDbBlockEnd
  0
BLOCK
  5
23B
330
239
100
AcDbEntity
  8
0
100
AcDbBlockBegin
  2
Block_29
 70
     0
 10
0.0
 20
0.0
 30
0.0
  3
Block_29
  1

  0
INSERT
  5
23E
330
239
100
AcDbEntity
  8
Sichtbar schmal (ISO)
100
AcDbBlockReference
  2
Block_30
 10
0.0
 20
0.0
 30
0.0
  0
ENDBLK
  5
23C
330
239
100
AcDbEntity
  8
0
100
AcDbBlockEnd
  0
BLOCK
  5
23F
330
23D
100
AcDbEntity
  8
0
100
AcDbBlockBegin
  2
Block_30
 70
     0
 10
0.0
 20
0.0
 30
0.0
  3
Block_30
  1

  0
LINE
  5
241
330
23D
100
AcDbEntity
  8
Sichtbar schmal (ISO)
 62
    18
420
        0
370
     5
100
AcDbLine
 10
141.4820940299778
 20
163.5736396380617
 30
0.0
 11
141.4642871926884
 21
179.1431780897086
 31
0.0
  0
INSERT
  5
243
330
23D
100
AcDbEntity
  8
Sichtbar schmal (ISO)
100
AcDbBlockReference
  2
Block_31
 10
0.0
 20
0.0
 30
0.0
  0
INSERT
  5
249
330
23D
100
AcDbEntity
  8
Sichtbar schmal (ISO)
100
AcDbBlockReference
  2
Block_32
 10
0.0
 20
0.0
 30
0.0
  0
ENDBLK
  5
240
330
23D
100
AcDbEntity
  8
0
100
AcDbBlockEnd
  0
BLOCK
  5
244
330
242
100
AcDbEntity
  8
0
100
AcDbBlockBegin
  2
Block_31
 70
     0
 10
0.0
 20
0.0
 30
0.0
  3
Block_31
  1

  0
LWPOLYLINE
  5
246
330
242
100
AcDbEntity
  8
Sichtbar schmal (ISO)
100
AcDbPolyline
 90
        3
 70
     1
 43
0.0
 10
141.7026770343443
 20
164.2063529557746
 10
141.4839780665713
 20
162.5249202745818
 10
141.2600576259534
 20
164.2058469573752
  0
HATCH
  5
247
330
242
100
AcDbEntity
  8
Sichtbar schmal (ISO)
 62
    18
420
        0
440
 33554687
100
AcDbHatch
 10
0.0
 20
0.0
 30
0.0
210
0.0
220
0.0
230
1.0
  2
SOLID
 70
     1
 71
     1
 91
        1
 92
        1
 93
        3
 72
     1
 10
141.7026770343443
 20
164.2063529557746
 11
141.4839780665713
 21
162.5249202745818
 72
     1
 10
141.4839780665713
 20
162.5249202745818
 11
141.2600576259534
 21
164.2058469573752
 72
     1
 10
141.2600576259534
 20
164.2058469573752
 11
141.7026770343443
 21
164.2063529557746
 97
        1
330
246
 75
     2
 76
     1
 98
        1
 10
0.0
 20
0.0
450
        0
451
        0
460
0.0
461
0.0
452
        0
462
0.0
453
        0
470

  0
ENDBLK
  5
245
330
242
100
AcDbEntity
  8
0
100
AcDbBlockEnd
  0
BLOCK
  5
24A
330
248
100
AcDbEntity
  8
0
100
AcDbBlockBegin
  2
Block_32
 70
     0
 10
0.0
 20
0.0
 30
0.0
  3
Block_32
  1

  0
LWPOLYLINE
  5
24C
330
248
100
AcDbEntity
  8
Sichtbar schmal (ISO)
100
AcDbPolyline
 90
        3
 70
     1
 43
0.0
 10
141.6863235967127
 20
178.5109815363184
 10
141.463781194289
 20
180.1919082191122
 10
141.2437041883219
 20
178.510475537919
  0
HATCH
  5
24D
330
248
100
AcDbEntity
  8
Sichtbar schmal (ISO)
 62
    18
420
        0
440
 33554687
100
AcDbHatch
 10
0.0
 20
0.0
 30
0.0
210
0.0
220
0.0
230
1.0
  2
SOLID
 70
     1
 71
     1
 91
        1
 92
        1
 93
        3
 72
     1
 10
141.6863235967127
 20
178.5109815363184
 11
141.463781194289
 21
180.1919082191122
 72
     1
 10
141.463781194289
 20
180.1919082191122
 11
141.2437041883219
 21
178.510475537919
 72
     1
 10
141.2437041883219
 20
178.510475537919
 11
141.6863235967127
 21
178.5109815363184
 97
        1
330
24C
 75
     2
 76
     1
 98
        1
 10
0.0
 20
0.0
450
        0
451
        0
460
0.0
461
0.0
452
        0
462
0.0
453
        0
470

  0
ENDBLK
  5
24B
330
248
100
AcDbEntity
  8
0
100
AcDbBlockEnd
  0
BLOCK
  5
250
330
24E
100
AcDbEntity
  8
0
100
AcDbBlockBegin
  2
Block_33
 70
     0
 10
0.0
 20
0.0
 30
0.0
  3
Block_33
  1

  0
INSERT
  5
253
330
24E
100
AcDbEntity
  8
Sichtbar schmal (ISO)
100
AcDbBlockReference
  2
Block_34
 10
0.0
 20
0.0
 30
0.0
  0
ENDBLK
  5
251
330
24E
100
AcDbEntity
  8
0
100
AcDbBlockEnd
  0
BLOCK
  5
254
330
252
100
AcDbEntity
  8
0
100
AcDbBlockBegin
  2
Block_34
 70
     0
 10
0.0
 20
0.0
 30
0.0
  3
Block_34
  1

  0
SPLINE
  5
256
330
252
100
AcDbEntity
  8
Sichtbar schmal (ISO)
100
AcDbSpline
210
0.0
220
0.0
230
1.0
 70
     9
 71
     3
 72
    41
 73
    37
 74
     0
 42
0.0000000001
 43
0.0000000001
 40
0.0
 40
0.0
 40
0.0
 40
0.0
 40
1.0
 40
1.0
 40
1.0
 40
2.0
 40
2.0
 40
2.0
 40
3.0
 40
3.0
 40
3.0
 40
4.0
 40
4.0
 40
4.0
 40
5.0
 40
5.0
 40
5.0
 40
6.0
 40
6.0
 40
6.0
 40
7.0
 40
7.0
 40
7.0
 40
8.0
 40
8.0
 40
8.0
 40
9.0
 40
9.0
 40
9.0
 40
10.0
 40
10.0
 40
10.0
 40
11.0
 40
11.0
 40
11.0
 40
12.0
 40
12.0
 40
12.0
 40
12.0
 10
129.4394720813554
 20
176.6543334519302
 30
0.0
 10
129.2279432185611
 20
176.9928140833559
 30
0.0
 10
129.1094319338685
 20
177.1647243480699
 30
0.0
 10
128.8300346900147
 20
177.1647243480699
 30
0.0
 10
128.6129936744439
 20
177.1647243480699
 30
0.0
 10
128.4689886831605
 20
176.9898857521935
 30
0.0
 10
128.4689886831605
 20
176.7783568893991
 30
0.0
 10
128.4689886831605
 20
176.4991319003196
 30
0.0
 10
128.7256482968116
 20
176.380620615627
 30
0.0
 10
128.965426942585
 20
176.3890610995659
 30
0.0
 10
128.965426942585
 20
176.3890610995659
 30
0.0
 10
128.965426942585
 20
176.1494547085668
 30
0.0
 10
128.965426942585
 20
176.1494547085668
 30
0.0
 10
128.5592501848741
 20
176.1267170783641
 30
0.0
 10
128.2574598203662
 20
176.3694240553
 30
0.0
 10
128.2574598203662
 20
176.7924817808887
 30
0.0
 10
128.2574598203662
 20
177.1394028962533
 30
0.0
 10
128.4607204539959
 20
177.4186278853328
 30
0.0
 10
128.8331352759514
 20
177.4186278853328
 30
0.0
 10
129.1855685440925
 20
177.4186278853328
 30
0.0
 10
129.3605793947432
 20
177.1817775707219
 30
0.0
 10
129.5183647679676
 20
176.9335584410096
 30
0.0
 10
129.6678819120274
 20
176.6853393112974
 30
0.0
 10
129.8005180882096
 20
176.417310882545
 30
0.0
 10
130.0458088867594
 20
176.3721801316882
 30
0.0
 10
130.0458088867594
 20
176.3721801316882
 30
0.0
 10
130.0458088867594
 20
177.3989908410669
 30
0.0
 10
130.0458088867594
 20
177.3989908410669
 30
0.0
 10
130.0458088867594
 20
177.3989908410669
 30
0.0
 10
130.2573377495537
 20
177.3989908410669
 30
0.0
 10
130.2573377495537
 20
177.3989908410669
 30
0.0
 10
130.2573377495537
 20
177.3989908410669
 30
0.0
 10
130.2573377495537
 20
176.0929551426087
 30
0.0
 10
130.2573377495537
 20
176.0929551426087
 30
0.0
 10
129.78639319672
 20
176.1296454095266
 30
0.0
 10
129.6086262696812
 20
176.3721801316882
 30
0.0
 10
129.4394720813554
 20
176.6543334519302
 30
0.0
  0
HATCH
  5
257
330
252
100
AcDbEntity
  8
Sichtbar schmal (ISO)
 62
    18
420
        0
440
 33554687
100
AcDbHatch
 10
0.0
 20
0.0
 30
0.0
210
0.0
220
0.0
230
1.0
  2
SOLID
 70
     1
 71
     1
 91
        1
 92
        1
 93
        1
 72
     4
 94
        3
 73
     0
 74
     0
 95
       41
 96
       37
 40
0.0
 40
0.0
 40
0.0
 40
0.0
 40
1.0
 40
1.0
 40
1.0
 40
2.0
 40
2.0
 40
2.0
 40
3.0
 40
3.0
 40
3.0
 40
4.0
 40
4.0
 40
4.0
 40
5.0
 40
5.0
 40
5.0
 40
6.0
 40
6.0
 40
6.0
 40
7.0
 40
7.0
 40
7.0
 40
8.0
 40
8.0
 40
8.0
 40
9.0
 40
9.0
 40
9.0
 40
10.0
 40
10.0
 40
10.0
 40
11.0
 40
11.0
 40
11.0
 40
12.0
 40
12.0
 40
12.0
 40
12.0
 10
129.4394720813554
 20
176.6543334519302
 10
129.2279432185611
 20
176.9928140833559
 10
129.1094319338685
 20
177.1647243480699
 10
128.8300346900147
 20
177.1647243480699
 10
128.6129936744439
 20
177.1647243480699
 10
128.4689886831605
 20
176.9898857521935
 10
128.4689886831605
 20
176.7783568893991
 10
128.4689886831605
 20
176.4991319003196
 10
128.7256482968116
 20
176.380620615627
 10
128.965426942585
 20
176.3890610995659
 10
128.965426942585
 20
176.3890610995659
 10
128.965426942585
 20
176.1494547085668
 10
128.965426942585
 20
176.1494547085668
 10
128.5592501848741
 20
176.1267170783641
 10
128.2574598203662
 20
176.3694240553
 10
128.2574598203662
 20
176.7924817808887
 10
128.2574598203662
 20
177.1394028962533
 10
128.4607204539959
 20
177.4186278853328
 10
128.8331352759514
 20
177.4186278853328
 10
129.1855685440925
 20
177.4186278853328
 10
129.3605793947432
 20
177.1817775707219
 10
129.5183647679676
 20
176.9335584410096
 10
129.6678819120274
 20
176.6853393112974
 10
129.8005180882096
 20
176.417310882545
 10
130.0458088867594
 20
176.3721801316882
 10
130.0458088867594
 20
176.3721801316882
 10
130.0458088867594
 20
177.3989908410669
 10
130.0458088867594
 20
177.3989908410669
 10
130.0458088867594
 20
177.3989908410669
 10
130.2573377495537
 20
177.3989908410669
 10
130.2573377495537
 20
177.3989908410669
 10
130.2573377495537
 20
177.3989908410669
 10
130.2573377495537
 20
176.0929551426087
 10
130.2573377495537
 20
176.0929551426087
 10
129.78639319672
 20
176.1296454095266
 10
129.6086262696812
 20
176.3721801316882
 10
129.4394720813554
 20
176.6543334519302
 97
        0
 97
        1
330
256
 75
     2
 76
     1
 98
        1
 10
0.0
 20
0.0
450
        0
451
        0
460
0.0
461
0.0
452
        0
462
0.0
453
        0
470

  0
SPLINE
  5
258
330
252
100
AcDbEntity
  8
Sichtbar schmal (ISO)
100
AcDbSpline
210
0.0
220
0.0
230
1.0
 70
     9
 71
     3
 72
    53
 73
    49
 74
     0
 42
0.0000000001
 43
0.0000000001
 40
0.0
 40
0.0
 40
0.0
 40
0.0
 40
1.0
 40
1.0
 40
1.0
 40
2.0
 40
2.0
 40
2.0
 40
3.0
 40
3.0
 40
3.0
 40
4.0
 40
4.0
 40
4.0
 40
5.0
 40
5.0
 40
5.0
 40
6.0
 40
6.0
 40
6.0
 40
7.0
 40
7.0
 40
7.0
 40
8.0
 40
8.0
 40
8.0
 40
9.0
 40
9.0
 40
9.0
 40
10.0
 40
10.0
 40
10.0
 40
11.0
 40
11.0
 40
11.0
 40
12.0
 40
12.0
 40
12.0
 40
13.0
 40
13.0
 40
13.0
 40
14.0
 40
14.0
 40
14.0
 40
15.0
 40
15.0
 40
15.0
 40
16.0
 40
16.0
 40
16.0
 40
16.0
 10
129.7185248156606
 20
177.9328083865064
 30
0.0
 10
129.9245415256786
 20
177.9469332779959
 30
0.0
 10
130.0795708225148
 20
178.1133313899335
 30
0.0
 10
130.0795708225148
 20
178.3531100357068
 30
0.0
 10
130.0795708225148
 20
178.5815198663789
 30
0.0
 10
129.9217854492904
 20
178.7761677612955
 30
0.0
 10
129.605870193293
 20
178.7761677612955
 30
0.0
 10
129.3433539173169
 20
178.7761677612955
 30
0.0
 10
129.151806608337
 20
178.5956447578684
 30
0.0
 10
129.151806608337
 20
178.3248602527278
 30
0.0
 10
129.151806608337
 20
178.1696587011173
 30
0.0
 10
129.2279432185611
 20
178.0456352636483
 30
0.0
 10
129.3405978409287
 20
177.9526176855466
 30
0.0
 10
129.3405978409287
 20
177.9526176855466
 30
0.0
 10
129.3295735353759
 20
177.7466009755286
 30
0.0
 10
129.3295735353759
 20
177.7466009755286
 30
0.0
 10
129.3295735353759
 20
177.7466009755286
 30
0.0
 10
128.2915662656701
 20
177.9328083865064
 30
0.0
 10
128.2915662656701
 20
177.9328083865064
 30
0.0
 10
128.2915662656701
 20
177.9328083865064
 30
0.0
 10
128.2915662656701
 20
178.9200004978047
 30
0.0
 10
128.2915662656701
 20
178.9200004978047
 30
0.0
 10
128.2915662656701
 20
178.9200004978047
 30
0.0
 10
128.5030951284645
 20
178.9200004978047
 30
0.0
 10
128.5030951284645
 20
178.9200004978047
 30
0.0
 10
128.5030951284645
 20
178.9200004978047
 30
0.0
 10
128.5030951284645
 20
178.1133313899335
 30
0.0
 10
128.5030951284645
 20
178.1133313899335
 30
0.0
 10
128.5030951284645
 20
178.1133313899335
 30
0.0
 10
129.0784260745012
 20
178.0061889203422
 30
0.0
 10
129.0784260745012
 20
178.0061889203422
 30
0.0
 10
129.0784260745012
 20
178.0061889203422
 30
0.0
 10
129.0839382272776
 20
178.0118733278929
 30
0.0
 10
129.0839382272776
 20
178.0118733278929
 30
0.0
 10
128.9854084963995
 20
178.0992064984439
 30
0.0
 10
128.9402777455427
 20
178.2487236425038
 30
0.0
 10
128.9402777455427
 20
178.3841158950741
 30
0.0
 10
128.9402777455427
 20
178.7394774943776
 30
0.0
 10
129.1659314998266
 20
179.0300712985584
 30
0.0
 10
129.6255072375589
 20
179.0300712985584
 30
0.0
 10
129.9641601237589
 20
179.0300712985584
 30
0.0
 10
130.2910996853092
 20
178.7959770603357
 30
0.0
 10
130.2910996853092
 20
178.3305446602785
 30
0.0
 10
130.2910996853092
 20
177.9836235449138
 30
0.0
 10
130.0795708225148
 20
177.7014702246718
 30
0.0
 10
129.7185248156606
 20
177.693029740733
 30
0.0
 10
129.7185248156606
 20
177.693029740733
 30
0.0
 10
129.7185248156606
 20
177.9328083865064
 30
0.0
 10
129.7185248156606
 20
177.9328083865064
 30
0.0
  0
HATCH
  5
259
330
252
100
AcDbEntity
  8
Sichtbar schmal (ISO)
 62
    18
420
        0
440
 33554687
100
AcDbHatch
 10
0.0
 20
0.0
 30
0.0
210
0.0
220
0.0
230
1.0
  2
SOLID
 70
     1
 71
     1
 91
        1
 92
        1
 93
        1
 72
     4
 94
        3
 73
     0
 74
     0
 95
       53
 96
       49
 40
0.0
 40
0.0
 40
0.0
 40
0.0
 40
1.0
 40
1.0
 40
1.0
 40
2.0
 40
2.0
 40
2.0
 40
3.0
 40
3.0
 40
3.0
 40
4.0
 40
4.0
 40
4.0
 40
5.0
 40
5.0
 40
5.0
 40
6.0
 40
6.0
 40
6.0
 40
7.0
 40
7.0
 40
7.0
 40
8.0
 40
8.0
 40
8.0
 40
9.0
 40
9.0
 40
9.0
 40
10.0
 40
10.0
 40
10.0
 40
11.0
 40
11.0
 40
11.0
 40
12.0
 40
12.0
 40
12.0
 40
13.0
 40
13.0
 40
13.0
 40
14.0
 40
14.0
 40
14.0
 40
15.0
 40
15.0
 40
15.0
 40
16.0
 40
16.0
 40
16.0
 40
16.0
 10
129.7185248156606
 20
177.9328083865064
 10
129.9245415256786
 20
177.9469332779959
 10
130.0795708225148
 20
178.1133313899335
 10
130.0795708225148
 20
178.3531100357068
 10
130.0795708225148
 20
178.5815198663789
 10
129.9217854492904
 20
178.7761677612955
 10
129.605870193293
 20
178.7761677612955
 10
129.3433539173169
 20
178.7761677612955
 10
129.151806608337
 20
178.5956447578684
 10
129.151806608337
 20
178.3248602527278
 10
129.151806608337
 20
178.1696587011173
 10
129.2279432185611
 20
178.0456352636483
 10
129.3405978409287
 20
177.9526176855466
 10
129.3405978409287
 20
177.9526176855466
 10
129.3295735353759
 20
177.7466009755286
 10
129.3295735353759
 20
177.7466009755286
 10
129.3295735353759
 20
177.7466009755286
 10
128.2915662656701
 20
177.9328083865064
 10
128.2915662656701
 20
177.9328083865064
 10
128.2915662656701
 20
177.9328083865064
 10
128.2915662656701
 20
178.9200004978047
 10
128.2915662656701
 20
178.9200004978047
 10
128.2915662656701
 20
178.9200004978047
 10
128.5030951284645
 20
178.9200004978047
 10
128.5030951284645
 20
178.9200004978047
 10
128.5030951284645
 20
178.9200004978047
 10
128.5030951284645
 20
178.1133313899335
 10
128.5030951284645
 20
178.1133313899335
 10
128.5030951284645
 20
178.1133313899335
 10
129.0784260745012
 20
178.0061889203422
 10
129.0784260745012
 20
178.0061889203422
 10
129.0784260745012
 20
178.0061889203422
 10
129.0839382272776
 20
178.0118733278929
 10
129.0839382272776
 20
178.0118733278929
 10
128.9854084963995
 20
178.0992064984439
 10
128.9402777455427
 20
178.2487236425038
 10
128.9402777455427
 20
178.3841158950741
 10
128.9402777455427
 20
178.7394774943776
 10
129.1659314998266
 20
179.0300712985584
 10
129.6255072375589
 20
179.0300712985584
 10
129.9641601237589
 20
179.0300712985584
 10
130.2910996853092
 20
178.7959770603357
 10
130.2910996853092
 20
178.3305446602785
 10
130.2910996853092
 20
177.9836235449138
 10
130.0795708225148
 20
177.7014702246718
 10
129.7185248156606
 20
177.693029740733
 10
129.7185248156606
 20
177.693029740733
 10
129.7185248156606
 20
177.9328083865064
 10
129.7185248156606
 20
177.9328083865064
 97
        0
 97
        1
330
258
 75
     2
 76
     1
 98
        1
 10
0.0
 20
0.0
450
        0
451
        0
460
0.0
461
0.0
452
        0
462
0.0
453
        0
470

  0
ENDBLK
  5
255
330
252
100
AcDbEntity
  8
0
100
AcDbBlockEnd
  0
BLOCK
  5
25D
330
25B
100
AcDbEntity
  8
0
100
AcDbBlockBegin
  2
Block_35
 70
     0
 10
0.0
 20
0.0
 30
0.0
  3
Block_35
  1

  0
INSERT
  5
260
330
25B
100
AcDbEntity
  8
Sichtbar schmal (ISO)
100
AcDbBlockReference
  2
Block_36
 10
0.0
 20
0.0
 30
0.0
  0
ENDBLK
  5
25E
330
25B
100
AcDbEntity
  8
0
100
AcDbBlockEnd
  0
BLOCK
  5
261
330
25F
100
AcDbEntity
  8
0
100
AcDbBlockBegin
  2
Block_36
 70
     0
 10
0.0
 20
0.0
 30
0.0
  3
Block_36
  1

  0
SPLINE
  5
263
330
25F
100
AcDbEntity
  8
Sichtbar schmal (ISO)
100
AcDbSpline
210
0.0
220
0.0
230
1.0
 70
     9
 71
     3
 72
    17
 73
    13
 74
     0
 42
0.0000000001
 43
0.0000000001
 40
0.0
 40
0.0
 40
0.0
 40
0.0
 40
1.0
 40
1.0
 40
1.0
 40
2.0
 40
2.0
 40
2.0
 40
3.0
 40
3.0
 40
3.0
 40
4.0
 40
4.0
 40
4.0
 40
4.0
 10
143.1547417176835
 20
170.68915061922
 30
0.0
 10
142.9094509191337
 20
170.68915061922
 30
0.0
 10
142.6979220563394
 20
170.5453178827109
 30
0.0
 10
142.6979220563394
 20
170.2774617087327
 30
0.0
 10
142.6979220563394
 20
169.9925523121025
 30
0.0
 10
142.9263318870115
 20
169.885237587737
 30
0.0
 10
143.1716226855612
 20
169.885237587737
 30
0.0
 10
143.3890082106805
 20
169.885237587737
 30
0.0
 10
143.5950249206985
 20
170.0488796232864
 30
0.0
 10
143.5950249206985
 20
170.2802177851209
 30
0.0
 10
143.5950249206985
 20
170.5311929912214
 30
0.0
 10
143.3917642870687
 20
170.68915061922
 30
0.0
 10
143.1547417176835
 20
170.68915061922
 30
0.0
  0
SPLINE
  5
264
330
25F
100
AcDbEntity
  8
Sichtbar schmal (ISO)
100
AcDbSpline
210
0.0
220
0.0
230
1.0
 70
     9
 71
     3
 72
    35
 73
    31
 74
     0
 42
0.0000000001
 43
0.0000000001
 40
0.0
 40
0.0
 40
0.0
 40
0.0
 40
1.0
 40
1.0
 40
1.0
 40
2.0
 40
2.0
 40
2.0
 40
3.0
 40
3.0
 40
3.0
 40
4.0
 40
4.0
 40
4.0
 40
5.0
 40
5.0
 40
5.0
 40
6.0
 40
6.0
 40
6.0
 40
7.0
 40
7.0
 40
7.0
 40
8.0
 40
8.0
 40
8.0
 40
9.0
 40
9.0
 40
9.0
 40
10.0
 40
10.0
 40
10.0
 40
10.0
 10
144.0039577547976
 20
169.913487370716
 30
0.0
 10
144.1986056497142
 20
169.9332966697562
 30
0.0
 10
144.3085041956937
 20
170.0884982213667
 30
0.0
 10
144.3085041956937
 20
170.2802177851209
 30
0.0
 10
144.3085041956937
 20
170.5735676656899
 30
0.0
 10
144.0546006584308
 20
170.7174004021991
 30
0.0
 10
143.5357692783522
 20
170.7315252936886
 30
0.0
 10
143.5357692783522
 20
170.7315252936886
 30
0.0
 10
143.5299126160272
 20
170.725840886138
 30
0.0
 10
143.5299126160272
 20
170.725840886138
 30
0.0
 10
143.699066804353
 20
170.6355793844244
 30
0.0
 10
143.8065537834928
 20
170.4579847121598
 30
0.0
 10
143.8065537834928
 20
170.2633368172432
 30
0.0
 10
143.8065537834928
 20
169.8542317283698
 30
0.0
 10
143.5326686924154
 20
169.6315063052484
 30
0.0
 10
143.1378607498058
 20
169.6315063052484
 30
0.0
 10
142.7544216222975
 20
169.6315063052484
 30
0.0
 10
142.486393193545
 20
169.902290810389
 30
0.0
 10
142.486393193545
 20
170.2886582690598
 30
0.0
 10
142.486393193545
 20
170.6610730910153
 30
0.0
 10
142.6865532412381
 20
170.9740600158502
 30
0.0
 10
143.4424071907019
 20
170.9740600158502
 30
0.0
 10
144.133493345043
 20
170.9740600158502
 30
0.0
 10
144.520033058488
 20
170.7654594842183
 30
0.0
 10
144.520033058488
 20
170.2802177851209
 30
0.0
 10
144.520033058488
 20
169.9444932300833
 30
0.0
 10
144.3481227937741
 20
169.7047145843099
 30
0.0
 10
144.0039577547976
 20
169.6737087249427
 30
0.0
 10
144.0039577547976
 20
169.6737087249427
 30
0.0
 10
144.0039577547976
 20
169.913487370716
 30
0.0
 10
144.0039577547976
 20
169.913487370716
 30
0.0
  0
HATCH
  5
265
330
25F
100
AcDbEntity
  8
Sichtbar schmal (ISO)
 62
    18
420
        0
440
 33554687
100
AcDbHatch
 10
0.0
 20
0.0
 30
0.0
210
0.0
220
0.0
230
1.0
  2
SOLID
 70
     1
 71
     1
 91
        2
 92
        1
 93
        1
 72
     4
 94
        3
 73
     0
 74
     0
 95
       17
 96
       13
 40
0.0
 40
0.0
 40
0.0
 40
0.0
 40
1.0
 40
1.0
 40
1.0
 40
2.0
 40
2.0
 40
2.0
 40
3.0
 40
3.0
 40
3.0
 40
4.0
 40
4.0
 40
4.0
 40
4.0
 10
143.1547417176835
 20
170.68915061922
 10
142.9094509191337
 20
170.68915061922
 10
142.6979220563394
 20
170.5453178827109
 10
142.6979220563394
 20
170.2774617087327
 10
142.6979220563394
 20
169.9925523121025
 10
142.9263318870115
 20
169.885237587737
 10
143.1716226855612
 20
169.885237587737
 10
143.3890082106805
 20
169.885237587737
 10
143.5950249206985
 20
170.0488796232864
 10
143.5950249206985
 20
170.2802177851209
 10
143.5950249206985
 20
170.5311929912214
 10
143.3917642870687
 20
170.68915061922
 10
143.1547417176835
 20
170.68915061922
 97
        0
 97
        1
330
263
 92
        1
 93
        1
 72
     4
 94
        3
 73
     0
 74
     0
 95
       35
 96
       31
 40
0.0
 40
0.0
 40
0.0
 40
0.0
 40
1.0
 40
1.0
 40
1.0
 40
2.0
 40
2.0
 40
2.0
 40
3.0
 40
3.0
 40
3.0
 40
4.0
 40
4.0
 40
4.0
 40
5.0
 40
5.0
 40
5.0
 40
6.0
 40
6.0
 40
6.0
 40
7.0
 40
7.0
 40
7.0
 40
8.0
 40
8.0
 40
8.0
 40
9.0
 40
9.0
 40
9.0
 40
10.0
 40
10.0
 40
10.0
 40
10.0
 10
144.0039577547976
 20
169.913487370716
 10
144.1986056497142
 20
169.9332966697562
 10
144.3085041956937
 20
170.0884982213667
 10
144.3085041956937
 20
170.2802177851209
 10
144.3085041956937
 20
170.5735676656899
 10
144.0546006584308
 20
170.7174004021991
 10
143.5357692783522
 20
170.7315252936886
 10
143.5357692783522
 20
170.7315252936886
 10
143.5299126160272
 20
170.725840886138
 10
143.5299126160272
 20
170.725840886138
 10
143.699066804353
 20
170.6355793844244
 10
143.8065537834928
 20
170.4579847121598
 10
143.8065537834928
 20
170.2633368172432
 10
143.8065537834928
 20
169.8542317283698
 10
143.5326686924154
 20
169.6315063052484
 10
143.1378607498058
 20
169.6315063052484
 10
142.7544216222975
 20
169.6315063052484
 10
142.486393193545
 20
169.902290810389
 10
142.486393193545
 20
170.2886582690598
 10
142.486393193545
 20
170.6610730910153
 10
142.6865532412381
 20
170.9740600158502
 10
143.4424071907019
 20
170.9740600158502
 10
144.133493345043
 20
170.9740600158502
 10
144.520033058488
 20
170.7654594842183
 10
144.520033058488
 20
170.2802177851209
 10
144.520033058488
 20
169.9444932300833
 10
144.3481227937741
 20
169.7047145843099
 10
144.0039577547976
 20
169.6737087249427
 10
144.0039577547976
 20
169.6737087249427
 10
144.0039577547976
 20
169.913487370716
 10
144.0039577547976
 20
169.913487370716
 97
        0
 97
        1
330
264
 75
     2
 76
     1
 98
        1
 10
0.0
 20
0.0
450
        0
451
        0
460
0.0
461
0.0
452
        0
462
0.0
453
        0
470

  0
SPLINE
  5
266
330
25F
100
AcDbEntity
  8
Sichtbar schmal (ISO)
100
AcDbSpline
210
0.0
220
0.0
230
1.0
 70
     9
 71
     3
 72
    26
 73
    22
 74
     0
 42
0.0000000001
 43
0.0000000001
 40
0.0
 40
0.0
 40
0.0
 40
0.0
 40
1.0
 40
1.0
 40
1.0
 40
2.0
 40
2.0
 40
2.0
 40
3.0
 40
3.0
 40
3.0
 40
4.0
 40
4.0
 40
4.0
 40
5.0
 40
5.0
 40
5.0
 40
6.0
 40
6.0
 40
6.0
 40
7.0
 40
7.0
 40
7.0
 40
7.0
 10
142.7458088835843
 20
172.2950818796693
 30
0.0
 10
142.7458088835843
 20
172.2950818796693
 30
0.0
 10
142.7458088835843
 20
171.2458780496364
 30
0.0
 10
142.7458088835843
 20
171.2458780496364
 30
0.0
 10
142.7458088835843
 20
171.2458780496364
 30
0.0
 10
142.5201551293005
 20
171.2458780496364
 30
0.0
 10
142.5201551293005
 20
171.2458780496364
 30
0.0
 10
142.5201551293005
 20
171.2458780496364
 30
0.0
 10
142.5201551293005
 20
172.5405449329933
 30
0.0
 10
142.5201551293005
 20
172.5405449329933
 30
0.0
 10
142.5201551293005
 20
172.5405449329933
 30
0.0
 10
142.7261718393184
 20
172.5405449329933
 30
0.0
 10
142.7261718393184
 20
172.5405449329933
 30
0.0
 10
143.1237358583163
 20
172.1371242516706
 30
0.0
 10
143.8627088399023
 20
171.8100124353461
 30
0.0
 10
144.4862711227326
 20
171.7733221684282
 30
0.0
 10
144.4862711227326
 20
171.7733221684282
 30
0.0
 10
144.4862711227326
 20
171.5052937396758
 30
0.0
 10
144.4862711227326
 20
171.5052937396758
 30
0.0
 10
143.809309859881
 20
171.5504244905325
 30
0.0
 10
143.1888481629875
 20
171.8747802304688
 30
0.0
 10
142.7458088835843
 20
172.2950818796693
 30
0.0
  0
HATCH
  5
267
330
25F
100
AcDbEntity
  8
Sichtbar schmal (ISO)
 62
    18
420
        0
440
 33554687
100
AcDbHatch
 10
0.0
 20
0.0
 30
0.0
210
0.0
220
0.0
230
1.0
  2
SOLID
 70
     1
 71
     1
 91
        1
 92
        1
 93
        1
 72
     4
 94
        3
 73
     0
 74
     0
 95
       26
 96
       22
 40
0.0
 40
0.0
 40
0.0
 40
0.0
 40
1.0
 40
1.0
 40
1.0
 40
2.0
 40
2.0
 40
2.0
 40
3.0
 40
3.0
 40
3.0
 40
4.0
 40
4.0
 40
4.0
 40
5.0
 40
5.0
 40
5.0
 40
6.0
 40
6.0
 40
6.0
 40
7.0
 40
7.0
 40
7.0
 40
7.0
 10
142.7458088835843
 20
172.2950818796693
 10
142.7458088835843
 20
172.2950818796693
 10
142.7458088835843
 20
171.2458780496364
 10
142.7458088835843
 20
171.2458780496364
 10
142.7458088835843
 20
171.2458780496364
 10
142.5201551293005
 20
171.2458780496364
 10
142.5201551293005
 20
171.2458780496364
 10
142.5201551293005
 20
171.2458780496364
 10
142.5201551293005
 20
172.5405449329933
 10
142.5201551293005
 20
172.5405449329933
 10
142.5201551293005
 20
172.5405449329933
 10
142.7261718393184
 20
172.5405449329933
 10
142.7261718393184
 20
172.5405449329933
 10
143.1237358583163
 20
172.1371242516706
 10
143.8627088399023
 20
171.8100124353461
 10
144.4862711227326
 20
171.7733221684282
 10
144.4862711227326
 20
171.7733221684282
 10
144.4862711227326
 20
171.5052937396758
 10
144.4862711227326
 20
171.5052937396758
 10
143.809309859881
 20
171.5504244905325
 10
143.1888481629875
 20
171.8747802304688
 10
142.7458088835843
 20
172.2950818796693
 97
        0
 97
        1
330
266
 75
     2
 76
     1
 98
        1
 10
0.0
 20
0.0
450
        0
451
        0
460
0.0
461
0.0
452
        0
462
0.0
453
        0
470

  0
ENDBLK
  5
262
330
25F
100
AcDbEntity
  8
0
100
AcDbBlockEnd
  0
BLOCK
  5
26A
330
268
100
AcDbEntity
  8
0
100
AcDbBlockBegin
  2
Block_37
 70
     0
 10
0.0
 20
0.0
 30
0.0
  3
Block_37
  1

  0
INSERT
  5
26D
330
268
100
AcDbEntity
  8
Sichtbar schmal (ISO)
100
AcDbBlockReference
  2
Block_38
 10
0.0
 20
0.0
 30
0.0
  0
ENDBLK
  5
26B
330
268
100
AcDbEntity
  8
0
100
AcDbBlockEnd
  0
BLOCK
  5
26E
330
26C
100
AcDbEntity
  8
0
100
AcDbBlockBegin
  2
Block_38
 70
     0
 10
0.0
 20
0.0
 30
0.0
  3
Block_38
  1

  0
SPLINE
  5
270
330
26C
100
AcDbEntity
  8
Sichtbar schmal (ISO)
100
AcDbSpline
210
0.0
220
0.0
230
1.0
 70
     9
 71
     3
 72
    26
 73
    22
 74
     0
 42
0.0000000001
 43
0.0000000001
 40
0.0
 40
0.0
 40
0.0
 40
0.0
 40
1.0
 40
1.0
 40
1.0
 40
2.0
 40
2.0
 40
2.0
 40
3.0
 40
3.0
 40
3.0
 40
4.0
 40
4.0
 40
4.0
 40
5.0
 40
5.0
 40
5.0
 40
6.0
 40
6.0
 40
6.0
 40
7.0
 40
7.0
 40
7.0
 40
7.0
 10
137.300835469147
 20
131.1551296330098
 30
0.0
 10
137.3190944752188
 20
131.2081841034827
 30
0.0
 10
137.328396233029
 20
131.2622721026011
 30
0.0
 10
137.328396233029
 20
131.316704611268
 30
0.0
 10
137.328396233029
 20
131.4924044810158
 30
0.0
 10
137.2464029604801
 20
131.6171169375818
 30
0.0
 10
137.0831054344792
 20
131.6904974714177
 30
0.0
 10
136.984575703601
 20
131.7349392031774
 30
0.0
 10
136.8715765716849
 20
131.7573323238315
 30
0.0
 10
136.7441080387306
 20
131.7573323238315
 30
0.0
 10
136.6614257470846
 20
131.7573323238315
 30
0.0
 10
136.59011227054
 20
131.7500976233125
 30
0.0
 10
136.5305121186451
 20
131.7363172413715
 30
0.0
 10
136.4981282210838
 20
131.7287380313039
 30
0.0
 10
136.4605766802946
 20
131.7159911780085
 30
0.0
 10
136.4175129867289
 20
131.6984211910337
 30
0.0
 10
136.4175129867289
 20
131.6984211910337
 30
0.0
 10
137.1957600568469
 20
131.0073350366926
 30
0.0
 10
137.1957600568469
 20
131.0073350366926
 30
0.0
 10
137.2477809986741
 20
131.0528102970979
 30
0.0
 10
137.2829209726237
 20
131.1024196720855
 30
0.0
 10
137.300835469147
 20
131.1551296330098
 30
0.0
  0
SPLINE
  5
271
330
26C
100
AcDbEntity
  8
Sichtbar schmal (ISO)
100
AcDbSpline
210
0.0
220
0.0
230
1.0
 70
    11
 71
     3
 72
    26
 73
    22
 74
     0
 42
0.0000000001
 43
0.0000000001
 40
0.0
 40
0.0
 40
0.0
 40
0.0
 40
1.0
 40
1.0
 40
1.0
 40
2.0
 40
2.0
 40
2.0
 40
3.0
 40
3.0
 40
3.0
 40
4.0
 40
4.0
 40
4.0
 40
5.0
 40
5.0
 40
5.0
 40
6.0
 40
6.0
 40
6.0
 40
7.0
 40
7.0
 40
7.0
 40
7.0
 10
136.2269992063946
 20
131.5189317162522
 30
0.0
 10
136.2004719711582
 20
131.4613986216485
 30
0.0
 10
136.1873806083143
 20
131.3973198456229
 30
0.0
 10
136.1873806083143
 20
131.3266953881752
 30
0.0
 10
136.1873806083143
 20
131.191992154702
 30
0.0
 10
136.2431911551753
 20
131.0841606660137
 30
0.0
 10
136.3551567584459
 20
131.0028564125618
 30
0.0
 10
136.466777852168
 20
130.9215521591099
 30
0.0
 10
136.6104383339029
 20
130.8809000323839
 30
0.0
 10
136.7861382036507
 20
130.8809000323839
 30
0.0
 10
136.852628546516
 20
130.8809000323839
 30
0.0
 10
136.9160183034446
 20
130.888134732903
 30
0.0
 10
136.976651983985
 20
130.9022596243925
 30
0.0
 10
137.010758429289
 20
130.9108723631056
 30
0.0
 10
137.0538221228546
 20
130.9246527450466
 30
0.0
 10
137.1065320837789
 20
130.944634298861
 30
0.0
 10
137.1065320837789
 20
130.944634298861
 30
0.0
 10
136.3244954086272
 20
131.6443331919153
 30
0.0
 10
136.3244954086272
 20
131.6443331919153
 30
0.0
 10
136.2859103391924
 20
131.6184949757759
 30
0.0
 10
136.253526441631
 20
131.5764648108559
 30
0.0
 10
136.2269992063946
 20
131.5189317162522
 30
0.0
  0
SPLINE
  5
272
330
26C
100
AcDbEntity
  8
Sichtbar schmal (ISO)
100
AcDbSpline
210
0.0
220
0.0
230
1.0
 70
    11
 71
     3
 72
    59
 73
    55
 74
     0
 42
0.0000000001
 43
0.0000000001
 40
0.0
 40
0.0
 40
0.0
 40
0.0
 40
1.0
 40
1.0
 40
1.0
 40
2.0
 40
2.0
 40
2.0
 40
3.0
 40
3.0
 40
3.0
 40
4.0
 40
4.0
 40
4.0
 40
5.0
 40
5.0
 40
5.0
 40
6.0
 40
6.0
 40
6.0
 40
7.0
 40
7.0
 40
7.0
 40
8.0
 40
8.0
 40
8.0
 40
9.0
 40
9.0
 40
9.0
 40
10.0
 40
10.0
 40
10.0
 40
11.0
 40
11.0
 40
11.0
 40
12.0
 40
12.0
 40
12.0
 40
13.0
 40
13.0
 40
13.0
 40
14.0
 40
14.0
 40
14.0
 40
15.0
 40
15.0
 40
15.0
 40
16.0
 40
16.0
 40
16.0
 40
17.0
 40
17.0
 40
17.0
 40
18.0
 40
18.0
 40
18.0
 40
18.0
 10
137.4827365107682
 20
130.5970241643993
 30
0.0
 10
137.4827365107682
 20
130.5970241643993
 30
0.0
 10
137.2973903736617
 20
130.7737575627927
 30
0.0
 10
137.2973903736617
 20
130.7737575627927
 30
0.0
 10
137.2295219926023
 20
130.7275932832903
 30
0.0
 10
137.1530408728298
 20
130.6924533093408
 30
0.0
 10
137.0686360334412
 20
130.667648621847
 30
0.0
 10
136.9842311940525
 20
130.6424994248047
 30
0.0
 10
136.8839789154318
 20
130.6300970810577
 30
0.0
 10
136.7685682166759
 20
130.6300970810577
 30
0.0
 10
136.5601399398183
 20
130.6300970810577
 30
0.0
 10
136.3747938027118
 20
130.688663704307
 30
0.0
 10
136.2125298053566
 20
130.805452441257
 30
0.0
 10
136.0506103175498
 20
130.9225856877554
 30
0.0
 10
135.9696505736464
 20
131.0931179142753
 30
0.0
 10
135.9696505736464
 20
131.3170491208165
 30
0.0
 10
135.9696505736464
 20
131.433493348218
 30
0.0
 10
135.990321146558
 20
131.5358126841299
 30
0.0
 10
136.0320068019295
 20
131.6236626190038
 30
0.0
 10
136.0564669798748
 20
131.6753390512825
 30
0.0
 10
136.0960855779551
 20
131.7345946936288
 30
0.0
 10
136.1512071057191
 20
131.8010850364942
 30
0.0
 10
136.1512071057191
 20
131.8010850364942
 30
0.0
 10
135.9572482298996
 20
131.9767849062419
 30
0.0
 10
135.9572482298996
 20
131.9767849062419
 30
0.0
 10
135.9572482298996
 20
131.9767849062419
 30
0.0
 10
136.0275281777987
 20
132.0480983827866
 30
0.0
 10
136.0275281777987
 20
132.0480983827866
 30
0.0
 10
136.0275281777987
 20
132.0480983827866
 30
0.0
 10
136.2249321491035
 20
131.8710204748447
 30
0.0
 10
136.2249321491035
 20
131.8710204748447
 30
0.0
 10
136.3093369884921
 20
131.9292425885454
 30
0.0
 10
136.4061441716276
 20
131.9705837343684
 30
0.0
 10
136.5156982080586
 20
131.9953884218622
 30
0.0
 10
136.5863226655062
 20
132.0112358610944
 30
0.0
 10
136.6569471229538
 20
132.0191595807105
 30
0.0
 10
136.7275715804014
 20
132.0191595807105
 30
0.0
 10
136.9645941497866
 20
132.0191595807105
 30
0.0
 10
137.1599310638003
 20
131.9547362951363
 30
0.0
 10
137.313926831991
 20
131.825889723988
 30
0.0
 10
137.4679226001816
 20
131.6970431528396
 30
0.0
 10
137.5447482295027
 20
131.5254773976742
 30
0.0
 10
137.5447482295027
 20
131.3111924584916
 30
0.0
 10
137.5447482295027
 20
131.2092176321282
 30
0.0
 10
137.5299343189161
 20
131.1182671113176
 30
0.0
 10
137.4999619881944
 20
131.0386854056084
 30
0.0
 10
137.4703341670213
 20
130.9591036998991
 30
0.0
 10
137.4296820402953
 20
130.8943359047764
 30
0.0
 10
137.3783501175651
 20
130.8454155488859
 30
0.0
 10
137.3783501175651
 20
130.8454155488859
 30
0.0
 10
137.5543944968614
 20
130.6783284178512
 30
0.0
 10
137.5543944968614
 20
130.6783284178512
 30
0.0
 10
137.5543944968614
 20
130.6783284178512
 30
0.0
 10
137.4827365107682
 20
130.5970241643993
 30
0.0
 10
137.4827365107682
 20
130.5970241643993
 30
0.0
  0
HATCH
  5
273
330
26C
100
AcDbEntity
  8
Sichtbar schmal (ISO)
 62
   250
420
  2039067
440
 33554687
100
AcDbHatch
 10
0.0
 20
0.0
 30
0.0
210
0.0
220
0.0
230
1.0
  2
SOLID
 70
     1
 71
     1
 91
        3
 92
        1
 93
        1
 72
     4
 94
        3
 73
     0
 74
     0
 95
       26
 96
       22
 40
0.0
 40
0.0
 40
0.0
 40
0.0
 40
1.0
 40
1.0
 40
1.0
 40
2.0
 40
2.0
 40
2.0
 40
3.0
 40
3.0
 40
3.0
 40
4.0
 40
4.0
 40
4.0
 40
5.0
 40
5.0
 40
5.0
 40
6.0
 40
6.0
 40
6.0
 40
7.0
 40
7.0
 40
7.0
 40
7.0
 10
137.300835469147
 20
131.1551296330098
 10
137.3190944752188
 20
131.2081841034827
 10
137.328396233029
 20
131.2622721026011
 10
137.328396233029
 20
131.316704611268
 10
137.328396233029
 20
131.4924044810158
 10
137.2464029604801
 20
131.6171169375818
 10
137.0831054344792
 20
131.6904974714177
 10
136.984575703601
 20
131.7349392031774
 10
136.8715765716849
 20
131.7573323238315
 10
136.7441080387306
 20
131.7573323238315
 10
136.6614257470846
 20
131.7573323238315
 10
136.59011227054
 20
131.7500976233125
 10
136.5305121186451
 20
131.7363172413715
 10
136.4981282210838
 20
131.7287380313039
 10
136.4605766802946
 20
131.7159911780085
 10
136.4175129867289
 20
131.6984211910337
 10
136.4175129867289
 20
131.6984211910337
 10
137.1957600568469
 20
131.0073350366926
 10
137.1957600568469
 20
131.0073350366926
 10
137.2477809986741
 20
131.0528102970979
 10
137.2829209726237
 20
131.1024196720855
 10
137.300835469147
 20
131.1551296330098
 97
        0
 97
        1
330
270
 92
        1
 93
        1
 72
     4
 94
        3
 73
     0
 74
     0
 95
       26
 96
       22
 40
0.0
 40
0.0
 40
0.0
 40
0.0
 40
1.0
 40
1.0
 40
1.0
 40
2.0
 40
2.0
 40
2.0
 40
3.0
 40
3.0
 40
3.0
 40
4.0
 40
4.0
 40
4.0
 40
5.0
 40
5.0
 40
5.0
 40
6.0
 40
6.0
 40
6.0
 40
7.0
 40
7.0
 40
7.0
 40
7.0
 10
136.2269992063946
 20
131.5189317162522
 10
136.2004719711582
 20
131.4613986216485
 10
136.1873806083143
 20
131.3973198456229
 10
136.1873806083143
 20
131.3266953881752
 10
136.1873806083143
 20
131.191992154702
 10
136.2431911551753
 20
131.0841606660137
 10
136.3551567584459
 20
131.0028564125618
 10
136.466777852168
 20
130.9215521591099
 10
136.6104383339029
 20
130.8809000323839
 10
136.7861382036507
 20
130.8809000323839
 10
136.852628546516
 20
130.8809000323839
 10
136.9160183034446
 20
130.888134732903
 10
136.976651983985
 20
130.9022596243925
 10
137.010758429289
 20
130.9108723631056
 10
137.0538221228546
 20
130.9246527450466
 10
137.1065320837789
 20
130.944634298861
 10
137.1065320837789
 20
130.944634298861
 10
136.3244954086272
 20
131.6443331919153
 10
136.3244954086272
 20
131.6443331919153
 10
136.2859103391924
 20
131.6184949757759
 10
136.253526441631
 20
131.5764648108559
 10
136.2269992063946
 20
131.5189317162522
 97
        0
 97
        1
330
271
 92
        1
 93
        1
 72
     4
 94
        3
 73
     0
 74
     0
 95
       59
 96
       55
 40
0.0
 40
0.0
 40
0.0
 40
0.0
 40
1.0
 40
1.0
 40
1.0
 40
2.0
 40
2.0
 40
2.0
 40
3.0
 40
3.0
 40
3.0
 40
4.0
 40
4.0
 40
4.0
 40
5.0
 40
5.0
 40
5.0
 40
6.0
 40
6.0
 40
6.0
 40
7.0
 40
7.0
 40
7.0
 40
8.0
 40
8.0
 40
8.0
 40
9.0
 40
9.0
 40
9.0
 40
10.0
 40
10.0
 40
10.0
 40
11.0
 40
11.0
 40
11.0
 40
12.0
 40
12.0
 40
12.0
 40
13.0
 40
13.0
 40
13.0
 40
14.0
 40
14.0
 40
14.0
 40
15.0
 40
15.0
 40
15.0
 40
16.0
 40
16.0
 40
16.0
 40
17.0
 40
17.0
 40
17.0
 40
18.0
 40
18.0
 40
18.0
 40
18.0
 10
137.4827365107682
 20
130.5970241643993
 10
137.4827365107682
 20
130.5970241643993
 10
137.2973903736617
 20
130.7737575627927
 10
137.2973903736617
 20
130.7737575627927
 10
137.2295219926023
 20
130.7275932832903
 10
137.1530408728298
 20
130.6924533093408
 10
137.0686360334412
 20
130.667648621847
 10
136.9842311940525
 20
130.6424994248047
 10
136.8839789154318
 20
130.6300970810577
 10
136.7685682166759
 20
130.6300970810577
 10
136.5601399398183
 20
130.6300970810577
 10
136.3747938027118
 20
130.688663704307
 10
136.2125298053566
 20
130.805452441257
 10
136.0506103175498
 20
130.9225856877554
 10
135.9696505736464
 20
131.0931179142753
 10
135.9696505736464
 20
131.3170491208165
 10
135.9696505736464
 20
131.433493348218
 10
135.990321146558
 20
131.5358126841299
 10
136.0320068019295
 20
131.6236626190038
 10
136.0564669798748
 20
131.6753390512825
 10
136.0960855779551
 20
131.7345946936288
 10
136.1512071057191
 20
131.8010850364942
 10
136.1512071057191
 20
131.8010850364942
 10
135.9572482298996
 20
131.9767849062419
 10
135.9572482298996
 20
131.9767849062419
 10
135.9572482298996
 20
131.9767849062419
 10
136.0275281777987
 20
132.0480983827866
 10
136.0275281777987
 20
132.0480983827866
 10
136.0275281777987
 20
132.0480983827866
 10
136.2249321491035
 20
131.8710204748447
 10
136.2249321491035
 20
131.8710204748447
 10
136.3093369884921
 20
131.9292425885454
 10
136.4061441716276
 20
131.9705837343684
 10
136.5156982080586
 20
131.9953884218622
 10
136.5863226655062
 20
132.0112358610944
 10
136.6569471229538
 20
132.0191595807105
 10
136.7275715804014
 20
132.0191595807105
 10
136.9645941497866
 20
132.0191595807105
 10
137.1599310638003
 20
131.9547362951363
 10
137.313926831991
 20
131.825889723988
 10
137.4679226001816
 20
131.6970431528396
 10
137.5447482295027
 20
131.5254773976742
 10
137.5447482295027
 20
131.3111924584916
 10
137.5447482295027
 20
131.2092176321282
 10
137.5299343189161
 20
131.1182671113176
 10
137.4999619881944
 20
131.0386854056084
 10
137.4703341670213
 20
130.9591036998991
 10
137.4296820402953
 20
130.8943359047764
 10
137.3783501175651
 20
130.8454155488859
 10
137.3783501175651
 20
130.8454155488859
 10
137.5543944968614
 20
130.6783284178512
 10
137.5543944968614
 20
130.6783284178512
 10
137.5543944968614
 20
130.6783284178512
 10
137.4827365107682
 20
130.5970241643993
 10
137.4827365107682
 20
130.5970241643993
 97
        0
 97
        1
330
272
 75
     2
 76
     1
 98
        1
 10
0.0
 20
0.0
450
        0
451
        0
460
0.0
461
0.0
452
        0
462
0.0
453
        0
470

  0
SPLINE
  5
274
330
26C
100
AcDbEntity
  8
Sichtbar schmal (ISO)
100
AcDbSpline
210
0.0
220
0.0
230
1.0
 70
     9
 71
     3
 72
    41
 73
    37
 74
     0
 42
0.0000000001
 43
0.0000000001
 40
0.0
 40
0.0
 40
0.0
 40
0.0
 40
1.0
 40
1.0
 40
1.0
 40
2.0
 40
2.0
 40
2.0
 40
3.0
 40
3.0
 40
3.0
 40
4.0
 40
4.0
 40
4.0
 40
5.0
 40
5.0
 40
5.0
 40
6.0
 40
6.0
 40
6.0
 40
7.0
 40
7.0
 40
7.0
 40
8.0
 40
8.0
 40
8.0
 40
9.0
 40
9.0
 40
9.0
 40
10.0
 40
10.0
 40
10.0
 40
11.0
 40
11.0
 40
11.0
 40
12.0
 40
12.0
 40
12.0
 40
12.0
 10
136.6700384857977
 20
132.8232448669678
 30
0.0
 10
136.4585096230034
 20
133.1618977531678
 30
0.0
 10
136.3399983383108
 20
133.3338080178818
 30
0.0
 10
136.0609456040056
 20
133.3338080178818
 30
0.0
 10
135.8435600788863
 20
133.3338080178818
 30
0.0
 10
135.6998995971514
 20
133.1587971672311
 30
0.0
 10
135.6998995971514
 20
132.9472683044368
 30
0.0
 10
135.6998995971514
 20
132.667871060583
 30
0.0
 10
135.9565592108025
 20
132.5493597758904
 30
0.0
 10
136.1963378565759
 20
132.5579725146035
 30
0.0
 10
136.1963378565759
 20
132.5579725146035
 30
0.0
 10
136.1963378565759
 20
132.3181938688302
 30
0.0
 10
136.1963378565759
 20
132.3181938688302
 30
0.0
 10
135.7901610988649
 20
132.295800748176
 30
0.0
 10
135.4883707343571
 20
132.5383354703376
 30
0.0
 10
135.4883707343571
 20
132.9613931959263
 30
0.0
 10
135.4883707343571
 20
133.308314311291
 30
0.0
 10
135.6912868584383
 20
133.5877115551447
 30
0.0
 10
136.0637016803938
 20
133.5877115551447
 30
0.0
 10
136.4164794580834
 20
133.5877115551447
 30
0.0
 10
136.5911457991855
 20
133.3506889857595
 30
0.0
 10
136.7492756819585
 20
133.1026421108215
 30
0.0
 10
136.8987928260184
 20
132.854250726335
 30
0.0
 10
137.0310844926519
 20
132.5862222975826
 30
0.0
 10
137.2767198007502
 20
132.5410915467258
 30
0.0
 10
137.2767198007502
 20
132.5410915467258
 30
0.0
 10
137.2767198007502
 20
133.5677300013303
 30
0.0
 10
137.2767198007502
 20
133.5677300013303
 30
0.0
 10
137.2767198007502
 20
133.5677300013303
 30
0.0
 10
137.4882486635446
 20
133.5677300013303
 30
0.0
 10
137.4882486635446
 20
133.5677300013303
 30
0.0
 10
137.4882486635446
 20
133.5677300013303
 30
0.0
 10
137.4882486635446
 20
132.2620388124206
 30
0.0
 10
137.4882486635446
 20
132.2620388124206
 30
0.0
 10
137.0169596011624
 20
132.2985568245642
 30
0.0
 10
136.839537183672
 20
132.5410915467258
 30
0.0
 10
136.6700384857977
 20
132.8232448669678
 30
0.0
  0
HATCH
  5
275
330
26C
100
AcDbEntity
  8
Sichtbar schmal (ISO)
 62
    18
420
        0
440
 33554687
100
AcDbHatch
 10
0.0
 20
0.0
 30
0.0
210
0.0
220
0.0
230
1.0
  2
SOLID
 70
     1
 71
     1
 91
        1
 92
        1
 93
        1
 72
     4
 94
        3
 73
     0
 74
     0
 95
       41
 96
       37
 40
0.0
 40
0.0
 40
0.0
 40
0.0
 40
1.0
 40
1.0
 40
1.0
 40
2.0
 40
2.0
 40
2.0
 40
3.0
 40
3.0
 40
3.0
 40
4.0
 40
4.0
 40
4.0
 40
5.0
 40
5.0
 40
5.0
 40
6.0
 40
6.0
 40
6.0
 40
7.0
 40
7.0
 40
7.0
 40
8.0
 40
8.0
 40
8.0
 40
9.0
 40
9.0
 40
9.0
 40
10.0
 40
10.0
 40
10.0
 40
11.0
 40
11.0
 40
11.0
 40
12.0
 40
12.0
 40
12.0
 40
12.0
 10
136.6700384857977
 20
132.8232448669678
 10
136.4585096230034
 20
133.1618977531678
 10
136.3399983383108
 20
133.3338080178818
 10
136.0609456040056
 20
133.3338080178818
 10
135.8435600788863
 20
133.3338080178818
 10
135.6998995971514
 20
133.1587971672311
 10
135.6998995971514
 20
132.9472683044368
 10
135.6998995971514
 20
132.667871060583
 10
135.9565592108025
 20
132.5493597758904
 10
136.1963378565759
 20
132.5579725146035
 10
136.1963378565759
 20
132.5579725146035
 10
136.1963378565759
 20
132.3181938688302
 10
136.1963378565759
 20
132.3181938688302
 10
135.7901610988649
 20
132.295800748176
 10
135.4883707343571
 20
132.5383354703376
 10
135.4883707343571
 20
132.9613931959263
 10
135.4883707343571
 20
133.308314311291
 10
135.6912868584383
 20
133.5877115551447
 10
136.0637016803938
 20
133.5877115551447
 10
136.4164794580834
 20
133.5877115551447
 10
136.5911457991855
 20
133.3506889857595
 10
136.7492756819585
 20
133.1026421108215
 10
136.8987928260184
 20
132.854250726335
 10
137.0310844926519
 20
132.5862222975826
 10
137.2767198007502
 20
132.5410915467258
 10
137.2767198007502
 20
132.5410915467258
 10
137.2767198007502
 20
133.5677300013303
 10
137.2767198007502
 20
133.5677300013303
 10
137.2767198007502
 20
133.5677300013303
 10
137.4882486635446
 20
133.5677300013303
 10
137.4882486635446
 20
133.5677300013303
 10
137.4882486635446
 20
133.5677300013303
 10
137.4882486635446
 20
132.2620388124206
 10
137.4882486635446
 20
132.2620388124206
 10
137.0169596011624
 20
132.2985568245642
 10
136.839537183672
 20
132.5410915467258
 10
136.6700384857977
 20
132.8232448669678
 97
        0
 97
        1
330
274
 75
     2
 76
     1
 98
        1
 10
0.0
 20
0.0
450
        0
451
        0
460
0.0
461
0.0
452
        0
462
0.0
453
        0
470

  0
SPLINE
  5
276
330
26C
100
AcDbEntity
  8
Sichtbar schmal (ISO)
100
AcDbSpline
210
0.0
220
0.0
230
1.0
 70
     9
 71
     3
 72
    17
 73
    13
 74
     0
 42
0.0000000001
 43
0.0000000001
 40
0.0
 40
0.0
 40
0.0
 40
0.0
 40
1.0
 40
1.0
 40
1.0
 40
2.0
 40
2.0
 40
2.0
 40
3.0
 40
3.0
 40
3.0
 40
4.0
 40
4.0
 40
4.0
 40
4.0
 10
136.5036403738602
 20
134.9595485773712
 30
0.0
 10
136.2077066716772
 20
134.9595485773712
 30
0.0
 10
135.6998995971514
 20
134.956792500983
 30
0.0
 10
135.6998995971514
 20
134.5475151573353
 30
0.0
 10
135.6998995971514
 20
134.1385823232362
 30
0.0
 10
136.2077066716772
 20
134.135826246848
 30
0.0
 10
136.5036403738602
 20
134.135826246848
 30
0.0
 10
136.8026746619799
 20
134.135826246848
 30
0.0
 10
137.3104817365057
 20
134.1385823232362
 30
0.0
 10
137.3104817365057
 20
134.5475151573353
 30
0.0
 10
137.3104817365057
 20
134.956792500983
 30
0.0
 10
136.8026746619799
 20
134.9595485773712
 30
0.0
 10
136.5036403738602
 20
134.9595485773712
 30
0.0
  0
SPLINE
  5
277
330
26C
100
AcDbEntity
  8
Sichtbar schmal (ISO)
100
AcDbSpline
210
0.0
220
0.0
230
1.0
 70
     9
 71
     3
 72
    17
 73
    13
 74
     0
 42
0.0000000001
 43
0.0000000001
 40
0.0
 40
0.0
 40
0.0
 40
0.0
 40
1.0
 40
1.0
 40
1.0
 40
2.0
 40
2.0
 40
2.0
 40
3.0
 40
3.0
 40
3.0
 40
4.0
 40
4.0
 40
4.0
 40
4.0
 10
136.5067409597969
 20
133.881922709585
 30
0.0
 10
136.066457756782
 20
133.881922709585
 30
0.0
 10
135.4883707343571
 20
133.9211967981169
 30
0.0
 10
135.4883707343571
 20
134.5475151573353
 30
0.0
 10
135.4883707343571
 20
135.1738335165537
 30
0.0
 10
136.066457756782
 20
135.2131076050856
 30
0.0
 10
136.5067409597969
 20
135.2131076050856
 30
0.0
 10
136.9466796532633
 20
135.2131076050856
 30
0.0
 10
137.5220105993
 20
135.1738335165537
 30
0.0
 10
137.5220105993
 20
134.5475151573353
 30
0.0
 10
137.5220105993
 20
133.9211967981169
 30
0.0
 10
136.9466796532633
 20
133.881922709585
 30
0.0
 10
136.5067409597969
 20
133.881922709585
 30
0.0
  0
HATCH
  5
278
330
26C
100
AcDbEntity
  8
Sichtbar schmal (ISO)
 62
    18
420
        0
440
 33554687
100
AcDbHatch
 10
0.0
 20
0.0
 30
0.0
210
0.0
220
0.0
230
1.0
  2
SOLID
 70
     1
 71
     1
 91
        2
 92
        1
 93
        1
 72
     4
 94
        3
 73
     0
 74
     0
 95
       17
 96
       13
 40
0.0
 40
0.0
 40
0.0
 40
0.0
 40
1.0
 40
1.0
 40
1.0
 40
2.0
 40
2.0
 40
2.0
 40
3.0
 40
3.0
 40
3.0
 40
4.0
 40
4.0
 40
4.0
 40
4.0
 10
136.5036403738602
 20
134.9595485773712
 10
136.2077066716772
 20
134.9595485773712
 10
135.6998995971514
 20
134.956792500983
 10
135.6998995971514
 20
134.5475151573353
 10
135.6998995971514
 20
134.1385823232362
 10
136.2077066716772
 20
134.135826246848
 10
136.5036403738602
 20
134.135826246848
 10
136.8026746619799
 20
134.135826246848
 10
137.3104817365057
 20
134.1385823232362
 10
137.3104817365057
 20
134.5475151573353
 10
137.3104817365057
 20
134.956792500983
 10
136.8026746619799
 20
134.9595485773712
 10
136.5036403738602
 20
134.9595485773712
 97
        0
 97
        1
330
276
 92
        1
 93
        1
 72
     4
 94
        3
 73
     0
 74
     0
 95
       17
 96
       13
 40
0.0
 40
0.0
 40
0.0
 40
0.0
 40
1.0
 40
1.0
 40
1.0
 40
2.0
 40
2.0
 40
2.0
 40
3.0
 40
3.0
 40
3.0
 40
4.0
 40
4.0
 40
4.0
 40
4.0
 10
136.5067409597969
 20
133.881922709585
 10
136.066457756782
 20
133.881922709585
 10
135.4883707343571
 20
133.9211967981169
 10
135.4883707343571
 20
134.5475151573353
 10
135.4883707343571
 20
135.1738335165537
 10
136.066457756782
 20
135.2131076050856
 10
136.5067409597969
 20
135.2131076050856
 10
136.9466796532633
 20
135.2131076050856
 10
137.5220105993
 20
135.1738335165537
 10
137.5220105993
 20
134.5475151573353
 10
137.5220105993
 20
133.9211967981169
 10
136.9466796532633
 20
133.881922709585
 10
136.5067409597969
 20
133.881922709585
 97
        0
 97
        1
330
277
 75
     2
 76
     1
 98
        1
 10
0.0
 20
0.0
450
        0
451
        0
460
0.0
461
0.0
452
        0
462
0.0
453
        0
470

  0
SPLINE
  5
279
330
26C
100
AcDbEntity
  8
Sichtbar schmal (ISO)
100
AcDbSpline
210
0.0
220
0.0
230
1.0
 70
    11
 71
     3
 72
    17
 73
    13
 74
     0
 42
0.0000000001
 43
0.0000000001
 40
0.0
 40
0.0
 40
0.0
 40
0.0
 40
1.0
 40
1.0
 40
1.0
 40
2.0
 40
2.0
 40
2.0
 40
3.0
 40
3.0
 40
3.0
 40
4.0
 40
4.0
 40
4.0
 40
4.0
 10
136.8085313243048
 20
136.2886664155806
 30
0.0
 10
136.8085313243048
 20
136.2886664155806
 30
0.0
 10
135.8297796969453
 20
136.2886664155806
 30
0.0
 10
135.8297796969453
 20
136.2886664155806
 30
0.0
 10
135.8297796969453
 20
136.2886664155806
 30
0.0
 10
135.8297796969453
 20
136.2831542628042
 30
0.0
 10
135.8297796969453
 20
136.2831542628042
 30
0.0
 10
135.8297796969453
 20
136.2831542628042
 30
0.0
 10
136.8085313243048
 20
135.6175618150539
 30
0.0
 10
136.8085313243048
 20
135.6175618150539
 30
0.0
 10
136.8085313243048
 20
135.6175618150539
 30
0.0
 10
136.8085313243048
 20
136.2886664155806
 30
0.0
 10
136.8085313243048
 20
136.2886664155806
 30
0.0
  0
SPLINE
  5
27A
330
26C
100
AcDbEntity
  8
Sichtbar schmal (ISO)
100
AcDbSpline
210
0.0
220
0.0
230
1.0
 70
    11
 71
     3
 72
    38
 73
    34
 74
     0
 42
0.0000000001
 43
0.0000000001
 40
0.0
 40
0.0
 40
0.0
 40
0.0
 40
1.0
 40
1.0
 40
1.0
 40
2.0
 40
2.0
 40
2.0
 40
3.0
 40
3.0
 40
3.0
 40
4.0
 40
4.0
 40
4.0
 40
5.0
 40
5.0
 40
5.0
 40
6.0
 40
6.0
 40
6.0
 40
7.0
 40
7.0
 40
7.0
 40
8.0
 40
8.0
 40
8.0
 40
9.0
 40
9.0
 40
9.0
 40
10.0
 40
10.0
 40
10.0
 40
11.0
 40
11.0
 40
11.0
 40
11.0
 10
136.7885497704903
 20
135.411545105036
 30
0.0
 10
136.7885497704903
 20
135.411545105036
 30
0.0
 10
135.4883707343571
 20
136.3227728608846
 30
0.0
 10
135.4883707343571
 20
136.3227728608846
 30
0.0
 10
135.4883707343571
 20
136.3227728608846
 30
0.0
 10
135.4883707343571
 20
136.514664679413
 30
0.0
 10
135.4883707343571
 20
136.514664679413
 30
0.0
 10
135.4883707343571
 20
136.514664679413
 30
0.0
 10
136.8085313243048
 20
136.514664679413
 30
0.0
 10
136.8085313243048
 20
136.514664679413
 30
0.0
 10
136.8085313243048
 20
136.514664679413
 30
0.0
 10
136.8085313243048
 20
136.7854491845536
 30
0.0
 10
136.8085313243048
 20
136.7854491845536
 30
0.0
 10
136.8085313243048
 20
136.7854491845536
 30
0.0
 10
137.0200601870991
 20
136.7854491845536
 30
0.0
 10
137.0200601870991
 20
136.7854491845536
 30
0.0
 10
137.0200601870991
 20
136.7854491845536
 30
0.0
 10
137.0200601870991
 20
136.514664679413
 30
0.0
 10
137.0200601870991
 20
136.514664679413
 30
0.0
 10
137.0200601870991
 20
136.514664679413
 30
0.0
 10
137.4882486635446
 20
136.514664679413
 30
0.0
 10
137.4882486635446
 20
136.514664679413
 30
0.0
 10
137.4882486635446
 20
136.514664679413
 30
0.0
 10
137.4882486635446
 20
136.2886664155806
 30
0.0
 10
137.4882486635446
 20
136.2886664155806
 30
0.0
 10
137.4882486635446
 20
136.2886664155806
 30
0.0
 10
137.0200601870991
 20
136.2886664155806
 30
0.0
 10
137.0200601870991
 20
136.2886664155806
 30
0.0
 10
137.0200601870991
 20
136.2886664155806
 30
0.0
 10
137.0200601870991
 20
135.411545105036
 30
0.0
 10
137.0200601870991
 20
135.411545105036
 30
0.0
 10
137.0200601870991
 20
135.411545105036
 30
0.0
 10
136.7885497704903
 20
135.411545105036
 30
0.0
 10
136.7885497704903
 20
135.411545105036
 30
0.0
  0
HATCH
  5
27B
330
26C
100
AcDbEntity
  8
Sichtbar schmal (ISO)
 62
    18
420
        0
440
 33554687
100
AcDbHatch
 10
0.0
 20
0.0
 30
0.0
210
0.0
220
0.0
230
1.0
  2
SOLID
 70
     1
 71
     1
 91
        2
 92
        1
 93
        1
 72
     4
 94
        3
 73
     0
 74
     0
 95
       17
 96
       13
 40
0.0
 40
0.0
 40
0.0
 40
0.0
 40
1.0
 40
1.0
 40
1.0
 40
2.0
 40
2.0
 40
2.0
 40
3.0
 40
3.0
 40
3.0
 40
4.0
 40
4.0
 40
4.0
 40
4.0
 10
136.8085313243048
 20
136.2886664155806
 10
136.8085313243048
 20
136.2886664155806
 10
135.8297796969453
 20
136.2886664155806
 10
135.8297796969453
 20
136.2886664155806
 10
135.8297796969453
 20
136.2886664155806
 10
135.8297796969453
 20
136.2831542628042
 10
135.8297796969453
 20
136.2831542628042
 10
135.8297796969453
 20
136.2831542628042
 10
136.8085313243048
 20
135.6175618150539
 10
136.8085313243048
 20
135.6175618150539
 10
136.8085313243048
 20
135.6175618150539
 10
136.8085313243048
 20
136.2886664155806
 10
136.8085313243048
 20
136.2886664155806
 97
        0
 97
        1
330
279
 92
        1
 93
        1
 72
     4
 94
        3
 73
     0
 74
     0
 95
       38
 96
       34
 40
0.0
 40
0.0
 40
0.0
 40
0.0
 40
1.0
 40
1.0
 40
1.0
 40
2.0
 40
2.0
 40
2.0
 40
3.0
 40
3.0
 40
3.0
 40
4.0
 40
4.0
 40
4.0
 40
5.0
 40
5.0
 40
5.0
 40
6.0
 40
6.0
 40
6.0
 40
7.0
 40
7.0
 40
7.0
 40
8.0
 40
8.0
 40
8.0
 40
9.0
 40
9.0
 40
9.0
 40
10.0
 40
10.0
 40
10.0
 40
11.0
 40
11.0
 40
11.0
 40
11.0
 10
136.7885497704903
 20
135.411545105036
 10
136.7885497704903
 20
135.411545105036
 10
135.4883707343571
 20
136.3227728608846
 10
135.4883707343571
 20
136.3227728608846
 10
135.4883707343571
 20
136.3227728608846
 10
135.4883707343571
 20
136.514664679413
 10
135.4883707343571
 20
136.514664679413
 10
135.4883707343571
 20
136.514664679413
 10
136.8085313243048
 20
136.514664679413
 10
136.8085313243048
 20
136.514664679413
 10
136.8085313243048
 20
136.514664679413
 10
136.8085313243048
 20
136.7854491845536
 10
136.8085313243048
 20
136.7854491845536
 10
136.8085313243048
 20
136.7854491845536
 10
137.0200601870991
 20
136.7854491845536
 10
137.0200601870991
 20
136.7854491845536
 10
137.0200601870991
 20
136.7854491845536
 10
137.0200601870991
 20
136.514664679413
 10
137.0200601870991
 20
136.514664679413
 10
137.0200601870991
 20
136.514664679413
 10
137.4882486635446
 20
136.514664679413
 10
137.4882486635446
 20
136.514664679413
 10
137.4882486635446
 20
136.514664679413
 10
137.4882486635446
 20
136.2886664155806
 10
137.4882486635446
 20
136.2886664155806
 10
137.4882486635446
 20
136.2886664155806
 10
137.0200601870991
 20
136.2886664155806
 10
137.0200601870991
 20
136.2886664155806
 10
137.0200601870991
 20
136.2886664155806
 10
137.0200601870991
 20
135.411545105036
 10
137.0200601870991
 20
135.411545105036
 10
137.0200601870991
 20
135.411545105036
 10
136.7885497704903
 20
135.411545105036
 10
136.7885497704903
 20
135.411545105036
 97
        0
 97
        1
330
27A
 75
     2
 76
     1
 98
        1
 10
0.0
 20
0.0
450
        0
451
        0
460
0.0
461
0.0
452
        0
462
0.0
453
        0
470

  0
ENDBLK
  5
26F
330
26C
100
AcDbEntity
  8
0
100
AcDbBlockEnd
  0
BLOCK
  5
27E
330
27C
100
AcDbEntity
  8
0
100
AcDbBlockBegin
  2
Block_39
 70
     0
 10
0.0
 20
0.0
 30
0.0
  3
Block_39
  1

  0
INSERT
  5
281
330
27C
100
AcDbEntity
  8
Sichtbar schmal (ISO)
100
AcDbBlockReference
  2
Block_40
 10
0.0
 20
0.0
 30
0.0
  0
ENDBLK
  5
27F
330
27C
100
AcDbEntity
  8
0
100
AcDbBlockEnd
  0
BLOCK
  5
282
330
280
100
AcDbEntity
  8
0
100
AcDbBlockBegin
  2
Block_40
 70
     0
 10
0.0
 20
0.0
 30
0.0
  3
Block_40
  1

  0
SPLINE
  5
284
330
280
100
AcDbEntity
  8
Sichtbar schmal (ISO)
100
AcDbSpline
210
0.0
220
0.0
230
1.0
 70
     9
 71
     3
 72
    26
 73
    22
 74
     0
 42
0.0000000001
 43
0.0000000001
 40
0.0
 40
0.0
 40
0.0
 40
0.0
 40
1.0
 40
1.0
 40
1.0
 40
2.0
 40
2.0
 40
2.0
 40
3.0
 40
3.0
 40
3.0
 40
4.0
 40
4.0
 40
4.0
 40
5.0
 40
5.0
 40
5.0
 40
6.0
 40
6.0
 40
6.0
 40
7.0
 40
7.0
 40
7.0
 40
7.0
 10
144.3405435837065
 20
131.1682209958537
 30
0.0
 10
144.3588025897783
 20
131.2212754663266
 30
0.0
 10
144.36775983804
 20
131.275363465445
 30
0.0
 10
144.36775983804
 20
131.329795974112
 30
0.0
 10
144.36775983804
 20
131.5054958438597
 30
0.0
 10
144.2861110750396
 20
131.6302083004257
 30
0.0
 10
144.1224690394902
 20
131.7035888342616
 30
0.0
 10
144.0242838181606
 20
131.7480305660213
 30
0.0
 10
143.9112846862444
 20
131.7704236866754
 30
0.0
 10
143.7834716437416
 20
131.7704236866754
 30
0.0
 10
143.7007893520956
 20
131.7704236866754
 30
0.0
 10
143.6298203850995
 20
131.7631889861564
 30
0.0
 10
143.5698757236561
 20
131.7494086042154
 30
0.0
 10
143.5378363356433
 20
131.7418293941479
 30
0.0
 10
143.5002847948541
 20
131.7290825408524
 30
0.0
 10
143.4568765917399
 20
131.7115125538777
 30
0.0
 10
143.4568765917399
 20
131.7115125538777
 30
0.0
 10
144.2351236618579
 20
131.0204263995365
 30
0.0
 10
144.2351236618579
 20
131.0204263995365
 30
0.0
 10
144.2871446036851
 20
131.0659016599418
 30
0.0
 10
144.3222845776347
 20
131.1155110349294
 30
0.0
 10
144.3405435837065
 20
131.1682209958537
 30
0.0
  0
SPLINE
  5
285
330
280
100
AcDbEntity
  8
Sichtbar schmal (ISO)
100
AcDbSpline
210
0.0
220
0.0
230
1.0
 70
     9
 71
     3
 72
    26
 73
    22
 74
     0
 42
0.0000000001
 43
0.0000000001
 40
0.0
 40
0.0
 40
0.0
 40
0.0
 40
1.0
 40
1.0
 40
1.0
 40
2.0
 40
2.0
 40
2.0
 40
3.0
 40
3.0
 40
3.0
 40
4.0
 40
4.0
 40
4.0
 40
5.0
 40
5.0
 40
5.0
 40
6.0
 40
6.0
 40
6.0
 40
7.0
 40
7.0
 40
7.0
 40
7.0
 10
143.2663628114056
 20
131.5320230790961
 30
0.0
 10
143.2401800857177
 20
131.4744899844925
 30
0.0
 10
143.2267442133253
 20
131.4104112084668
 30
0.0
 10
143.2267442133253
 20
131.3397867510192
 30
0.0
 10
143.2267442133253
 20
131.2050835175459
 30
0.0
 10
143.2825547601863
 20
131.0972520288576
 30
0.0
 10
143.3945203634569
 20
131.0159477754057
 30
0.0
 10
143.506141457179
 20
130.9346435219538
 30
0.0
 10
143.6501464484624
 20
130.8939913952279
 30
0.0
 10
143.8258463182102
 20
130.8939913952279
 30
0.0
 10
143.891992151527
 20
130.8939913952279
 30
0.0
 10
143.9553819084556
 20
130.9012260957469
 30
0.0
 10
144.0163600985445
 20
130.9153509872364
 30
0.0
 10
144.0501220343
 20
130.9239637259495
 30
0.0
 10
144.0935302374141
 20
130.9377441078906
 30
0.0
 10
144.1458956887899
 20
130.957725661705
 30
0.0
 10
144.1458956887899
 20
130.957725661705
 30
0.0
 10
143.3642035231867
 20
131.6574245547593
 30
0.0
 10
143.3642035231867
 20
131.6574245547593
 30
0.0
 10
143.3256184537519
 20
131.6315863386199
 30
0.0
 10
143.292890046642
 20
131.5895561736998
 30
0.0
 10
143.2663628114056
 20
131.5320230790961
 30
0.0
  0
SPLINE
  5
286
330
280
100
AcDbEntity
  8
Sichtbar schmal (ISO)
100
AcDbSpline
210
0.0
220
0.0
230
1.0
 70
    11
 71
     3
 72
    59
 73
    55
 74
     0
 42
0.0000000001
 43
0.0000000001
 40
0.0
 40
0.0
 40
0.0
 40
0.0
 40
1.0
 40
1.0
 40
1.0
 40
2.0
 40
2.0
 40
2.0
 40
3.0
 40
3.0
 40
3.0
 40
4.0
 40
4.0
 40
4.0
 40
5.0
 40
5.0
 40
5.0
 40
6.0
 40
6.0
 40
6.0
 40
7.0
 40
7.0
 40
7.0
 40
8.0
 40
8.0
 40
8.0
 40
9.0
 40
9.0
 40
9.0
 40
10.0
 40
10.0
 40
10.0
 40
11.0
 40
11.0
 40
11.0
 40
12.0
 40
12.0
 40
12.0
 40
13.0
 40
13.0
 40
13.0
 40
14.0
 40
14.0
 40
14.0
 40
15.0
 40
15.0
 40
15.0
 40
16.0
 40
16.0
 40
16.0
 40
17.0
 40
17.0
 40
17.0
 40
18.0
 40
18.0
 40
18.0
 40
18.0
 10
144.5221001157792
 20
130.6101155272433
 30
0.0
 10
144.5221001157792
 20
130.6101155272433
 30
0.0
 10
144.3367539786727
 20
130.7868489256366
 30
0.0
 10
144.3367539786727
 20
130.7868489256366
 30
0.0
 10
144.2688855976133
 20
130.7406846461342
 30
0.0
 10
144.1927489873893
 20
130.7055446721847
 30
0.0
 10
144.1083441480007
 20
130.6807399846909
 30
0.0
 10
144.0235947990635
 20
130.6555907876486
 30
0.0
 10
143.9236870299913
 20
130.6431884439017
 30
0.0
 10
143.8079318216869
 20
130.6431884439017
 30
0.0
 10
143.5995035448293
 20
130.6431884439017
 30
0.0
 10
143.4141574077228
 20
130.701755067151
 30
0.0
 10
143.2522379199161
 20
130.8185438041009
 30
0.0
 10
143.0899739225608
 20
130.9356770505994
 30
0.0
 10
143.0090141786575
 20
131.1062092771193
 30
0.0
 10
143.0090141786575
 20
131.3301404836605
 30
0.0
 10
143.0090141786575
 20
131.446584711062
 30
0.0
 10
143.0300292611175
 20
131.5489040469739
 30
0.0
 10
143.0713704069405
 20
131.6367539818477
 30
0.0
 10
143.0958305848857
 20
131.6884304141265
 30
0.0
 10
143.1354491829661
 20
131.7476860564728
 30
0.0
 10
143.1905707107301
 20
131.8141763993381
 30
0.0
 10
143.1905707107301
 20
131.8141763993381
 30
0.0
 10
142.9969563444591
 20
131.9898762690858
 30
0.0
 10
142.9969563444591
 20
131.9898762690858
 30
0.0
 10
142.9969563444591
 20
131.9898762690858
 30
0.0
 10
143.0668917828096
 20
132.0611897456305
 30
0.0
 10
143.0668917828096
 20
132.0611897456305
 30
0.0
 10
143.0668917828096
 20
132.0611897456305
 30
0.0
 10
143.2642957541145
 20
131.8841118376887
 30
0.0
 10
143.2642957541145
 20
131.8841118376887
 30
0.0
 10
143.3490451030516
 20
131.9423339513894
 30
0.0
 10
143.4458522861871
 20
131.9836750972124
 30
0.0
 10
143.5550618130696
 20
132.0084797847062
 30
0.0
 10
143.6256862705172
 20
132.0243272239383
 30
0.0
 10
143.6966552375133
 20
132.0322509435544
 30
0.0
 10
143.7672796949609
 20
132.0322509435544
 30
0.0
 10
144.0043022643461
 20
132.0322509435544
 30
0.0
 10
144.1996391783598
 20
131.9678276579802
 30
0.0
 10
144.3532904370019
 20
131.8389810868319
 30
0.0
 10
144.5072862051926
 20
131.7101345156836
 30
0.0
 10
144.5841118345137
 20
131.5385687605181
 30
0.0
 10
144.5841118345137
 20
131.3242838213356
 30
0.0
 10
144.5841118345137
 20
131.2223089949722
 30
0.0
 10
144.5692979239271
 20
131.1313584741616
 30
0.0
 10
144.5396701027539
 20
131.0517767684523
 30
0.0
 10
144.5096977720323
 20
130.972195062743
 30
0.0
 10
144.4693901548549
 20
130.9074272676203
 30
0.0
 10
144.4180582321246
 20
130.8585069117298
 30
0.0
 10
144.4180582321246
 20
130.8585069117298
 30
0.0
 10
144.5937581018724
 20
130.6914197806952
 30
0.0
 10
144.5937581018724
 20
130.6914197806952
 30
0.0
 10
144.5937581018724
 20
130.6914197806952
 30
0.0
 10
144.5221001157792
 20
130.6101155272433
 30
0.0
 10
144.5221001157792
 20
130.6101155272433
 30
0.0
  0
HATCH
  5
287
330
280
100
AcDbEntity
  8
Sichtbar schmal (ISO)
 62
   250
420
  2039067
440
 33554687
100
AcDbHatch
 10
0.0
 20
0.0
 30
0.0
210
0.0
220
0.0
230
1.0
  2
SOLID
 70
     1
 71
     1
 91
        3
 92
        1
 93
        1
 72
     4
 94
        3
 73
     0
 74
     0
 95
       26
 96
       22
 40
0.0
 40
0.0
 40
0.0
 40
0.0
 40
1.0
 40
1.0
 40
1.0
 40
2.0
 40
2.0
 40
2.0
 40
3.0
 40
3.0
 40
3.0
 40
4.0
 40
4.0
 40
4.0
 40
5.0
 40
5.0
 40
5.0
 40
6.0
 40
6.0
 40
6.0
 40
7.0
 40
7.0
 40
7.0
 40
7.0
 10
144.3405435837065
 20
131.1682209958537
 10
144.3588025897783
 20
131.2212754663266
 10
144.36775983804
 20
131.275363465445
 10
144.36775983804
 20
131.329795974112
 10
144.36775983804
 20
131.5054958438597
 10
144.2861110750396
 20
131.6302083004257
 10
144.1224690394902
 20
131.7035888342616
 10
144.0242838181606
 20
131.7480305660213
 10
143.9112846862444
 20
131.7704236866754
 10
143.7834716437416
 20
131.7704236866754
 10
143.7007893520956
 20
131.7704236866754
 10
143.6298203850995
 20
131.7631889861564
 10
143.5698757236561
 20
131.7494086042154
 10
143.5378363356433
 20
131.7418293941479
 10
143.5002847948541
 20
131.7290825408524
 10
143.4568765917399
 20
131.7115125538777
 10
143.4568765917399
 20
131.7115125538777
 10
144.2351236618579
 20
131.0204263995365
 10
144.2351236618579
 20
131.0204263995365
 10
144.2871446036851
 20
131.0659016599418
 10
144.3222845776347
 20
131.1155110349294
 10
144.3405435837065
 20
131.1682209958537
 97
        0
 97
        1
330
284
 92
        1
 93
        1
 72
     4
 94
        3
 73
     0
 74
     0
 95
       26
 96
       22
 40
0.0
 40
0.0
 40
0.0
 40
0.0
 40
1.0
 40
1.0
 40
1.0
 40
2.0
 40
2.0
 40
2.0
 40
3.0
 40
3.0
 40
3.0
 40
4.0
 40
4.0
 40
4.0
 40
5.0
 40
5.0
 40
5.0
 40
6.0
 40
6.0
 40
6.0
 40
7.0
 40
7.0
 40
7.0
 40
7.0
 10
143.2663628114056
 20
131.5320230790961
 10
143.2401800857177
 20
131.4744899844925
 10
143.2267442133253
 20
131.4104112084668
 10
143.2267442133253
 20
131.3397867510192
 10
143.2267442133253
 20
131.2050835175459
 10
143.2825547601863
 20
131.0972520288576
 10
143.3945203634569
 20
131.0159477754057
 10
143.506141457179
 20
130.9346435219538
 10
143.6501464484624
 20
130.8939913952279
 10
143.8258463182102
 20
130.8939913952279
 10
143.891992151527
 20
130.8939913952279
 10
143.9553819084556
 20
130.9012260957469
 10
144.0163600985445
 20
130.9153509872364
 10
144.0501220343
 20
130.9239637259495
 10
144.0935302374141
 20
130.9377441078906
 10
144.1458956887899
 20
130.957725661705
 10
144.1458956887899
 20
130.957725661705
 10
143.3642035231867
 20
131.6574245547593
 10
143.3642035231867
 20
131.6574245547593
 10
143.3256184537519
 20
131.6315863386199
 10
143.292890046642
 20
131.5895561736998
 10
143.2663628114056
 20
131.5320230790961
 97
        0
 97
        1
330
285
 92
        1
 93
        1
 72
     4
 94
        3
 73
     0
 74
     0
 95
       59
 96
       55
 40
0.0
 40
0.0
 40
0.0
 40
0.0
 40
1.0
 40
1.0
 40
1.0
 40
2.0
 40
2.0
 40
2.0
 40
3.0
 40
3.0
 40
3.0
 40
4.0
 40
4.0
 40
4.0
 40
5.0
 40
5.0
 40
5.0
 40
6.0
 40
6.0
 40
6.0
 40
7.0
 40
7.0
 40
7.0
 40
8.0
 40
8.0
 40
8.0
 40
9.0
 40
9.0
 40
9.0
 40
10.0
 40
10.0
 40
10.0
 40
11.0
 40
11.0
 40
11.0
 40
12.0
 40
12.0
 40
12.0
 40
13.0
 40
13.0
 40
13.0
 40
14.0
 40
14.0
 40
14.0
 40
15.0
 40
15.0
 40
15.0
 40
16.0
 40
16.0
 40
16.0
 40
17.0
 40
17.0
 40
17.0
 40
18.0
 40
18.0
 40
18.0
 40
18.0
 10
144.5221001157792
 20
130.6101155272433
 10
144.5221001157792
 20
130.6101155272433
 10
144.3367539786727
 20
130.7868489256366
 10
144.3367539786727
 20
130.7868489256366
 10
144.2688855976133
 20
130.7406846461342
 10
144.1927489873893
 20
130.7055446721847
 10
144.1083441480007
 20
130.6807399846909
 10
144.0235947990635
 20
130.6555907876486
 10
143.9236870299913
 20
130.6431884439017
 10
143.8079318216869
 20
130.6431884439017
 10
143.5995035448293
 20
130.6431884439017
 10
143.4141574077228
 20
130.701755067151
 10
143.2522379199161
 20
130.8185438041009
 10
143.0899739225608
 20
130.9356770505994
 10
143.0090141786575
 20
131.1062092771193
 10
143.0090141786575
 20
131.3301404836605
 10
143.0090141786575
 20
131.446584711062
 10
143.0300292611175
 20
131.5489040469739
 10
143.0713704069405
 20
131.6367539818477
 10
143.0958305848857
 20
131.6884304141265
 10
143.1354491829661
 20
131.7476860564728
 10
143.1905707107301
 20
131.8141763993381
 10
143.1905707107301
 20
131.8141763993381
 10
142.9969563444591
 20
131.9898762690858
 10
142.9969563444591
 20
131.9898762690858
 10
142.9969563444591
 20
131.9898762690858
 10
143.0668917828096
 20
132.0611897456305
 10
143.0668917828096
 20
132.0611897456305
 10
143.0668917828096
 20
132.0611897456305
 10
143.2642957541145
 20
131.8841118376887
 10
143.2642957541145
 20
131.8841118376887
 10
143.3490451030516
 20
131.9423339513894
 10
143.4458522861871
 20
131.9836750972124
 10
143.5550618130696
 20
132.0084797847062
 10
143.6256862705172
 20
132.0243272239383
 10
143.6966552375133
 20
132.0322509435544
 10
143.7672796949609
 20
132.0322509435544
 10
144.0043022643461
 20
132.0322509435544
 10
144.1996391783598
 20
131.9678276579802
 10
144.3532904370019
 20
131.8389810868319
 10
144.5072862051926
 20
131.7101345156836
 10
144.5841118345137
 20
131.5385687605181
 10
144.5841118345137
 20
131.3242838213356
 10
144.5841118345137
 20
131.2223089949722
 10
144.5692979239271
 20
131.1313584741616
 10
144.5396701027539
 20
131.0517767684523
 10
144.5096977720323
 20
130.972195062743
 10
144.4693901548549
 20
130.9074272676203
 10
144.4180582321246
 20
130.8585069117298
 10
144.4180582321246
 20
130.8585069117298
 10
144.5937581018724
 20
130.6914197806952
 10
144.5937581018724
 20
130.6914197806952
 10
144.5937581018724
 20
130.6914197806952
 10
144.5221001157792
 20
130.6101155272433
 10
144.5221001157792
 20
130.6101155272433
 97
        0
 97
        1
330
286
 75
     2
 76
     1
 98
        1
 10
0.0
 20
0.0
450
        0
451
        0
460
0.0
461
0.0
452
        0
462
0.0
453
        0
470

  0
SPLINE
  5
288
330
280
100
AcDbEntity
  8
Sichtbar schmal (ISO)
100
AcDbSpline
210
0.0
220
0.0
230
1.0
 70
     9
 71
     3
 72
    41
 73
    37
 74
     0
 42
0.0000000001
 43
0.0000000001
 40
0.0
 40
0.0
 40
0.0
 40
0.0
 40
1.0
 40
1.0
 40
1.0
 40
2.0
 40
2.0
 40
2.0
 40
3.0
 40
3.0
 40
3.0
 40
4.0
 40
4.0
 40
4.0
 40
5.0
 40
5.0
 40
5.0
 40
6.0
 40
6.0
 40
6.0
 40
7.0
 40
7.0
 40
7.0
 40
8.0
 40
8.0
 40
8.0
 40
9.0
 40
9.0
 40
9.0
 40
10.0
 40
10.0
 40
10.0
 40
11.0
 40
11.0
 40
11.0
 40
12.0
 40
12.0
 40
12.0
 40
12.0
 10
143.7097466003573
 20
132.8363362298117
 30
0.0
 10
143.4982177375629
 20
133.1749891160118
 30
0.0
 10
143.3797064528703
 20
133.3468993807257
 30
0.0
 10
143.1003092090166
 20
133.3468993807257
 30
0.0
 10
142.8832681934458
 20
133.3468993807257
 30
0.0
 10
142.7392632021624
 20
133.1718885300751
 30
0.0
 10
142.7392632021624
 20
132.9603596672807
 30
0.0
 10
142.7392632021624
 20
132.680962423427
 30
0.0
 10
142.9959228158135
 20
132.5624511387344
 30
0.0
 10
143.2357014615869
 20
132.5710638774475
 30
0.0
 10
143.2357014615869
 20
132.5710638774475
 30
0.0
 10
143.2357014615869
 20
132.3312852316741
 30
0.0
 10
143.2357014615869
 20
132.3312852316741
 30
0.0
 10
142.8295247038759
 20
132.30889211102
 30
0.0
 10
142.527734339368
 20
132.5514268331815
 30
0.0
 10
142.527734339368
 20
132.9744845587703
 30
0.0
 10
142.527734339368
 20
133.3214056741349
 30
0.0
 10
142.7309949729978
 20
133.6008029179887
 30
0.0
 10
143.1034097949533
 20
133.6008029179887
 30
0.0
 10
143.4558430630944
 20
133.6008029179887
 30
0.0
 10
143.6308539137451
 20
133.3637803486035
 30
0.0
 10
143.7886392869695
 20
133.1157334736655
 30
0.0
 10
143.9381564310293
 20
132.867342089179
 30
0.0
 10
144.0707926072114
 20
132.5993136604265
 30
0.0
 10
144.3160834057612
 20
132.5541829095698
 30
0.0
 10
144.3160834057612
 20
132.5541829095698
 30
0.0
 10
144.3160834057612
 20
133.5808213641742
 30
0.0
 10
144.3160834057612
 20
133.5808213641742
 30
0.0
 10
144.3160834057612
 20
133.5808213641742
 30
0.0
 10
144.5276122685556
 20
133.5808213641742
 30
0.0
 10
144.5276122685556
 20
133.5808213641742
 30
0.0
 10
144.5276122685556
 20
133.5808213641742
 30
0.0
 10
144.5276122685556
 20
132.2751301752645
 30
0.0
 10
144.5276122685556
 20
132.2751301752645
 30
0.0
 10
144.0566677157219
 20
132.3116481874082
 30
0.0
 10
143.878900788683
 20
132.5541829095698
 30
0.0
 10
143.7097466003573
 20
132.8363362298117
 30
0.0
  0
HATCH
  5
289
330
280
100
AcDbEntity
  8
Sichtbar schmal (ISO)
 62
    18
420
        0
440
 33554687
100
AcDbHatch
 10
0.0
 20
0.0
 30
0.0
210
0.0
220
0.0
230
1.0
  2
SOLID
 70
     1
 71
     1
 91
        1
 92
        1
 93
        1
 72
     4
 94
        3
 73
     0
 74
     0
 95
       41
 96
       37
 40
0.0
 40
0.0
 40
0.0
 40
0.0
 40
1.0
 40
1.0
 40
1.0
 40
2.0
 40
2.0
 40
2.0
 40
3.0
 40
3.0
 40
3.0
 40
4.0
 40
4.0
 40
4.0
 40
5.0
 40
5.0
 40
5.0
 40
6.0
 40
6.0
 40
6.0
 40
7.0
 40
7.0
 40
7.0
 40
8.0
 40
8.0
 40
8.0
 40
9.0
 40
9.0
 40
9.0
 40
10.0
 40
10.0
 40
10.0
 40
11.0
 40
11.0
 40
11.0
 40
12.0
 40
12.0
 40
12.0
 40
12.0
 10
143.7097466003573
 20
132.8363362298117
 10
143.4982177375629
 20
133.1749891160118
 10
143.3797064528703
 20
133.3468993807257
 10
143.1003092090166
 20
133.3468993807257
 10
142.8832681934458
 20
133.3468993807257
 10
142.7392632021624
 20
133.1718885300751
 10
142.7392632021624
 20
132.9603596672807
 10
142.7392632021624
 20
132.680962423427
 10
142.9959228158135
 20
132.5624511387344
 10
143.2357014615869
 20
132.5710638774475
 10
143.2357014615869
 20
132.5710638774475
 10
143.2357014615869
 20
132.3312852316741
 10
143.2357014615869
 20
132.3312852316741
 10
142.8295247038759
 20
132.30889211102
 10
142.527734339368
 20
132.5514268331815
 10
142.527734339368
 20
132.9744845587703
 10
142.527734339368
 20
133.3214056741349
 10
142.7309949729978
 20
133.6008029179887
 10
143.1034097949533
 20
133.6008029179887
 10
143.4558430630944
 20
133.6008029179887
 10
143.6308539137451
 20
133.3637803486035
 10
143.7886392869695
 20
133.1157334736655
 10
143.9381564310293
 20
132.867342089179
 10
144.0707926072114
 20
132.5993136604265
 10
144.3160834057612
 20
132.5541829095698
 10
144.3160834057612
 20
132.5541829095698
 10
144.3160834057612
 20
133.5808213641742
 10
144.3160834057612
 20
133.5808213641742
 10
144.3160834057612
 20
133.5808213641742
 10
144.5276122685556
 20
133.5808213641742
 10
144.5276122685556
 20
133.5808213641742
 10
144.5276122685556
 20
133.5808213641742
 10
144.5276122685556
 20
132.2751301752645
 10
144.5276122685556
 20
132.2751301752645
 10
144.0566677157219
 20
132.3116481874082
 10
143.878900788683
 20
132.5541829095698
 10
143.7097466003573
 20
132.8363362298117
 97
        0
 97
        1
330
288
 75
     2
 76
     1
 98
        1
 10
0.0
 20
0.0
450
        0
451
        0
460
0.0
461
0.0
452
        0
462
0.0
453
        0
470

  0
SPLINE
  5
28A
330
280
100
AcDbEntity
  8
Sichtbar schmal (ISO)
100
AcDbSpline
210
0.0
220
0.0
230
1.0
 70
    11
 71
     3
 72
    26
 73
    22
 74
     0
 42
0.0000000001
 43
0.0000000001
 40
0.0
 40
0.0
 40
0.0
 40
0.0
 40
1.0
 40
1.0
 40
1.0
 40
2.0
 40
2.0
 40
2.0
 40
3.0
 40
3.0
 40
3.0
 40
4.0
 40
4.0
 40
4.0
 40
5.0
 40
5.0
 40
5.0
 40
6.0
 40
6.0
 40
6.0
 40
7.0
 40
7.0
 40
7.0
 40
7.0
 10
143.0947970562402
 20
134.5409694759134
 30
0.0
 10
143.0947970562402
 20
134.5409694759134
 30
0.0
 10
143.0947970562402
 20
134.0217935862862
 30
0.0
 10
143.0947970562402
 20
134.0217935862862
 30
0.0
 10
143.0947970562402
 20
134.0217935862862
 30
0.0
 10
142.9029052377118
 20
134.0217935862862
 30
0.0
 10
142.9029052377118
 20
134.0217935862862
 30
0.0
 10
142.9029052377118
 20
134.295334167815
 30
0.0
 10
142.8326252898127
 20
134.5437255523015
 30
0.0
 10
142.527734339368
 20
134.5971245323229
 30
0.0
 10
142.527734339368
 20
134.5971245323229
 30
0.0
 10
142.527734339368
 20
134.7807481216867
 30
0.0
 10
142.527734339368
 20
134.7807481216867
 30
0.0
 10
142.527734339368
 20
134.7807481216867
 30
0.0
 10
144.5276122685556
 20
134.7807481216867
 30
0.0
 10
144.5276122685556
 20
134.7807481216867
 30
0.0
 10
144.5276122685556
 20
134.7807481216867
 30
0.0
 10
144.5276122685556
 20
134.5409694759134
 30
0.0
 10
144.5276122685556
 20
134.5409694759134
 30
0.0
 10
144.5276122685556
 20
134.5409694759134
 30
0.0
 10
143.0947970562402
 20
134.5409694759134
 30
0.0
 10
143.0947970562402
 20
134.5409694759134
 30
0.0
  0
HATCH
  5
28B
330
280
100
AcDbEntity
  8
Sichtbar schmal (ISO)
 62
    18
420
        0
440
 33554687
100
AcDbHatch
 10
0.0
 20
0.0
 30
0.0
210
0.0
220
0.0
230
1.0
  2
SOLID
 70
     1
 71
     1
 91
        1
 92
        1
 93
        1
 72
     4
 94
        3
 73
     0
 74
     0
 95
       26
 96
       22
 40
0.0
 40
0.0
 40
0.0
 40
0.0
 40
1.0
 40
1.0
 40
1.0
 40
2.0
 40
2.0
 40
2.0
 40
3.0
 40
3.0
 40
3.0
 40
4.0
 40
4.0
 40
4.0
 40
5.0
 40
5.0
 40
5.0
 40
6.0
 40
6.0
 40
6.0
 40
7.0
 40
7.0
 40
7.0
 40
7.0
 10
143.0947970562402
 20
134.5409694759134
 10
143.0947970562402
 20
134.5409694759134
 10
143.0947970562402
 20
134.0217935862862
 10
143.0947970562402
 20
134.0217935862862
 10
143.0947970562402
 20
134.0217935862862
 10
142.9029052377118
 20
134.0217935862862
 10
142.9029052377118
 20
134.0217935862862
 10
142.9029052377118
 20
134.295334167815
 10
142.8326252898127
 20
134.5437255523015
 10
142.527734339368
 20
134.5971245323229
 10
142.527734339368
 20
134.5971245323229
 10
142.527734339368
 20
134.7807481216867
 10
142.527734339368
 20
134.7807481216867
 10
142.527734339368
 20
134.7807481216867
 10
144.5276122685556
 20
134.7807481216867
 10
144.5276122685556
 20
134.7807481216867
 10
144.5276122685556
 20
134.7807481216867
 10
144.5276122685556
 20
134.5409694759134
 10
144.5276122685556
 20
134.5409694759134
 10
144.5276122685556
 20
134.5409694759134
 10
143.0947970562402
 20
134.5409694759134
 10
143.0947970562402
 20
134.5409694759134
 97
        0
 97
        1
330
28A
 75
     2
 76
     1
 98
        1
 10
0.0
 20
0.0
450
        0
451
        0
460
0.0
461
0.0
452
        0
462
0.0
453
        0
470

  0
SPLINE
  5
28C
330
280
100
AcDbEntity
  8
Sichtbar schmal (ISO)
100
AcDbSpline
210
0.0
220
0.0
230
1.0
 70
    11
 71
     3
 72
    17
 73
    13
 74
     0
 42
0.0000000001
 43
0.0000000001
 40
0.0
 40
0.0
 40
0.0
 40
0.0
 40
1.0
 40
1.0
 40
1.0
 40
2.0
 40
2.0
 40
2.0
 40
3.0
 40
3.0
 40
3.0
 40
4.0
 40
4.0
 40
4.0
 40
4.0
 10
143.8478949293158
 20
136.3017577784245
 30
0.0
 10
143.8478949293158
 20
136.3017577784245
 30
0.0
 10
142.8691433019563
 20
136.3017577784245
 30
0.0
 10
142.8691433019563
 20
136.3017577784245
 30
0.0
 10
142.8691433019563
 20
136.3017577784245
 30
0.0
 10
142.8691433019563
 20
136.2962456256481
 30
0.0
 10
142.8691433019563
 20
136.2962456256481
 30
0.0
 10
142.8691433019563
 20
136.2962456256481
 30
0.0
 10
143.8478949293158
 20
135.6306531778979
 30
0.0
 10
143.8478949293158
 20
135.6306531778979
 30
0.0
 10
143.8478949293158
 20
135.6306531778979
 30
0.0
 10
143.8478949293158
 20
136.3017577784245
 30
0.0
 10
143.8478949293158
 20
136.3017577784245
 30
0.0
  0
SPLINE
  5
28D
330
280
100
AcDbEntity
  8
Sichtbar schmal (ISO)
100
AcDbSpline
210
0.0
220
0.0
230
1.0
 70
    11
 71
     3
 72
    38
 73
    34
 74
     0
 42
0.0000000001
 43
0.0000000001
 40
0.0
 40
0.0
 40
0.0
 40
0.0
 40
1.0
 40
1.0
 40
1.0
 40
2.0
 40
2.0
 40
2.0
 40
3.0
 40
3.0
 40
3.0
 40
4.0
 40
4.0
 40
4.0
 40
5.0
 40
5.0
 40
5.0
 40
6.0
 40
6.0
 40
6.0
 40
7.0
 40
7.0
 40
7.0
 40
8.0
 40
8.0
 40
8.0
 40
9.0
 40
9.0
 40
9.0
 40
10.0
 40
10.0
 40
10.0
 40
11.0
 40
11.0
 40
11.0
 40
11.0
 10
143.8282578850499
 20
135.4246364678799
 30
0.0
 10
143.8282578850499
 20
135.4246364678799
 30
0.0
 10
142.527734339368
 20
136.3358642237285
 30
0.0
 10
142.527734339368
 20
136.3358642237285
 30
0.0
 10
142.527734339368
 20
136.3358642237285
 30
0.0
 10
142.527734339368
 20
136.5277560422569
 30
0.0
 10
142.527734339368
 20
136.5277560422569
 30
0.0
 10
142.527734339368
 20
136.5277560422569
 30
0.0
 10
143.8478949293158
 20
136.5277560422569
 30
0.0
 10
143.8478949293158
 20
136.5277560422569
 30
0.0
 10
143.8478949293158
 20
136.5277560422569
 30
0.0
 10
143.8478949293158
 20
136.7985405473976
 30
0.0
 10
143.8478949293158
 20
136.7985405473976
 30
0.0
 10
143.8478949293158
 20
136.7985405473976
 30
0.0
 10
144.0594237921101
 20
136.7985405473976
 30
0.0
 10
144.0594237921101
 20
136.7985405473976
 30
0.0
 10
144.0594237921101
 20
136.7985405473976
 30
0.0
 10
144.0594237921101
 20
136.5277560422569
 30
0.0
 10
144.0594237921101
 20
136.5277560422569
 30
0.0
 10
144.0594237921101
 20
136.5277560422569
 30
0.0
 10
144.5276122685556
 20
136.5277560422569
 30
0.0
 10
144.5276122685556
 20
136.5277560422569
 30
0.0
 10
144.5276122685556
 20
136.5277560422569
 30
0.0
 10
144.5276122685556
 20
136.3017577784245
 30
0.0
 10
144.5276122685556
 20
136.3017577784245
 30
0.0
 10
144.5276122685556
 20
136.3017577784245
 30
0.0
 10
144.0594237921101
 20
136.3017577784245
 30
0.0
 10
144.0594237921101
 20
136.3017577784245
 30
0.0
 10
144.0594237921101
 20
136.3017577784245
 30
0.0
 10
144.0594237921101
 20
135.4246364678799
 30
0.0
 10
144.0594237921101
 20
135.4246364678799
 30
0.0
 10
144.0594237921101
 20
135.4246364678799
 30
0.0
 10
143.8282578850499
 20
135.4246364678799
 30
0.0
 10
143.8282578850499
 20
135.4246364678799
 30
0.0
  0
HATCH
  5
28E
330
280
100
AcDbEntity
  8
Sichtbar schmal (ISO)
 62
    18
420
        0
440
 33554687
100
AcDbHatch
 10
0.0
 20
0.0
 30
0.0
210
0.0
220
0.0
230
1.0
  2
SOLID
 70
     1
 71
     1
 91
        2
 92
        1
 93
        1
 72
     4
 94
        3
 73
     0
 74
     0
 95
       17
 96
       13
 40
0.0
 40
0.0
 40
0.0
 40
0.0
 40
1.0
 40
1.0
 40
1.0
 40
2.0
 40
2.0
 40
2.0
 40
3.0
 40
3.0
 40
3.0
 40
4.0
 40
4.0
 40
4.0
 40
4.0
 10
143.8478949293158
 20
136.3017577784245
 10
143.8478949293158
 20
136.3017577784245
 10
142.8691433019563
 20
136.3017577784245
 10
142.8691433019563
 20
136.3017577784245
 10
142.8691433019563
 20
136.3017577784245
 10
142.8691433019563
 20
136.2962456256481
 10
142.8691433019563
 20
136.2962456256481
 10
142.8691433019563
 20
136.2962456256481
 10
143.8478949293158
 20
135.6306531778979
 10
143.8478949293158
 20
135.6306531778979
 10
143.8478949293158
 20
135.6306531778979
 10
143.8478949293158
 20
136.3017577784245
 10
143.8478949293158
 20
136.3017577784245
 97
        0
 97
        1
330
28C
 92
        1
 93
        1
 72
     4
 94
        3
 73
     0
 74
     0
 95
       38
 96
       34
 40
0.0
 40
0.0
 40
0.0
 40
0.0
 40
1.0
 40
1.0
 40
1.0
 40
2.0
 40
2.0
 40
2.0
 40
3.0
 40
3.0
 40
3.0
 40
4.0
 40
4.0
 40
4.0
 40
5.0
 40
5.0
 40
5.0
 40
6.0
 40
6.0
 40
6.0
 40
7.0
 40
7.0
 40
7.0
 40
8.0
 40
8.0
 40
8.0
 40
9.0
 40
9.0
 40
9.0
 40
10.0
 40
10.0
 40
10.0
 40
11.0
 40
11.0
 40
11.0
 40
11.0
 10
143.8282578850499
 20
135.4246364678799
 10
143.8282578850499
 20
135.4246364678799
 10
142.527734339368
 20
136.3358642237285
 10
142.527734339368
 20
136.3358642237285
 10
142.527734339368
 20
136.3358642237285
 10
142.527734339368
 20
136.5277560422569
 10
142.527734339368
 20
136.5277560422569
 10
142.527734339368
 20
136.5277560422569
 10
143.8478949293158
 20
136.5277560422569
 10
143.8478949293158
 20
136.5277560422569
 10
143.8478949293158
 20
136.5277560422569
 10
143.8478949293158
 20
136.7985405473976
 10
143.8478949293158
 20
136.7985405473976
 10
143.8478949293158
 20
136.7985405473976
 10
144.0594237921101
 20
136.7985405473976
 10
144.0594237921101
 20
136.7985405473976
 10
144.0594237921101
 20
136.7985405473976
 10
144.0594237921101
 20
136.5277560422569
 10
144.0594237921101
 20
136.5277560422569
 10
144.0594237921101
 20
136.5277560422569
 10
144.5276122685556
 20
136.5277560422569
 10
144.5276122685556
 20
136.5277560422569
 10
144.5276122685556
 20
136.5277560422569
 10
144.5276122685556
 20
136.3017577784245
 10
144.5276122685556
 20
136.3017577784245
 10
144.5276122685556
 20
136.3017577784245
 10
144.0594237921101
 20
136.3017577784245
 10
144.0594237921101
 20
136.3017577784245
 10
144.0594237921101
 20
136.3017577784245
 10
144.0594237921101
 20
135.4246364678799
 10
144.0594237921101
 20
135.4246364678799
 10
144.0594237921101
 20
135.4246364678799
 10
143.8282578850499
 20
135.4246364678799
 10
143.8282578850499
 20
135.4246364678799
 97
        0
 97
        1
330
28D
 75
     2
 76
     1
 98
        1
 10
0.0
 20
0.0
450
        0
451
        0
460
0.0
461
0.0
452
        0
462
0.0
453
        0
470

  0
ENDBLK
  5
283
330
280
100
AcDbEntity
  8
0
100
AcDbBlockEnd
  0
ENDSEC
  0
SECTION
  2
ENTITIES
  0
INSERT
  5
79
330
70
100
AcDbEntity
  8
0
100
AcDbBlockReference
  2
Block_0
 10
0.0
 20
0.0
 30
0.0
  0
INSERT
  5
7D
330
70
100
AcDbEntity
  8
0
100
AcDbBlockReference
  2
Block_1
 10
0.0
 20
0.0
 30
0.0
  0
INSERT
  5
81
330
70
100
AcDbEntity
  8
0
100
AcDbBlockReference
  2
Block_2
 10
0.0
 20
0.0
 30
0.0
  0
INSERT
  5
85
330
70
100
AcDbEntity
  8
0
100
AcDbBlockReference
  2
Block_3
 10
0.0
 20
0.0
 30
0.0
  0
INSERT
  5
89
330
70
100
AcDbEntity
  8
0
100
AcDbBlockReference
  2
Block_4
 10
0.0
 20
0.0
 30
0.0
  0
INSERT
  5
8F
330
70
100
AcDbEntity
  8
Titel (ISO)
100
AcDbBlockReference
  2
Block_5
 10
0.0
 20
0.0
 30
0.0
  0
INSERT
  5
93
330
70
100
AcDbEntity
  8
Titel (ISO)
100
AcDbBlockReference
  2
Block_6
 10
0.0
 20
0.0
 30
0.0
  0
INSERT
  5
97
330
70
100
AcDbEntity
  8
Titel (ISO)
100
AcDbBlockReference
  2
Block_7
 10
0.0
 20
0.0
 30
0.0
  0
INSERT
  5
9B
330
70
100
AcDbEntity
  8
Titel (ISO)
100
AcDbBlockReference
  2
Block_8
 10
0.0
 20
0.0
 30
0.0
  0
INSERT
  5
9F
330
70
100
AcDbEntity
  8
Titel (ISO)
100
AcDbBlockReference
  2
Block_9
 10
0.0
 20
0.0
 30
0.0
  0
INSERT
  5
A3
330
70
100
AcDbEntity
  8
Titel (ISO)
100
AcDbBlockReference
  2
Block_10
 10
0.0
 20
0.0
 30
0.0
  0
INSERT
  5
A7
330
70
100
AcDbEntity
  8
Titel (ISO)
100
AcDbBlockReference
  2
Block_11
 10
0.0
 20
0.0
 30
0.0
  0
INSERT
  5
AB
330
70
100
AcDbEntity
  8
Titel (ISO)
100
AcDbBlockReference
  2
Block_12
 10
0.0
 20
0.0
 30
0.0
  0
INSERT
  5
AF
330
70
100
AcDbEntity
  8
Titel (ISO)
100
AcDbBlockReference
  2
Block_13
 10
0.0
 20
0.0
 30
0.0
  0
INSERT
  5
B5
330
70
100
AcDbEntity
  8
Sichtbar schmal (ISO)
100
AcDbBlockReference
  2
Block_14
 10
0.0
 20
0.0
 30
0.0
  0
INSERT
  5
BB
330
70
100
AcDbEntity
  8
Sichtbar schmal (ISO)
100
AcDbBlockReference
  2
Block_15
 10
0.0
 20
0.0
 30
0.0
  0
INSERT
  5
1D9
330
70
100
AcDbEntity
  8
Sichtbar schmal (ISO)
100
AcDbBlockReference
  2
Block_16
 10
0.0
 20
0.0
 30
0.0
  0
INSERT
  5
1F4
330
70
100
AcDbEntity
  8
Sichtbar schmal (ISO)
100
AcDbBlockReference
  2
Block_17
 10
0.0
 20
0.0
 30
0.0
  0
LINE
  5
208
330
70
100
AcDbEntity
  8
Sichtbar schmal (ISO)
 62
    18
420
        0
370
     5
100
AcDbLine
 10
93.17438623540862
 20
109.9589944368776
 30
0.0
 11
136.5695712837333
 21
110.1042169285831
 31
0.0
  0
LINE
  5
209
330
70
100
AcDbEntity
  8
Sichtbar schmal (ISO)
 62
    18
420
        0
370
     5
100
AcDbLine
 10
93.13358553794703
 20
156.7099817657263
 30
0.0
 11
136.5403567962724
 21
156.7254544765534
 31
0.0
  0
LINE
  5
20A
330
70
100
AcDbEntity
  8
Sichtbar schmal (ISO)
 62
    18
420
        0
370
     5
100
AcDbLine
 10
93.17076802858194
 20
108.8110752539519
 30
0.0
 11
143.4971555825987
 21
108.8229135654282
 31
0.0
  0
INSERT
  5
20C
330
70
100
AcDbEntity
  8
Sichtbar schmal (ISO)
100
AcDbBlockReference
  2
Block_21
 10
0.0
 20
0.0
 30
0.0
  0
LINE
  5
220
330
70
100
AcDbEntity
  8
Sichtbar schmal (ISO)
 62
    18
420
        0
370
     5
100
AcDbLine
 10
93.15399052376063
 20
157.8588774739654
 30
0.0
 11
143.5080422877808
 21
157.8325911577636
 31
0.0
  0
LINE
  5
221
330
70
100
AcDbEntity
  8
Sichtbar schmal (ISO)
 62
    18
420
        0
370
     5
100
AcDbLine
 10
116.6336582111059
 20
162.5220775340264
 30
0.0
 11
143.5562575925624
 21
162.5277615010748
 31
0.0
  0
LINE
  5
222
330
70
100
AcDbEntity
  8
Sichtbar schmal (ISO)
  6
AI-Linetype-0
 62
    18
420
        0
370
     5
100
AcDbLine
 10
129.6355361912448
 20
175.1927482698753
 30
0.0
 11
115.8262302382298
 21
175.1510907589029
 31
0.0
  0
INSERT
  5
225
330
70
100
AcDbEntity
  8
Sichtbar schmal (ISO)
100
AcDbBlockReference
  2
Block_25
 10
0.0
 20
0.0
 30
0.0
  0
INSERT
  5
23A
330
70
100
AcDbEntity
  8
Sichtbar schmal (ISO)
100
AcDbBlockReference
  2
Block_29
 10
0.0
 20
0.0
 30
0.0
  0
INSERT
  5
24F
330
70
100
AcDbEntity
  8
Sichtbar schmal (ISO)
100
AcDbBlockReference
  2
Block_33
 10
0.0
 20
0.0
 30
0.0
  0
LINE
  5
25A
330
70
100
AcDbEntity
  8
Sichtbar schmal (ISO)
 62
    18
420
        0
370
     5
100
AcDbLine
 10
117.673381748598
 20
180.1742064431144
 30
0.0
 11
143.6138333287443
 21
180.1935063893995
 31
0.0
  0
INSERT
  5
25C
330
70
100
AcDbEntity
  8
Sichtbar schmal (ISO)
100
AcDbBlockReference
  2
Block_35
 10
0.0
 20
0.0
 30
0.0
  0
INSERT
  5
269
330
70
100
AcDbEntity
  8
Sichtbar schmal (ISO)
100
AcDbBlockReference
  2
Block_37
 10
0.0
 20
0.0
 30
0.0
  0
INSERT
  5
27D
330
70
100
AcDbEntity
  8
Sichtbar schmal (ISO)
100
AcDbBlockReference
  2
Block_39
 10
0.0
 20
0.0
 30
0.0
  0
ENDSEC
  0
SECTION
  2
OBJECTS
  0
DICTIONARY
  5
C
330
0
100
AcDbDictionary
281
     1
  3
ACAD_COLOR
350
63
  3
ACAD_DETAILVIEWSTYLE
350
6A
  3
ACAD_GROUP
350
D
  3
ACAD_LAYOUT
350
62
  3
ACAD_MATERIAL
350
10
  3
ACAD_MLEADERSTYLE
350
66
  3
ACAD_MLINESTYLE
350
5F
  3
ACAD_PLOTSETTINGS
350
61
  3
ACAD_PLOTSTYLENAME
350
E
  3
ACAD_SCALELIST
350
42
  3
ACAD_SECTIONVIEWSTYLE
350
68
  3
ACAD_TABLESTYLE
350
64
  3
ACAD_VISUALSTYLE
350
29
  3
ACDB_RECOMPOSE_DATA
350
297
  3
AcDbVariableDictionary
350
28F
  0
DICTIONARY
  5
63
102
{ACAD_REACTORS
330
C
102
}
330
C
100
AcDbDictionary
281
     1
  0
DICTIONARY
  5
6A
102
{ACAD_REACTORS
330
C
102
}
330
C
100
AcDbDictionary
281
     1
  3
Imperial24
350
6B
  0
DICTIONARY
  5
D
102
{ACAD_REACTORS
330
C
102
}
330
C
100
AcDbDictionary
281
     1
  0
DICTIONARY
  5
62
102
{ACAD_REACTORS
330
C
102
}
330
C
100
AcDbDictionary
281
     1
  3
Layout1
350
6F
  3
Layout2
350
77
  3
Model
350
73
  0
DICTIONARY
  5
10
102
{ACAD_REACTORS
330
C
102
}
330
C
100
AcDbDictionary
281
     1
  3
ByBlock
350
19
  3
ByLayer
350
11
  3
Global
350
21
  0
DICTIONARY
  5
66
102
{ACAD_REACTORS
330
C
102
}
330
C
100
AcDbDictionary
281
     1
  3
Standard
350
67
  0
DICTIONARY
  5
5F
102
{ACAD_REACTORS
330
C
102
}
330
C
100
AcDbDictionary
281
     1
  3
Standard
350
60
  0
DICTIONARY
  5
61
102
{ACAD_REACTORS
330
C
102
}
330
C
100
AcDbDictionary
281
     1
  0
ACDBDICTIONARYWDFLT
  5
E
102
{ACAD_REACTORS
330
C
102
}
330
C
100
AcDbDictionary
281
     1
  3
Normal
350
F
100
AcDbDictionaryWithDefault
340
F
  0
DICTIONARY
  5
42
102
{ACAD_REACTORS
330
C
102
}
330
C
100
AcDbDictionary
281
     1
  3
A0
350
43
  3
A1
350
44
  3
A2
350
45
  3
A3
350
46
  3
A4
350
47
  3
A5
350
48
  3
A6
350
49
  3
A7
350
4A
  3
A8
350
4B
  3
A9
350
4C
  3
B0
350
4D
  3
B1
350
4E
  3
B2
350
4F
  3
B3
350
50
  3
B4
350
51
  3
B5
350
52
  3
B6
350
53
  0
DICTIONARY
  5
68
102
{ACAD_REACTORS
330
C
102
}
330
C
100
AcDbDictionary
281
     1
  3
Imperial24
350
69
  0
DICTIONARY
  5
64
102
{ACAD_REACTORS
330
C
102
}
330
C
100
AcDbDictionary
281
     1
  3
Standard
350
65
  0
DICTIONARY
  5
29
102
{ACAD_REACTORS
330
C
102
}
330
C
100
AcDbDictionary
281
     1
  3
2dWireframe
350
2F
  3
Basic
350
2E
  3
Brighten
350
35
  3
ColorChange
350
39
  3
Conceptual
350
32
  3
Dim
350
34
  3
EdgeColorOff
350
41
  3
Facepattern
350
38
  3
Flat
350
2A
  3
FlatWithEdges
350
2B
  3
Gouraud
350
2C
  3
GouraudWithEdges
350
2D
  3
Hidden
350
31
  3
JitterOff
350
3F
  3
Linepattern
350
37
  3
OverhangOff
350
40
  3
Realistic
350
33
  3
Shaded
350
3E
  3
Shaded with edges
350
3D
  3
Shades of Gray
350
3A
  3
Sketchy
350
3B
  3
Thicken
350
36
  3
Wireframe
350
30
  3
X-Ray
350
3C
  0
XRECORD
  5
297
102
{ACAD_REACTORS
330
C
102
}
330
C
100
AcDbXrecord
280
     1
 90
        1
330
65
  0
DICTIONARY
  5
28F
102
{ACAD_REACTORS
330
C
102
}
330
C
100
AcDbDictionary
281
     1
  3
CANNOSCALE
350
294
  3
CMLEADERSTYLE
350
291
  3
CTABLESTYLE
350
290
  3
CVIEWDETAILSTYLE
350
292
  3
CVIEWSECTIONSTYLE
350
293
  0
ACDBDETAILVIEWSTYLE
  5
6B
102
{ACAD_REACTORS
330
6A
102
}
330
6A
100
AcDbModelDocViewStyle
 70
     0
  3
Imperial24
290
     1
300
Imperial24
 90
        0
100
AcDbDetailViewStyle
 70
     0
 71
     0
 90
        3
 71
     1
340
55
 62
   256
 40
0.24
340
0
 62
   256
 40
0.24
300

 40
0.36
280
     3
 71
     2
340
5D
 90
       25
 62
   256
 71
     3
340
55
 62
   256
 40
0.24
 90
        1
 40
0.75
 90
        1
300
%<\AcVar ViewType \f "%tc1">% %<\AcVar ViewDetailId>%\PSCALE %<\AcVar ViewScale \f "%sn">%
 71
     4
340
5D
 90
       25
 62
   256
340
5D
 90
       25
 62
   256
280
     0
  0
LAYOUT
  5
6F
102
{ACAD_REACTORS
330
62
102
}
330
62
100
AcDbPlotSettings
  1

  2

  4

  6

 40
0.0
 41
0.0
 42
0.0
 43
0.0
 44
0.0
 45
0.0
 46
0.0
 47
0.0
 48
0.0
 49
0.0
140
0.0
141
0.0
142
1.0
143
1.0
 70
   688
 72
     0
 73
     0
 74
     5
  7

 75
    16
147
1.0
 76
     0
 77
     2
 78
   300
148
0.0
149
0.0
100
AcDbLayout
  1
Layout1
 70
     1
 71
     1
 10
0.0
 20
0.0
 11
12.0
 21
9.0
 12
0.0
 22
0.0
 32
0.0
 14
0.0
 24
0.0
 34
0.0
 15
0.0
 25
0.0
 35
0.0
146
0.0
 13
0.0
 23
0.0
 33
0.0
 16
1.0
 26
0.0
 36
0.0
 17
0.0
 27
1.0
 37
0.0
 76
     0
330
6C
  0
LAYOUT
  5
77
102
{ACAD_REACTORS
330
62
102
}
330
62
100
AcDbPlotSettings
  1

  2

  4

  6

 40
0.0
 41
0.0
 42
0.0
 43
0.0
 44
0.0
 45
0.0
 46
0.0
 47
0.0
 48
0.0
 49
0.0
140
0.0
141
0.0
142
1.0
143
1.0
 70
   688
 72
     0
 73
     0
 74
     5
  7

 75
    16
147
1.0
 76
     0
 77
     2
 78
   300
148
0.0
149
0.0
100
AcDbLayout
  1
Layout2
 70
     1
 71
     2
 10
0.0
 20
0.0
 11
12.0
 21
9.0
 12
0.0
 22
0.0
 32
0.0
 14
0.0
 24
0.0
 34
0.0
 15
0.0
 25
0.0
 35
0.0
146
0.0
 13
0.0
 23
0.0
 33
0.0
 16
1.0
 26
0.0
 36
0.0
 17
0.0
 27
1.0
 37
0.0
 76
     0
330
74
  0
LAYOUT
  5
73
102
{ACAD_REACTORS
330
62
102
}
330
62
100
AcDbPlotSettings
  1

  2

  4

  6

 40
0.0
 41
0.0
 42
0.0
 43
0.0
 44
0.0
 45
0.0
 46
0.0
 47
0.0
 48
0.0
 49
0.0
140
0.0
141
0.0
142
1.0
143
1.0
 70
  1712
 72
     0
 73
     0
 74
     0
  7

 75
     0
147
1.0
 76
     0
 77
     2
 78
   300
148
0.0
149
0.0
100
AcDbLayout
  1
Model
 70
     1
 71
     0
 10
0.0
 20
0.0
 11
12.0
 21
9.0
 12
0.0
 22
0.0
 32
0.0
 14
0.0
 24
0.0
 34
0.0
 15
0.0
 25
0.0
 35
0.0
146
0.0
 13
0.0
 23
0.0
 33
0.0
 16
1.0
 26
0.0
 36
0.0
 17
0.0
 27
1.0
 37
0.0
 76
     0
330
70
  0
MATERIAL
  5
19
102
{ACAD_XDICTIONARY
360
1A
102
}
102
{ACAD_REACTORS
330
10
102
}
330
10
100
AcDbMaterial
  1
ByBlock
 72
     0
 43
0.0208333333333333
 43
0.0
 43
0.0
 43
0.0
 43
0.0
 43
0.0208333333333333
 43
0.0
 43
0.0
 43
0.0
 43
0.0
 43
1.0
 43
0.0
 43
0.0
 43
0.0
 43
0.0
 43
1.0
 77
     0
 47
0.0208333333333333
 47
0.0
 47
0.0
 47
0.0
 47
0.0
 47
0.0208333333333333
 47
0.0
 47
0.0
 47
0.0
 47
0.0
 47
1.0
 47
0.0
 47
0.0
 47
0.0
 47
0.0
 47
1.0
171
     0
 49
0.0208333333333333
 49
0.0
 49
0.0
 49
0.0
 49
0.0
 49
0.0208333333333333
 49
0.0
 49
0.0
 49
0.0
 49
0.0
 49
1.0
 49
0.0
 49
0.0
 49
0.0
 49
0.0
 49
1.0
175
     0
142
0.0208333333333333
142
0.0
142
0.0
142
0.0
142
0.0
142
0.0208333333333333
142
0.0
142
0.0
142
0.0
142
0.0
142
1.0
142
0.0
142
0.0
142
0.0
142
0.0
142
1.0
179
     0
144
0.0208333333333333
144
0.0
144
0.0
144
0.0
144
0.0
144
0.0208333333333333
144
0.0
144
0.0
144
0.0
144
0.0
144
1.0
144
0.0
144
0.0
144
0.0
144
0.0
144
1.0
147
0.0208333333333333
147
0.0
147
0.0
147
0.0
147
0.0
147
0.0208333333333333
147
0.0
147
0.0
147
0.0
147
0.0
147
1.0
147
0.0
147
0.0
147
0.0
147
0.0
147
1.0
  0
MATERIAL
  5
11
102
{ACAD_XDICTIONARY
360
12
102
}
102
{ACAD_REACTORS
330
10
102
}
330
10
100
AcDbMaterial
  1
ByLayer
 72
     0
 43
0.0208333333333333
 43
0.0
 43
0.0
 43
0.0
 43
0.0
 43
0.0208333333333333
 43
0.0
 43
0.0
 43
0.0
 43
0.0
 43
1.0
 43
0.0
 43
0.0
 43
0.0
 43
0.0
 43
1.0
 77
     0
 47
0.0208333333333333
 47
0.0
 47
0.0
 47
0.0
 47
0.0
 47
0.0208333333333333
 47
0.0
 47
0.0
 47
0.0
 47
0.0
 47
1.0
 47
0.0
 47
0.0
 47
0.0
 47
0.0
 47
1.0
171
     0
 49
0.0208333333333333
 49
0.0
 49
0.0
 49
0.0
 49
0.0
 49
0.0208333333333333
 49
0.0
 49
0.0
 49
0.0
 49
0.0
 49
1.0
 49
0.0
 49
0.0
 49
0.0
 49
0.0
 49
1.0
175
     0
142
0.0208333333333333
142
0.0
142
0.0
142
0.0
142
0.0
142
0.0208333333333333
142
0.0
142
0.0
142
0.0
142
0.0
142
1.0
142
0.0
142
0.0
142
0.0
142
0.0
142
1.0
179
     0
144
0.0208333333333333
144
0.0
144
0.0
144
0.0
144
0.0
144
0.0208333333333333
144
0.0
144
0.0
144
0.0
144
0.0
144
1.0
144
0.0
144
0.0
144
0.0
144
0.0
144
1.0
147
0.0208333333333333
147
0.0
147
0.0
147
0.0
147
0.0
147
0.0208333333333333
147
0.0
147
0.0
147
0.0
147
0.0
147
1.0
147
0.0
147
0.0
147
0.0
147
0.0
147
1.0
  0
MATERIAL
  5
21
102
{ACAD_XDICTIONARY
360
22
102
}
102
{ACAD_REACTORS
330
10
102
}
330
10
100
AcDbMaterial
  1
Global
 72
     0
 43
0.0208333333333333
 43
0.0
 43
0.0
 43
0.0
 43
0.0
 43
0.0208333333333333
 43
0.0
 43
0.0
 43
0.0
 43
0.0
 43
1.0
 43
0.0
 43
0.0
 43
0.0
 43
0.0
 43
1.0
 77
     0
 47
0.0208333333333333
 47
0.0
 47
0.0
 47
0.0
 47
0.0
 47
0.0208333333333333
 47
0.0
 47
0.0
 47
0.0
 47
0.0
 47
1.0
 47
0.0
 47
0.0
 47
0.0
 47
0.0
 47
1.0
171
     0
 49
0.0208333333333333
 49
0.0
 49
0.0
 49
0.0
 49
0.0
 49
0.0208333333333333
 49
0.0
 49
0.0
 49
0.0
 49
0.0
 49
1.0
 49
0.0
 49
0.0
 49
0.0
 49
0.0
 49
1.0
175
     0
142
0.0208333333333333
142
0.0
142
0.0
142
0.0
142
0.0
142
0.0208333333333333
142
0.0
142
0.0
142
0.0
142
0.0
142
1.0
142
0.0
142
0.0
142
0.0
142
0.0
142
1.0
179
     0
144
0.0208333333333333
144
0.0
144
0.0
144
0.0
144
0.0
144
0.0208333333333333
144
0.0
144
0.0
144
0.0
144
0.0
144
1.0
144
0.0
144
0.0
144
0.0
144
0.0
144
1.0
147
0.0208333333333333
147
0.0
147
0.0
147
0.0
147
0.0
147
0.0208333333333333
147
0.0
147
0.0
147
0.0
147
0.0
147
1.0
147
0.0
147
0.0
147
0.0
147
0.0
147
1.0
  0
MLEADERSTYLE
  5
67
102
{ACAD_REACTORS
330
66
102
}
330
66
100
AcDbMLeaderStyle
179
     2
170
     2
171
     1
172
     0
 90
        2
 40
0.0
 41
0.0
173
     1
 91
-1056964608
340
5B
 92
       -2
290
     1
 42
0.09
291
     1
 43
0.36
  3
Standard
 44
0.18
300

342
55
174
     1
178
     6
175
     1
176
     0
 93
-1056964608
 45
0.18
292
     0
297
     0
 46
0.18
 94
-1056964608
 47
1.0
 49
1.0
140
1.0
293
     1
141
0.0
294
     1
177
     0
142
1.0
295
     1
296
     0
143
0.125
271
     0
272
     9
273
     9
298
     1
  0
MLINESTYLE
  5
60
102
{ACAD_REACTORS
330
5F
102
}
330
5F
100
AcDbMlineStyle
  2
STANDARD
 70
     0
  3

 62
   256
 51
90.0
 52
90.0
 71
     2
 49
0.5
 62
   256
  6
BYLAYER
 49
-0.5
 62
   256
  6
BYLAYER
  0
ACDBPLACEHOLDER
  5
F
102
{ACAD_REACTORS
330
E
102
}
330
E
  0
SCALE
  5
43
102
{ACAD_REACTORS
330
42
102
}
330
42
100
AcDbScale
 70
     0
300
1:1
140
1.0
141
1.0
290
     1
  0
SCALE
  5
44
102
{ACAD_REACTORS
330
42
102
}
330
42
100
AcDbScale
 70
     0
300
1/128" = 1'-0"
140
0.0078125
141
12.0
290
     0
  0
SCALE
  5
45
102
{ACAD_REACTORS
330
42
102
}
330
42
100
AcDbScale
 70
     0
300
1/64" = 1'-0"
140
0.015625
141
12.0
290
     0
  0
SCALE
  5
46
102
{ACAD_REACTORS
330
42
102
}
330
42
100
AcDbScale
 70
     0
300
1/32" = 1'-0"
140
0.03125
141
12.0
290
     0
  0
SCALE
  5
47
102
{ACAD_REACTORS
330
42
102
}
330
42
100
AcDbScale
 70
     0
300
1/16" = 1'-0"
140
0.0625
141
12.0
290
     0
  0
SCALE
  5
48
102
{ACAD_REACTORS
330
42
102
}
330
42
100
AcDbScale
 70
     0
300
3/32" = 1'-0"
140
0.09375
141
12.0
290
     0
  0
SCALE
  5
49
102
{ACAD_REACTORS
330
42
102
}
330
42
100
AcDbScale
 70
     0
300
1/8" = 1'-0"
140
0.125
141
12.0
290
     0
  0
SCALE
  5
4A
102
{ACAD_REACTORS
330
42
102
}
330
42
100
AcDbScale
 70
     0
300
3/16" = 1'-0"
140
0.1875
141
12.0
290
     0
  0
SCALE
  5
4B
102
{ACAD_REACTORS
330
42
102
}
330
42
100
AcDbScale
 70
     0
300
1/4" = 1'-0"
140
0.25
141
12.0
290
     0
  0
SCALE
  5
4C
102
{ACAD_REACTORS
330
42
102
}
330
42
100
AcDbScale
 70
     0
300
3/8" = 1'-0"
140
0.375
141
12.0
290
     0
  0
SCALE
  5
4D
102
{ACAD_REACTORS
330
42
102
}
330
42
100
AcDbScale
 70
     0
300
1/2" = 1'-0"
140
0.5
141
12.0
290
     0
  0
SCALE
  5
4E
102
{ACAD_REACTORS
330
42
102
}
330
42
100
AcDbScale
 70
     0
300
3/4" = 1'-0"
140
0.75
141
12.0
290
     0
  0
SCALE
  5
4F
102
{ACAD_REACTORS
330
42
102
}
330
42
100
AcDbScale
 70
     0
300
1" = 1'-0"
140
1.0
141
12.0
290
     0
  0
SCALE
  5
50
102
{ACAD_REACTORS
330
42
102
}
330
42
100
AcDbScale
 70
     0
300
1-1/2" = 1'-0"
140
1.5
141
12.0
290
     0
  0
SCALE
  5
51
102
{ACAD_REACTORS
330
42
102
}
330
42
100
AcDbScale
 70
     0
300
3" = 1'-0"
140
3.0
141
12.0
290
     0
  0
SCALE
  5
52
102
{ACAD_REACTORS
330
42
102
}
330
42
100
AcDbScale
 70
     0
300
6" = 1'-0"
140
6.0
141
12.0
290
     0
  0
SCALE
  5
53
102
{ACAD_REACTORS
330
42
102
}
330
42
100
AcDbScale
 70
     0
300
1'-0" = 1'-0"
140
12.0
141
12.0
290
     0
  0
ACDBSECTIONVIEWSTYLE
  5
69
102
{ACAD_REACTORS
330
68
102
}
330
68
100
AcDbModelDocViewStyle
 70
     0
  3
Imperial24
290
     1
300
Imperial24
 90
        0
100
AcDbSectionViewStyle
 70
     0
 71
     0
 90
       78
 71
     1
340
55
 62
   256
 40
0.24
340
0
340
0
 62
   256
 40
0.24
300
I, O, Q, S, X, Z
 40
0.48
 90
        3
 40
0.18
 90
        1
 71
     2
340
5D
 90
       25
 62
   256
340
5D
 90
       50
 62
   256
 40
0.24
 40
0.0
 40
0.24
 71
     3
340
55
 62
   256
 40
0.24
 90
        1
 40
0.75
 90
        1
300
%<\AcVar ViewType \f "%tc1">% %<\AcVar ViewSectionStartId>%-%<\AcVar ViewSectionEndId>%\PSCALE %<\AcVar ViewScale \f "%sn">%
 71
     4
 62
   256
 62
   257
300
ANSI31
 40
1.0
 90
        0
290
     0
290
     0
 90
        6
 40
0.0
 40
1.570796326794896
 40
0.2617993877991494
 40
1.308996938995747
 40
-0.2617993877991494
 40
1.832595714594046
  0
TABLESTYLE
  5
65
102
{ACAD_XDICTIONARY
360
295
102
}
102
{ACAD_REACTORS
330
64
102
}
330
64
100
AcDbTableStyle
280
     0
  3
Standard
 70
     0
 71
     0
 40
0.06
 41
0.06
280
     0
281
     0
  7
Standard
140
0.18
170
     2
 62
     0
 63
     7
283
     0
 90
      512
 91
        0
  1

274
    -2
284
     1
 64
     0
275
    -2
285
     1
 65
     0
276
    -2
286
     1
 66
     0
277
    -2
287
     1
 67
     0
278
    -2
288
     1
 68
     0
279
    -2
289
     1
 69
     0
  7
Standard
140
0.25
170
     5
 62
     0
 63
     7
283
     0
 90
      512
 91
        0
  1

274
    -2
284
     1
 64
     0
275
    -2
285
     1
 65
     0
276
    -2
286
     1
 66
     0
277
    -2
287
     1
 67
     0
278
    -2
288
     1
 68
     0
279
    -2
289
     1
 69
     0
  7
Standard
140
0.18
170
     5
 62
     0
 63
     7
283
     0
 90
      512
 91
        0
  1

274
    -2
284
     1
 64
     0
275
    -2
285
     1
 65
     0
276
    -2
286
     1
 66
     0
277
    -2
287
     1
 67
     0
278
    -2
288
     1
 68
     0
279
    -2
289
     1
 69
     0
  0
VISUALSTYLE
  5
2F
102
{ACAD_REACTORS
330
29
102
}
330
29
100
AcDbVisualStyle
  2
2dWireframe
 70
     4
177
     3
291
     0
 70
    58
 90
        0
176
     1
 90
        2
176
     1
 90
        0
176
     1
 90
        0
176
     1
 40
0.6
176
     1
 40
30.0
176
     1
 62
     7
420
 16777215
176
     1
 90
        1
176
     1
 90
        4
176
     1
 62
     7
176
     1
 62
   257
176
     1
 90
        1
176
     1
 90
        1
176
     1
 40
1.0
176
     1
 90
        0
176
     1
 62
   257
176
     1
 40
1.0
176
     1
 90
        1
176
     1
 90
        6
176
     1
 90
        2
176
     1
 62
     7
176
     1
 90
        5
176
     1
 90
        0
176
     1
 90
        0
176
     1
290
     0
176
     1
 90
        1
176
     1
 40
0.0
176
     1
 90
        0
176
     1
290
     1
176
     1
290
     1
176
     1
290
     0
176
     1
290
     0
176
     1
290
     0
176
     1
290
     0
176
     1
290
     0
176
     1
290
     0
176
     1
290
     0
176
     1
 90
       50
176
     1
 40
0.0
176
     1
 40
1.0
176
     1
 90
        0
176
     1
 62
    18
420
        0
176
     1
 90
       50
176
     1
 90
        3
176
     1
 62
     5
420
      255
176
     1
290
     0
176
     1
 90
       50
176
     1
 90
       50
176
     1
 90
       50
176
     1
290
     0
176
     1
 90
       50
176
     1
 62
   256
176
     0
 40
1.0
176
     0
 90
        2
176
     1
  1
strokes_ogs.tif
176
     1
290
     0
176
     1
 40
1.0
176
     1
 40
1.0
176
     1
  0
VISUALSTYLE
  5
2E
102
{ACAD_REACTORS
330
29
102
}
330
29
100
AcDbVisualStyle
  2
Basic
 70
     7
177
     3
291
     1
 70
    58
 90
        1
176
     1
 90
        0
176
     1
 90
        1
176
     1
 90
        0
176
     1
 40
0.6
176
     1
 40
30.0
176
     1
 62
     7
420
 16777215
176
     1
 90
        0
176
     1
 90
        4
176
     1
 62
     7
176
     1
 62
   257
176
     1
 90
        1
176
     1
 90
        1
176
     1
 40
1.0
176
     1
 90
        8
176
     1
 62
     7
176
     1
 40
1.0
176
     1
 90
        1
176
     1
 90
        6
176
     1
 90
        2
176
     1
 62
     7
176
     1
 90
        5
176
     1
 90
        0
176
     1
 90
        0
176
     1
290
     0
176
     1
 90
        1
176
     1
 40
0.0
176
     1
 90
        0
176
     1
290
     0
176
     1
290
     1
176
     1
290
     1
176
     1
290
     0
176
     1
290
     0
176
     1
290
     0
176
     1
290
     0
176
     1
290
     0
176
     1
290
     0
176
     1
 90
       50
176
     1
 40
0.0
176
     1
 40
1.0
176
     1
 90
        0
176
     1
 62
    18
420
        0
176
     1
 90
       50
176
     1
 90
        3
176
     1
 62
     5
420
      255
176
     1
290
     0
176
     1
 90
       50
176
     1
 90
       50
176
     1
 90
       50
176
     1
290
     0
176
     1
 90
       50
176
     1
 62
   256
176
     0
 40
1.0
176
     0
 90
        2
176
     1
  1
strokes_ogs.tif
176
     1
290
     0
176
     1
 40
1.0
176
     1
 40
1.0
176
     1
  0
VISUALSTYLE
  5
35
102
{ACAD_REACTORS
330
29
102
}
330
29
100
AcDbVisualStyle
  2
Brighten
 70
    12
177
     3
291
     1
 70
    58
 90
        2
176
     1
 90
        2
176
     1
 90
        0
176
     1
 90
        0
176
     1
 40
0.6
176
     1
 40
30.0
176
     1
 62
     7
420
 16777215
176
     1
 90
        1
176
     1
 90
        4
176
     1
 62
     7
176
     1
 62
   257
176
     1
 90
        1
176
     1
 90
        1
176
     1
 40
1.0
176
     1
 90
        8
176
     1
 62
     7
176
     1
 40
1.0
176
     1
 90
        1
176
     1
 90
        6
176
     1
 90
        2
176
     1
 62
     7
176
     1
 90
        5
176
     1
 90
        0
176
     1
 90
        0
176
     1
290
     0
176
     1
 90
        1
176
     1
 40
50.0
176
     1
 90
        0
176
     1
290
     0
176
     1
290
     1
176
     1
290
     1
176
     1
290
     0
176
     1
290
     0
176
     1
290
     0
176
     1
290
     0
176
     1
290
     0
176
     1
290
     0
176
     1
 90
       50
176
     1
 40
0.0
176
     1
 40
1.0
176
     1
 90
        0
176
     1
 62
    18
420
        0
176
     1
 90
       50
176
     1
 90
        3
176
     1
 62
     5
420
      255
176
     1
290
     0
176
     1
 90
       50
176
     1
 90
       50
176
     1
 90
       50
176
     1
290
     0
176
     1
 90
       50
176
     1
 62
   256
176
     0
 40
1.0
176
     0
 90
        2
176
     1
  1
strokes_ogs.tif
176
     1
290
     0
176
     1
 40
1.0
176
     1
 40
1.0
176
     1
  0
VISUALSTYLE
  5
39
102
{ACAD_REACTORS
330
29
102
}
330
29
100
AcDbVisualStyle
  2
ColorChange
 70
    16
177
     3
291
     1
 70
    58
 90
        2
176
     1
 90
        2
176
     1
 90
        3
176
     1
 90
        0
176
     1
 40
0.6
176
     1
 40
30.0
176
     1
 62
     8
420
  8421504
176
     1
 90
        1
176
     1
 90
        4
176
     1
 62
     7
176
     1
 62
   257
176
     1
 90
        1
176
     1
 90
        1
176
     1
 40
1.0
176
     1
 90
        8
176
     1
 62
     8
420
  8421504
176
     1
 40
1.0
176
     1
 90
        1
176
     1
 90
        6
176
     1
 90
        2
176
     1
 62
     7
176
     1
 90
        5
176
     1
 90
        0
176
     1
 90
        0
176
     1
290
     0
176
     1
 90
        1
176
     1
 40
0.0
176
     1
 90
        0
176
     1
290
     0
176
     1
290
     1
176
     1
290
     1
176
     1
290
     0
176
     1
290
     0
176
     1
290
     0
176
     1
290
     0
176
     1
290
     0
176
     1
290
     0
176
     1
 90
       50
176
     1
 40
0.0
176
     1
 40
1.0
176
     1
 90
        0
176
     1
 62
    18
420
        0
176
     1
 90
       50
176
     1
 90
        3
176
     1
 62
     5
420
      255
176
     1
290
     0
176
     1
 90
       50
176
     1
 90
       50
176
     1
 90
       50
176
     1
290
     0
176
     1
 90
       50
176
     1
 62
   256
176
     0
 40
1.0
176
     0
 90
        2
176
     1
  1
strokes_ogs.tif
176
     1
290
     0
176
     1
 40
1.0
176
     1
 40
1.0
176
     1
  0
VISUALSTYLE
  5
32
102
{ACAD_REACTORS
330
29
102
}
330
29
100
AcDbVisualStyle
  2
Conceptual
 70
     9
177
     3
291
     0
 70
    58
 90
        3
176
     1
 90
        2
176
     1
 90
        0
176
     1
 90
        0
176
     1
 40
0.6
176
     1
 40
30.0
176
     1
 62
     7
420
 16777215
176
     1
 90
        2
176
     1
 90
        2
176
     1
 62
     7
176
     1
 62
   257
176
     1
 90
        1
176
     1
 90
        1
176
     1
 40
179.0
176
     1
 90
        8
176
     1
 62
     7
176
     1
 40
1.0
176
     1
 90
        1
176
     1
 90
        6
176
     1
 90
        2
176
     1
 62
     7
176
     1
 90
        3
176
     1
 90
        0
176
     1
 90
        0
176
     1
290
     0
176
     1
 90
        1
176
     1
 40
0.0
176
     1
 90
        0
176
     1
290
     0
176
     1
290
     1
176
     1
290
     1
176
     1
290
     0
176
     1
290
     0
176
     1
290
     0
176
     1
290
     0
176
     1
290
     0
176
     1
290
     0
176
     1
 90
       50
176
     1
 40
0.0
176
     1
 40
1.0
176
     1
 90
        0
176
     1
 62
    18
420
        0
176
     1
 90
       50
176
     1
 90
        3
176
     1
 62
     5
420
      255
176
     1
290
     0
176
     1
 90
       50
176
     1
 90
       50
176
     1
 90
       50
176
     1
290
     0
176
     1
 90
       50
176
     1
 62
   256
176
     0
 40
1.0
176
     0
 90
        2
176
     1
  1
strokes_ogs.tif
176
     1
290
     0
176
     1
 40
1.0
176
     1
 40
1.0
176
     1
  0
VISUALSTYLE
  5
34
102
{ACAD_REACTORS
330
29
102
}
330
29
100
AcDbVisualStyle
  2
Dim
 70
    11
177
     3
291
     1
 70
    58
 90
        2
176
     1
 90
        2
176
     1
 90
        0
176
     1
 90
        0
176
     1
 40
0.6
176
     1
 40
30.0
176
     1
 62
     7
420
 16777215
176
     1
 90
        1
176
     1
 90
        4
176
     1
 62
     7
176
     1
 62
   257
176
     1
 90
        1
176
     1
 90
        1
176
     1
 40
1.0
176
     1
 90
        8
176
     1
 62
     7
176
     1
 40
1.0
176
     1
 90
        1
176
     1
 90
        6
176
     1
 90
        2
176
     1
 62
     7
176
     1
 90
        5
176
     1
 90
        0
176
     1
 90
        0
176
     1
290
     0
176
     1
 90
        1
176
     1
 40
-50.0
176
     1
 90
        0
176
     1
290
     0
176
     1
290
     1
176
     1
290
     1
176
     1
290
     0
176
     1
290
     0
176
     1
290
     0
176
     1
290
     0
176
     1
290
     0
176
     1
290
     0
176
     1
 90
       50
176
     1
 40
0.0
176
     1
 40
1.0
176
     1
 90
        0
176
     1
 62
    18
420
        0
176
     1
 90
       50
176
     1
 90
        3
176
     1
 62
     5
420
      255
176
     1
290
     0
176
     1
 90
       50
176
     1
 90
       50
176
     1
 90
       50
176
     1
290
     0
176
     1
 90
       50
176
     1
 62
   256
176
     0
 40
1.0
176
     0
 90
        2
176
     1
  1
strokes_ogs.tif
176
     1
290
     0
176
     1
 40
1.0
176
     1
 40
1.0
176
     1
  0
VISUALSTYLE
  5
41
102
{ACAD_REACTORS
330
29
102
}
330
29
100
AcDbVisualStyle
  2
EdgeColorOff
 70
    22
177
     3
291
     1
 70
    58
 90
        2
176
     0
 90
        2
176
     0
 90
        0
176
     0
 90
        0
176
     0
 40
0.6
176
     0
 40
30.0
176
     0
 62
     7
420
 16777215
176
     0
 90
        1
176
     0
 90
        4
176
     0
 62
     7
176
     0
 62
   257
176
     0
 90
        1
176
     0
 90
        1
176
     0
 40
1.0
176
     0
 90
        8
176
     2
 62
     7
176
     0
 40
1.0
176
     0
 90
        1
176
     0
 90
        6
176
     0
 90
        2
176
     0
 62
     7
176
     0
 90
        5
176
     0
 90
        0
176
     0
 90
        0
176
     0
290
     0
176
     0
 90
        1
176
     0
 40
0.0
176
     0
 90
        0
176
     0
290
     0
176
     0
290
     1
176
     0
290
     1
176
     0
290
     0
176
     0
290
     0
176
     0
290
     0
176
     0
290
     0
176
     0
290
     0
176
     0
290
     0
176
     0
 90
       50
176
     0
 40
0.0
176
     0
 40
1.0
176
     0
 90
        0
176
     0
 62
    18
420
        0
176
     0
 90
       50
176
     0
 90
        3
176
     0
 62
     5
420
      255
176
     0
290
     0
176
     0
 90
       50
176
     0
 90
       50
176
     0
 90
       50
176
     0
290
     0
176
     0
 90
       50
176
     0
 62
   256
176
     0
 40
1.0
176
     0
 90
        2
176
     0
  1
strokes_ogs.tif
176
     0
290
     0
176
     0
 40
1.0
176
     0
 40
1.0
176
     0
  0
VISUALSTYLE
  5
38
102
{ACAD_REACTORS
330
29
102
}
330
29
100
AcDbVisualStyle
  2
Facepattern
 70
    15
177
     3
291
     1
 70
    58
 90
        2
176
     1
 90
        2
176
     1
 90
        0
176
     1
 90
        0
176
     1
 40
0.6
176
     1
 40
30.0
176
     1
 62
     7
420
 16777215
176
     1
 90
        1
176
     1
 90
        4
176
     1
 62
     7
176
     1
 62
   257
176
     1
 90
        1
176
     1
 90
        1
176
     1
 40
1.0
176
     1
 90
        8
176
     1
 62
     7
176
     1
 40
1.0
176
     1
 90
        1
176
     1
 90
        6
176
     1
 90
        2
176
     1
 62
     7
176
     1
 90
        5
176
     1
 90
        0
176
     1
 90
        0
176
     1
290
     0
176
     1
 90
        1
176
     1
 40
0.0
176
     1
 90
        0
176
     1
290
     0
176
     1
290
     1
176
     1
290
     1
176
     1
290
     0
176
     1
290
     0
176
     1
290
     0
176
     1
290
     0
176
     1
290
     0
176
     1
290
     0
176
     1
 90
       50
176
     1
 40
0.0
176
     1
 40
1.0
176
     1
 90
        0
176
     1
 62
    18
420
        0
176
     1
 90
       50
176
     1
 90
        3
176
     1
 62
     5
420
      255
176
     1
290
     0
176
     1
 90
       50
176
     1
 90
       50
176
     1
 90
       50
176
     1
290
     0
176
     1
 90
       50
176
     1
 62
   256
176
     0
 40
1.0
176
     0
 90
        2
176
     1
  1
strokes_ogs.tif
176
     1
290
     0
176
     1
 40
1.0
176
     1
 40
1.0
176
     1
  0
VISUALSTYLE
  5
2A
102
{ACAD_REACTORS
330
29
102
}
330
29
100
AcDbVisualStyle
  2
Flat
 70
     0
177
     3
291
     1
 70
    58
 90
        2
176
     1
 90
        1
176
     1
 90
        1
176
     1
 90
        2
176
     1
 40
0.6
176
     1
 40
30.0
176
     1
 62
     7
420
 16777215
176
     1
 90
        0
176
     1
 90
        0
176
     1
 62
     7
176
     1
 62
   257
176
     1
 90
        1
176
     1
 90
        1
176
     1
 40
1.0
176
     1
 90
        8
176
     1
 62
     7
176
     1
 40
1.0
176
     1
 90
        1
176
     1
 90
        6
176
     1
 90
        2
176
     1
 62
     7
176
     1
 90
        5
176
     1
 90
        0
176
     1
 90
        0
176
     1
290
     0
176
     1
 90
       13
176
     1
 40
0.0
176
     1
 90
        0
176
     1
290
     0
176
     1
290
     1
176
     1
290
     1
176
     1
290
     0
176
     1
290
     0
176
     1
290
     0
176
     1
290
     0
176
     1
290
     0
176
     1
290
     0
176
     1
 90
       50
176
     1
 40
0.0
176
     1
 40
1.0
176
     1
 90
        0
176
     1
 62
    18
420
        0
176
     1
 90
       50
176
     1
 90
        3
176
     1
 62
     5
420
      255
176
     1
290
     0
176
     1
 90
       50
176
     1
 90
       50
176
     1
 90
       50
176
     1
290
     0
176
     1
 90
       50
176
     1
 62
   256
176
     0
 40
1.0
176
     0
 90
        2
176
     1
  1
strokes_ogs.tif
176
     1
290
     0
176
     1
 40
1.0
176
     1
 40
1.0
176
     1
  0
VISUALSTYLE
  5
2B
102
{ACAD_REACTORS
330
29
102
}
330
29
100
AcDbVisualStyle
  2
FlatWithEdges
 70
     1
177
     3
291
     1
 70
    58
 90
        2
176
     1
 90
        1
176
     1
 90
        1
176
     1
 90
        2
176
     1
 40
0.6
176
     1
 40
30.0
176
     1
 62
     7
420
 16777215
176
     1
 90
        1
176
     1
 90
        0
176
     1
 62
     7
176
     1
 62
   257
176
     1
 90
        1
176
     1
 90
        1
176
     1
 40
1.0
176
     1
 90
        0
176
     1
 62
   257
176
     1
 40
1.0
176
     1
 90
        1
176
     1
 90
        6
176
     1
 90
        2
176
     1
 62
     7
176
     1
 90
        5
176
     1
 90
        0
176
     1
 90
        0
176
     1
290
     0
176
     1
 90
       13
176
     1
 40
0.0
176
     1
 90
        0
176
     1
290
     0
176
     1
290
     1
176
     1
290
     1
176
     1
290
     0
176
     1
290
     0
176
     1
290
     0
176
     1
290
     0
176
     1
290
     0
176
     1
290
     0
176
     1
 90
       50
176
     1
 40
0.0
176
     1
 40
1.0
176
     1
 90
        0
176
     1
 62
    18
420
        0
176
     1
 90
       50
176
     1
 90
        3
176
     1
 62
     5
420
      255
176
     1
290
     0
176
     1
 90
       50
176
     1
 90
       50
176
     1
 90
       50
176
     1
290
     0
176
     1
 90
       50
176
     1
 62
   256
176
     0
 40
1.0
176
     0
 90
        2
176
     1
  1
strokes_ogs.tif
176
     1
290
     0
176
     1
 40
1.0
176
     1
 40
1.0
176
     1
  0
VISUALSTYLE
  5
2C
102
{ACAD_REACTORS
330
29
102
}
330
29
100
AcDbVisualStyle
  2
Gouraud
 70
     2
177
     3
291
     1
 70
    58
 90
        2
176
     1
 90
        2
176
     1
 90
        1
176
     1
 90
        2
176
     1
 40
0.6
176
     1
 40
30.0
176
     1
 62
     7
420
 16777215
176
     1
 90
        0
176
     1
 90
        0
176
     1
 62
     7
176
     1
 62
   257
176
     1
 90
        1
176
     1
 90
        1
176
     1
 40
1.0
176
     1
 90
        0
176
     1
 62
     7
176
     1
 40
1.0
176
     1
 90
        1
176
     1
 90
        6
176
     1
 90
        2
176
     1
 62
     7
176
     1
 90
        5
176
     1
 90
        0
176
     1
 90
        0
176
     1
290
     0
176
     1
 90
       13
176
     1
 40
0.0
176
     1
 90
        0
176
     1
290
     0
176
     1
290
     1
176
     1
290
     1
176
     1
290
     0
176
     1
290
     0
176
     1
290
     0
176
     1
290
     0
176
     1
290
     0
176
     1
290
     0
176
     1
 90
       50
176
     1
 40
0.0
176
     1
 40
1.0
176
     1
 90
        0
176
     1
 62
    18
420
        0
176
     1
 90
       50
176
     1
 90
        3
176
     1
 62
     5
420
      255
176
     1
290
     0
176
     1
 90
       50
176
     1
 90
       50
176
     1
 90
       50
176
     1
290
     0
176
     1
 90
       50
176
     1
 62
   256
176
     0
 40
1.0
176
     0
 90
        2
176
     1
  1
strokes_ogs.tif
176
     1
290
     0
176
     1
 40
1.0
176
     1
 40
1.0
176
     1
  0
VISUALSTYLE
  5
2D
102
{ACAD_REACTORS
330
29
102
}
330
29
100
AcDbVisualStyle
  2
GouraudWithEdges
 70
     3
177
     3
291
     1
 70
    58
 90
        2
176
     1
 90
        2
176
     1
 90
        1
176
     1
 90
        2
176
     1
 40
0.6
176
     1
 40
30.0
176
     1
 62
     7
420
 16777215
176
     1
 90
        1
176
     1
 90
        0
176
     1
 62
     7
176
     1
 62
   257
176
     1
 90
        1
176
     1
 90
        1
176
     1
 40
1.0
176
     1
 90
        0
176
     1
 62
   257
176
     1
 40
1.0
176
     1
 90
        1
176
     1
 90
        6
176
     1
 90
        2
176
     1
 62
     7
176
     1
 90
        5
176
     1
 90
        0
176
     1
 90
        0
176
     1
290
     0
176
     1
 90
       13
176
     1
 40
0.0
176
     1
 90
        0
176
     1
290
     0
176
     1
290
     1
176
     1
290
     1
176
     1
290
     0
176
     1
290
     0
176
     1
290
     0
176
     1
290
     0
176
     1
290
     0
176
     1
290
     0
176
     1
 90
       50
176
     1
 40
0.0
176
     1
 40
1.0
176
     1
 90
        0
176
     1
 62
    18
420
        0
176
     1
 90
       50
176
     1
 90
        3
176
     1
 62
     5
420
      255
176
     1
290
     0
176
     1
 90
       50
176
     1
 90
       50
176
     1
 90
       50
176
     1
290
     0
176
     1
 90
       50
176
     1
 62
   256
176
     0
 40
1.0
176
     0
 90
        2
176
     1
  1
strokes_ogs.tif
176
     1
290
     0
176
     1
 40
1.0
176
     1
 40
1.0
176
     1
  0
VISUALSTYLE
  5
31
102
{ACAD_REACTORS
330
29
102
}
330
29
100
AcDbVisualStyle
  2
Hidden
 70
     6
177
     3
291
     0
 70
    58
 90
        1
176
     1
 90
        2
176
     1
 90
        2
176
     1
 90
        0
176
     1
 40
0.6
176
     1
 40
30.0
176
     1
 62
     7
420
 16777215
176
     1
 90
        2
176
     1
 90
        2
176
     1
 62
     7
176
     1
 62
   257
176
     1
 90
        2
176
     1
 90
        1
176
     1
 40
40.0
176
     1
 90
        0
176
     1
 62
   257
176
     1
 40
1.0
176
     1
 90
        1
176
     1
 90
        6
176
     1
 90
        2
176
     1
 62
     7
176
     1
 90
        3
176
     1
 90
        0
176
     1
 90
        0
176
     1
290
     0
176
     1
 90
        1
176
     1
 40
0.0
176
     1
 90
        0
176
     1
290
     0
176
     1
290
     1
176
     1
290
     1
176
     1
290
     0
176
     1
290
     0
176
     1
290
     0
176
     1
290
     0
176
     1
290
     0
176
     1
290
     0
176
     1
 90
       50
176
     1
 40
0.0
176
     1
 40
1.0
176
     1
 90
        0
176
     1
 62
    18
420
        0
176
     1
 90
       50
176
     1
 90
        3
176
     1
 62
     5
420
      255
176
     1
290
     0
176
     1
 90
       50
176
     1
 90
       50
176
     1
 90
       50
176
     1
290
     0
176
     1
 90
       50
176
     1
 62
   256
176
     0
 40
1.0
176
     0
 90
        2
176
     1
  1
strokes_ogs.tif
176
     1
290
     0
176
     1
 40
1.0
176
     1
 40
1.0
176
     1
  0
VISUALSTYLE
  5
3F
102
{ACAD_REACTORS
330
29
102
}
330
29
100
AcDbVisualStyle
  2
JitterOff
 70
    20
177
     3
291
     1
 70
    58
 90
        2
176
     0
 90
        2
176
     0
 90
        0
176
     0
 90
        0
176
     0
 40
0.6
176
     0
 40
30.0
176
     0
 62
     7
420
 16777215
176
     0
 90
        1
176
     0
 90
        4
176
     0
 62
     7
176
     0
 62
   257
176
     0
 90
        1
176
     0
 90
        1
176
     0
 40
1.0
176
     0
 90
       10
176
     2
 62
     7
176
     0
 40
1.0
176
     0
 90
        1
176
     0
 90
        6
176
     0
 90
        2
176
     0
 62
     7
176
     0
 90
        5
176
     0
 90
        0
176
     0
 90
        0
176
     0
290
     0
176
     0
 90
        1
176
     0
 40
0.0
176
     0
 90
        0
176
     0
290
     0
176
     0
290
     1
176
     0
290
     1
176
     0
290
     0
176
     0
290
     0
176
     0
290
     0
176
     0
290
     0
176
     0
290
     0
176
     0
290
     0
176
     0
 90
       50
176
     0
 40
0.0
176
     0
 40
1.0
176
     0
 90
        0
176
     0
 62
    18
420
        0
176
     0
 90
       50
176
     0
 90
        3
176
     0
 62
     5
420
      255
176
     0
290
     0
176
     0
 90
       50
176
     0
 90
       50
176
     0
 90
       50
176
     0
290
     0
176
     0
 90
       50
176
     0
 62
   256
176
     0
 40
1.0
176
     0
 90
        2
176
     0
  1
strokes_ogs.tif
176
     0
290
     0
176
     0
 40
1.0
176
     0
 40
1.0
176
     0
  0
VISUALSTYLE
  5
37
102
{ACAD_REACTORS
330
29
102
}
330
29
100
AcDbVisualStyle
  2
Linepattern
 70
    14
177
     3
291
     1
 70
    58
 90
        2
176
     1
 90
        2
176
     1
 90
        0
176
     1
 90
        0
176
     1
 40
0.6
176
     1
 40
30.0
176
     1
 62
     7
420
 16777215
176
     1
 90
        1
176
     1
 90
        4
176
     1
 62
     7
176
     1
 62
   257
176
     1
 90
        7
176
     1
 90
        7
176
     1
 40
1.0
176
     1
 90
        8
176
     1
 62
     7
176
     1
 40
1.0
176
     1
 90
        1
176
     1
 90
        6
176
     1
 90
        2
176
     1
 62
     7
176
     1
 90
        5
176
     1
 90
        0
176
     1
 90
        0
176
     1
290
     0
176
     1
 90
        1
176
     1
 40
0.0
176
     1
 90
        0
176
     1
290
     0
176
     1
290
     1
176
     1
290
     1
176
     1
290
     0
176
     1
290
     0
176
     1
290
     0
176
     1
290
     0
176
     1
290
     0
176
     1
290
     0
176
     1
 90
       50
176
     1
 40
0.0
176
     1
 40
1.0
176
     1
 90
        0
176
     1
 62
    18
420
        0
176
     1
 90
       50
176
     1
 90
        3
176
     1
 62
     5
420
      255
176
     1
290
     0
176
     1
 90
       50
176
     1
 90
       50
176
     1
 90
       50
176
     1
290
     0
176
     1
 90
       50
176
     1
 62
   256
176
     0
 40
1.0
176
     0
 90
        2
176
     1
  1
strokes_ogs.tif
176
     1
290
     0
176
     1
 40
1.0
176
     1
 40
1.0
176
     1
  0
VISUALSTYLE
  5
40
102
{ACAD_REACTORS
330
29
102
}
330
29
100
AcDbVisualStyle
  2
OverhangOff
 70
    21
177
     3
291
     1
 70
    58
 90
        2
176
     0
 90
        2
176
     0
 90
        0
176
     0
 90
        0
176
     0
 40
0.6
176
     0
 40
30.0
176
     0
 62
     7
420
 16777215
176
     0
 90
        1
176
     0
 90
        4
176
     0
 62
     7
176
     0
 62
   257
176
     0
 90
        1
176
     0
 90
        1
176
     0
 40
1.0
176
     0
 90
        9
176
     2
 62
     7
176
     0
 40
1.0
176
     0
 90
        1
176
     0
 90
        6
176
     0
 90
        2
176
     0
 62
     7
176
     0
 90
        5
176
     0
 90
        0
176
     0
 90
        0
176
     0
290
     0
176
     0
 90
        1
176
     0
 40
0.0
176
     0
 90
        0
176
     0
290
     0
176
     0
290
     1
176
     0
290
     1
176
     0
290
     0
176
     0
290
     0
176
     0
290
     0
176
     0
290
     0
176
     0
290
     0
176
     0
290
     0
176
     0
 90
       50
176
     0
 40
0.0
176
     0
 40
1.0
176
     0
 90
        0
176
     0
 62
    18
420
        0
176
     0
 90
       50
176
     0
 90
        3
176
     0
 62
     5
420
      255
176
     0
290
     0
176
     0
 90
       50
176
     0
 90
       50
176
     0
 90
       50
176
     0
290
     0
176
     0
 90
       50
176
     0
 62
   256
176
     0
 40
1.0
176
     0
 90
        2
176
     0
  1
strokes_ogs.tif
176
     0
290
     0
176
     0
 40
1.0
176
     0
 40
1.0
176
     0
  0
VISUALSTYLE
  5
33
102
{ACAD_REACTORS
330
29
102
}
330
29
100
AcDbVisualStyle
  2
Realistic
 70
     8
177
     3
291
     0
 70
    58
 90
        2
176
     1
 90
        3
176
     1
 90
        0
176
     1
 90
        2
176
     1
 40
0.6
176
     1
 40
30.0
176
     1
 62
     7
420
 16777215
176
     1
 90
        0
176
     1
 90
        0
176
     1
 62
     7
176
     1
 62
   257
176
     1
 90
        1
176
     1
 90
        1
176
     1
 40
1.0
176
     1
 90
        8
176
     1
 62
   257
176
     1
 40
1.0
176
     1
 90
        1
176
     1
 90
        6
176
     1
 90
        2
176
     1
 62
     7
176
     1
 90
        3
176
     1
 90
        0
176
     1
 90
        0
176
     1
290
     0
176
     1
 90
       13
176
     1
 40
0.0
176
     1
 90
        0
176
     1
290
     0
176
     1
290
     1
176
     1
290
     1
176
     1
290
     0
176
     1
290
     0
176
     1
290
     0
176
     1
290
     0
176
     1
290
     0
176
     1
290
     0
176
     1
 90
       50
176
     1
 40
0.0
176
     1
 40
1.0
176
     1
 90
        0
176
     1
 62
    18
420
        0
176
     1
 90
       50
176
     1
 90
        3
176
     1
 62
     5
420
      255
176
     1
290
     0
176
     1
 90
       50
176
     1
 90
       50
176
     1
 90
       50
176
     1
290
     0
176
     1
 90
       50
176
     1
 62
   256
176
     0
 40
1.0
176
     0
 90
        2
176
     1
  1
strokes_ogs.tif
176
     1
290
     0
176
     1
 40
1.0
176
     1
 40
1.0
176
     1
  0
VISUALSTYLE
  5
3E
102
{ACAD_REACTORS
330
29
102
}
330
29
100
AcDbVisualStyle
  2
Shaded
 70
    27
177
     3
291
     0
 70
    58
 90
        2
176
     1
 90
        2
176
     1
 90
        1
176
     1
 90
        2
176
     1
 40
0.6
176
     1
 40
30.0
176
     1
 62
     7
420
 16777215
176
     1
 90
        0
176
     1
 90
        4
176
     1
 62
     7
176
     1
 62
   257
176
     1
 90
        1
176
     1
 90
        1
176
     1
 40
1.0
176
     1
 90
        8
176
     1
 62
   257
176
     1
 40
1.0
176
     1
 90
        1
176
     1
 90
        6
176
     1
 90
        2
176
     1
 62
     8
420
  7895160
176
     1
 90
        3
176
     1
 90
        0
176
     1
 90
        0
176
     1
290
     0
176
     1
 90
        5
176
     1
 40
0.0
176
     1
 90
        0
176
     1
290
     0
176
     1
290
     1
176
     1
290
     1
176
     1
290
     0
176
     1
290
     0
176
     1
290
     0
176
     1
290
     0
176
     1
290
     0
176
     1
290
     0
176
     1
 90
       50
176
     1
 40
0.0
176
     1
 40
1.0
176
     1
 90
        0
176
     1
 62
    18
420
        0
176
     1
 90
       50
176
     1
 90
        3
176
     1
 62
     5
420
      255
176
     1
290
     0
176
     1
 90
       50
176
     1
 90
       50
176
     1
 90
       50
176
     1
290
     0
176
     1
 90
       50
176
     1
 62
   256
176
     0
 40
1.0
176
     0
 90
        2
176
     1
  1
strokes_ogs.tif
176
     1
290
     0
176
     1
 40
1.0
176
     1
 40
1.0
176
     1
  0
VISUALSTYLE
  5
3D
102
{ACAD_REACTORS
330
29
102
}
330
29
100
AcDbVisualStyle
  2
Shaded with edges
 70
    26
177
     3
291
     0
 70
    58
 90
        2
176
     1
 90
        2
176
     1
 90
        1
176
     1
 90
        2
176
     1
 40
0.6
176
     1
 40
30.0
176
     1
 62
     7
420
 16777215
176
     1
 90
        1
176
     1
 90
        2
176
     1
 62
     7
176
     1
 62
   257
176
     1
 90
        2
176
     1
 90
        1
176
     1
 40
1.0
176
     1
 90
        8
176
     1
 62
   257
176
     1
 40
1.0
176
     1
 90
        1
176
     1
 90
        6
176
     1
 90
        2
176
     1
 62
     7
176
     1
 90
        3
176
     1
 90
        0
176
     1
 90
        0
176
     1
290
     0
176
     1
 90
        5
176
     1
 40
0.0
176
     1
 90
        0
176
     1
290
     0
176
     1
290
     1
176
     1
290
     1
176
     1
290
     0
176
     1
290
     0
176
     1
290
     0
176
     1
290
     0
176
     1
290
     0
176
     1
290
     0
176
     1
 90
       50
176
     1
 40
0.0
176
     1
 40
1.0
176
     1
 90
        0
176
     1
 62
    18
420
        0
176
     1
 90
       50
176
     1
 90
        3
176
     1
 62
     5
420
      255
176
     1
290
     0
176
     1
 90
       50
176
     1
 90
       50
176
     1
 90
       50
176
     1
290
     0
176
     1
 90
       50
176
     1
 62
   256
176
     0
 40
1.0
176
     0
 90
        2
176
     1
  1
strokes_ogs.tif
176
     1
290
     0
176
     1
 40
1.0
176
     1
 40
1.0
176
     1
  0
VISUALSTYLE
  5
3A
102
{ACAD_REACTORS
330
29
102
}
330
29
100
AcDbVisualStyle
  2
Shades of Gray
 70
    23
177
     3
291
     0
 70
    58
 90
        2
176
     1
 90
        2
176
     1
 90
        3
176
     1
 90
        0
176
     1
 40
0.6
176
     1
 40
30.0
176
     1
 62
     7
420
 16777215
176
     1
 90
        2
176
     1
 90
        2
176
     1
 62
     7
176
     1
 62
     7
176
     1
 90
        1
176
     1
 90
        1
176
     1
 40
40.0
176
     1
 90
        8
176
     1
 62
     7
176
     1
 40
1.0
176
     1
 90
        1
176
     1
 90
        6
176
     1
 90
        2
176
     1
 62
     7
176
     1
 90
        3
176
     1
 90
        0
176
     1
 90
        0
176
     1
290
     0
176
     1
 90
        1
176
     1
 40
0.0
176
     1
 90
        0
176
     1
290
     0
176
     1
290
     1
176
     1
290
     1
176
     1
290
     0
176
     1
290
     0
176
     1
290
     0
176
     1
290
     0
176
     1
290
     0
176
     1
290
     0
176
     1
 90
       50
176
     1
 40
0.0
176
     1
 40
1.0
176
     1
 90
        0
176
     1
 62
    18
420
        0
176
     1
 90
       50
176
     1
 90
        3
176
     1
 62
     5
420
      255
176
     1
290
     0
176
     1
 90
       50
176
     1
 90
       50
176
     1
 90
       50
176
     1
290
     0
176
     1
 90
       50
176
     1
 62
   256
176
     0
 40
1.0
176
     0
 90
        2
176
     1
  1
strokes_ogs.tif
176
     1
290
     0
176
     1
 40
1.0
176
     1
 40
1.0
176
     1
  0
VISUALSTYLE
  5
3B
102
{ACAD_REACTORS
330
29
102
}
330
29
100
AcDbVisualStyle
  2
Sketchy
 70
    24
177
     3
291
     0
 70
    58
 90
        1
176
     1
 90
        2
176
     1
 90
        2
176
     1
 90
        0
176
     1
 40
0.6
176
     1
 40
30.0
176
     1
 62
     7
420
 16777215
176
     1
 90
        2
176
     1
 90
        2
176
     1
 62
     7
176
     1
 62
     7
176
     1
 90
        1
176
     1
 90
        1
176
     1
 40
40.0
176
     1
 90
       11
176
     1
 62
     7
176
     1
 40
1.0
176
     1
 90
        1
176
     1
 90
        6
176
     1
 90
        2
176
     1
 62
     7
176
     1
 90
        6
176
     1
 90
        0
176
     1
 90
        0
176
     1
290
     0
176
     1
 90
        1
176
     1
 40
0.0
176
     1
 90
        0
176
     1
290
     0
176
     1
290
     1
176
     1
290
     1
176
     1
290
     0
176
     1
290
     0
176
     1
290
     0
176
     1
290
     0
176
     1
290
     0
176
     1
290
     0
176
     1
 90
       50
176
     1
 40
0.0
176
     1
 40
1.0
176
     1
 90
        0
176
     1
 62
    18
420
        0
176
     1
 90
       50
176
     1
 90
        3
176
     1
 62
     5
420
      255
176
     1
290
     0
176
     1
 90
       50
176
     1
 90
       50
176
     1
 90
       50
176
     1
290
     0
176
     1
 90
       50
176
     1
 62
   256
176
     0
 40
1.0
176
     0
 90
        2
176
     1
  1
strokes_ogs.tif
176
     1
290
     0
176
     1
 40
1.0
176
     1
 40
1.0
176
     1
  0
VISUALSTYLE
  5
36
102
{ACAD_REACTORS
330
29
102
}
330
29
100
AcDbVisualStyle
  2
Thicken
 70
    13
177
     3
291
     1
 70
    58
 90
        2
176
     1
 90
        2
176
     1
 90
        0
176
     1
 90
        0
176
     1
 40
0.6
176
     1
 40
30.0
176
     1
 62
     7
420
 16777215
176
     1
 90
        1
176
     1
 90
        4
176
     1
 62
     7
176
     1
 62
   257
176
     1
 90
        1
176
     1
 90
        1
176
     1
 40
1.0
176
     1
 90
       12
176
     1
 62
     7
176
     1
 40
1.0
176
     1
 90
        1
176
     1
 90
        6
176
     1
 90
        2
176
     1
 62
     7
176
     1
 90
        5
176
     1
 90
        0
176
     1
 90
        0
176
     1
290
     0
176
     1
 90
        1
176
     1
 40
0.0
176
     1
 90
        0
176
     1
290
     0
176
     1
290
     1
176
     1
290
     1
176
     1
290
     0
176
     1
290
     0
176
     1
290
     0
176
     1
290
     0
176
     1
290
     0
176
     1
290
     0
176
     1
 90
       50
176
     1
 40
0.0
176
     1
 40
1.0
176
     1
 90
        0
176
     1
 62
    18
420
        0
176
     1
 90
       50
176
     1
 90
        3
176
     1
 62
     5
420
      255
176
     1
290
     0
176
     1
 90
       50
176
     1
 90
       50
176
     1
 90
       50
176
     1
290
     0
176
     1
 90
       50
176
     1
 62
   256
176
     0
 40
1.0
176
     0
 90
        2
176
     1
  1
strokes_ogs.tif
176
     1
290
     0
176
     1
 40
1.0
176
     1
 40
1.0
176
     1
  0
VISUALSTYLE
  5
30
102
{ACAD_REACTORS
330
29
102
}
330
29
100
AcDbVisualStyle
  2
Wireframe
 70
     5
177
     3
291
     0
 70
    58
 90
        0
176
     1
 90
        2
176
     1
 90
        0
176
     1
 90
        0
176
     1
 40
0.6
176
     1
 40
30.0
176
     1
 62
     7
420
 16777215
176
     1
 90
        1
176
     1
 90
        4
176
     1
 62
     7
176
     1
 62
   257
176
     1
 90
        1
176
     1
 90
        1
176
     1
 40
1.0
176
     1
 90
        0
176
     1
 62
   257
176
     1
 40
1.0
176
     1
 90
        1
176
     1
 90
        6
176
     1
 90
        2
176
     1
 62
     7
176
     1
 90
        3
176
     1
 90
        0
176
     1
 90
        0
176
     1
290
     0
176
     1
 90
        1
176
     1
 40
0.0
176
     1
 90
        0
176
     1
290
     0
176
     1
290
     1
176
     1
290
     1
176
     1
290
     0
176
     1
290
     0
176
     1
290
     0
176
     1
290
     0
176
     1
290
     0
176
     1
290
     0
176
     1
 90
       50
176
     1
 40
0.0
176
     1
 40
1.0
176
     1
 90
        0
176
     1
 62
    18
420
        0
176
     1
 90
       50
176
     1
 90
        3
176
     1
 62
     5
420
      255
176
     1
290
     0
176
     1
 90
       50
176
     1
 90
       50
176
     1
 90
       50
176
     1
290
     0
176
     1
 90
       50
176
     1
 62
   256
176
     0
 40
1.0
176
     0
 90
        2
176
     1
  1
strokes_ogs.tif
176
     1
290
     0
176
     1
 40
1.0
176
     1
 40
1.0
176
     1
  0
VISUALSTYLE
  5
3C
102
{ACAD_REACTORS
330
29
102
}
330
29
100
AcDbVisualStyle
  2
X-Ray
 70
    25
177
     3
291
     0
 70
    58
 90
        2
176
     1
 90
        2
176
     1
 90
        1
176
     1
 90
        1
176
     1
 40
0.5
176
     1
 40
30.0
176
     1
 62
     7
420
 16777215
176
     1
 90
        1
176
     1
 90
        0
176
     1
 62
     7
176
     1
 62
   257
176
     1
 90
        1
176
     1
 90
        1
176
     1
 40
1.0
176
     1
 90
        8
176
     1
 62
     7
176
     1
 40
1.0
176
     1
 90
        1
176
     1
 90
        6
176
     1
 90
        2
176
     1
 62
     7
176
     1
 90
        3
176
     1
 90
        0
176
     1
 90
        0
176
     1
290
     0
176
     1
 90
       13
176
     1
 40
0.0
176
     1
 90
        0
176
     1
290
     0
176
     1
290
     1
176
     1
290
     1
176
     1
290
     0
176
     1
290
     0
176
     1
290
     0
176
     1
290
     0
176
     1
290
     0
176
     1
290
     0
176
     1
 90
       50
176
     1
 40
0.0
176
     1
 40
1.0
176
     1
 90
        0
176
     1
 62
    18
420
        0
176
     1
 90
       50
176
     1
 90
        3
176
     1
 62
     5
420
      255
176
     1
290
     0
176
     1
 90
       50
176
     1
 90
       50
176
     1
 90
       50
176
     1
290
     0
176
     1
 90
       50
176
     1
 62
   256
176
     0
 40
1.0
176
     0
 90
        2
176
     1
  1
strokes_ogs.tif
176
     1
290
     0
176
     1
 40
1.0
176
     1
 40
1.0
176
     1
  0
DICTIONARYVAR
  5
294
102
{ACAD_REACTORS
330
28F
102
}
330
28F
100
DictionaryVariables
280
     0
  1
1:1
  0
DICTIONARYVAR
  5
291
102
{ACAD_REACTORS
330
28F
102
}
330
28F
100
DictionaryVariables
280
     0
  1
STANDARD
  0
DICTIONARYVAR
  5
290
102
{ACAD_REACTORS
330
28F
102
}
330
28F
100
DictionaryVariables
280
     0
  1
STANDARD
  0
DICTIONARYVAR
  5
292
102
{ACAD_REACTORS
330
28F
102
}
330
28F
100
DictionaryVariables
280
     0
  1
Imperial24
  0
DICTIONARYVAR
  5
293
102
{ACAD_REACTORS
330
28F
102
}
330
28F
100
DictionaryVariables
280
     0
  1
Imperial24
  0
DICTIONARY
  5
1A
330
19
100
AcDbDictionary
280
     1
281
     1
  3
BUMPTILE
360
1C
  3
DIFFUSETILE
360
1B
  3
OPACITYTILE
360
1F
  3
REFLECTIONTILE
360
1E
  3
REFRACTIONTILE
360
20
  3
SPECULARTILE
360
1D
  0
DICTIONARY
  5
12
330
11
100
AcDbDictionary
280
     1
281
     1
  3
BUMPTILE
360
14
  3
DIFFUSETILE
360
13
  3
OPACITYTILE
360
17
  3
REFLECTIONTILE
360
16
  3
REFRACTIONTILE
360
18
  3
SPECULARTILE
360
15
  0
DICTIONARY
  5
22
330
21
100
AcDbDictionary
280
     1
281
     1
  3
BUMPTILE
360
24
  3
DIFFUSETILE
360
23
  3
OPACITYTILE
360
27
  3
REFLECTIONTILE
360
26
  3
REFRACTIONTILE
360
28
  3
SPECULARTILE
360
25
  0
DICTIONARY
  5
295
330
65
100
AcDbDictionary
280
     1
281
     1
  3
ACAD_ROUNDTRIP_2008_TABLESTYLE_CELLSTYLEMAP
360
296
  0
XRECORD
  5
1C
102
{ACAD_REACTORS
330
1A
102
}
330
1A
100
AcDbXrecord
280
     1
270
     1
271
     1
  0
XRECORD
  5
1B
102
{ACAD_REACTORS
330
1A
102
}
330
1A
100
AcDbXrecord
280
     1
270
     1
271
     1
  0
XRECORD
  5
1F
102
{ACAD_REACTORS
330
1A
102
}
330
1A
100
AcDbXrecord
280
     1
270
     1
271
     1
  0
XRECORD
  5
1E
102
{ACAD_REACTORS
330
1A
102
}
330
1A
100
AcDbXrecord
280
     1
270
     1
271
     1
  0
XRECORD
  5
20
102
{ACAD_REACTORS
330
1A
102
}
330
1A
100
AcDbXrecord
280
     1
270
     1
271
     1
  0
XRECORD
  5
1D
102
{ACAD_REACTORS
330
1A
102
}
330
1A
100
AcDbXrecord
280
     1
270
     1
271
     1
  0
XRECORD
  5
14
102
{ACAD_REACTORS
330
12
102
}
330
12
100
AcDbXrecord
280
     1
270
     1
271
     1
  0
XRECORD
  5
13
102
{ACAD_REACTORS
330
12
102
}
330
12
100
AcDbXrecord
280
     1
270
     1
271
     1
  0
XRECORD
  5
17
102
{ACAD_REACTORS
330
12
102
}
330
12
100
AcDbXrecord
280
     1
270
     1
271
     1
  0
XRECORD
  5
16
102
{ACAD_REACTORS
330
12
102
}
330
12
100
AcDbXrecord
280
     1
270
     1
271
     1
  0
XRECORD
  5
18
102
{ACAD_REACTORS
330
12
102
}
330
12
100
AcDbXrecord
280
     1
270
     1
271
     1
  0
XRECORD
  5
15
102
{ACAD_REACTORS
330
12
102
}
330
12
100
AcDbXrecord
280
     1
270
     1
271
     1
  0
XRECORD
  5
24
102
{ACAD_REACTORS
330
22
102
}
330
22
100
AcDbXrecord
280
     1
270
     1
271
     1
  0
XRECORD
  5
23
102
{ACAD_REACTORS
330
22
102
}
330
22
100
AcDbXrecord
280
     1
270
     1
271
     1
  0
XRECORD
  5
27
102
{ACAD_REACTORS
330
22
102
}
330
22
100
AcDbXrecord
280
     1
270
     1
271
     1
  0
XRECORD
  5
26
102
{ACAD_REACTORS
330
22
102
}
330
22
100
AcDbXrecord
280
     1
270
     1
271
     1
  0
XRECORD
  5
28
102
{ACAD_REACTORS
330
22
102
}
330
22
100
AcDbXrecord
280
     1
270
     1
271
     1
  0
XRECORD
  5
25
102
{ACAD_REACTORS
330
22
102
}
330
22
100
AcDbXrecord
280
     1
270
     1
271
     1
  0
CELLSTYLEMAP
  5
296
102
{ACAD_REACTORS
330
295
102
}
330
295
100
AcDbCellStyleMap
 90
        3
300
CELLSTYLE
  1
TABLEFORMAT_BEGIN
 90
        5
170
     1
 91
        0
 92
    32768
 62
   257
 93
        1
300
CONTENTFORMAT
  1
CONTENTFORMAT_BEGIN
 90
        0
 91
        0
 92
      512
 93
        0
300

 40
0.0
140
1.0
 94
        5
 62
     0
340
55
144
0.25
309
CONTENTFORMAT_END
171
     0
 94
        0
309
TABLEFORMAT_END
  1
CELLSTYLE_BEGIN
 90
        1
 91
        1
300
_TITLE
309
CELLSTYLE_END
300
CELLSTYLE
  1
TABLEFORMAT_BEGIN
 90
        5
170
     1
 91
        0
 92
        0
 62
   257
 93
        1
300
CONTENTFORMAT
  1
CONTENTFORMAT_BEGIN
 90
        0
 91
        0
 92
      512
 93
        0
300

 40
0.0
140
1.0
 94
        5
 62
     0
340
55
144
0.18
309
CONTENTFORMAT_END
171
     0
 94
        0
309
TABLEFORMAT_END
  1
CELLSTYLE_BEGIN
 90
        2
 91
        1
300
_HEADER
309
CELLSTYLE_END
300
CELLSTYLE
  1
TABLEFORMAT_BEGIN
 90
        5
170
     1
 91
        0
 92
        0
 62
   257
 93
        1
300
CONTENTFORMAT
  1
CONTENTFORMAT_BEGIN
 90
        0
 91
        0
 92
      512
 93
        0
300

 40
0.0
140
1.0
 94
        2
 62
     0
340
55
144
0.18
309
CONTENTFORMAT_END
171
     0
 94
        0
309
TABLEFORMAT_END
  1
CELLSTYLE_BEGIN
 90
        3
 91
        2
300
_DATA
309
CELLSTYLE_END
  0
ENDSEC
  0
EOF
