  0
SECTION
  2
HEADER
  9
$ACADVER
  1
AC1032
  9
$ACADMAINTVER
 90
      251
  9
$DWGCODEPAGE
  3
ANSI_1252
  9
$REQUIREDVERSIONS
160
                 0
  9
$INSBASE
 10
0.0
 20
0.0
 30
0.0
  9
$EXTMIN
 10
1.000000000000000E+20
 20
1.000000000000000E+20
 30
1.000000000000000E+20
  9
$EXTMAX
 10
-1.000000000000000E+20
 20
-1.000000000000000E+20
 30
-1.000000000000000E+20
  9
$LIMMIN
 10
0.0
 20
0.0
  9
$LIMMAX
 10
12.0
 20
9.0
  9
$ORTHOMODE
 70
     0
  9
$REGENMODE
 70
     1
  9
$FILLMODE
 70
     1
  9
$QTEXTMODE
 70
     0
  9
$MIRRTEXT
 70
     0
  9
$LTSCALE
 40
1.0
  9
$ATTMODE
 70
     1
  9
$TEXTSIZE
 40
0.2
  9
$TRACEWID
 40
0.05
  9
$TEXTSTYLE
  7
Standard
  9
$CLAYER
  8
0
  9
$CELTYPE
  6
ByLayer
  9
$CECOLOR
 62
   256
  9
$CELTSCALE
 40
1.0
  9
$DISPSILH
 70
     0
  9
$DIMSCALE
 40
1.0
  9
$DIMASZ
 40
0.18
  9
$DIMEXO
 40
0.0625
  9
$DIMDLI
 40
0.38
  9
$DIMRND
 40
0.0
  9
$DIMDLE
 40
0.0
  9
$DIMEXE
 40
0.18
  9
$DIMTP
 40
0.0
  9
$DIMTM
 40
0.0
  9
$DIMTXT
 40
0.18
  9
$DIMCEN
 40
0.09
  9
$DIMTSZ
 40
0.0
  9
$DIMTOL
 70
     0
  9
$DIMLIM
 70
     0
  9
$DIMTIH
 70
     1
  9
$DIMTOH
 70
     1
  9
$DIMSE1
 70
     0
  9
$DIMSE2
 70
     0
  9
$DIMTAD
 70
     0
  9
$DIMZIN
 70
     0
  9
$DIMBLK
  1

  9
$DIMASO
 70
     1
  9
$DIMSHO
 70
     1
  9
$DIMPOST
  1

  9
$DIMAPOST
  1

  9
$DIMALT
 70
     0
  9
$DIMALTD
 70
     2
  9
$DIMALTF
 40
25.4
  9
$DIMLFAC
 40
1.0
  9
$DIMTOFL
 70
     0
  9
$DIMTVP
 40
0.0
  9
$DIMTIX
 70
     0
  9
$DIMSOXD
 70
     0
  9
$DIMSAH
 70
     0
  9
$DIMBLK1
  1

  9
$DIMBLK2
  1

  9
$DIMSTYLE
  2
Standard
  9
$DIMCLRD
 70
     0
  9
$DIMCLRE
 70
     0
  9
$DIMCLRT
 70
     0
  9
$DIMTFAC
 40
1.0
  9
$DIMGAP
 40
0.09
  9
$DIMJUST
 70
     0
  9
$DIMSD1
 70
     0
  9
$DIMSD2
 70
     0
  9
$DIMTOLJ
 70
     1
  9
$DIMTZIN
 70
     0
  9
$DIMALTZ
 70
     0
  9
$DIMALTTZ
 70
     0
  9
$DIMUPT
 70
     0
  9
$DIMDEC
 70
     4
  9
$DIMTDEC
 70
     4
  9
$DIMALTU
 70
     2
  9
$DIMALTTD
 70
     2
  9
$DIMTXSTY
  7
Standard
  9
$DIMAUNIT
 70
     0
  9
$DIMADEC
 70
     0
  9
$DIMALTRND
 40
0.0
  9
$DIMAZIN
 70
     0
  9
$DIMDSEP
 70
    46
  9
$DIMATFIT
 70
     3
  9
$DIMFRAC
 70
     0
  9
$DIMLDRBLK
  1

  9
$DIMLUNIT
 70
     2
  9
$DIMLWD
 70
    -2
  9
$DIMLWE
 70
    -2
  9
$DIMTMOVE
 70
     0
  9
$DIMFXL
 40
1.0
  9
$DIMFXLON
 70
     0
  9
$DIMJOGANG
 40
0.7853981633974483
  9
$DIMTFILL
 70
     0
  9
$DIMTFILLCLR
 70
     0
  9
$DIMARCSYM
 70
     0
  9
$DIMLTYPE
  6

  9
$DIMLTEX1
  6

  9
$DIMLTEX2
  6

  9
$DIMTXTDIRECTION
 70
     0
  9
$LUNITS
 70
     2
  9
$LUPREC
 70
     4
  9
$SKETCHINC
 40
0.1
  9
$FILLETRAD
 40
0.0
  9
$AUNITS
 70
     0
  9
$AUPREC
 70
     0
  9
$MENU
  1
.
  9
$ELEVATION
 40
0.0
  9
$PELEVATION
 40
0.0
  9
$THICKNESS
 40
0.0
  9
$LIMCHECK
 70
     0
  9
$CHAMFERA
 40
0.0
  9
$CHAMFERB
 40
0.0
  9
$CHAMFERC
 40
0.0
  9
$CHAMFERD
 40
0.0
  9
$SKPOLY
 70
     0
  9
$TDCREATE
 40
2459963.394814815
  9
$TDUCREATE
 40
2459963.353148148
  9
$TDUPDATE
 40
2459963.394814815
  9
$TDUUPDATE
 40
2459963.353148148
  9
$TDINDWG
 40
0.0000000000
  9
$TDUSRTIMER
 40
0.0000000000
  9
$USRTIMER
 70
     1
  9
$ANGBASE
 50
0.0
  9
$ANGDIR
 70
     0
  9
$PDMODE
 70
     0
  9
$PDSIZE
 40
0.0
  9
$PLINEWID
 40
0.0
  9
$SPLFRAME
 70
     0
  9
$SPLINETYPE
 70
     6
  9
$SPLINESEGS
 70
     8
  9
$HANDSEED
  5
347
  9
$SURFTAB1
 70
     6
  9
$SURFTAB2
 70
     6
  9
$SURFTYPE
 70
     6
  9
$SURFU
 70
     6
  9
$SURFV
 70
     6
  9
$UCSBASE
  2

  9
$UCSNAME
  2

  9
$UCSORG
 10
0.0
 20
0.0
 30
0.0
  9
$UCSXDIR
 10
1.0
 20
0.0
 30
0.0
  9
$UCSYDIR
 10
0.0
 20
1.0
 30
0.0
  9
$UCSORTHOREF
  2

  9
$UCSORTHOVIEW
 70
     0
  9
$UCSORGTOP
 10
0.0
 20
0.0
 30
0.0
  9
$UCSORGBOTTOM
 10
0.0
 20
0.0
 30
0.0
  9
$UCSORGLEFT
 10
0.0
 20
0.0
 30
0.0
  9
$UCSORGRIGHT
 10
0.0
 20
0.0
 30
0.0
  9
$UCSORGFRONT
 10
0.0
 20
0.0
 30
0.0
  9
$UCSORGBACK
 10
0.0
 20
0.0
 30
0.0
  9
$PUCSBASE
  2

  9
$PUCSNAME
  2

  9
$PUCSORG
 10
0.0
 20
0.0
 30
0.0
  9
$PUCSXDIR
 10
1.0
 20
0.0
 30
0.0
  9
$PUCSYDIR
 10
0.0
 20
1.0
 30
0.0
  9
$PUCSORTHOREF
  2

  9
$PUCSORTHOVIEW
 70
     0
  9
$PUCSORGTOP
 10
0.0
 20
0.0
 30
0.0
  9
$PUCSORGBOTTOM
 10
0.0
 20
0.0
 30
0.0
  9
$PUCSORGLEFT
 10
0.0
 20
0.0
 30
0.0
  9
$PUCSORGRIGHT
 10
0.0
 20
0.0
 30
0.0
  9
$PUCSORGFRONT
 10
0.0
 20
0.0
 30
0.0
  9
$PUCSORGBACK
 10
0.0
 20
0.0
 30
0.0
  9
$USERI1
 70
     0
  9
$USERI2
 70
     0
  9
$USERI3
 70
     0
  9
$USERI4
 70
     0
  9
$USERI5
 70
     0
  9
$USERR1
 40
0.0
  9
$USERR2
 40
0.0
  9
$USERR3
 40
0.0
  9
$USERR4
 40
0.0
  9
$USERR5
 40
0.0
  9
$WORLDVIEW
 70
     1
  9
$SHADEDGE
 70
     3
  9
$SHADEDIF
 70
    70
  9
$TILEMODE
 70
     1
  9
$MAXACTVP
 70
    64
  9
$PINSBASE
 10
0.0
 20
0.0
 30
0.0
  9
$PLIMCHECK
 70
     0
  9
$PEXTMIN
 10
1.000000000000000E+20
 20
1.000000000000000E+20
 30
1.000000000000000E+20
  9
$PEXTMAX
 10
-1.000000000000000E+20
 20
-1.000000000000000E+20
 30
-1.000000000000000E+20
  9
$PLIMMIN
 10
0.0
 20
0.0
  9
$PLIMMAX
 10
12.0
 20
9.0
  9
$UNITMODE
 70
     0
  9
$VISRETAIN
 70
     1
  9
$PLINEGEN
 70
     0
  9
$PSLTSCALE
 70
     1
  9
$TREEDEPTH
 70
  3020
  9
$CMLSTYLE
  2
Standard
  9
$CMLJUST
 70
     0
  9
$CMLSCALE
 40
1.0
  9
$PROXYGRAPHICS
 70
     1
  9
$MEASUREMENT
 70
     0
  9
$CELWEIGHT
370
    -1
  9
$ENDCAPS
280
     0
  9
$JOINSTYLE
280
     0
  9
$LWDISPLAY
290
     1
  9
$INSUNITS
 70
     4
  9
$HYPERLINKBASE
  1

  9
$STYLESHEET
  1

  9
$XEDIT
290
     1
  9
$CEPSNTYPE
380
     0
  9
$PSTYLEMODE
290
     1
  9
$FINGERPRINTGUID
  2
{839F8738-F0AA-D849-ADB2-36D7F835A2F3}
  9
$VERSIONGUID
  2
{A91382C4-1633-624D-AA21-92C07F775E59}
  9
$EXTNAMES
290
     1
  9
$PSVPSCALE
 40
0.0
  9
$OLESTARTUP
290
     0
  9
$SORTENTS
280
   127
  9
$INDEXCTL
280
     0
  9
$HIDETEXT
280
     1
  9
$XCLIPFRAME
280
     2
  9
$HALOGAP
280
     0
  9
$OBSCOLOR
 70
   257
  9
$OBSLTYPE
280
     0
  9
$INTERSECTIONDISPLAY
280
     0
  9
$INTERSECTIONCOLOR
 70
   257
  9
$DIMASSOC
280
     2
  9
$PROJECTNAME
  1

  9
$CAMERADISPLAY
290
     0
  9
$LENSLENGTH
 40
50.0
  9
$CAMERAHEIGHT
 40
0.0
  9
$STEPSPERSEC
 40
2.0
  9
$STEPSIZE
 40
6.0
  9
$3DDWFPREC
 40
2.0
  9
$PSOLWIDTH
 40
0.25
  9
$PSOLHEIGHT
 40
4.0
  9
$LOFTANG1
 40
1.570796326794896
  9
$LOFTANG2
 40
1.570796326794896
  9
$LOFTMAG1
 40
0.0
  9
$LOFTMAG2
 40
0.0
  9
$LOFTPARAM
 70
     7
  9
$LOFTNORMALS
280
     1
  9
$LATITUDE
 40
37.795
  9
$LONGITUDE
 40
-122.394
  9
$NORTHDIRECTION
 40
0.0
  9
$TIMEZONE
 70
 -8000
  9
$LIGHTGLYPHDISPLAY
280
     1
  9
$TILEMODELIGHTSYNCH
280
     1
  9
$CMATERIAL
347
11
  9
$SOLIDHIST
280
     0
  9
$SHOWHIST
280
     1
  9
$DWFFRAME
280
     2
  9
$DGNFRAME
280
     0
  9
$REALWORLDSCALE
290
     1
  9
$INTERFERECOLOR
 62
     1
  9
$INTERFEREOBJVS
345
33
  9
$INTERFEREVPVS
346
30
  9
$CSHADOW
280
     0
  9
$SHADOWPLANELOCATION
 40
0.0
  0
ENDSEC
  0
SECTION
  2
CLASSES
  0
CLASS
  1
ACDBDICTIONARYWDFLT
  2
AcDbDictionaryWithDefault
  3
ObjectDBX Classes
 90
        0
 91
        1
280
     0
281
     0
  0
CLASS
  1
MATERIAL
  2
AcDbMaterial
  3
ObjectDBX Classes
 90
     1153
 91
        3
280
     0
281
     0
  0
CLASS
  1
VISUALSTYLE
  2
AcDbVisualStyle
  3
ObjectDBX Classes
 90
     4095
 91
       24
280
     0
281
     0
  0
CLASS
  1
SCALE
  2
AcDbScale
  3
ObjectDBX Classes
 90
     1153
 91
       17
280
     0
281
     0
  0
CLASS
  1
TABLESTYLE
  2
AcDbTableStyle
  3
ObjectDBX Classes
 90
     4095
 91
        1
280
     0
281
     0
  0
CLASS
  1
MLEADERSTYLE
  2
AcDbMLeaderStyle
  3
ACDB_MLEADERSTYLE_CLASS
 90
     4095
 91
        1
280
     0
281
     0
  0
CLASS
  1
ACDBSECTIONVIEWSTYLE
  2
AcDbSectionViewStyle
  3
ObjectDBX Classes
 90
     1025
 91
        1
280
     0
281
     0
  0
CLASS
  1
ACDBDETAILVIEWSTYLE
  2
AcDbDetailViewStyle
  3
ObjectDBX Classes
 90
     1025
 91
        1
280
     0
281
     0
  0
CLASS
  1
DICTIONARYVAR
  2
AcDbDictionaryVar
  3
ObjectDBX Classes
 90
        0
 91
        5
280
     0
281
     0
  0
CLASS
  1
CELLSTYLEMAP
  2
AcDbCellStyleMap
  3
ObjectDBX Classes
 90
     1152
 91
        1
280
     0
281
     0
  0
ENDSEC
  0
SECTION
  2
TABLES
  0
TABLE
  2
VPORT
  5
8
330
0
100
AcDbSymbolTable
 70
     1
  0
VPORT
  5
57
330
8
100
AcDbSymbolTableRecord
100
AcDbViewportTableRecord
  2
*Active
 70
     0
 10
0.0
 20
0.0
 11
1.0
 21
1.0
 12
0.0
 22
0.0
 13
0.0
 23
0.0
 14
1.0
 24
1.0
 15
0.0
 25
0.0
 16
0.0
 26
0.0
 36
1.0
 17
105.0000721959721
 27
148.5000416295418
 37
0.0
 40
89.75999997755987
 41
1.0
 42
50.0
 43
0.0
 44
0.0
 50
0.0
 51
0.0
 71
     0
 72
   100
 73
     1
 74
     1
 75
     0
 76
     0
 77
     0
 78
     0
281
     0
 65
     1
110
0.0
120
0.0
130
0.0
111
1.0
121
0.0
131
0.0
112
0.0
122
1.0
132
0.0
 79
     0
146
0.0
 60
     3
 61
     5
292
     1
282
     1
141
0.0
142
0.0
 63
   250
421
  3355443
  0
ENDTAB
  0
TABLE
  2
LTYPE
  5
5
330
0
100
AcDbSymbolTable
 70
     3
  0
LTYPE
  5
5B
330
5
100
AcDbSymbolTableRecord
100
AcDbLinetypeTableRecord
  2
ByBlock
 70
     0
  3

 72
    65
 73
     0
 40
0.0
  0
LTYPE
  5
5C
330
5
100
AcDbSymbolTableRecord
100
AcDbLinetypeTableRecord
  2
ByLayer
 70
     0
  3

 72
    65
 73
     0
 40
0.0
  0
LTYPE
  5
5D
330
5
100
AcDbSymbolTableRecord
100
AcDbLinetypeTableRecord
  2
Continuous
 70
     0
  3
Solid line
 72
    65
 73
     0
 40
0.0
  0
LTYPE
  5
2AD
330
5
100
AcDbSymbolTableRecord
100
AcDbLinetypeTableRecord
  2
AI-Linetype-0
 70
     0
  3
Adobe Illustrator Linetype No. 0
 72
    65
 73
     2
 40
1.411111110758333
 49
0.7055555553791667
 74
     0
 49
-0.7055555553791667
 74
     0
  0
LTYPE
  5
2E0
330
5
100
AcDbSymbolTableRecord
100
AcDbLinetypeTableRecord
  2
AI-Linetype-1
 70
     0
  3
Adobe Illustrator Linetype No. 1
 72
    65
 73
     2
 40
1.411111110758333
 49
0.7055555553791667
 74
     0
 49
-0.7055555553791667
 74
     0
  0
ENDTAB
  0
TABLE
  2
LAYER
  5
2
330
0
100
AcDbSymbolTable
 70
     5
  0
LAYER
  5
54
330
2
100
AcDbSymbolTableRecord
100
AcDbLayerTableRecord
  2
0
 70
     0
 62
     7
  6
Continuous
370
     0
390
F
347
21
348
0
  0
LAYER
  5
8C
330
2
100
AcDbSymbolTableRecord
100
AcDbLayerTableRecord
  2
Rahmen (ISO)
 70
     0
 62
     7
  6
Continuous
370
     0
390
F
347
21
348
0
  0
LAYER
  5
8D
330
2
100
AcDbSymbolTableRecord
100
AcDbLayerTableRecord
  2
Titel (ISO)
 70
     0
 62
     7
  6
Continuous
370
     0
390
F
347
21
348
0
  0
LAYER
  5
B2
330
2
100
AcDbSymbolTableRecord
100
AcDbLayerTableRecord
  2
Sichtbar (ISO)
 70
     0
 62
     7
  6
Continuous
370
     0
390
F
347
21
348
0
  0
LAYER
  5
B3
330
2
100
AcDbSymbolTableRecord
100
AcDbLayerTableRecord
  2
Sichtbar schmal (ISO)
 70
     0
 62
     7
  6
Continuous
370
     0
390
F
347
21
348
0
  0
ENDTAB
  0
TABLE
  2
STYLE
  5
3
330
0
100
AcDbSymbolTable
 70
     2
  0
STYLE
  5
55
330
3
100
AcDbSymbolTableRecord
100
AcDbTextStyleTableRecord
  2
Standard
 70
     0
 40
0.0
 41
1.0
 50
0.0
 71
     0
 42
0.2
  3
txt
  4

  0
STYLE
  5
5A
330
3
100
AcDbSymbolTableRecord
100
AcDbTextStyleTableRecord
  2
Annotative
 70
     0
 40
0.0
 41
1.0
 50
0.0
 71
     0
 42
0.2
  3
txt
  4

1001
AcadAnnotative
1000
AnnotativeData
1002
{
1070
     1
1070
     1
1002
}
  0
ENDTAB
  0
TABLE
  2
VIEW
  5
6
330
0
100
AcDbSymbolTable
 70
     0
  0
ENDTAB
  0
TABLE
  2
UCS
  5
7
330
0
100
AcDbSymbolTable
 70
     0
  0
ENDTAB
  0
TABLE
  2
APPID
  5
9
330
0
100
AcDbSymbolTable
 70
     2
  0
APPID
  5
56
330
9
100
AcDbSymbolTableRecord
100
AcDbRegAppTableRecord
  2
ACAD
 70
     0
  0
APPID
  5
5E
330
9
100
AcDbSymbolTableRecord
100
AcDbRegAppTableRecord
  2
AcadAnnotative
 70
     0
  0
ENDTAB
  0
TABLE
  2
DIMSTYLE
  5
A
330
0
100
AcDbSymbolTable
 70
     2
100
AcDbDimStyleTable
 71
     0
  0
DIMSTYLE
105
58
330
A
100
AcDbSymbolTableRecord
100
AcDbDimStyleTableRecord
  2
Standard
 70
     0
340
55
  0
DIMSTYLE
105
59
330
A
100
AcDbSymbolTableRecord
100
AcDbDimStyleTableRecord
  2
Annotative
 70
     0
340
55
1001
AcadAnnotative
1000
AnnotativeData
1002
{
1070
     1
1070
     1
1002
}
  0
ENDTAB
  0
TABLE
  2
BLOCK_RECORD
  5
1
330
0
100
AcDbSymbolTable
 70
    46
  0
BLOCK_RECORD
  5
70
330
1
100
AcDbSymbolTableRecord
100
AcDbBlockTableRecord
  2
*Model_Space
340
73
 70
     0
280
     1
281
     0
  0
BLOCK_RECORD
  5
6C
330
1
100
AcDbSymbolTableRecord
100
AcDbBlockTableRecord
  2
*Paper_Space
340
6F
 70
     0
280
     1
281
     0
  0
BLOCK_RECORD
  5
74
330
1
100
AcDbSymbolTableRecord
100
AcDbBlockTableRecord
  2
*Paper_Space0
340
77
 70
     0
280
     1
281
     0
  0
BLOCK_RECORD
  5
78
330
1
100
AcDbSymbolTableRecord
100
AcDbBlockTableRecord
  2
Block_0
340
0
102
{BLKREFS
331
79
102
}
 70
     0
280
     1
281
     0
  0
BLOCK_RECORD
  5
7C
330
1
100
AcDbSymbolTableRecord
100
AcDbBlockTableRecord
  2
Block_1
340
0
102
{BLKREFS
331
7D
102
}
 70
     0
280
     1
281
     0
  0
BLOCK_RECORD
  5
80
330
1
100
AcDbSymbolTableRecord
100
AcDbBlockTableRecord
  2
Block_2
340
0
102
{BLKREFS
331
81
102
}
 70
     0
280
     1
281
     0
  0
BLOCK_RECORD
  5
84
330
1
100
AcDbSymbolTableRecord
100
AcDbBlockTableRecord
  2
Block_3
340
0
102
{BLKREFS
331
85
102
}
 70
     0
280
     1
281
     0
  0
BLOCK_RECORD
  5
88
330
1
100
AcDbSymbolTableRecord
100
AcDbBlockTableRecord
  2
Block_4
340
0
102
{BLKREFS
331
89
102
}
 70
     0
280
     1
281
     0
  0
BLOCK_RECORD
  5
8E
330
1
100
AcDbSymbolTableRecord
100
AcDbBlockTableRecord
  2
Block_5
340
0
102
{BLKREFS
331
8F
102
}
 70
     0
280
     1
281
     0
  0
BLOCK_RECORD
  5
92
330
1
100
AcDbSymbolTableRecord
100
AcDbBlockTableRecord
  2
Block_6
340
0
102
{BLKREFS
331
93
102
}
 70
     0
280
     1
281
     0
  0
BLOCK_RECORD
  5
96
330
1
100
AcDbSymbolTableRecord
100
AcDbBlockTableRecord
  2
Block_7
340
0
102
{BLKREFS
331
97
102
}
 70
     0
280
     1
281
     0
  0
BLOCK_RECORD
  5
9A
330
1
100
AcDbSymbolTableRecord
100
AcDbBlockTableRecord
  2
Block_8
340
0
102
{BLKREFS
331
9B
102
}
 70
     0
280
     1
281
     0
  0
BLOCK_RECORD
  5
9E
330
1
100
AcDbSymbolTableRecord
100
AcDbBlockTableRecord
  2
Block_9
340
0
102
{BLKREFS
331
9F
102
}
 70
     0
280
     1
281
     0
  0
BLOCK_RECORD
  5
A2
330
1
100
AcDbSymbolTableRecord
100
AcDbBlockTableRecord
  2
Block_10
340
0
102
{BLKREFS
331
A3
102
}
 70
     0
280
     1
281
     0
  0
BLOCK_RECORD
  5
A6
330
1
100
AcDbSymbolTableRecord
100
AcDbBlockTableRecord
  2
Block_11
340
0
102
{BLKREFS
331
A7
102
}
 70
     0
280
     1
281
     0
  0
BLOCK_RECORD
  5
AA
330
1
100
AcDbSymbolTableRecord
100
AcDbBlockTableRecord
  2
Block_12
340
0
102
{BLKREFS
331
AB
102
}
 70
     0
280
     1
281
     0
  0
BLOCK_RECORD
  5
AE
330
1
100
AcDbSymbolTableRecord
100
AcDbBlockTableRecord
  2
Block_13
340
0
102
{BLKREFS
331
AF
102
}
 70
     0
280
     1
281
     0
  0
BLOCK_RECORD
  5
B4
330
1
100
AcDbSymbolTableRecord
100
AcDbBlockTableRecord
  2
Block_14
340
0
102
{BLKREFS
331
B5
102
}
 70
     0
280
     1
281
     0
  0
BLOCK_RECORD
  5
BA
330
1
100
AcDbSymbolTableRecord
100
AcDbBlockTableRecord
  2
Block_15
340
0
102
{BLKREFS
331
BB
102
}
 70
     0
280
     1
281
     0
  0
BLOCK_RECORD
  5
27D
330
1
100
AcDbSymbolTableRecord
100
AcDbBlockTableRecord
  2
Block_16
340
0
102
{BLKREFS
331
27E
102
}
 70
     0
280
     1
281
     0
  0
BLOCK_RECORD
  5
281
330
1
100
AcDbSymbolTableRecord
100
AcDbBlockTableRecord
  2
Block_17
340
0
102
{BLKREFS
331
282
102
}
 70
     0
280
     1
281
     0
  0
BLOCK_RECORD
  5
286
330
1
100
AcDbSymbolTableRecord
100
AcDbBlockTableRecord
  2
Block_18
340
0
102
{BLKREFS
331
287
102
}
 70
     0
280
     1
281
     0
  0
BLOCK_RECORD
  5
28C
330
1
100
AcDbSymbolTableRecord
100
AcDbBlockTableRecord
  2
Block_19
340
0
102
{BLKREFS
331
28D
102
}
 70
     0
280
     1
281
     0
  0
BLOCK_RECORD
  5
295
330
1
100
AcDbSymbolTableRecord
100
AcDbBlockTableRecord
  2
Block_20
340
0
102
{BLKREFS
331
296
102
}
 70
     0
280
     1
281
     0
  0
BLOCK_RECORD
  5
299
330
1
100
AcDbSymbolTableRecord
100
AcDbBlockTableRecord
  2
Block_21
340
0
102
{BLKREFS
331
29A
102
}
 70
     0
280
     1
281
     0
  0
BLOCK_RECORD
  5
29E
330
1
100
AcDbSymbolTableRecord
100
AcDbBlockTableRecord
  2
Block_22
340
0
102
{BLKREFS
331
29F
102
}
 70
     0
280
     1
281
     0
  0
BLOCK_RECORD
  5
2A4
330
1
100
AcDbSymbolTableRecord
100
AcDbBlockTableRecord
  2
Block_23
340
0
102
{BLKREFS
331
2A5
102
}
 70
     0
280
     1
281
     0
  0
BLOCK_RECORD
  5
2AE
330
1
100
AcDbSymbolTableRecord
100
AcDbBlockTableRecord
  2
Block_24
340
0
102
{BLKREFS
331
2AF
102
}
 70
     0
280
     1
281
     0
  0
BLOCK_RECORD
  5
2B2
330
1
100
AcDbSymbolTableRecord
100
AcDbBlockTableRecord
  2
Block_25
340
0
102
{BLKREFS
331
2B3
102
}
 70
     0
280
     1
281
     0
  0
BLOCK_RECORD
  5
2B7
330
1
100
AcDbSymbolTableRecord
100
AcDbBlockTableRecord
  2
Block_26
340
0
102
{BLKREFS
331
2B8
102
}
 70
     0
280
     1
281
     0
  0
BLOCK_RECORD
  5
2BD
330
1
100
AcDbSymbolTableRecord
100
AcDbBlockTableRecord
  2
Block_27
340
0
102
{BLKREFS
331
2BE
102
}
 70
     0
280
     1
281
     0
  0
BLOCK_RECORD
  5
2C1
330
1
100
AcDbSymbolTableRecord
100
AcDbBlockTableRecord
  2
Block_28
340
0
102
{BLKREFS
331
2C2
102
}
 70
     0
280
     1
281
     0
  0
BLOCK_RECORD
  5
2C6
330
1
100
AcDbSymbolTableRecord
100
AcDbBlockTableRecord
  2
Block_29
340
0
102
{BLKREFS
331
2C7
102
}
 70
     0
280
     1
281
     0
  0
BLOCK_RECORD
  5
2CC
330
1
100
AcDbSymbolTableRecord
100
AcDbBlockTableRecord
  2
Block_30
340
0
102
{BLKREFS
331
2CD
102
}
 70
     0
280
     1
281
     0
  0
BLOCK_RECORD
  5
2D2
330
1
100
AcDbSymbolTableRecord
100
AcDbBlockTableRecord
  2
Block_31
340
0
102
{BLKREFS
331
2D3
102
}
 70
     0
280
     1
281
     0
  0
BLOCK_RECORD
  5
2D6
330
1
100
AcDbSymbolTableRecord
100
AcDbBlockTableRecord
  2
Block_32
340
0
102
{BLKREFS
331
2D7
102
}
 70
     0
280
     1
281
     0
  0
BLOCK_RECORD
  5
2E1
330
1
100
AcDbSymbolTableRecord
100
AcDbBlockTableRecord
  2
Block_33
340
0
102
{BLKREFS
331
2E2
102
}
 70
     0
280
     1
281
     0
  0
BLOCK_RECORD
  5
2E5
330
1
100
AcDbSymbolTableRecord
100
AcDbBlockTableRecord
  2
Block_34
340
0
102
{BLKREFS
331
2E6
102
}
 70
     0
280
     1
281
     0
  0
BLOCK_RECORD
  5
2EF
330
1
100
AcDbSymbolTableRecord
100
AcDbBlockTableRecord
  2
Block_35
340
0
102
{BLKREFS
331
2F0
102
}
 70
     0
280
     1
281
     0
  0
BLOCK_RECORD
  5
2F3
330
1
100
AcDbSymbolTableRecord
100
AcDbBlockTableRecord
  2
Block_36
340
0
102
{BLKREFS
331
2F4
102
}
 70
     0
280
     1
281
     0
  0
BLOCK_RECORD
  5
302
330
1
100
AcDbSymbolTableRecord
100
AcDbBlockTableRecord
  2
Block_37
340
0
102
{BLKREFS
331
303
102
}
 70
     0
280
     1
281
     0
  0
BLOCK_RECORD
  5
306
330
1
100
AcDbSymbolTableRecord
100
AcDbBlockTableRecord
  2
Block_38
340
0
102
{BLKREFS
331
307
102
}
 70
     0
280
     1
281
     0
  0
BLOCK_RECORD
  5
317
330
1
100
AcDbSymbolTableRecord
100
AcDbBlockTableRecord
  2
Block_39
340
0
102
{BLKREFS
331
318
102
}
 70
     0
280
     1
281
     0
  0
BLOCK_RECORD
  5
31B
330
1
100
AcDbSymbolTableRecord
100
AcDbBlockTableRecord
  2
Block_40
340
0
102
{BLKREFS
331
31C
102
}
 70
     0
280
     1
281
     0
  0
BLOCK_RECORD
  5
320
330
1
100
AcDbSymbolTableRecord
100
AcDbBlockTableRecord
  2
Block_41
340
0
102
{BLKREFS
331
321
102
}
 70
     0
280
     1
281
     0
  0
BLOCK_RECORD
  5
326
330
1
100
AcDbSymbolTableRecord
100
AcDbBlockTableRecord
  2
Block_42
340
0
102
{BLKREFS
331
327
102
}
 70
     0
280
     1
281
     0
  0
BLOCK_RECORD
  5
32C
330
1
100
AcDbSymbolTableRecord
100
AcDbBlockTableRecord
  2
Block_43
340
0
102
{BLKREFS
331
32D
102
}
 70
     0
280
     1
281
     0
  0
BLOCK_RECORD
  5
330
330
1
100
AcDbSymbolTableRecord
100
AcDbBlockTableRecord
  2
Block_44
340
0
102
{BLKREFS
331
331
102
}
 70
     0
280
     1
281
     0
  0
ENDTAB
  0
ENDSEC
  0
SECTION
  2
BLOCKS
  0
BLOCK
  5
71
330
70
100
AcDbEntity
  8
0
100
AcDbBlockBegin
  2
*Model_Space
 70
     0
 10
0.0
 20
0.0
 30
0.0
  3
*Model_Space
  1

  0
ENDBLK
  5
72
330
70
100
AcDbEntity
  8
0
100
AcDbBlockEnd
  0
BLOCK
  5
6D
330
6C
100
AcDbEntity
 67
     1
  8
0
100
AcDbBlockBegin
  2
*Paper_Space
 70
     0
 10
0.0
 20
0.0
 30
0.0
  3
*Paper_Space
  1

  0
ENDBLK
  5
6E
330
6C
100
AcDbEntity
 67
     1
  8
0
100
AcDbBlockEnd
  0
BLOCK
  5
75
330
74
100
AcDbEntity
 67
     1
  8
0
100
AcDbBlockBegin
  2
*Paper_Space0
 70
     0
 10
0.0
 20
0.0
 30
0.0
  3
*Paper_Space0
  1

  0
ENDBLK
  5
76
330
74
100
AcDbEntity
 67
     1
  8
0
100
AcDbBlockEnd
  0
BLOCK
  5
7A
330
78
100
AcDbEntity
  8
0
100
AcDbBlockBegin
  2
Block_0
 70
     0
 10
0.0
 20
0.0
 30
0.0
  3
Block_0
  1

  0
ENDBLK
  5
7B
330
78
100
AcDbEntity
  8
0
100
AcDbBlockEnd
  0
BLOCK
  5
7E
330
7C
100
AcDbEntity
  8
0
100
AcDbBlockBegin
  2
Block_1
 70
     0
 10
0.0
 20
0.0
 30
0.0
  3
Block_1
  1

  0
ENDBLK
  5
7F
330
7C
100
AcDbEntity
  8
0
100
AcDbBlockEnd
  0
BLOCK
  5
82
330
80
100
AcDbEntity
  8
0
100
AcDbBlockBegin
  2
Block_2
 70
     0
 10
0.0
 20
0.0
 30
0.0
  3
Block_2
  1

  0
ENDBLK
  5
83
330
80
100
AcDbEntity
  8
0
100
AcDbBlockEnd
  0
BLOCK
  5
86
330
84
100
AcDbEntity
  8
0
100
AcDbBlockBegin
  2
Block_3
 70
     0
 10
0.0
 20
0.0
 30
0.0
  3
Block_3
  1

  0
ENDBLK
  5
87
330
84
100
AcDbEntity
  8
0
100
AcDbBlockEnd
  0
BLOCK
  5
8A
330
88
100
AcDbEntity
  8
0
100
AcDbBlockBegin
  2
Block_4
 70
     0
 10
0.0
 20
0.0
 30
0.0
  3
Block_4
  1

  0
ENDBLK
  5
8B
330
88
100
AcDbEntity
  8
0
100
AcDbBlockEnd
  0
BLOCK
  5
90
330
8E
100
AcDbEntity
  8
0
100
AcDbBlockBegin
  2
Block_5
 70
     0
 10
0.0
 20
0.0
 30
0.0
  3
Block_5
  1

  0
ENDBLK
  5
91
330
8E
100
AcDbEntity
  8
0
100
AcDbBlockEnd
  0
BLOCK
  5
94
330
92
100
AcDbEntity
  8
0
100
AcDbBlockBegin
  2
Block_6
 70
     0
 10
0.0
 20
0.0
 30
0.0
  3
Block_6
  1

  0
ENDBLK
  5
95
330
92
100
AcDbEntity
  8
0
100
AcDbBlockEnd
  0
BLOCK
  5
98
330
96
100
AcDbEntity
  8
0
100
AcDbBlockBegin
  2
Block_7
 70
     0
 10
0.0
 20
0.0
 30
0.0
  3
Block_7
  1

  0
ENDBLK
  5
99
330
96
100
AcDbEntity
  8
0
100
AcDbBlockEnd
  0
BLOCK
  5
9C
330
9A
100
AcDbEntity
  8
0
100
AcDbBlockBegin
  2
Block_8
 70
     0
 10
0.0
 20
0.0
 30
0.0
  3
Block_8
  1

  0
ENDBLK
  5
9D
330
9A
100
AcDbEntity
  8
0
100
AcDbBlockEnd
  0
BLOCK
  5
A0
330
9E
100
AcDbEntity
  8
0
100
AcDbBlockBegin
  2
Block_9
 70
     0
 10
0.0
 20
0.0
 30
0.0
  3
Block_9
  1

  0
ENDBLK
  5
A1
330
9E
100
AcDbEntity
  8
0
100
AcDbBlockEnd
  0
BLOCK
  5
A4
330
A2
100
AcDbEntity
  8
0
100
AcDbBlockBegin
  2
Block_10
 70
     0
 10
0.0
 20
0.0
 30
0.0
  3
Block_10
  1

  0
ENDBLK
  5
A5
330
A2
100
AcDbEntity
  8
0
100
AcDbBlockEnd
  0
BLOCK
  5
A8
330
A6
100
AcDbEntity
  8
0
100
AcDbBlockBegin
  2
Block_11
 70
     0
 10
0.0
 20
0.0
 30
0.0
  3
Block_11
  1

  0
ENDBLK
  5
A9
330
A6
100
AcDbEntity
  8
0
100
AcDbBlockEnd
  0
BLOCK
  5
AC
330
AA
100
AcDbEntity
  8
0
100
AcDbBlockBegin
  2
Block_12
 70
     0
 10
0.0
 20
0.0
 30
0.0
  3
Block_12
  1

  0
ENDBLK
  5
AD
330
AA
100
AcDbEntity
  8
0
100
AcDbBlockEnd
  0
BLOCK
  5
B0
330
AE
100
AcDbEntity
  8
0
100
AcDbBlockBegin
  2
Block_13
 70
     0
 10
0.0
 20
0.0
 30
0.0
  3
Block_13
  1

  0
ENDBLK
  5
B1
330
AE
100
AcDbEntity
  8
0
100
AcDbBlockEnd
  0
BLOCK
  5
B6
330
B4
100
AcDbEntity
  8
0
100
AcDbBlockBegin
  2
Block_14
 70
     0
 10
0.0
 20
0.0
 30
0.0
  3
Block_14
  1

  0
SPLINE
  5
B8
330
B4
100
AcDbEntity
  8
Sichtbar schmal (ISO)
100
AcDbSpline
210
0.0
220
0.0
230
1.0
 70
     8
 71
     3
 72
    38
 73
    34
 74
     0
 42
0.0000000001
 43
0.0000000001
 40
0.0
 40
0.0
 40
0.0
 40
0.0
 40
1.0
 40
1.0
 40
1.0
 40
2.0
 40
2.0
 40
2.0
 40
3.0
 40
3.0
 40
3.0
 40
4.0
 40
4.0
 40
4.0
 40
5.0
 40
5.0
 40
5.0
 40
6.0
 40
6.0
 40
6.0
 40
7.0
 40
7.0
 40
7.0
 40
8.0
 40
8.0
 40
8.0
 40
9.0
 40
9.0
 40
9.0
 40
10.0
 40
10.0
 40
10.0
 40
11.0
 40
11.0
 40
11.0
 40
11.0
 10
114.5449278823486
 20
181.6544842290759
 30
0.0
 10
114.5449278823486
 20
181.6544842290759
 30
0.0
 10
115.0216913591835
 20
181.6544842290759
 30
0.0
 10
115.0216913591835
 20
181.6544842290759
 30
0.0
 10
115.0216913591835
 20
181.6544842290759
 30
0.0
 10
115.0216913591835
 20
178.1224037133254
 30
0.0
 10
115.0216913591835
 20
178.1224037133254
 30
0.0
 10
115.0216913591835
 20
178.1224037133254
 30
0.0
 10
115.0216913591835
 20
177.7681205936851
 30
0.0
 10
115.0216913591835
 20
177.7681205936851
 30
0.0
 10
115.0216913591835
 20
177.4292185881909
 30
0.0
 10
114.7015099402304
 20
177.1544842302007
 30
0.0
 10
114.3065461439315
 20
177.1544842302007
 30
0.0
 10
114.3065461439315
 20
177.1544842302007
 30
0.0
 10
68.29887062947212
 20
177.1544842302007
 30
0.0
 10
68.29887062947212
 20
177.1544842302007
 30
0.0
 10
67.90390683317514
 20
177.1544842302007
 30
0.0
 10
67.58372541422111
 20
177.4292185881909
 30
0.0
 10
67.58372541422111
 20
177.7681205936851
 30
0.0
 10
67.58372541422111
 20
177.7681205936851
 30
0.0
 10
67.58372541422111
 20
178.1224037133254
 30
0.0
 10
67.58372541422111
 20
178.1224037133254
 30
0.0
 10
67.58372541422111
 20
178.1224037133254
 30
0.0
 10
67.58372541422111
 20
181.6544842290759
 30
0.0
 10
67.58372541422111
 20
181.6544842290759
 30
0.0
 10
67.58372541422111
 20
181.6544842290759
 30
0.0
 10
68.060488891055
 20
181.6544842290759
 30
0.0
 10
68.060488891055
 20
181.6544842290759
 30
0.0
 10
68.060488891055
 20
181.6544842290759
 30
0.0
 10
68.08432706489729
 20
181.6544842290759
 30
0.0
 10
68.08432706489729
 20
181.6544842290759
 30
0.0
 10
68.08432706489729
 20
181.6544842290759
 30
0.0
 10
114.5210897085076
 20
181.6544842290759
 30
0.0
 10
114.5210897085076
 20
181.6544842290759
 30
0.0
  0
HATCH
  5
B9
330
B4
100
AcDbEntity
  8
Sichtbar schmal (ISO)
 62
   254
420
 14606046
440
 33554687
100
AcDbHatch
 10
0.0
 20
0.0
 30
0.0
210
0.0
220
0.0
230
1.0
  2
SOLID
 70
     1
 71
     1
 91
        1
 92
        1
 93
        2
 72
     4
 94
        3
 73
     0
 74
     0
 95
       38
 96
       34
 40
0.0
 40
0.0
 40
0.0
 40
0.0
 40
1.0
 40
1.0
 40
1.0
 40
2.0
 40
2.0
 40
2.0
 40
3.0
 40
3.0
 40
3.0
 40
4.0
 40
4.0
 40
4.0
 40
5.0
 40
5.0
 40
5.0
 40
6.0
 40
6.0
 40
6.0
 40
7.0
 40
7.0
 40
7.0
 40
8.0
 40
8.0
 40
8.0
 40
9.0
 40
9.0
 40
9.0
 40
10.0
 40
10.0
 40
10.0
 40
11.0
 40
11.0
 40
11.0
 40
11.0
 10
114.5449278823486
 20
181.6544842290759
 10
114.5449278823486
 20
181.6544842290759
 10
115.0216913591835
 20
181.6544842290759
 10
115.0216913591835
 20
181.6544842290759
 10
115.0216913591835
 20
181.6544842290759
 10
115.0216913591835
 20
178.1224037133254
 10
115.0216913591835
 20
178.1224037133254
 10
115.0216913591835
 20
178.1224037133254
 10
115.0216913591835
 20
177.7681205936851
 10
115.0216913591835
 20
177.7681205936851
 10
115.0216913591835
 20
177.4292185881909
 10
114.7015099402304
 20
177.1544842302007
 10
114.3065461439315
 20
177.1544842302007
 10
114.3065461439315
 20
177.1544842302007
 10
68.29887062947212
 20
177.1544842302007
 10
68.29887062947212
 20
177.1544842302007
 10
67.90390683317514
 20
177.1544842302007
 10
67.58372541422111
 20
177.4292185881909
 10
67.58372541422111
 20
177.7681205936851
 10
67.58372541422111
 20
177.7681205936851
 10
67.58372541422111
 20
178.1224037133254
 10
67.58372541422111
 20
178.1224037133254
 10
67.58372541422111
 20
178.1224037133254
 10
67.58372541422111
 20
181.6544842290759
 10
67.58372541422111
 20
181.6544842290759
 10
67.58372541422111
 20
181.6544842290759
 10
68.060488891055
 20
181.6544842290759
 10
68.060488891055
 20
181.6544842290759
 10
68.060488891055
 20
181.6544842290759
 10
68.08432706489729
 20
181.6544842290759
 10
68.08432706489729
 20
181.6544842290759
 10
68.08432706489729
 20
181.6544842290759
 10
114.5210897085076
 20
181.6544842290759
 10
114.5210897085076
 20
181.6544842290759
 97
        0
 72
     1
 10
114.5210897085076
 20
181.6544842290759
 11
114.5449278823486
 21
181.6544842290759
 97
        0
 75
     2
 76
     1
 98
        1
 10
0.0
 20
0.0
450
        0
451
        0
460
0.0
461
0.0
452
        0
462
0.0
453
        0
470

  0
ENDBLK
  5
B7
330
B4
100
AcDbEntity
  8
0
100
AcDbBlockEnd
  0
BLOCK
  5
BC
330
BA
100
AcDbEntity
  8
0
100
AcDbBlockBegin
  2
Block_15
 70
     0
 10
0.0
 20
0.0
 30
0.0
  3
Block_15
  1

  0
LINE
  5
BE
330
BA
100
AcDbEntity
  8
Sichtbar schmal (ISO)
 62
    18
420
        0
370
     5
100
AcDbLine
 10
72.56721647478224
 20
174.9846625983181
 30
0.0
 11
72.56721647478224
 21
174.781823517909
 31
0.0
  0
SPLINE
  5
BF
330
BA
100
AcDbEntity
  8
Sichtbar schmal (ISO)
 62
    18
420
        0
370
     5
100
AcDbSpline
210
0.0
220
0.0
230
1.0
 70
     8
 71
     3
 72
     8
 73
     4
 74
     0
 42
0.0000000001
 43
0.0000000001
 40
0.0
 40
0.0
 40
0.0
 40
0.0
 40
1.0
 40
1.0
 40
1.0
 40
1.0
 10
72.56721647478224
 20
174.9846625983181
 30
0.0
 10
72.56721647478224
 20
175.0966875290977
 30
0.0
 10
72.4952150550603
 20
175.1875016787271
 30
0.0
 10
72.40639680269132
 20
175.1875016787271
 30
0.0
  0
LINE
  5
C0
330
BA
100
AcDbEntity
  8
Sichtbar schmal (ISO)
 62
    18
420
        0
370
     5
100
AcDbLine
 10
66.77770827950843
 20
175.1875016787271
 30
0.0
 11
115.8277082672458
 21
175.1875016787271
 31
0.0
  0
LINE
  5
C1
330
BA
100
AcDbEntity
  8
Sichtbar schmal (ISO)
 62
    18
420
        0
370
     5
100
AcDbLine
 10
66.77770827950843
 20
181.6783522518176
 30
0.0
 11
115.8277082672458
 21
181.6783522518176
 31
0.0
  0
LINE
  5
C2
330
BA
100
AcDbEntity
  8
Sichtbar schmal (ISO)
 62
    18
420
        0
370
     5
100
AcDbLine
 10
115.8277082672458
 20
181.6783522518176
 30
0.0
 11
115.8277082672458
 21
175.1875016787271
 31
0.0
  0
LINE
  5
C3
330
BA
100
AcDbEntity
  8
Sichtbar schmal (ISO)
 62
    18
420
        0
370
     5
100
AcDbLine
 10
66.77770827950843
 20
181.6783522518176
 30
0.0
 11
66.77770827950843
 21
175.1875016787271
 31
0.0
  0
LINE
  5
C4
330
BA
100
AcDbEntity
  8
Sichtbar schmal (ISO)
 62
    18
420
        0
370
     5
100
AcDbLine
 10
67.82303614809958
 20
164.0313522562287
 30
0.0
 11
69.75287221319096
 21
164.0313522562287
 31
0.0
  0
LINE
  5
C5
330
BA
100
AcDbEntity
  8
Sichtbar schmal (ISO)
 62
    18
420
        0
370
     5
100
AcDbLine
 10
69.75287221319096
 20
175.1875016787271
 30
0.0
 11
69.75287221319096
 21
164.0313522562287
 31
0.0
  0
LINE
  5
C6
330
BA
100
AcDbEntity
  8
Sichtbar schmal (ISO)
 62
    18
420
        0
370
     5
100
AcDbLine
 10
67.82303614809958
 20
175.1875016787271
 30
0.0
 11
67.82303614809958
 21
164.0313522562287
 31
0.0
  0
LINE
  5
C7
330
BA
100
AcDbEntity
  8
Sichtbar schmal (ISO)
 62
    18
420
        0
370
     5
100
AcDbLine
 10
90.33779024083145
 20
164.0313522562287
 30
0.0
 11
92.26762630592283
 21
164.0313522562287
 31
0.0
  0
LINE
  5
C8
330
BA
100
AcDbEntity
  8
Sichtbar schmal (ISO)
 62
    18
420
        0
370
     5
100
AcDbLine
 10
92.26762630592283
 20
175.1875016787271
 30
0.0
 11
92.26762630592283
 21
164.0313522562287
 31
0.0
  0
LINE
  5
C9
330
BA
100
AcDbEntity
  8
Sichtbar schmal (ISO)
 62
    18
420
        0
370
     5
100
AcDbLine
 10
90.33779024083145
 20
175.1875016787271
 30
0.0
 11
90.33779024083145
 21
164.0313522562287
 31
0.0
  0
LINE
  5
CA
330
BA
100
AcDbEntity
  8
Sichtbar schmal (ISO)
 62
    18
420
        0
370
     5
100
AcDbLine
 10
112.8525443335633
 20
164.0313522562287
 30
0.0
 11
114.782380398655
 21
164.0313522562287
 31
0.0
  0
LINE
  5
CB
330
BA
100
AcDbEntity
  8
Sichtbar schmal (ISO)
 62
    18
420
        0
370
     5
100
AcDbLine
 10
114.782380398655
 20
175.1875016787271
 30
0.0
 11
114.782380398655
 21
164.0313522562287
 31
0.0
  0
LINE
  5
CC
330
BA
100
AcDbEntity
  8
Sichtbar schmal (ISO)
 62
    18
420
        0
370
     5
100
AcDbLine
 10
112.8525443335633
 20
175.1875016787271
 30
0.0
 11
112.8525443335633
 21
164.0313522562287
 31
0.0
  0
LINE
  5
CD
330
BA
100
AcDbEntity
  8
Sichtbar schmal (ISO)
 62
    18
420
        0
370
     5
100
AcDbLine
 10
72.2455771306004
 20
175.1875016787271
 30
0.0
 11
72.2455771306004
 21
174.4065712191524
 31
0.0
  0
LINE
  5
CE
330
BA
100
AcDbEntity
  8
Sichtbar schmal (ISO)
 62
    18
420
        0
370
     5
100
AcDbLine
 10
72.2455771306004
 20
173.1286850125753
 30
0.0
 11
72.2455771306004
 21
166.8710993819558
 31
0.0
  0
LINE
  5
CF
330
BA
100
AcDbEntity
  8
Sichtbar schmal (ISO)
 62
    18
420
        0
370
     5
100
AcDbLine
 10
72.2455771306004
 20
166.8710993819558
 30
0.0
 11
72.55113450756805
 21
166.8710993819558
 31
0.0
  0
LINE
  5
D0
330
BA
100
AcDbEntity
  8
Sichtbar schmal (ISO)
 62
    18
420
        0
370
     5
100
AcDbLine
 10
110.0542820391862
 20
166.8710993819558
 30
0.0
 11
110.3598394161539
 21
166.8710993819558
 31
0.0
  0
LINE
  5
D1
330
BA
100
AcDbEntity
  8
Sichtbar schmal (ISO)
 62
    18
420
        0
370
     5
100
AcDbLine
 10
109.9577902359293
 20
166.8710993819558
 30
0.0
 11
110.0542820391862
 21
166.8710993819558
 31
0.0
  0
LINE
  5
D2
330
BA
100
AcDbEntity
  8
Sichtbar schmal (ISO)
 62
    18
420
        0
370
     5
100
AcDbLine
 10
109.9577902359267
 20
166.8710993819558
 30
0.0
 11
109.0610336459143
 21
166.8710993819558
 31
0.0
  0
LINE
  5
D3
330
BA
100
AcDbEntity
  8
Sichtbar schmal (ISO)
 62
    18
420
        0
370
     5
100
AcDbLine
 10
109.0610336459195
 20
166.8710993819558
 30
0.0
 11
108.2177165400751
 21
166.8710993819558
 31
0.0
  0
LINE
  5
D4
330
BA
100
AcDbEntity
  8
Sichtbar schmal (ISO)
 62
    18
420
        0
370
     5
100
AcDbLine
 10
108.2177165400725
 20
166.8710993819558
 30
0.0
 11
107.3169887783565
 21
166.8710993819558
 31
0.0
  0
LINE
  5
D5
330
BA
100
AcDbEntity
  8
Sichtbar schmal (ISO)
 62
    18
420
        0
370
     5
100
AcDbLine
 10
106.5001672859711
 20
166.8710993819558
 30
0.0
 11
107.3169887783565
 21
166.8710993819558
 31
0.0
  0
LINE
  5
D6
330
BA
100
AcDbEntity
  8
Sichtbar schmal (ISO)
 62
    18
420
        0
370
     5
100
AcDbLine
 10
106.0177082696974
 20
166.8710993819558
 30
0.0
 11
106.5001672859724
 21
166.8710993819558
 31
0.0
  0
LINE
  5
D7
330
BA
100
AcDbEntity
  8
Sichtbar schmal (ISO)
 62
    18
420
        0
370
     5
100
AcDbLine
 10
99.10246236978778
 20
166.8710993819558
 30
0.0
 11
106.0177082696987
 21
166.8710993819558
 31
0.0
  0
LINE
  5
D8
330
BA
100
AcDbEntity
  8
Sichtbar schmal (ISO)
 62
    18
420
        0
370
     5
100
AcDbLine
 10
99.10246236978778
 20
166.8710993819558
 30
0.0
 11
98.45918368142378
 21
166.8710993819558
 31
0.0
  0
LINE
  5
D9
330
BA
100
AcDbEntity
  8
Sichtbar schmal (ISO)
 62
    18
420
        0
370
     5
100
AcDbLine
 10
97.6550853209695
 20
166.8710993819558
 30
0.0
 11
98.45918368142378
 21
166.8710993819558
 31
0.0
  0
LINE
  5
DA
330
BA
100
AcDbEntity
  8
Sichtbar schmal (ISO)
 62
    18
420
        0
370
     5
100
AcDbLine
 10
97.6550853209695
 20
166.8710993819558
 30
0.0
 11
97.01180663260549
 21
166.8710993819558
 31
0.0
  0
LINE
  5
DB
330
BA
100
AcDbEntity
  8
Sichtbar schmal (ISO)
 62
    18
420
        0
370
     5
100
AcDbLine
 10
96.85098696051458
 20
166.8710993819558
 30
0.0
 11
97.01180663260549
 21
166.8710993819558
 31
0.0
  0
LINE
  5
DC
330
BA
100
AcDbEntity
  8
Sichtbar schmal (ISO)
 62
    18
420
        0
370
     5
100
AcDbLine
 10
96.36852794424052
 20
166.8710993819558
 30
0.0
 11
96.85098696051586
 21
166.8710993819558
 31
0.0
  0
LINE
  5
DD
330
BA
100
AcDbEntity
  8
Sichtbar schmal (ISO)
 62
    18
420
        0
370
     5
100
AcDbLine
 10
96.3685279442418
 20
166.8710993819558
 30
0.0
 11
92.26762630592283
 21
166.8710993819558
 31
0.0
  0
LINE
  5
DE
330
BA
100
AcDbEntity
  8
Sichtbar schmal (ISO)
 62
    18
420
        0
370
     5
100
AcDbLine
 10
90.33779024083145
 20
166.8710993819558
 30
0.0
 11
86.23688860251247
 21
166.8710993819558
 31
0.0
  0
LINE
  5
DF
330
BA
100
AcDbEntity
  8
Sichtbar schmal (ISO)
 62
    18
420
        0
370
     5
100
AcDbLine
 10
86.23688860251375
 20
166.8710993819558
 30
0.0
 11
85.75442958623844
 21
166.8710993819558
 31
0.0
  0
LINE
  5
E0
330
BA
100
AcDbEntity
  8
Sichtbar schmal (ISO)
 62
    18
420
        0
370
     5
100
AcDbLine
 10
85.75442958623971
 20
166.8710993819558
 30
0.0
 11
85.5936099141488
 21
166.8710993819558
 31
0.0
  0
LINE
  5
E1
330
BA
100
AcDbEntity
  8
Sichtbar schmal (ISO)
 62
    18
420
        0
370
     5
100
AcDbLine
 10
84.9503312257848
 20
166.8710993819558
 30
0.0
 11
85.5936099141488
 21
166.8710993819558
 31
0.0
  0
LINE
  5
E2
330
BA
100
AcDbEntity
  8
Sichtbar schmal (ISO)
 62
    18
420
        0
370
     5
100
AcDbLine
 10
84.9503312257848
 20
166.8710993819558
 30
0.0
 11
84.14623286533018
 21
166.8710993819558
 31
0.0
  0
LINE
  5
E3
330
BA
100
AcDbEntity
  8
Sichtbar schmal (ISO)
 62
    18
420
        0
370
     5
100
AcDbLine
 10
83.50295417696617
 20
166.8710993819558
 30
0.0
 11
84.14623286533018
 21
166.8710993819558
 31
0.0
  0
LINE
  5
E4
330
BA
100
AcDbEntity
  8
Sichtbar schmal (ISO)
 62
    18
420
        0
370
     5
100
AcDbLine
 10
83.50295417696617
 20
166.8710993819558
 30
0.0
 11
76.58770827705591
 21
166.8710993819558
 31
0.0
  0
LINE
  5
E5
330
BA
100
AcDbEntity
  8
Sichtbar schmal (ISO)
 62
    18
420
        0
370
     5
100
AcDbLine
 10
76.5877082770572
 20
166.8710993819558
 30
0.0
 11
76.10524926078188
 21
166.8710993819558
 31
0.0
  0
LINE
  5
E6
330
BA
100
AcDbEntity
  8
Sichtbar schmal (ISO)
 62
    18
420
        0
370
     5
100
AcDbLine
 10
76.10524926078316
 20
166.8710993819558
 30
0.0
 11
75.28842776839809
 21
166.8710993819558
 31
0.0
  0
LINE
  5
E7
330
BA
100
AcDbEntity
  8
Sichtbar schmal (ISO)
 62
    18
420
        0
370
     5
100
AcDbLine
 10
74.38770000668172
 20
166.8710993819558
 30
0.0
 11
75.28842776839809
 21
166.8710993819558
 31
0.0
  0
LINE
  5
E8
330
BA
100
AcDbEntity
  8
Sichtbar schmal (ISO)
 62
    18
420
        0
370
     5
100
AcDbLine
 10
73.54438290083513
 20
166.8710993819558
 30
0.0
 11
74.38770000667915
 21
166.8710993819558
 31
0.0
  0
LINE
  5
E9
330
BA
100
AcDbEntity
  8
Sichtbar schmal (ISO)
 62
    18
420
        0
370
     5
100
AcDbLine
 10
72.64762631082755
 20
166.8710993819558
 30
0.0
 11
73.54438290084026
 21
166.8710993819558
 31
0.0
  0
LINE
  5
EA
330
BA
100
AcDbEntity
  8
Sichtbar schmal (ISO)
 62
    18
420
        0
370
     5
100
AcDbLine
 10
72.6476263108253
 20
166.8710993819558
 30
0.0
 11
72.55113450756805
 21
166.8710993819558
 31
0.0
  0
LINE
  5
EB
330
BA
100
AcDbEntity
  8
Sichtbar schmal (ISO)
 62
    18
420
        0
370
     5
100
AcDbLine
 10
73.48926308450846
 20
174.9846625983181
 30
0.0
 11
74.39899652997425
 21
174.9846625983181
 31
0.0
  0
LINE
  5
EC
330
BA
100
AcDbEntity
  8
Sichtbar schmal (ISO)
 62
    18
420
        0
370
     5
100
AcDbLine
 10
74.39899652997874
 20
174.9846625983181
 30
0.0
 11
75.23921377206666
 21
174.9846625983181
 31
0.0
  0
LINE
  5
ED
330
BA
100
AcDbEntity
  8
Sichtbar schmal (ISO)
 62
    18
420
        0
370
     5
100
AcDbLine
 10
75.93642437088568
 20
174.9846625983181
 30
0.0
 11
75.23921377206697
 21
174.9846625983181
 31
0.0
  0
LINE
  5
EE
330
BA
100
AcDbEntity
  8
Sichtbar schmal (ISO)
 62
    18
420
        0
370
     5
100
AcDbLine
 10
72.64762631082755
 20
174.9846625983181
 30
0.0
 11
73.48926308450781
 21
174.9846625983181
 31
0.0
  0
LINE
  5
EF
330
BA
100
AcDbEntity
  8
Sichtbar schmal (ISO)
 62
    18
420
        0
370
     5
100
AcDbLine
 10
74.38770000667594
 20
166.8710993819558
 30
0.0
 11
74.38770000667594
 21
173.7676281158638
 31
0.0
  0
LINE
  5
F0
330
BA
100
AcDbEntity
  8
Sichtbar schmal (ISO)
 62
    18
420
        0
370
     5
100
AcDbLine
 10
74.38770000667915
 20
173.7676281158638
 30
0.0
 11
74.39899652997425
 21
173.7676281158638
 31
0.0
  0
LINE
  5
F1
330
BA
100
AcDbEntity
  8
Sichtbar schmal (ISO)
 62
    18
420
        0
370
     5
100
AcDbLine
 10
74.39899652998068
 20
173.7676281158638
 30
0.0
 11
74.39899652998068
 21
174.9846625983181
 31
0.0
  0
LINE
  5
F2
330
BA
100
AcDbEntity
  8
Sichtbar schmal (ISO)
 62
    18
420
        0
370
     5
100
AcDbLine
 10
73.48926308450974
 20
173.7676281158638
 30
0.0
 11
73.48926308450974
 21
174.9846625983181
 31
0.0
  0
LINE
  5
F3
330
BA
100
AcDbEntity
  8
Sichtbar schmal (ISO)
 62
    18
420
        0
370
     5
100
AcDbLine
 10
73.48926308450846
 20
173.7676281158638
 30
0.0
 11
73.54438290083513
 21
173.7676281158638
 31
0.0
  0
LINE
  5
F4
330
BA
100
AcDbEntity
  8
Sichtbar schmal (ISO)
 62
    18
420
        0
370
     5
100
AcDbLine
 10
73.5443829008348
 20
166.8710993819558
 30
0.0
 11
73.5443829008348
 21
173.7676281158638
 31
0.0
  0
LINE
  5
F5
330
BA
100
AcDbEntity
  8
Sichtbar schmal (ISO)
 62
    18
420
        0
370
     5
100
AcDbLine
 10
75.28842776839809
 20
173.7676281158638
 30
0.0
 11
75.28842776839809
 21
166.8710993819558
 31
0.0
  0
LINE
  5
F6
330
BA
100
AcDbEntity
  8
Sichtbar schmal (ISO)
 62
    18
420
        0
370
     5
100
AcDbLine
 10
74.39899652997874
 20
173.7676281158638
 30
0.0
 11
75.23921377206666
 21
173.7676281158638
 31
0.0
  0
LINE
  5
F7
330
BA
100
AcDbEntity
  8
Sichtbar schmal (ISO)
 62
    18
420
        0
370
     5
100
AcDbLine
 10
75.28842776839809
 20
173.7676281158638
 30
0.0
 11
75.23921377206697
 21
173.7676281158638
 31
0.0
  0
LINE
  5
F8
330
BA
100
AcDbEntity
  8
Sichtbar schmal (ISO)
 62
    18
420
        0
370
     5
100
AcDbLine
 10
72.64762631082755
 20
173.7676281158638
 30
0.0
 11
73.48926308450781
 21
173.7676281158638
 31
0.0
  0
LINE
  5
F9
330
BA
100
AcDbEntity
  8
Sichtbar schmal (ISO)
 62
    18
420
        0
370
     5
100
AcDbLine
 10
75.23921377206697
 20
174.9846625983181
 30
0.0
 11
75.23921377206697
 21
173.7676281158638
 31
0.0
  0
LINE
  5
FA
330
BA
100
AcDbEntity
  8
Sichtbar schmal (ISO)
 62
    18
420
        0
370
     5
100
AcDbLine
 10
96.3685279442418
 20
170.7858936338505
 30
0.0
 11
96.3685279442418
 21
166.8710993819558
 31
0.0
  0
LINE
  5
FB
330
BA
100
AcDbEntity
  8
Sichtbar schmal (ISO)
 62
    18
420
        0
370
     5
100
AcDbLine
 10
86.23688860251247
 20
170.7858936338505
 30
0.0
 11
86.23688860251247
 21
166.8710993819558
 31
0.0
  0
LINE
  5
FC
330
BA
100
AcDbEntity
  8
Sichtbar schmal (ISO)
 62
    18
420
        0
370
     5
100
AcDbLine
 10
92.26762630592283
 20
168.1895534046145
 30
0.0
 11
93.5541836826502
 21
168.1895534046145
 31
0.0
  0
SPLINE
  5
FD
330
BA
100
AcDbEntity
  8
Sichtbar schmal (ISO)
 62
    18
420
        0
370
     5
100
AcDbSpline
210
0.0
220
0.0
230
1.0
 70
     8
 71
     3
 72
     8
 73
     4
 74
     0
 42
0.0000000001
 43
0.0000000001
 40
0.0
 40
0.0
 40
0.0
 40
0.0
 40
1.0
 40
1.0
 40
1.0
 40
1.0
 10
93.71500335474113
 20
167.9867143242056
 30
0.0
 10
93.71500335474113
 20
168.0987392549847
 30
0.0
 10
93.64300193501886
 20
168.1895534046145
 30
0.0
 10
93.5541836826502
 20
168.1895534046145
 30
0.0
  0
LINE
  5
FE
330
BA
100
AcDbEntity
  8
Sichtbar schmal (ISO)
 62
    18
420
        0
370
     5
100
AcDbLine
 10
93.71500335474113
 20
167.9867143242056
 30
0.0
 11
93.71500335474113
 21
167.8143011058579
 31
0.0
  0
SPLINE
  5
FF
330
BA
100
AcDbEntity
  8
Sichtbar schmal (ISO)
 62
    18
420
        0
370
     5
100
AcDbSpline
210
0.0
220
0.0
230
1.0
 70
     8
 71
     3
 72
     8
 73
     4
 74
     0
 42
0.0000000001
 43
0.0000000001
 40
0.0
 40
0.0
 40
0.0
 40
0.0
 40
1.0
 40
1.0
 40
1.0
 40
1.0
 10
93.5541836826502
 20
167.611462025449
 30
0.0
 10
93.64300193501886
 20
167.611462025449
 30
0.0
 10
93.71500335474113
 20
167.7022761750781
 30
0.0
 10
93.71500335474113
 20
167.8143011058579
 30
0.0
  0
LINE
  5
100
330
BA
100
AcDbEntity
  8
Sichtbar schmal (ISO)
 62
    18
420
        0
370
     5
100
AcDbLine
 10
93.5541836826502
 20
167.611462025449
 30
0.0
 11
92.26762630592283
 21
167.611462025449
 31
0.0
  0
LINE
  5
101
330
BA
100
AcDbEntity
  8
Sichtbar schmal (ISO)
 62
    18
420
        0
370
     5
100
AcDbLine
 10
89.05123286410407
 20
167.611462025449
 30
0.0
 11
90.33779024083145
 21
167.611462025449
 31
0.0
  0
SPLINE
  5
102
330
BA
100
AcDbEntity
  8
Sichtbar schmal (ISO)
 62
    18
420
        0
370
     5
100
AcDbSpline
210
0.0
220
0.0
230
1.0
 70
     8
 71
     3
 72
     8
 73
     4
 74
     0
 42
0.0000000001
 43
0.0000000001
 40
0.0
 40
0.0
 40
0.0
 40
0.0
 40
1.0
 40
1.0
 40
1.0
 40
1.0
 10
88.89041319201284
 20
167.8143011058579
 30
0.0
 10
88.89041319201284
 20
167.7022761750781
 30
0.0
 10
88.96241461173543
 20
167.611462025449
 30
0.0
 10
89.05123286410407
 20
167.611462025449
 30
0.0
  0
LINE
  5
103
330
BA
100
AcDbEntity
  8
Sichtbar schmal (ISO)
 62
    18
420
        0
370
     5
100
AcDbLine
 10
88.89041319201284
 20
167.9867143242056
 30
0.0
 11
88.89041319201284
 21
167.8143011058579
 31
0.0
  0
SPLINE
  5
104
330
BA
100
AcDbEntity
  8
Sichtbar schmal (ISO)
 62
    18
420
        0
370
     5
100
AcDbSpline
210
0.0
220
0.0
230
1.0
 70
     8
 71
     3
 72
     8
 73
     4
 74
     0
 42
0.0000000001
 43
0.0000000001
 40
0.0
 40
0.0
 40
0.0
 40
0.0
 40
1.0
 40
1.0
 40
1.0
 40
1.0
 10
89.05123286410407
 20
168.1895534046145
 30
0.0
 10
88.96241461173543
 20
168.1895534046145
 30
0.0
 10
88.89041319201284
 20
168.0987392549847
 30
0.0
 10
88.89041319201284
 20
167.9867143242056
 30
0.0
  0
LINE
  5
105
330
BA
100
AcDbEntity
  8
Sichtbar schmal (ISO)
 62
    18
420
        0
370
     5
100
AcDbLine
 10
90.33779024083145
 20
168.1895534046145
 30
0.0
 11
89.05123286410407
 21
168.1895534046145
 31
0.0
  0
LINE
  5
106
330
BA
100
AcDbEntity
  8
Sichtbar schmal (ISO)
 62
    18
420
        0
370
     5
100
AcDbLine
 10
92.26762630592283
 20
169.4065878870688
 30
0.0
 11
93.5541836826502
 21
169.4065878870688
 31
0.0
  0
SPLINE
  5
107
330
BA
100
AcDbEntity
  8
Sichtbar schmal (ISO)
 62
    18
420
        0
370
     5
100
AcDbSpline
210
0.0
220
0.0
230
1.0
 70
     8
 71
     3
 72
     8
 73
     4
 74
     0
 42
0.0000000001
 43
0.0000000001
 40
0.0
 40
0.0
 40
0.0
 40
0.0
 40
1.0
 40
1.0
 40
1.0
 40
1.0
 10
93.71500335474113
 20
169.2037488066599
 30
0.0
 10
93.71500335474113
 20
169.3157737374394
 30
0.0
 10
93.64300193501886
 20
169.4065878870688
 30
0.0
 10
93.5541836826502
 20
169.4065878870688
 30
0.0
  0
LINE
  5
108
330
BA
100
AcDbEntity
  8
Sichtbar schmal (ISO)
 62
    18
420
        0
370
     5
100
AcDbLine
 10
93.71500335474113
 20
169.2037488066599
 30
0.0
 11
93.71500335474113
 21
169.0313355883122
 31
0.0
  0
SPLINE
  5
109
330
BA
100
AcDbEntity
  8
Sichtbar schmal (ISO)
 62
    18
420
        0
370
     5
100
AcDbSpline
210
0.0
220
0.0
230
1.0
 70
     8
 71
     3
 72
     8
 73
     4
 74
     0
 42
0.0000000001
 43
0.0000000001
 40
0.0
 40
0.0
 40
0.0
 40
0.0
 40
1.0
 40
1.0
 40
1.0
 40
1.0
 10
93.5541836826502
 20
168.828496507903
 30
0.0
 10
93.64300193501886
 20
168.828496507903
 30
0.0
 10
93.71500335474113
 20
168.9193106575328
 30
0.0
 10
93.71500335474113
 20
169.0313355883122
 30
0.0
  0
LINE
  5
10A
330
BA
100
AcDbEntity
  8
Sichtbar schmal (ISO)
 62
    18
420
        0
370
     5
100
AcDbLine
 10
93.5541836826502
 20
168.8284965079033
 30
0.0
 11
92.26762630592283
 21
168.8284965079033
 31
0.0
  0
LINE
  5
10B
330
BA
100
AcDbEntity
  8
Sichtbar schmal (ISO)
 62
    18
420
        0
370
     5
100
AcDbLine
 10
89.05123286410407
 20
168.8284965079033
 30
0.0
 11
90.33779024083145
 21
168.8284965079033
 31
0.0
  0
SPLINE
  5
10C
330
BA
100
AcDbEntity
  8
Sichtbar schmal (ISO)
 62
    18
420
        0
370
     5
100
AcDbSpline
210
0.0
220
0.0
230
1.0
 70
     8
 71
     3
 72
     8
 73
     4
 74
     0
 42
0.0000000001
 43
0.0000000001
 40
0.0
 40
0.0
 40
0.0
 40
0.0
 40
1.0
 40
1.0
 40
1.0
 40
1.0
 10
88.89041319201284
 20
169.0313355883122
 30
0.0
 10
88.89041319201284
 20
168.9193106575328
 30
0.0
 10
88.96241461173543
 20
168.8284965079033
 30
0.0
 10
89.05123286410407
 20
168.8284965079033
 30
0.0
  0
LINE
  5
10D
330
BA
100
AcDbEntity
  8
Sichtbar schmal (ISO)
 62
    18
420
        0
370
     5
100
AcDbLine
 10
88.89041319201284
 20
169.2037488066599
 30
0.0
 11
88.89041319201284
 21
169.0313355883122
 31
0.0
  0
SPLINE
  5
10E
330
BA
100
AcDbEntity
  8
Sichtbar schmal (ISO)
 62
    18
420
        0
370
     5
100
AcDbSpline
210
0.0
220
0.0
230
1.0
 70
     8
 71
     3
 72
     8
 73
     4
 74
     0
 42
0.0000000001
 43
0.0000000001
 40
0.0
 40
0.0
 40
0.0
 40
0.0
 40
1.0
 40
1.0
 40
1.0
 40
1.0
 10
89.05123286410407
 20
169.4065878870688
 30
0.0
 10
88.96241461173543
 20
169.4065878870688
 30
0.0
 10
88.89041319201284
 20
169.3157737374394
 30
0.0
 10
88.89041319201284
 20
169.2037488066599
 30
0.0
  0
LINE
  5
10F
330
BA
100
AcDbEntity
  8
Sichtbar schmal (ISO)
 62
    18
420
        0
370
     5
100
AcDbLine
 10
90.33779024083145
 20
169.4065878870688
 30
0.0
 11
89.05123286410407
 21
169.4065878870688
 31
0.0
  0
LINE
  5
110
330
BA
100
AcDbEntity
  8
Sichtbar schmal (ISO)
 62
    18
420
        0
370
     5
100
AcDbLine
 10
92.26762630592283
 20
170.6236223695235
 30
0.0
 11
93.5541836826502
 21
170.6236223695235
 31
0.0
  0
SPLINE
  5
111
330
BA
100
AcDbEntity
  8
Sichtbar schmal (ISO)
 62
    18
420
        0
370
     5
100
AcDbSpline
210
0.0
220
0.0
230
1.0
 70
     8
 71
     3
 72
     8
 73
     4
 74
     0
 42
0.0000000001
 43
0.0000000001
 40
0.0
 40
0.0
 40
0.0
 40
0.0
 40
1.0
 40
1.0
 40
1.0
 40
1.0
 10
93.71500335474113
 20
170.4207832891143
 30
0.0
 10
93.71500335474113
 20
170.5328082198938
 30
0.0
 10
93.64300193501886
 20
170.6236223695232
 30
0.0
 10
93.5541836826502
 20
170.6236223695232
 30
0.0
  0
LINE
  5
112
330
BA
100
AcDbEntity
  8
Sichtbar schmal (ISO)
 62
    18
420
        0
370
     5
100
AcDbLine
 10
93.71500335474113
 20
170.4207832891143
 30
0.0
 11
93.71500335474113
 21
170.2483700707666
 31
0.0
  0
SPLINE
  5
113
330
BA
100
AcDbEntity
  8
Sichtbar schmal (ISO)
 62
    18
420
        0
370
     5
100
AcDbSpline
210
0.0
220
0.0
230
1.0
 70
     8
 71
     3
 72
     8
 73
     4
 74
     0
 42
0.0000000001
 43
0.0000000001
 40
0.0
 40
0.0
 40
0.0
 40
0.0
 40
1.0
 40
1.0
 40
1.0
 40
1.0
 10
93.5541836826502
 20
170.0455309903574
 30
0.0
 10
93.64300193501886
 20
170.0455309903574
 30
0.0
 10
93.71500335474113
 20
170.1363451399868
 30
0.0
 10
93.71500335474113
 20
170.2483700707666
 30
0.0
  0
LINE
  5
114
330
BA
100
AcDbEntity
  8
Sichtbar schmal (ISO)
 62
    18
420
        0
370
     5
100
AcDbLine
 10
93.5541836826502
 20
170.0455309903574
 30
0.0
 11
92.26762630592283
 21
170.0455309903574
 31
0.0
  0
LINE
  5
115
330
BA
100
AcDbEntity
  8
Sichtbar schmal (ISO)
 62
    18
420
        0
370
     5
100
AcDbLine
 10
89.05123286410407
 20
170.0455309903574
 30
0.0
 11
90.33779024083145
 21
170.0455309903574
 31
0.0
  0
SPLINE
  5
116
330
BA
100
AcDbEntity
  8
Sichtbar schmal (ISO)
 62
    18
420
        0
370
     5
100
AcDbSpline
210
0.0
220
0.0
230
1.0
 70
     8
 71
     3
 72
     8
 73
     4
 74
     0
 42
0.0000000001
 43
0.0000000001
 40
0.0
 40
0.0
 40
0.0
 40
0.0
 40
1.0
 40
1.0
 40
1.0
 40
1.0
 10
88.89041319201284
 20
170.2483700707666
 30
0.0
 10
88.89041319201284
 20
170.1363451399868
 30
0.0
 10
88.96241461173543
 20
170.0455309903574
 30
0.0
 10
89.05123286410407
 20
170.0455309903574
 30
0.0
  0
LINE
  5
117
330
BA
100
AcDbEntity
  8
Sichtbar schmal (ISO)
 62
    18
420
        0
370
     5
100
AcDbLine
 10
88.89041319201284
 20
170.4207832891143
 30
0.0
 11
88.89041319201284
 21
170.2483700707666
 31
0.0
  0
SPLINE
  5
118
330
BA
100
AcDbEntity
  8
Sichtbar schmal (ISO)
 62
    18
420
        0
370
     5
100
AcDbSpline
210
0.0
220
0.0
230
1.0
 70
     8
 71
     3
 72
     8
 73
     4
 74
     0
 42
0.0000000001
 43
0.0000000001
 40
0.0
 40
0.0
 40
0.0
 40
0.0
 40
1.0
 40
1.0
 40
1.0
 40
1.0
 10
89.05123286410407
 20
170.6236223695232
 30
0.0
 10
88.96241461173543
 20
170.6236223695232
 30
0.0
 10
88.89041319201284
 20
170.5328082198938
 30
0.0
 10
88.89041319201284
 20
170.4207832891143
 30
0.0
  0
LINE
  5
119
330
BA
100
AcDbEntity
  8
Sichtbar schmal (ISO)
 62
    18
420
        0
370
     5
100
AcDbLine
 10
90.33779024083145
 20
170.6236223695235
 30
0.0
 11
89.05123286410407
 21
170.6236223695235
 31
0.0
  0
LINE
  5
11A
330
BA
100
AcDbEntity
  8
Sichtbar schmal (ISO)
 62
    18
420
        0
370
     5
100
AcDbLine
 10
92.26762630592283
 20
171.8406568519778
 30
0.0
 11
93.5541836826502
 21
171.8406568519778
 31
0.0
  0
SPLINE
  5
11B
330
BA
100
AcDbEntity
  8
Sichtbar schmal (ISO)
 62
    18
420
        0
370
     5
100
AcDbSpline
210
0.0
220
0.0
230
1.0
 70
     8
 71
     3
 72
     8
 73
     4
 74
     0
 42
0.0000000001
 43
0.0000000001
 40
0.0
 40
0.0
 40
0.0
 40
0.0
 40
1.0
 40
1.0
 40
1.0
 40
1.0
 10
93.71500335474113
 20
171.6378177715686
 30
0.0
 10
93.71500335474113
 20
171.7498427023481
 30
0.0
 10
93.64300193501886
 20
171.8406568519778
 30
0.0
 10
93.5541836826502
 20
171.8406568519778
 30
0.0
  0
LINE
  5
11C
330
BA
100
AcDbEntity
  8
Sichtbar schmal (ISO)
 62
    18
420
        0
370
     5
100
AcDbLine
 10
93.71500335474113
 20
171.6378177715686
 30
0.0
 11
93.71500335474113
 21
171.4654045532209
 31
0.0
  0
SPLINE
  5
11D
330
BA
100
AcDbEntity
  8
Sichtbar schmal (ISO)
 62
    18
420
        0
370
     5
100
AcDbSpline
210
0.0
220
0.0
230
1.0
 70
     8
 71
     3
 72
     8
 73
     4
 74
     0
 42
0.0000000001
 43
0.0000000001
 40
0.0
 40
0.0
 40
0.0
 40
0.0
 40
1.0
 40
1.0
 40
1.0
 40
1.0
 10
93.5541836826502
 20
171.262565472812
 30
0.0
 10
93.64300193501886
 20
171.262565472812
 30
0.0
 10
93.71500335474113
 20
171.3533796224411
 30
0.0
 10
93.71500335474113
 20
171.4654045532209
 30
0.0
  0
LINE
  5
11E
330
BA
100
AcDbEntity
  8
Sichtbar schmal (ISO)
 62
    18
420
        0
370
     5
100
AcDbLine
 10
93.5541836826502
 20
171.262565472812
 30
0.0
 11
92.26762630592283
 21
171.262565472812
 31
0.0
  0
LINE
  5
11F
330
BA
100
AcDbEntity
  8
Sichtbar schmal (ISO)
 62
    18
420
        0
370
     5
100
AcDbLine
 10
89.05123286410407
 20
171.262565472812
 30
0.0
 11
90.33779024083145
 21
171.262565472812
 31
0.0
  0
SPLINE
  5
120
330
BA
100
AcDbEntity
  8
Sichtbar schmal (ISO)
 62
    18
420
        0
370
     5
100
AcDbSpline
210
0.0
220
0.0
230
1.0
 70
     8
 71
     3
 72
     8
 73
     4
 74
     0
 42
0.0000000001
 43
0.0000000001
 40
0.0
 40
0.0
 40
0.0
 40
0.0
 40
1.0
 40
1.0
 40
1.0
 40
1.0
 10
88.89041319201284
 20
171.4654045532209
 30
0.0
 10
88.89041319201284
 20
171.3533796224411
 30
0.0
 10
88.96241461173543
 20
171.262565472812
 30
0.0
 10
89.05123286410407
 20
171.262565472812
 30
0.0
  0
LINE
  5
121
330
BA
100
AcDbEntity
  8
Sichtbar schmal (ISO)
 62
    18
420
        0
370
     5
100
AcDbLine
 10
88.89041319201284
 20
171.6378177715686
 30
0.0
 11
88.89041319201284
 21
171.4654045532209
 31
0.0
  0
SPLINE
  5
122
330
BA
100
AcDbEntity
  8
Sichtbar schmal (ISO)
 62
    18
420
        0
370
     5
100
AcDbSpline
210
0.0
220
0.0
230
1.0
 70
     8
 71
     3
 72
     8
 73
     4
 74
     0
 42
0.0000000001
 43
0.0000000001
 40
0.0
 40
0.0
 40
0.0
 40
0.0
 40
1.0
 40
1.0
 40
1.0
 40
1.0
 10
89.05123286410407
 20
171.8406568519778
 30
0.0
 10
88.96241461173543
 20
171.8406568519778
 30
0.0
 10
88.89041319201284
 20
171.7498427023481
 30
0.0
 10
88.89041319201284
 20
171.6378177715686
 30
0.0
  0
LINE
  5
123
330
BA
100
AcDbEntity
  8
Sichtbar schmal (ISO)
 62
    18
420
        0
370
     5
100
AcDbLine
 10
90.33779024083145
 20
171.8406568519778
 30
0.0
 11
89.05123286410407
 21
171.8406568519778
 31
0.0
  0
LINE
  5
124
330
BA
100
AcDbEntity
  8
Sichtbar schmal (ISO)
 62
    18
420
        0
370
     5
100
AcDbLine
 10
92.26762630592283
 20
173.0576913344322
 30
0.0
 11
93.5541836826502
 21
173.0576913344322
 31
0.0
  0
SPLINE
  5
125
330
BA
100
AcDbEntity
  8
Sichtbar schmal (ISO)
 62
    18
420
        0
370
     5
100
AcDbSpline
210
0.0
220
0.0
230
1.0
 70
     8
 71
     3
 72
     8
 73
     4
 74
     0
 42
0.0000000001
 43
0.0000000001
 40
0.0
 40
0.0
 40
0.0
 40
0.0
 40
1.0
 40
1.0
 40
1.0
 40
1.0
 10
93.71500335474113
 20
172.854852254023
 30
0.0
 10
93.71500335474113
 20
172.9668771848024
 30
0.0
 10
93.64300193501886
 20
173.0576913344322
 30
0.0
 10
93.5541836826502
 20
173.0576913344322
 30
0.0
  0
LINE
  5
126
330
BA
100
AcDbEntity
  8
Sichtbar schmal (ISO)
 62
    18
420
        0
370
     5
100
AcDbLine
 10
93.71500335474113
 20
172.854852254023
 30
0.0
 11
93.71500335474113
 21
172.6824390356753
 31
0.0
  0
SPLINE
  5
127
330
BA
100
AcDbEntity
  8
Sichtbar schmal (ISO)
 62
    18
420
        0
370
     5
100
AcDbSpline
210
0.0
220
0.0
230
1.0
 70
     8
 71
     3
 72
     8
 73
     4
 74
     0
 42
0.0000000001
 43
0.0000000001
 40
0.0
 40
0.0
 40
0.0
 40
0.0
 40
1.0
 40
1.0
 40
1.0
 40
1.0
 10
93.5541836826502
 20
172.4795999552661
 30
0.0
 10
93.64300193501886
 20
172.4795999552661
 30
0.0
 10
93.71500335474113
 20
172.5704141048958
 30
0.0
 10
93.71500335474113
 20
172.6824390356753
 30
0.0
  0
LINE
  5
128
330
BA
100
AcDbEntity
  8
Sichtbar schmal (ISO)
 62
    18
420
        0
370
     5
100
AcDbLine
 10
93.5541836826502
 20
172.4795999552661
 30
0.0
 11
92.26762630592283
 21
172.4795999552661
 31
0.0
  0
LINE
  5
129
330
BA
100
AcDbEntity
  8
Sichtbar schmal (ISO)
 62
    18
420
        0
370
     5
100
AcDbLine
 10
89.05123286410407
 20
172.4795999552661
 30
0.0
 11
90.33779024083145
 21
172.4795999552661
 31
0.0
  0
SPLINE
  5
12A
330
BA
100
AcDbEntity
  8
Sichtbar schmal (ISO)
 62
    18
420
        0
370
     5
100
AcDbSpline
210
0.0
220
0.0
230
1.0
 70
     8
 71
     3
 72
     8
 73
     4
 74
     0
 42
0.0000000001
 43
0.0000000001
 40
0.0
 40
0.0
 40
0.0
 40
0.0
 40
1.0
 40
1.0
 40
1.0
 40
1.0
 10
88.89041319201284
 20
172.6824390356753
 30
0.0
 10
88.89041319201284
 20
172.5704141048958
 30
0.0
 10
88.96241461173543
 20
172.4795999552661
 30
0.0
 10
89.05123286410407
 20
172.4795999552661
 30
0.0
  0
LINE
  5
12B
330
BA
100
AcDbEntity
  8
Sichtbar schmal (ISO)
 62
    18
420
        0
370
     5
100
AcDbLine
 10
88.89041319201284
 20
172.854852254023
 30
0.0
 11
88.89041319201284
 21
172.6824390356753
 31
0.0
  0
SPLINE
  5
12C
330
BA
100
AcDbEntity
  8
Sichtbar schmal (ISO)
 62
    18
420
        0
370
     5
100
AcDbSpline
210
0.0
220
0.0
230
1.0
 70
     8
 71
     3
 72
     8
 73
     4
 74
     0
 42
0.0000000001
 43
0.0000000001
 40
0.0
 40
0.0
 40
0.0
 40
0.0
 40
1.0
 40
1.0
 40
1.0
 40
1.0
 10
89.05123286410407
 20
173.0576913344322
 30
0.0
 10
88.96241461173543
 20
173.0576913344322
 30
0.0
 10
88.89041319201284
 20
172.9668771848024
 30
0.0
 10
88.89041319201284
 20
172.854852254023
 30
0.0
  0
LINE
  5
12D
330
BA
100
AcDbEntity
  8
Sichtbar schmal (ISO)
 62
    18
420
        0
370
     5
100
AcDbLine
 10
90.33779024083145
 20
173.0576913344322
 30
0.0
 11
89.05123286410407
 21
173.0576913344322
 31
0.0
  0
LINE
  5
12E
330
BA
100
AcDbEntity
  8
Sichtbar schmal (ISO)
 62
    18
420
        0
370
     5
100
AcDbLine
 10
75.93642437088568
 20
174.9846625983181
 30
0.0
 11
75.93642437088568
 21
175.1875016787271
 31
0.0
  0
LINE
  5
12F
330
BA
100
AcDbEntity
  8
Sichtbar schmal (ISO)
 62
    18
420
        0
370
     5
100
AcDbLine
 10
76.10524926078316
 20
173.7676281158638
 30
0.0
 11
76.10524926078316
 21
166.8710993819558
 31
0.0
  0
LINE
  5
130
330
BA
100
AcDbEntity
  8
Sichtbar schmal (ISO)
 62
    18
420
        0
370
     5
100
AcDbLine
 10
75.9971983792536
 20
173.7676281158638
 30
0.0
 11
75.9971983792536
 21
174.1733062766819
 31
0.0
  0
LINE
  5
131
330
BA
100
AcDbEntity
  8
Sichtbar schmal (ISO)
 62
    18
420
        0
370
     5
100
AcDbLine
 10
76.58770827705591
 20
173.7676281158638
 30
0.0
 11
76.58770827705591
 21
166.8710993819558
 31
0.0
  0
LINE
  5
132
330
BA
100
AcDbEntity
  8
Sichtbar schmal (ISO)
 62
    18
420
        0
370
     5
100
AcDbLine
 10
79.73173286643421
 20
167.8143011058579
 30
0.0
 11
79.73173286643421
 21
167.611462025449
 31
0.0
  0
LINE
  5
133
330
BA
100
AcDbEntity
  8
Sichtbar schmal (ISO)
 62
    18
420
        0
370
     5
100
AcDbLine
 10
78.75073286667898
 20
167.8143011058579
 30
0.0
 11
79.73173286643421
 21
167.8143011058579
 31
0.0
  0
LINE
  5
134
330
BA
100
AcDbEntity
  8
Sichtbar schmal (ISO)
 62
    18
420
        0
370
     5
100
AcDbLine
 10
78.75073286667898
 20
167.611462025449
 30
0.0
 11
78.75073286667898
 21
167.8143011058579
 31
0.0
  0
LINE
  5
135
330
BA
100
AcDbEntity
  8
Sichtbar schmal (ISO)
 62
    18
420
        0
370
     5
100
AcDbLine
 10
76.9897574572837
 20
167.611462025449
 30
0.0
 11
78.75073286667898
 21
167.611462025449
 31
0.0
  0
SPLINE
  5
136
330
BA
100
AcDbEntity
  8
Sichtbar schmal (ISO)
 62
    18
420
        0
370
     5
100
AcDbSpline
210
0.0
220
0.0
230
1.0
 70
     8
 71
     3
 72
     8
 73
     4
 74
     0
 42
0.0000000001
 43
0.0000000001
 40
0.0
 40
0.0
 40
0.0
 40
0.0
 40
1.0
 40
1.0
 40
1.0
 40
1.0
 10
76.82893778519214
 20
167.8143011058579
 30
0.0
 10
76.82893778519214
 20
167.7022761750781
 30
0.0
 10
76.90093920491472
 20
167.611462025449
 30
0.0
 10
76.9897574572837
 20
167.611462025449
 30
0.0
  0
LINE
  5
137
330
BA
100
AcDbEntity
  8
Sichtbar schmal (ISO)
 62
    18
420
        0
370
     5
100
AcDbLine
 10
76.82893778519214
 20
167.9867143242056
 30
0.0
 11
76.82893778519214
 21
167.8143011058579
 31
0.0
  0
SPLINE
  5
138
330
BA
100
AcDbEntity
  8
Sichtbar schmal (ISO)
 62
    18
420
        0
370
     5
100
AcDbSpline
210
0.0
220
0.0
230
1.0
 70
     8
 71
     3
 72
     8
 73
     4
 74
     0
 42
0.0000000001
 43
0.0000000001
 40
0.0
 40
0.0
 40
0.0
 40
0.0
 40
1.0
 40
1.0
 40
1.0
 40
1.0
 10
76.9897574572837
 20
168.1895534046145
 30
0.0
 10
76.90093920491472
 20
168.1895534046145
 30
0.0
 10
76.82893778519214
 20
168.0987392549847
 30
0.0
 10
76.82893778519214
 20
167.9867143242056
 30
0.0
  0
LINE
  5
139
330
BA
100
AcDbEntity
  8
Sichtbar schmal (ISO)
 62
    18
420
        0
370
     5
100
AcDbLine
 10
78.75877385028352
 20
168.1895534046145
 30
0.0
 11
76.9897574572837
 21
168.1895534046145
 31
0.0
  0
LINE
  5
13A
330
BA
100
AcDbEntity
  8
Sichtbar schmal (ISO)
 62
    18
420
        0
370
     5
100
AcDbLine
 10
78.75877385028352
 20
168.3923924850237
 30
0.0
 11
78.75877385028352
 21
168.1895534046145
 31
0.0
  0
LINE
  5
13B
330
BA
100
AcDbEntity
  8
Sichtbar schmal (ISO)
 62
    18
420
        0
370
     5
100
AcDbLine
 10
79.72369188282936
 20
168.3923924850237
 30
0.0
 11
78.75877385028352
 21
168.3923924850237
 31
0.0
  0
LINE
  5
13C
330
BA
100
AcDbEntity
  8
Sichtbar schmal (ISO)
 62
    18
420
        0
370
     5
100
AcDbLine
 10
79.72369188282936
 20
168.1895534046145
 30
0.0
 11
79.72369188282936
 21
168.3923924850237
 31
0.0
  0
LINE
  5
13D
330
BA
100
AcDbEntity
  8
Sichtbar schmal (ISO)
 62
    18
420
        0
370
     5
100
AcDbLine
 10
81.49270827582951
 20
168.1895534046145
 30
0.0
 11
79.72369188282936
 21
168.1895534046145
 31
0.0
  0
SPLINE
  5
13E
330
BA
100
AcDbEntity
  8
Sichtbar schmal (ISO)
 62
    18
420
        0
370
     5
100
AcDbSpline
210
0.0
220
0.0
230
1.0
 70
     8
 71
     3
 72
     8
 73
     4
 74
     0
 42
0.0000000001
 43
0.0000000001
 40
0.0
 40
0.0
 40
0.0
 40
0.0
 40
1.0
 40
1.0
 40
1.0
 40
1.0
 10
81.65352794792042
 20
167.9867143242056
 30
0.0
 10
81.65352794792042
 20
168.0987392549847
 30
0.0
 10
81.58152652819815
 20
168.1895534046145
 30
0.0
 10
81.49270827582951
 20
168.1895534046145
 30
0.0
  0
LINE
  5
13F
330
BA
100
AcDbEntity
  8
Sichtbar schmal (ISO)
 62
    18
420
        0
370
     5
100
AcDbLine
 10
81.65352794792042
 20
167.8143011058579
 30
0.0
 11
81.65352794792042
 21
167.9867143242056
 31
0.0
  0
SPLINE
  5
140
330
BA
100
AcDbEntity
  8
Sichtbar schmal (ISO)
 62
    18
420
        0
370
     5
100
AcDbSpline
210
0.0
220
0.0
230
1.0
 70
     8
 71
     3
 72
     8
 73
     4
 74
     0
 42
0.0000000001
 43
0.0000000001
 40
0.0
 40
0.0
 40
0.0
 40
0.0
 40
1.0
 40
1.0
 40
1.0
 40
1.0
 10
81.49270827582951
 20
167.611462025449
 30
0.0
 10
81.58152652819815
 20
167.611462025449
 30
0.0
 10
81.65352794792042
 20
167.7022761750781
 30
0.0
 10
81.65352794792042
 20
167.8143011058579
 30
0.0
  0
LINE
  5
141
330
BA
100
AcDbEntity
  8
Sichtbar schmal (ISO)
 62
    18
420
        0
370
     5
100
AcDbLine
 10
79.73173286643421
 20
167.611462025449
 30
0.0
 11
81.49270827582951
 21
167.611462025449
 31
0.0
  0
LINE
  5
142
330
BA
100
AcDbEntity
  8
Sichtbar schmal (ISO)
 62
    18
420
        0
370
     5
100
AcDbLine
 10
79.73173286643421
 20
169.0313355883122
 30
0.0
 11
79.73173286643421
 21
168.8284965079033
 31
0.0
  0
LINE
  5
143
330
BA
100
AcDbEntity
  8
Sichtbar schmal (ISO)
 62
    18
420
        0
370
     5
100
AcDbLine
 10
78.75073286667898
 20
169.0313355883122
 30
0.0
 11
79.73173286643421
 21
169.0313355883122
 31
0.0
  0
LINE
  5
144
330
BA
100
AcDbEntity
  8
Sichtbar schmal (ISO)
 62
    18
420
        0
370
     5
100
AcDbLine
 10
78.75073286667898
 20
168.8284965079033
 30
0.0
 11
78.75073286667898
 21
169.0313355883122
 31
0.0
  0
LINE
  5
145
330
BA
100
AcDbEntity
  8
Sichtbar schmal (ISO)
 62
    18
420
        0
370
     5
100
AcDbLine
 10
76.9897574572837
 20
168.8284965079033
 30
0.0
 11
78.75073286667898
 21
168.8284965079033
 31
0.0
  0
SPLINE
  5
146
330
BA
100
AcDbEntity
  8
Sichtbar schmal (ISO)
 62
    18
420
        0
370
     5
100
AcDbSpline
210
0.0
220
0.0
230
1.0
 70
     8
 71
     3
 72
     8
 73
     4
 74
     0
 42
0.0000000001
 43
0.0000000001
 40
0.0
 40
0.0
 40
0.0
 40
0.0
 40
1.0
 40
1.0
 40
1.0
 40
1.0
 10
76.82893778519214
 20
169.0313355883122
 30
0.0
 10
76.82893778519214
 20
168.9193106575328
 30
0.0
 10
76.90093920491472
 20
168.8284965079033
 30
0.0
 10
76.9897574572837
 20
168.8284965079033
 30
0.0
  0
LINE
  5
147
330
BA
100
AcDbEntity
  8
Sichtbar schmal (ISO)
 62
    18
420
        0
370
     5
100
AcDbLine
 10
76.82893778519214
 20
169.2037488066599
 30
0.0
 11
76.82893778519214
 21
169.0313355883122
 31
0.0
  0
SPLINE
  5
148
330
BA
100
AcDbEntity
  8
Sichtbar schmal (ISO)
 62
    18
420
        0
370
     5
100
AcDbSpline
210
0.0
220
0.0
230
1.0
 70
     8
 71
     3
 72
     8
 73
     4
 74
     0
 42
0.0000000001
 43
0.0000000001
 40
0.0
 40
0.0
 40
0.0
 40
0.0
 40
1.0
 40
1.0
 40
1.0
 40
1.0
 10
76.9897574572837
 20
169.4065878870688
 30
0.0
 10
76.90093920491472
 20
169.4065878870688
 30
0.0
 10
76.82893778519214
 20
169.3157737374394
 30
0.0
 10
76.82893778519214
 20
169.2037488066599
 30
0.0
  0
LINE
  5
149
330
BA
100
AcDbEntity
  8
Sichtbar schmal (ISO)
 62
    18
420
        0
370
     5
100
AcDbLine
 10
78.75877385028352
 20
169.4065878870688
 30
0.0
 11
76.9897574572837
 21
169.4065878870688
 31
0.0
  0
LINE
  5
14A
330
BA
100
AcDbEntity
  8
Sichtbar schmal (ISO)
 62
    18
420
        0
370
     5
100
AcDbLine
 10
78.75877385028352
 20
169.609426967478
 30
0.0
 11
78.75877385028352
 21
169.4065878870688
 31
0.0
  0
LINE
  5
14B
330
BA
100
AcDbEntity
  8
Sichtbar schmal (ISO)
 62
    18
420
        0
370
     5
100
AcDbLine
 10
79.72369188282936
 20
169.609426967478
 30
0.0
 11
78.75877385028352
 21
169.609426967478
 31
0.0
  0
LINE
  5
14C
330
BA
100
AcDbEntity
  8
Sichtbar schmal (ISO)
 62
    18
420
        0
370
     5
100
AcDbLine
 10
79.72369188282936
 20
169.4065878870688
 30
0.0
 11
79.72369188282936
 21
169.609426967478
 31
0.0
  0
LINE
  5
14D
330
BA
100
AcDbEntity
  8
Sichtbar schmal (ISO)
 62
    18
420
        0
370
     5
100
AcDbLine
 10
81.49270827582951
 20
169.4065878870688
 30
0.0
 11
79.72369188282936
 21
169.4065878870688
 31
0.0
  0
SPLINE
  5
14E
330
BA
100
AcDbEntity
  8
Sichtbar schmal (ISO)
 62
    18
420
        0
370
     5
100
AcDbSpline
210
0.0
220
0.0
230
1.0
 70
     8
 71
     3
 72
     8
 73
     4
 74
     0
 42
0.0000000001
 43
0.0000000001
 40
0.0
 40
0.0
 40
0.0
 40
0.0
 40
1.0
 40
1.0
 40
1.0
 40
1.0
 10
81.65352794792042
 20
169.2037488066599
 30
0.0
 10
81.65352794792042
 20
169.3157737374394
 30
0.0
 10
81.58152652819815
 20
169.4065878870688
 30
0.0
 10
81.49270827582951
 20
169.4065878870688
 30
0.0
  0
LINE
  5
14F
330
BA
100
AcDbEntity
  8
Sichtbar schmal (ISO)
 62
    18
420
        0
370
     5
100
AcDbLine
 10
81.65352794792042
 20
169.0313355883122
 30
0.0
 11
81.65352794792042
 21
169.2037488066599
 31
0.0
  0
SPLINE
  5
150
330
BA
100
AcDbEntity
  8
Sichtbar schmal (ISO)
 62
    18
420
        0
370
     5
100
AcDbSpline
210
0.0
220
0.0
230
1.0
 70
     8
 71
     3
 72
     8
 73
     4
 74
     0
 42
0.0000000001
 43
0.0000000001
 40
0.0
 40
0.0
 40
0.0
 40
0.0
 40
1.0
 40
1.0
 40
1.0
 40
1.0
 10
81.49270827582951
 20
168.8284965079033
 30
0.0
 10
81.58152652819815
 20
168.8284965079033
 30
0.0
 10
81.65352794792042
 20
168.9193106575328
 30
0.0
 10
81.65352794792042
 20
169.0313355883122
 30
0.0
  0
LINE
  5
151
330
BA
100
AcDbEntity
  8
Sichtbar schmal (ISO)
 62
    18
420
        0
370
     5
100
AcDbLine
 10
79.73173286643421
 20
168.8284965079033
 30
0.0
 11
81.49270827582951
 21
168.8284965079033
 31
0.0
  0
LINE
  5
152
330
BA
100
AcDbEntity
  8
Sichtbar schmal (ISO)
 62
    18
420
        0
370
     5
100
AcDbLine
 10
79.73173286643421
 20
170.2483700707666
 30
0.0
 11
79.73173286643421
 21
170.0455309903574
 31
0.0
  0
LINE
  5
153
330
BA
100
AcDbEntity
  8
Sichtbar schmal (ISO)
 62
    18
420
        0
370
     5
100
AcDbLine
 10
78.75073286667898
 20
170.2483700707666
 30
0.0
 11
79.73173286643421
 21
170.2483700707666
 31
0.0
  0
LINE
  5
154
330
BA
100
AcDbEntity
  8
Sichtbar schmal (ISO)
 62
    18
420
        0
370
     5
100
AcDbLine
 10
78.75073286667898
 20
170.0455309903574
 30
0.0
 11
78.75073286667898
 21
170.2483700707666
 31
0.0
  0
LINE
  5
155
330
BA
100
AcDbEntity
  8
Sichtbar schmal (ISO)
 62
    18
420
        0
370
     5
100
AcDbLine
 10
76.9897574572837
 20
170.0455309903574
 30
0.0
 11
78.75073286667898
 21
170.0455309903574
 31
0.0
  0
SPLINE
  5
156
330
BA
100
AcDbEntity
  8
Sichtbar schmal (ISO)
 62
    18
420
        0
370
     5
100
AcDbSpline
210
0.0
220
0.0
230
1.0
 70
     8
 71
     3
 72
     8
 73
     4
 74
     0
 42
0.0000000001
 43
0.0000000001
 40
0.0
 40
0.0
 40
0.0
 40
0.0
 40
1.0
 40
1.0
 40
1.0
 40
1.0
 10
76.82893778519214
 20
170.2483700707666
 30
0.0
 10
76.82893778519214
 20
170.1363451399868
 30
0.0
 10
76.90093920491472
 20
170.0455309903574
 30
0.0
 10
76.9897574572837
 20
170.0455309903574
 30
0.0
  0
LINE
  5
157
330
BA
100
AcDbEntity
  8
Sichtbar schmal (ISO)
 62
    18
420
        0
370
     5
100
AcDbLine
 10
76.82893778519214
 20
170.4207832891143
 30
0.0
 11
76.82893778519214
 21
170.2483700707666
 31
0.0
  0
SPLINE
  5
158
330
BA
100
AcDbEntity
  8
Sichtbar schmal (ISO)
 62
    18
420
        0
370
     5
100
AcDbSpline
210
0.0
220
0.0
230
1.0
 70
     8
 71
     3
 72
     8
 73
     4
 74
     0
 42
0.0000000001
 43
0.0000000001
 40
0.0
 40
0.0
 40
0.0
 40
0.0
 40
1.0
 40
1.0
 40
1.0
 40
1.0
 10
76.9897574572837
 20
170.6236223695232
 30
0.0
 10
76.90093920491472
 20
170.6236223695232
 30
0.0
 10
76.82893778519214
 20
170.5328082198938
 30
0.0
 10
76.82893778519214
 20
170.4207832891143
 30
0.0
  0
LINE
  5
159
330
BA
100
AcDbEntity
  8
Sichtbar schmal (ISO)
 62
    18
420
        0
370
     5
100
AcDbLine
 10
78.75877385028352
 20
170.6236223695235
 30
0.0
 11
76.9897574572837
 21
170.6236223695235
 31
0.0
  0
LINE
  5
15A
330
BA
100
AcDbEntity
  8
Sichtbar schmal (ISO)
 62
    18
420
        0
370
     5
100
AcDbLine
 10
78.75877385028352
 20
170.8264614499324
 30
0.0
 11
78.75877385028352
 21
170.6236223695235
 31
0.0
  0
LINE
  5
15B
330
BA
100
AcDbEntity
  8
Sichtbar schmal (ISO)
 62
    18
420
        0
370
     5
100
AcDbLine
 10
79.72369188282936
 20
170.8264614499324
 30
0.0
 11
78.75877385028352
 21
170.8264614499324
 31
0.0
  0
LINE
  5
15C
330
BA
100
AcDbEntity
  8
Sichtbar schmal (ISO)
 62
    18
420
        0
370
     5
100
AcDbLine
 10
79.72369188282936
 20
170.6236223695235
 30
0.0
 11
79.72369188282936
 21
170.8264614499324
 31
0.0
  0
LINE
  5
15D
330
BA
100
AcDbEntity
  8
Sichtbar schmal (ISO)
 62
    18
420
        0
370
     5
100
AcDbLine
 10
81.49270827582951
 20
170.6236223695235
 30
0.0
 11
79.72369188282936
 21
170.6236223695235
 31
0.0
  0
SPLINE
  5
15E
330
BA
100
AcDbEntity
  8
Sichtbar schmal (ISO)
 62
    18
420
        0
370
     5
100
AcDbSpline
210
0.0
220
0.0
230
1.0
 70
     8
 71
     3
 72
     8
 73
     4
 74
     0
 42
0.0000000001
 43
0.0000000001
 40
0.0
 40
0.0
 40
0.0
 40
0.0
 40
1.0
 40
1.0
 40
1.0
 40
1.0
 10
81.65352794792042
 20
170.4207832891143
 30
0.0
 10
81.65352794792042
 20
170.5328082198938
 30
0.0
 10
81.58152652819815
 20
170.6236223695232
 30
0.0
 10
81.49270827582951
 20
170.6236223695232
 30
0.0
  0
LINE
  5
15F
330
BA
100
AcDbEntity
  8
Sichtbar schmal (ISO)
 62
    18
420
        0
370
     5
100
AcDbLine
 10
81.65352794792042
 20
170.2483700707666
 30
0.0
 11
81.65352794792042
 21
170.4207832891143
 31
0.0
  0
SPLINE
  5
160
330
BA
100
AcDbEntity
  8
Sichtbar schmal (ISO)
 62
    18
420
        0
370
     5
100
AcDbSpline
210
0.0
220
0.0
230
1.0
 70
     8
 71
     3
 72
     8
 73
     4
 74
     0
 42
0.0000000001
 43
0.0000000001
 40
0.0
 40
0.0
 40
0.0
 40
0.0
 40
1.0
 40
1.0
 40
1.0
 40
1.0
 10
81.49270827582951
 20
170.0455309903574
 30
0.0
 10
81.58152652819815
 20
170.0455309903574
 30
0.0
 10
81.65352794792042
 20
170.1363451399868
 30
0.0
 10
81.65352794792042
 20
170.2483700707666
 30
0.0
  0
LINE
  5
161
330
BA
100
AcDbEntity
  8
Sichtbar schmal (ISO)
 62
    18
420
        0
370
     5
100
AcDbLine
 10
79.73173286643421
 20
170.0455309903574
 30
0.0
 11
81.49270827582951
 21
170.0455309903574
 31
0.0
  0
LINE
  5
162
330
BA
100
AcDbEntity
  8
Sichtbar schmal (ISO)
 62
    18
420
        0
370
     5
100
AcDbLine
 10
79.73173286643421
 20
171.4654045532209
 30
0.0
 11
79.73173286643421
 21
171.262565472812
 31
0.0
  0
LINE
  5
163
330
BA
100
AcDbEntity
  8
Sichtbar schmal (ISO)
 62
    18
420
        0
370
     5
100
AcDbLine
 10
78.75073286667898
 20
171.4654045532209
 30
0.0
 11
79.73173286643421
 21
171.4654045532209
 31
0.0
  0
LINE
  5
164
330
BA
100
AcDbEntity
  8
Sichtbar schmal (ISO)
 62
    18
420
        0
370
     5
100
AcDbLine
 10
78.75073286667898
 20
171.262565472812
 30
0.0
 11
78.75073286667898
 21
171.4654045532209
 31
0.0
  0
LINE
  5
165
330
BA
100
AcDbEntity
  8
Sichtbar schmal (ISO)
 62
    18
420
        0
370
     5
100
AcDbLine
 10
76.9897574572837
 20
171.262565472812
 30
0.0
 11
78.75073286667898
 21
171.262565472812
 31
0.0
  0
SPLINE
  5
166
330
BA
100
AcDbEntity
  8
Sichtbar schmal (ISO)
 62
    18
420
        0
370
     5
100
AcDbSpline
210
0.0
220
0.0
230
1.0
 70
     8
 71
     3
 72
     8
 73
     4
 74
     0
 42
0.0000000001
 43
0.0000000001
 40
0.0
 40
0.0
 40
0.0
 40
0.0
 40
1.0
 40
1.0
 40
1.0
 40
1.0
 10
76.82893778519214
 20
171.4654045532209
 30
0.0
 10
76.82893778519214
 20
171.3533796224411
 30
0.0
 10
76.90093920491472
 20
171.262565472812
 30
0.0
 10
76.9897574572837
 20
171.262565472812
 30
0.0
  0
LINE
  5
167
330
BA
100
AcDbEntity
  8
Sichtbar schmal (ISO)
 62
    18
420
        0
370
     5
100
AcDbLine
 10
76.82893778519214
 20
171.6378177715686
 30
0.0
 11
76.82893778519214
 21
171.4654045532209
 31
0.0
  0
SPLINE
  5
168
330
BA
100
AcDbEntity
  8
Sichtbar schmal (ISO)
 62
    18
420
        0
370
     5
100
AcDbSpline
210
0.0
220
0.0
230
1.0
 70
     8
 71
     3
 72
     8
 73
     4
 74
     0
 42
0.0000000001
 43
0.0000000001
 40
0.0
 40
0.0
 40
0.0
 40
0.0
 40
1.0
 40
1.0
 40
1.0
 40
1.0
 10
76.9897574572837
 20
171.8406568519778
 30
0.0
 10
76.90093920491472
 20
171.8406568519778
 30
0.0
 10
76.82893778519214
 20
171.7498427023481
 30
0.0
 10
76.82893778519214
 20
171.6378177715686
 30
0.0
  0
LINE
  5
169
330
BA
100
AcDbEntity
  8
Sichtbar schmal (ISO)
 62
    18
420
        0
370
     5
100
AcDbLine
 10
78.75877385028352
 20
171.8406568519778
 30
0.0
 11
76.9897574572837
 21
171.8406568519778
 31
0.0
  0
LINE
  5
16A
330
BA
100
AcDbEntity
  8
Sichtbar schmal (ISO)
 62
    18
420
        0
370
     5
100
AcDbLine
 10
78.75877385028352
 20
172.0434959323867
 30
0.0
 11
78.75877385028352
 21
171.8406568519778
 31
0.0
  0
LINE
  5
16B
330
BA
100
AcDbEntity
  8
Sichtbar schmal (ISO)
 62
    18
420
        0
370
     5
100
AcDbLine
 10
79.72369188282936
 20
172.0434959323867
 30
0.0
 11
78.75877385028352
 21
172.0434959323867
 31
0.0
  0
LINE
  5
16C
330
BA
100
AcDbEntity
  8
Sichtbar schmal (ISO)
 62
    18
420
        0
370
     5
100
AcDbLine
 10
79.72369188282936
 20
171.8406568519778
 30
0.0
 11
79.72369188282936
 21
172.0434959323867
 31
0.0
  0
LINE
  5
16D
330
BA
100
AcDbEntity
  8
Sichtbar schmal (ISO)
 62
    18
420
        0
370
     5
100
AcDbLine
 10
81.49270827582951
 20
171.8406568519778
 30
0.0
 11
79.72369188282936
 21
171.8406568519778
 31
0.0
  0
SPLINE
  5
16E
330
BA
100
AcDbEntity
  8
Sichtbar schmal (ISO)
 62
    18
420
        0
370
     5
100
AcDbSpline
210
0.0
220
0.0
230
1.0
 70
     8
 71
     3
 72
     8
 73
     4
 74
     0
 42
0.0000000001
 43
0.0000000001
 40
0.0
 40
0.0
 40
0.0
 40
0.0
 40
1.0
 40
1.0
 40
1.0
 40
1.0
 10
81.65352794792042
 20
171.6378177715686
 30
0.0
 10
81.65352794792042
 20
171.7498427023481
 30
0.0
 10
81.58152652819815
 20
171.8406568519778
 30
0.0
 10
81.49270827582951
 20
171.8406568519778
 30
0.0
  0
LINE
  5
16F
330
BA
100
AcDbEntity
  8
Sichtbar schmal (ISO)
 62
    18
420
        0
370
     5
100
AcDbLine
 10
81.65352794792042
 20
171.4654045532209
 30
0.0
 11
81.65352794792042
 21
171.6378177715686
 31
0.0
  0
SPLINE
  5
170
330
BA
100
AcDbEntity
  8
Sichtbar schmal (ISO)
 62
    18
420
        0
370
     5
100
AcDbSpline
210
0.0
220
0.0
230
1.0
 70
     8
 71
     3
 72
     8
 73
     4
 74
     0
 42
0.0000000001
 43
0.0000000001
 40
0.0
 40
0.0
 40
0.0
 40
0.0
 40
1.0
 40
1.0
 40
1.0
 40
1.0
 10
81.49270827582951
 20
171.262565472812
 30
0.0
 10
81.58152652819815
 20
171.262565472812
 30
0.0
 10
81.65352794792042
 20
171.3533796224411
 30
0.0
 10
81.65352794792042
 20
171.4654045532209
 30
0.0
  0
LINE
  5
171
330
BA
100
AcDbEntity
  8
Sichtbar schmal (ISO)
 62
    18
420
        0
370
     5
100
AcDbLine
 10
79.73173286643421
 20
171.262565472812
 30
0.0
 11
81.49270827582951
 21
171.262565472812
 31
0.0
  0
LINE
  5
172
330
BA
100
AcDbEntity
  8
Sichtbar schmal (ISO)
 62
    18
420
        0
370
     5
100
AcDbLine
 10
79.73173286643421
 20
172.4795999552661
 30
0.0
 11
81.49270827582951
 21
172.4795999552661
 31
0.0
  0
LINE
  5
173
330
BA
100
AcDbEntity
  8
Sichtbar schmal (ISO)
 62
    18
420
        0
370
     5
100
AcDbLine
 10
79.73173286643421
 20
172.6824390356753
 30
0.0
 11
79.73173286643421
 21
172.4795999552661
 31
0.0
  0
LINE
  5
174
330
BA
100
AcDbEntity
  8
Sichtbar schmal (ISO)
 62
    18
420
        0
370
     5
100
AcDbLine
 10
78.75073286667898
 20
172.6824390356753
 30
0.0
 11
79.73173286643421
 21
172.6824390356753
 31
0.0
  0
LINE
  5
175
330
BA
100
AcDbEntity
  8
Sichtbar schmal (ISO)
 62
    18
420
        0
370
     5
100
AcDbLine
 10
78.75073286667898
 20
172.4795999552661
 30
0.0
 11
78.75073286667898
 21
172.6824390356753
 31
0.0
  0
LINE
  5
176
330
BA
100
AcDbEntity
  8
Sichtbar schmal (ISO)
 62
    18
420
        0
370
     5
100
AcDbLine
 10
76.9897574572837
 20
172.4795999552661
 30
0.0
 11
78.75073286667898
 21
172.4795999552661
 31
0.0
  0
SPLINE
  5
177
330
BA
100
AcDbEntity
  8
Sichtbar schmal (ISO)
 62
    18
420
        0
370
     5
100
AcDbSpline
210
0.0
220
0.0
230
1.0
 70
     8
 71
     3
 72
     8
 73
     4
 74
     0
 42
0.0000000001
 43
0.0000000001
 40
0.0
 40
0.0
 40
0.0
 40
0.0
 40
1.0
 40
1.0
 40
1.0
 40
1.0
 10
76.82893778519214
 20
172.6824390356753
 30
0.0
 10
76.82893778519214
 20
172.5704141048958
 30
0.0
 10
76.90093920491472
 20
172.4795999552661
 30
0.0
 10
76.9897574572837
 20
172.4795999552661
 30
0.0
  0
LINE
  5
178
330
BA
100
AcDbEntity
  8
Sichtbar schmal (ISO)
 62
    18
420
        0
370
     5
100
AcDbLine
 10
76.82893778519214
 20
172.854852254023
 30
0.0
 11
76.82893778519214
 21
172.6824390356753
 31
0.0
  0
SPLINE
  5
179
330
BA
100
AcDbEntity
  8
Sichtbar schmal (ISO)
 62
    18
420
        0
370
     5
100
AcDbSpline
210
0.0
220
0.0
230
1.0
 70
     8
 71
     3
 72
     8
 73
     4
 74
     0
 42
0.0000000001
 43
0.0000000001
 40
0.0
 40
0.0
 40
0.0
 40
0.0
 40
1.0
 40
1.0
 40
1.0
 40
1.0
 10
76.9897574572837
 20
173.0576913344322
 30
0.0
 10
76.90093920491472
 20
173.0576913344322
 30
0.0
 10
76.82893778519214
 20
172.9668771848024
 30
0.0
 10
76.82893778519214
 20
172.854852254023
 30
0.0
  0
LINE
  5
17A
330
BA
100
AcDbEntity
  8
Sichtbar schmal (ISO)
 62
    18
420
        0
370
     5
100
AcDbLine
 10
78.75877385028352
 20
173.0576913344322
 30
0.0
 11
76.9897574572837
 21
173.0576913344322
 31
0.0
  0
LINE
  5
17B
330
BA
100
AcDbEntity
  8
Sichtbar schmal (ISO)
 62
    18
420
        0
370
     5
100
AcDbLine
 10
78.75877385028352
 20
173.2605304148411
 30
0.0
 11
78.75877385028352
 21
173.0576913344322
 31
0.0
  0
LINE
  5
17C
330
BA
100
AcDbEntity
  8
Sichtbar schmal (ISO)
 62
    18
420
        0
370
     5
100
AcDbLine
 10
79.72369188282936
 20
173.2605304148411
 30
0.0
 11
78.75877385028352
 21
173.2605304148411
 31
0.0
  0
LINE
  5
17D
330
BA
100
AcDbEntity
  8
Sichtbar schmal (ISO)
 62
    18
420
        0
370
     5
100
AcDbLine
 10
79.72369188282936
 20
173.0576913344322
 30
0.0
 11
79.72369188282936
 21
173.2605304148411
 31
0.0
  0
LINE
  5
17E
330
BA
100
AcDbEntity
  8
Sichtbar schmal (ISO)
 62
    18
420
        0
370
     5
100
AcDbLine
 10
81.49270827582951
 20
173.0576913344322
 30
0.0
 11
79.72369188282936
 21
173.0576913344322
 31
0.0
  0
SPLINE
  5
17F
330
BA
100
AcDbEntity
  8
Sichtbar schmal (ISO)
 62
    18
420
        0
370
     5
100
AcDbSpline
210
0.0
220
0.0
230
1.0
 70
     8
 71
     3
 72
     8
 73
     4
 74
     0
 42
0.0000000001
 43
0.0000000001
 40
0.0
 40
0.0
 40
0.0
 40
0.0
 40
1.0
 40
1.0
 40
1.0
 40
1.0
 10
81.65352794792042
 20
172.854852254023
 30
0.0
 10
81.65352794792042
 20
172.9668771848024
 30
0.0
 10
81.58152652819815
 20
173.0576913344322
 30
0.0
 10
81.49270827582951
 20
173.0576913344322
 30
0.0
  0
LINE
  5
180
330
BA
100
AcDbEntity
  8
Sichtbar schmal (ISO)
 62
    18
420
        0
370
     5
100
AcDbLine
 10
81.65352794792042
 20
172.6824390356753
 30
0.0
 11
81.65352794792042
 21
172.854852254023
 31
0.0
  0
SPLINE
  5
181
330
BA
100
AcDbEntity
  8
Sichtbar schmal (ISO)
 62
    18
420
        0
370
     5
100
AcDbSpline
210
0.0
220
0.0
230
1.0
 70
     8
 71
     3
 72
     8
 73
     4
 74
     0
 42
0.0000000001
 43
0.0000000001
 40
0.0
 40
0.0
 40
0.0
 40
0.0
 40
1.0
 40
1.0
 40
1.0
 40
1.0
 10
81.49270827582951
 20
172.4795999552661
 30
0.0
 10
81.58152652819815
 20
172.4795999552661
 30
0.0
 10
81.65352794792042
 20
172.5704141048958
 30
0.0
 10
81.65352794792042
 20
172.6824390356753
 30
0.0
  0
LINE
  5
182
330
BA
100
AcDbEntity
  8
Sichtbar schmal (ISO)
 62
    18
420
        0
370
     5
100
AcDbLine
 10
84.9503312257848
 20
169.4674396111919
 30
0.0
 11
84.14623286533018
 21
169.4674396111919
 31
0.0
  0
LINE
  5
183
330
BA
100
AcDbEntity
  8
Sichtbar schmal (ISO)
 62
    18
420
        0
370
     5
100
AcDbLine
 10
84.14623286533018
 20
167.8447269679191
 30
0.0
 11
84.9503312257848
 21
167.8447269679191
 31
0.0
  0
LINE
  5
184
330
BA
100
AcDbEntity
  8
Sichtbar schmal (ISO)
 62
    18
420
        0
370
     5
100
AcDbLine
 10
98.45918368142378
 20
167.8447269679191
 30
0.0
 11
97.6550853209695
 21
167.8447269679191
 31
0.0
  0
LINE
  5
185
330
BA
100
AcDbEntity
  8
Sichtbar schmal (ISO)
 62
    18
420
        0
370
     5
100
AcDbLine
 10
97.6550853209695
 20
169.4674396111919
 30
0.0
 11
98.45918368142378
 21
169.4674396111919
 31
0.0
  0
LINE
  5
186
330
BA
100
AcDbEntity
  8
Sichtbar schmal (ISO)
 62
    18
420
        0
370
     5
100
AcDbLine
 10
106.0177082696987
 20
173.7676281158638
 30
0.0
 11
106.0177082696987
 21
166.8710993819558
 31
0.0
  0
LINE
  5
187
330
BA
100
AcDbEntity
  8
Sichtbar schmal (ISO)
 62
    18
420
        0
370
     5
100
AcDbLine
 10
102.8736836803204
 20
172.4795999552661
 30
0.0
 11
101.1127082709248
 21
172.4795999552661
 31
0.0
  0
SPLINE
  5
188
330
BA
100
AcDbEntity
  8
Sichtbar schmal (ISO)
 62
    18
420
        0
370
     5
100
AcDbSpline
210
0.0
220
0.0
230
1.0
 70
     8
 71
     3
 72
     8
 73
     4
 74
     0
 42
0.0000000001
 43
0.0000000001
 40
0.0
 40
0.0
 40
0.0
 40
0.0
 40
1.0
 40
1.0
 40
1.0
 40
1.0
 10
100.9518885988335
 20
172.6824390356753
 30
0.0
 10
100.9518885988335
 20
172.5704141048958
 30
0.0
 10
101.0238900185561
 20
172.4795999552661
 30
0.0
 10
101.1127082709248
 20
172.4795999552661
 30
0.0
  0
LINE
  5
189
330
BA
100
AcDbEntity
  8
Sichtbar schmal (ISO)
 62
    18
420
        0
370
     5
100
AcDbLine
 10
100.9518885988335
 20
172.6824390356753
 30
0.0
 11
100.9518885988335
 21
172.854852254023
 31
0.0
  0
SPLINE
  5
18A
330
BA
100
AcDbEntity
  8
Sichtbar schmal (ISO)
 62
    18
420
        0
370
     5
100
AcDbSpline
210
0.0
220
0.0
230
1.0
 70
     8
 71
     3
 72
     8
 73
     4
 74
     0
 42
0.0000000001
 43
0.0000000001
 40
0.0
 40
0.0
 40
0.0
 40
0.0
 40
1.0
 40
1.0
 40
1.0
 40
1.0
 10
101.1127082709248
 20
173.0576913344322
 30
0.0
 10
101.0238900185561
 20
173.0576913344322
 30
0.0
 10
100.9518885988335
 20
172.9668771848024
 30
0.0
 10
100.9518885988335
 20
172.854852254023
 30
0.0
  0
LINE
  5
18B
330
BA
100
AcDbEntity
  8
Sichtbar schmal (ISO)
 62
    18
420
        0
370
     5
100
AcDbLine
 10
101.1127082709248
 20
173.0576913344322
 30
0.0
 11
102.8817246639249
 21
173.0576913344322
 31
0.0
  0
LINE
  5
18C
330
BA
100
AcDbEntity
  8
Sichtbar schmal (ISO)
 62
    18
420
        0
370
     5
100
AcDbLine
 10
102.8817246639249
 20
173.0576913344322
 30
0.0
 11
102.8817246639249
 21
173.2605304148411
 31
0.0
  0
LINE
  5
18D
330
BA
100
AcDbEntity
  8
Sichtbar schmal (ISO)
 62
    18
420
        0
370
     5
100
AcDbLine
 10
102.8817246639249
 20
173.2605304148411
 30
0.0
 11
103.8466426964707
 21
173.2605304148411
 31
0.0
  0
LINE
  5
18E
330
BA
100
AcDbEntity
  8
Sichtbar schmal (ISO)
 62
    18
420
        0
370
     5
100
AcDbLine
 10
103.8466426964707
 20
173.2605304148411
 30
0.0
 11
103.8466426964707
 21
173.0576913344322
 31
0.0
  0
LINE
  5
18F
330
BA
100
AcDbEntity
  8
Sichtbar schmal (ISO)
 62
    18
420
        0
370
     5
100
AcDbLine
 10
103.8466426964707
 20
173.0576913344322
 30
0.0
 11
105.6156590894709
 21
173.0576913344322
 31
0.0
  0
SPLINE
  5
190
330
BA
100
AcDbEntity
  8
Sichtbar schmal (ISO)
 62
    18
420
        0
370
     5
100
AcDbSpline
210
0.0
220
0.0
230
1.0
 70
     8
 71
     3
 72
     8
 73
     4
 74
     0
 42
0.0000000001
 43
0.0000000001
 40
0.0
 40
0.0
 40
0.0
 40
0.0
 40
1.0
 40
1.0
 40
1.0
 40
1.0
 10
105.7764787615621
 20
172.854852254023
 30
0.0
 10
105.7764787615621
 20
172.9668771848024
 30
0.0
 10
105.7044773418392
 20
173.0576913344322
 30
0.0
 10
105.6156590894709
 20
173.0576913344322
 30
0.0
  0
LINE
  5
191
330
BA
100
AcDbEntity
  8
Sichtbar schmal (ISO)
 62
    18
420
        0
370
     5
100
AcDbLine
 10
105.7764787615621
 20
172.854852254023
 30
0.0
 11
105.7764787615621
 21
172.6824390356753
 31
0.0
  0
SPLINE
  5
192
330
BA
100
AcDbEntity
  8
Sichtbar schmal (ISO)
 62
    18
420
        0
370
     5
100
AcDbSpline
210
0.0
220
0.0
230
1.0
 70
     8
 71
     3
 72
     8
 73
     4
 74
     0
 42
0.0000000001
 43
0.0000000001
 40
0.0
 40
0.0
 40
0.0
 40
0.0
 40
1.0
 40
1.0
 40
1.0
 40
1.0
 10
105.6156590894709
 20
172.4795999552661
 30
0.0
 10
105.7044773418392
 20
172.4795999552661
 30
0.0
 10
105.7764787615621
 20
172.5704141048958
 30
0.0
 10
105.7764787615621
 20
172.6824390356753
 30
0.0
  0
LINE
  5
193
330
BA
100
AcDbEntity
  8
Sichtbar schmal (ISO)
 62
    18
420
        0
370
     5
100
AcDbLine
 10
105.6156590894709
 20
172.4795999552661
 30
0.0
 11
103.8546836800753
 21
172.4795999552661
 31
0.0
  0
LINE
  5
194
330
BA
100
AcDbEntity
  8
Sichtbar schmal (ISO)
 62
    18
420
        0
370
     5
100
AcDbLine
 10
103.8546836800753
 20
172.4795999552661
 30
0.0
 11
103.8546836800753
 21
172.6824390356753
 31
0.0
  0
LINE
  5
195
330
BA
100
AcDbEntity
  8
Sichtbar schmal (ISO)
 62
    18
420
        0
370
     5
100
AcDbLine
 10
103.8546836800753
 20
172.6824390356753
 30
0.0
 11
102.8736836803204
 21
172.6824390356753
 31
0.0
  0
LINE
  5
196
330
BA
100
AcDbEntity
  8
Sichtbar schmal (ISO)
 62
    18
420
        0
370
     5
100
AcDbLine
 10
102.8736836803204
 20
172.6824390356753
 30
0.0
 11
102.8736836803204
 21
172.4795999552661
 31
0.0
  0
LINE
  5
197
330
BA
100
AcDbEntity
  8
Sichtbar schmal (ISO)
 62
    18
420
        0
370
     5
100
AcDbLine
 10
102.8736836803204
 20
171.4654045532209
 30
0.0
 11
102.8736836803204
 21
171.262565472812
 31
0.0
  0
LINE
  5
198
330
BA
100
AcDbEntity
  8
Sichtbar schmal (ISO)
 62
    18
420
        0
370
     5
100
AcDbLine
 10
102.8736836803204
 20
171.262565472812
 30
0.0
 11
101.1127082709248
 21
171.262565472812
 31
0.0
  0
SPLINE
  5
199
330
BA
100
AcDbEntity
  8
Sichtbar schmal (ISO)
 62
    18
420
        0
370
     5
100
AcDbSpline
210
0.0
220
0.0
230
1.0
 70
     8
 71
     3
 72
     8
 73
     4
 74
     0
 42
0.0000000001
 43
0.0000000001
 40
0.0
 40
0.0
 40
0.0
 40
0.0
 40
1.0
 40
1.0
 40
1.0
 40
1.0
 10
100.9518885988335
 20
171.4654045532209
 30
0.0
 10
100.9518885988335
 20
171.3533796224411
 30
0.0
 10
101.0238900185561
 20
171.262565472812
 30
0.0
 10
101.1127082709248
 20
171.262565472812
 30
0.0
  0
LINE
  5
19A
330
BA
100
AcDbEntity
  8
Sichtbar schmal (ISO)
 62
    18
420
        0
370
     5
100
AcDbLine
 10
100.9518885988335
 20
171.4654045532209
 30
0.0
 11
100.9518885988335
 21
171.6378177715686
 31
0.0
  0
SPLINE
  5
19B
330
BA
100
AcDbEntity
  8
Sichtbar schmal (ISO)
 62
    18
420
        0
370
     5
100
AcDbSpline
210
0.0
220
0.0
230
1.0
 70
     8
 71
     3
 72
     8
 73
     4
 74
     0
 42
0.0000000001
 43
0.0000000001
 40
0.0
 40
0.0
 40
0.0
 40
0.0
 40
1.0
 40
1.0
 40
1.0
 40
1.0
 10
101.1127082709248
 20
171.8406568519778
 30
0.0
 10
101.0238900185561
 20
171.8406568519778
 30
0.0
 10
100.9518885988335
 20
171.7498427023481
 30
0.0
 10
100.9518885988335
 20
171.6378177715686
 30
0.0
  0
LINE
  5
19C
330
BA
100
AcDbEntity
  8
Sichtbar schmal (ISO)
 62
    18
420
        0
370
     5
100
AcDbLine
 10
101.1127082709248
 20
171.8406568519778
 30
0.0
 11
102.8817246639249
 21
171.8406568519778
 31
0.0
  0
LINE
  5
19D
330
BA
100
AcDbEntity
  8
Sichtbar schmal (ISO)
 62
    18
420
        0
370
     5
100
AcDbLine
 10
102.8817246639249
 20
171.8406568519778
 30
0.0
 11
102.8817246639249
 21
172.0434959323867
 31
0.0
  0
LINE
  5
19E
330
BA
100
AcDbEntity
  8
Sichtbar schmal (ISO)
 62
    18
420
        0
370
     5
100
AcDbLine
 10
102.8817246639249
 20
172.0434959323867
 30
0.0
 11
103.8466426964707
 21
172.0434959323867
 31
0.0
  0
LINE
  5
19F
330
BA
100
AcDbEntity
  8
Sichtbar schmal (ISO)
 62
    18
420
        0
370
     5
100
AcDbLine
 10
103.8466426964707
 20
172.0434959323867
 30
0.0
 11
103.8466426964707
 21
171.8406568519778
 31
0.0
  0
LINE
  5
1A0
330
BA
100
AcDbEntity
  8
Sichtbar schmal (ISO)
 62
    18
420
        0
370
     5
100
AcDbLine
 10
103.8466426964707
 20
171.8406568519778
 30
0.0
 11
105.6156590894709
 21
171.8406568519778
 31
0.0
  0
SPLINE
  5
1A1
330
BA
100
AcDbEntity
  8
Sichtbar schmal (ISO)
 62
    18
420
        0
370
     5
100
AcDbSpline
210
0.0
220
0.0
230
1.0
 70
     8
 71
     3
 72
     8
 73
     4
 74
     0
 42
0.0000000001
 43
0.0000000001
 40
0.0
 40
0.0
 40
0.0
 40
0.0
 40
1.0
 40
1.0
 40
1.0
 40
1.0
 10
105.7764787615621
 20
171.6378177715686
 30
0.0
 10
105.7764787615621
 20
171.7498427023481
 30
0.0
 10
105.7044773418392
 20
171.8406568519778
 30
0.0
 10
105.6156590894709
 20
171.8406568519778
 30
0.0
  0
LINE
  5
1A2
330
BA
100
AcDbEntity
  8
Sichtbar schmal (ISO)
 62
    18
420
        0
370
     5
100
AcDbLine
 10
105.7764787615621
 20
171.6378177715686
 30
0.0
 11
105.7764787615621
 21
171.4654045532209
 31
0.0
  0
SPLINE
  5
1A3
330
BA
100
AcDbEntity
  8
Sichtbar schmal (ISO)
 62
    18
420
        0
370
     5
100
AcDbSpline
210
0.0
220
0.0
230
1.0
 70
     8
 71
     3
 72
     8
 73
     4
 74
     0
 42
0.0000000001
 43
0.0000000001
 40
0.0
 40
0.0
 40
0.0
 40
0.0
 40
1.0
 40
1.0
 40
1.0
 40
1.0
 10
105.6156590894709
 20
171.262565472812
 30
0.0
 10
105.7044773418392
 20
171.262565472812
 30
0.0
 10
105.7764787615621
 20
171.3533796224411
 30
0.0
 10
105.7764787615621
 20
171.4654045532209
 30
0.0
  0
LINE
  5
1A4
330
BA
100
AcDbEntity
  8
Sichtbar schmal (ISO)
 62
    18
420
        0
370
     5
100
AcDbLine
 10
105.6156590894709
 20
171.262565472812
 30
0.0
 11
103.8546836800753
 21
171.262565472812
 31
0.0
  0
LINE
  5
1A5
330
BA
100
AcDbEntity
  8
Sichtbar schmal (ISO)
 62
    18
420
        0
370
     5
100
AcDbLine
 10
103.8546836800753
 20
171.262565472812
 30
0.0
 11
103.8546836800753
 21
171.4654045532209
 31
0.0
  0
LINE
  5
1A6
330
BA
100
AcDbEntity
  8
Sichtbar schmal (ISO)
 62
    18
420
        0
370
     5
100
AcDbLine
 10
103.8546836800753
 20
171.4654045532209
 30
0.0
 11
102.8736836803204
 21
171.4654045532209
 31
0.0
  0
LINE
  5
1A7
330
BA
100
AcDbEntity
  8
Sichtbar schmal (ISO)
 62
    18
420
        0
370
     5
100
AcDbLine
 10
102.8736836803204
 20
170.2483700707666
 30
0.0
 11
102.8736836803204
 21
170.0455309903574
 31
0.0
  0
LINE
  5
1A8
330
BA
100
AcDbEntity
  8
Sichtbar schmal (ISO)
 62
    18
420
        0
370
     5
100
AcDbLine
 10
102.8736836803204
 20
170.0455309903574
 30
0.0
 11
101.1127082709248
 21
170.0455309903574
 31
0.0
  0
SPLINE
  5
1A9
330
BA
100
AcDbEntity
  8
Sichtbar schmal (ISO)
 62
    18
420
        0
370
     5
100
AcDbSpline
210
0.0
220
0.0
230
1.0
 70
     8
 71
     3
 72
     8
 73
     4
 74
     0
 42
0.0000000001
 43
0.0000000001
 40
0.0
 40
0.0
 40
0.0
 40
0.0
 40
1.0
 40
1.0
 40
1.0
 40
1.0
 10
100.9518885988335
 20
170.2483700707666
 30
0.0
 10
100.9518885988335
 20
170.1363451399868
 30
0.0
 10
101.0238900185561
 20
170.0455309903574
 30
0.0
 10
101.1127082709248
 20
170.0455309903574
 30
0.0
  0
LINE
  5
1AA
330
BA
100
AcDbEntity
  8
Sichtbar schmal (ISO)
 62
    18
420
        0
370
     5
100
AcDbLine
 10
100.9518885988335
 20
170.2483700707666
 30
0.0
 11
100.9518885988335
 21
170.4207832891143
 31
0.0
  0
SPLINE
  5
1AB
330
BA
100
AcDbEntity
  8
Sichtbar schmal (ISO)
 62
    18
420
        0
370
     5
100
AcDbSpline
210
0.0
220
0.0
230
1.0
 70
     8
 71
     3
 72
     8
 73
     4
 74
     0
 42
0.0000000001
 43
0.0000000001
 40
0.0
 40
0.0
 40
0.0
 40
0.0
 40
1.0
 40
1.0
 40
1.0
 40
1.0
 10
101.1127082709248
 20
170.6236223695232
 30
0.0
 10
101.0238900185561
 20
170.6236223695232
 30
0.0
 10
100.9518885988335
 20
170.5328082198938
 30
0.0
 10
100.9518885988335
 20
170.4207832891143
 30
0.0
  0
LINE
  5
1AC
330
BA
100
AcDbEntity
  8
Sichtbar schmal (ISO)
 62
    18
420
        0
370
     5
100
AcDbLine
 10
101.1127082709248
 20
170.6236223695235
 30
0.0
 11
102.8817246639249
 21
170.6236223695235
 31
0.0
  0
LINE
  5
1AD
330
BA
100
AcDbEntity
  8
Sichtbar schmal (ISO)
 62
    18
420
        0
370
     5
100
AcDbLine
 10
102.8817246639249
 20
170.6236223695235
 30
0.0
 11
102.8817246639249
 21
170.8264614499324
 31
0.0
  0
LINE
  5
1AE
330
BA
100
AcDbEntity
  8
Sichtbar schmal (ISO)
 62
    18
420
        0
370
     5
100
AcDbLine
 10
102.8817246639249
 20
170.8264614499324
 30
0.0
 11
103.8466426964707
 21
170.8264614499324
 31
0.0
  0
LINE
  5
1AF
330
BA
100
AcDbEntity
  8
Sichtbar schmal (ISO)
 62
    18
420
        0
370
     5
100
AcDbLine
 10
103.8466426964707
 20
170.8264614499324
 30
0.0
 11
103.8466426964707
 21
170.6236223695235
 31
0.0
  0
LINE
  5
1B0
330
BA
100
AcDbEntity
  8
Sichtbar schmal (ISO)
 62
    18
420
        0
370
     5
100
AcDbLine
 10
103.8466426964707
 20
170.6236223695235
 30
0.0
 11
105.6156590894709
 21
170.6236223695235
 31
0.0
  0
SPLINE
  5
1B1
330
BA
100
AcDbEntity
  8
Sichtbar schmal (ISO)
 62
    18
420
        0
370
     5
100
AcDbSpline
210
0.0
220
0.0
230
1.0
 70
     8
 71
     3
 72
     8
 73
     4
 74
     0
 42
0.0000000001
 43
0.0000000001
 40
0.0
 40
0.0
 40
0.0
 40
0.0
 40
1.0
 40
1.0
 40
1.0
 40
1.0
 10
105.7764787615621
 20
170.4207832891143
 30
0.0
 10
105.7764787615621
 20
170.5328082198938
 30
0.0
 10
105.7044773418392
 20
170.6236223695232
 30
0.0
 10
105.6156590894709
 20
170.6236223695232
 30
0.0
  0
LINE
  5
1B2
330
BA
100
AcDbEntity
  8
Sichtbar schmal (ISO)
 62
    18
420
        0
370
     5
100
AcDbLine
 10
105.7764787615621
 20
170.4207832891143
 30
0.0
 11
105.7764787615621
 21
170.2483700707666
 31
0.0
  0
SPLINE
  5
1B3
330
BA
100
AcDbEntity
  8
Sichtbar schmal (ISO)
 62
    18
420
        0
370
     5
100
AcDbSpline
210
0.0
220
0.0
230
1.0
 70
     8
 71
     3
 72
     8
 73
     4
 74
     0
 42
0.0000000001
 43
0.0000000001
 40
0.0
 40
0.0
 40
0.0
 40
0.0
 40
1.0
 40
1.0
 40
1.0
 40
1.0
 10
105.6156590894709
 20
170.0455309903574
 30
0.0
 10
105.7044773418392
 20
170.0455309903574
 30
0.0
 10
105.7764787615621
 20
170.1363451399868
 30
0.0
 10
105.7764787615621
 20
170.2483700707666
 30
0.0
  0
LINE
  5
1B4
330
BA
100
AcDbEntity
  8
Sichtbar schmal (ISO)
 62
    18
420
        0
370
     5
100
AcDbLine
 10
105.6156590894709
 20
170.0455309903574
 30
0.0
 11
103.8546836800753
 21
170.0455309903574
 31
0.0
  0
LINE
  5
1B5
330
BA
100
AcDbEntity
  8
Sichtbar schmal (ISO)
 62
    18
420
        0
370
     5
100
AcDbLine
 10
103.8546836800753
 20
170.0455309903574
 30
0.0
 11
103.8546836800753
 21
170.2483700707666
 31
0.0
  0
LINE
  5
1B6
330
BA
100
AcDbEntity
  8
Sichtbar schmal (ISO)
 62
    18
420
        0
370
     5
100
AcDbLine
 10
103.8546836800753
 20
170.2483700707666
 30
0.0
 11
102.8736836803204
 21
170.2483700707666
 31
0.0
  0
LINE
  5
1B7
330
BA
100
AcDbEntity
  8
Sichtbar schmal (ISO)
 62
    18
420
        0
370
     5
100
AcDbLine
 10
102.8736836803204
 20
169.0313355883122
 30
0.0
 11
102.8736836803204
 21
168.828496507903
 31
0.0
  0
LINE
  5
1B8
330
BA
100
AcDbEntity
  8
Sichtbar schmal (ISO)
 62
    18
420
        0
370
     5
100
AcDbLine
 10
102.8736836803204
 20
168.828496507903
 30
0.0
 11
101.1127082709248
 21
168.8284965079033
 31
0.0
  0
SPLINE
  5
1B9
330
BA
100
AcDbEntity
  8
Sichtbar schmal (ISO)
 62
    18
420
        0
370
     5
100
AcDbSpline
210
0.0
220
0.0
230
1.0
 70
     8
 71
     3
 72
     8
 73
     4
 74
     0
 42
0.0000000001
 43
0.0000000001
 40
0.0
 40
0.0
 40
0.0
 40
0.0
 40
1.0
 40
1.0
 40
1.0
 40
1.0
 10
100.9518885988335
 20
169.0313355883122
 30
0.0
 10
100.9518885988335
 20
168.9193106575328
 30
0.0
 10
101.0238900185561
 20
168.828496507903
 30
0.0
 10
101.1127082709248
 20
168.828496507903
 30
0.0
  0
LINE
  5
1BA
330
BA
100
AcDbEntity
  8
Sichtbar schmal (ISO)
 62
    18
420
        0
370
     5
100
AcDbLine
 10
100.9518885988335
 20
169.0313355883122
 30
0.0
 11
100.9518885988335
 21
169.2037488066599
 31
0.0
  0
SPLINE
  5
1BB
330
BA
100
AcDbEntity
  8
Sichtbar schmal (ISO)
 62
    18
420
        0
370
     5
100
AcDbSpline
210
0.0
220
0.0
230
1.0
 70
     8
 71
     3
 72
     8
 73
     4
 74
     0
 42
0.0000000001
 43
0.0000000001
 40
0.0
 40
0.0
 40
0.0
 40
0.0
 40
1.0
 40
1.0
 40
1.0
 40
1.0
 10
101.1127082709248
 20
169.4065878870688
 30
0.0
 10
101.0238900185561
 20
169.4065878870688
 30
0.0
 10
100.9518885988335
 20
169.3157737374394
 30
0.0
 10
100.9518885988335
 20
169.2037488066599
 30
0.0
  0
LINE
  5
1BC
330
BA
100
AcDbEntity
  8
Sichtbar schmal (ISO)
 62
    18
420
        0
370
     5
100
AcDbLine
 10
101.1127082709248
 20
169.4065878870688
 30
0.0
 11
102.8817246639249
 21
169.4065878870688
 31
0.0
  0
LINE
  5
1BD
330
BA
100
AcDbEntity
  8
Sichtbar schmal (ISO)
 62
    18
420
        0
370
     5
100
AcDbLine
 10
102.8817246639249
 20
169.4065878870688
 30
0.0
 11
102.8817246639249
 21
169.609426967478
 31
0.0
  0
LINE
  5
1BE
330
BA
100
AcDbEntity
  8
Sichtbar schmal (ISO)
 62
    18
420
        0
370
     5
100
AcDbLine
 10
102.8817246639249
 20
169.609426967478
 30
0.0
 11
103.8466426964707
 21
169.609426967478
 31
0.0
  0
LINE
  5
1BF
330
BA
100
AcDbEntity
  8
Sichtbar schmal (ISO)
 62
    18
420
        0
370
     5
100
AcDbLine
 10
103.8466426964707
 20
169.609426967478
 30
0.0
 11
103.8466426964707
 21
169.4065878870688
 31
0.0
  0
LINE
  5
1C0
330
BA
100
AcDbEntity
  8
Sichtbar schmal (ISO)
 62
    18
420
        0
370
     5
100
AcDbLine
 10
103.8466426964707
 20
169.4065878870688
 30
0.0
 11
105.6156590894709
 21
169.4065878870688
 31
0.0
  0
SPLINE
  5
1C1
330
BA
100
AcDbEntity
  8
Sichtbar schmal (ISO)
 62
    18
420
        0
370
     5
100
AcDbSpline
210
0.0
220
0.0
230
1.0
 70
     8
 71
     3
 72
     8
 73
     4
 74
     0
 42
0.0000000001
 43
0.0000000001
 40
0.0
 40
0.0
 40
0.0
 40
0.0
 40
1.0
 40
1.0
 40
1.0
 40
1.0
 10
105.7764787615621
 20
169.2037488066599
 30
0.0
 10
105.7764787615621
 20
169.3157737374394
 30
0.0
 10
105.7044773418392
 20
169.4065878870688
 30
0.0
 10
105.6156590894709
 20
169.4065878870688
 30
0.0
  0
LINE
  5
1C2
330
BA
100
AcDbEntity
  8
Sichtbar schmal (ISO)
 62
    18
420
        0
370
     5
100
AcDbLine
 10
105.7764787615621
 20
169.2037488066599
 30
0.0
 11
105.7764787615621
 21
169.0313355883122
 31
0.0
  0
SPLINE
  5
1C3
330
BA
100
AcDbEntity
  8
Sichtbar schmal (ISO)
 62
    18
420
        0
370
     5
100
AcDbSpline
210
0.0
220
0.0
230
1.0
 70
     8
 71
     3
 72
     8
 73
     4
 74
     0
 42
0.0000000001
 43
0.0000000001
 40
0.0
 40
0.0
 40
0.0
 40
0.0
 40
1.0
 40
1.0
 40
1.0
 40
1.0
 10
105.6156590894709
 20
168.828496507903
 30
0.0
 10
105.7044773418392
 20
168.828496507903
 30
0.0
 10
105.7764787615621
 20
168.9193106575328
 30
0.0
 10
105.7764787615621
 20
169.0313355883122
 30
0.0
  0
LINE
  5
1C4
330
BA
100
AcDbEntity
  8
Sichtbar schmal (ISO)
 62
    18
420
        0
370
     5
100
AcDbLine
 10
105.6156590894709
 20
168.828496507903
 30
0.0
 11
103.8546836800753
 21
168.828496507903
 31
0.0
  0
LINE
  5
1C5
330
BA
100
AcDbEntity
  8
Sichtbar schmal (ISO)
 62
    18
420
        0
370
     5
100
AcDbLine
 10
103.8546836800753
 20
168.828496507903
 30
0.0
 11
103.8546836800753
 21
169.0313355883122
 31
0.0
  0
LINE
  5
1C6
330
BA
100
AcDbEntity
  8
Sichtbar schmal (ISO)
 62
    18
420
        0
370
     5
100
AcDbLine
 10
103.8546836800753
 20
169.0313355883122
 30
0.0
 11
102.8736836803204
 21
169.0313355883122
 31
0.0
  0
LINE
  5
1C7
330
BA
100
AcDbEntity
  8
Sichtbar schmal (ISO)
 62
    18
420
        0
370
     5
100
AcDbLine
 10
102.8736836803204
 20
167.8143011058579
 30
0.0
 11
102.8736836803204
 21
167.611462025449
 31
0.0
  0
LINE
  5
1C8
330
BA
100
AcDbEntity
  8
Sichtbar schmal (ISO)
 62
    18
420
        0
370
     5
100
AcDbLine
 10
102.8736836803204
 20
167.611462025449
 30
0.0
 11
101.1127082709248
 21
167.611462025449
 31
0.0
  0
SPLINE
  5
1C9
330
BA
100
AcDbEntity
  8
Sichtbar schmal (ISO)
 62
    18
420
        0
370
     5
100
AcDbSpline
210
0.0
220
0.0
230
1.0
 70
     8
 71
     3
 72
     8
 73
     4
 74
     0
 42
0.0000000001
 43
0.0000000001
 40
0.0
 40
0.0
 40
0.0
 40
0.0
 40
1.0
 40
1.0
 40
1.0
 40
1.0
 10
100.9518885988335
 20
167.8143011058579
 30
0.0
 10
100.9518885988335
 20
167.7022761750781
 30
0.0
 10
101.0238900185561
 20
167.611462025449
 30
0.0
 10
101.1127082709248
 20
167.611462025449
 30
0.0
  0
LINE
  5
1CA
330
BA
100
AcDbEntity
  8
Sichtbar schmal (ISO)
 62
    18
420
        0
370
     5
100
AcDbLine
 10
100.9518885988335
 20
167.8143011058579
 30
0.0
 11
100.9518885988335
 21
167.9867143242056
 31
0.0
  0
SPLINE
  5
1CB
330
BA
100
AcDbEntity
  8
Sichtbar schmal (ISO)
 62
    18
420
        0
370
     5
100
AcDbSpline
210
0.0
220
0.0
230
1.0
 70
     8
 71
     3
 72
     8
 73
     4
 74
     0
 42
0.0000000001
 43
0.0000000001
 40
0.0
 40
0.0
 40
0.0
 40
0.0
 40
1.0
 40
1.0
 40
1.0
 40
1.0
 10
101.1127082709248
 20
168.1895534046145
 30
0.0
 10
101.0238900185561
 20
168.1895534046145
 30
0.0
 10
100.9518885988335
 20
168.0987392549847
 30
0.0
 10
100.9518885988335
 20
167.9867143242056
 30
0.0
  0
LINE
  5
1CC
330
BA
100
AcDbEntity
  8
Sichtbar schmal (ISO)
 62
    18
420
        0
370
     5
100
AcDbLine
 10
101.1127082709248
 20
168.1895534046145
 30
0.0
 11
102.8817246639249
 21
168.1895534046145
 31
0.0
  0
LINE
  5
1CD
330
BA
100
AcDbEntity
  8
Sichtbar schmal (ISO)
 62
    18
420
        0
370
     5
100
AcDbLine
 10
102.8817246639249
 20
168.1895534046145
 30
0.0
 11
102.8817246639249
 21
168.3923924850237
 31
0.0
  0
LINE
  5
1CE
330
BA
100
AcDbEntity
  8
Sichtbar schmal (ISO)
 62
    18
420
        0
370
     5
100
AcDbLine
 10
102.8817246639249
 20
168.3923924850237
 30
0.0
 11
103.8466426964707
 21
168.3923924850237
 31
0.0
  0
LINE
  5
1CF
330
BA
100
AcDbEntity
  8
Sichtbar schmal (ISO)
 62
    18
420
        0
370
     5
100
AcDbLine
 10
103.8466426964707
 20
168.3923924850237
 30
0.0
 11
103.8466426964707
 21
168.1895534046145
 31
0.0
  0
LINE
  5
1D0
330
BA
100
AcDbEntity
  8
Sichtbar schmal (ISO)
 62
    18
420
        0
370
     5
100
AcDbLine
 10
103.8466426964707
 20
168.1895534046145
 30
0.0
 11
105.6156590894709
 21
168.1895534046145
 31
0.0
  0
SPLINE
  5
1D1
330
BA
100
AcDbEntity
  8
Sichtbar schmal (ISO)
 62
    18
420
        0
370
     5
100
AcDbSpline
210
0.0
220
0.0
230
1.0
 70
     8
 71
     3
 72
     8
 73
     4
 74
     0
 42
0.0000000001
 43
0.0000000001
 40
0.0
 40
0.0
 40
0.0
 40
0.0
 40
1.0
 40
1.0
 40
1.0
 40
1.0
 10
105.7764787615621
 20
167.9867143242056
 30
0.0
 10
105.7764787615621
 20
168.0987392549847
 30
0.0
 10
105.7044773418392
 20
168.1895534046145
 30
0.0
 10
105.6156590894709
 20
168.1895534046145
 30
0.0
  0
LINE
  5
1D2
330
BA
100
AcDbEntity
  8
Sichtbar schmal (ISO)
 62
    18
420
        0
370
     5
100
AcDbLine
 10
105.7764787615621
 20
167.9867143242056
 30
0.0
 11
105.7764787615621
 21
167.8143011058579
 31
0.0
  0
SPLINE
  5
1D3
330
BA
100
AcDbEntity
  8
Sichtbar schmal (ISO)
 62
    18
420
        0
370
     5
100
AcDbSpline
210
0.0
220
0.0
230
1.0
 70
     8
 71
     3
 72
     8
 73
     4
 74
     0
 42
0.0000000001
 43
0.0000000001
 40
0.0
 40
0.0
 40
0.0
 40
0.0
 40
1.0
 40
1.0
 40
1.0
 40
1.0
 10
105.6156590894709
 20
167.611462025449
 30
0.0
 10
105.7044773418392
 20
167.611462025449
 30
0.0
 10
105.7764787615621
 20
167.7022761750781
 30
0.0
 10
105.7764787615621
 20
167.8143011058579
 30
0.0
  0
LINE
  5
1D4
330
BA
100
AcDbEntity
  8
Sichtbar schmal (ISO)
 62
    18
420
        0
370
     5
100
AcDbLine
 10
105.6156590894709
 20
167.611462025449
 30
0.0
 11
103.8546836800753
 21
167.611462025449
 31
0.0
  0
LINE
  5
1D5
330
BA
100
AcDbEntity
  8
Sichtbar schmal (ISO)
 62
    18
420
        0
370
     5
100
AcDbLine
 10
103.8546836800753
 20
167.611462025449
 30
0.0
 11
103.8546836800753
 21
167.8143011058579
 31
0.0
  0
LINE
  5
1D6
330
BA
100
AcDbEntity
  8
Sichtbar schmal (ISO)
 62
    18
420
        0
370
     5
100
AcDbLine
 10
103.8546836800753
 20
167.8143011058579
 30
0.0
 11
102.8736836803204
 21
167.8143011058579
 31
0.0
  0
LINE
  5
1D7
330
BA
100
AcDbEntity
  8
Sichtbar schmal (ISO)
 62
    18
420
        0
370
     5
100
AcDbLine
 10
106.608218167501
 20
173.7676281158638
 30
0.0
 11
106.608218167501
 21
174.1733062766819
 31
0.0
  0
LINE
  5
1D8
330
BA
100
AcDbEntity
  8
Sichtbar schmal (ISO)
 62
    18
420
        0
370
     5
100
AcDbLine
 10
106.5001672859711
 20
173.7676281158638
 30
0.0
 11
106.5001672859711
 21
166.8710993819558
 31
0.0
  0
LINE
  5
1D9
330
BA
100
AcDbEntity
  8
Sichtbar schmal (ISO)
 62
    18
420
        0
370
     5
100
AcDbLine
 10
107.3169887783565
 20
173.7676281158638
 30
0.0
 11
107.3169887783565
 21
166.8710993819558
 31
0.0
  0
LINE
  5
1DA
330
BA
100
AcDbEntity
  8
Sichtbar schmal (ISO)
 62
    18
420
        0
370
     5
100
AcDbLine
 10
107.3169887783565
 20
173.7676281158638
 30
0.0
 11
107.3662027746873
 21
173.7676281158638
 31
0.0
  0
LINE
  5
1DB
330
BA
100
AcDbEntity
  8
Sichtbar schmal (ISO)
 62
    18
420
        0
370
     5
100
AcDbLine
 10
107.3662027746873
 20
174.9846625983181
 30
0.0
 11
107.3662027746873
 21
173.7676281158638
 31
0.0
  0
LINE
  5
1DC
330
BA
100
AcDbEntity
  8
Sichtbar schmal (ISO)
 62
    18
420
        0
370
     5
100
AcDbLine
 10
106.6689921758686
 20
174.9846625983181
 30
0.0
 11
107.3662027746873
 21
174.9846625983181
 31
0.0
  0
LINE
  5
1DD
330
BA
100
AcDbEntity
  8
Sichtbar schmal (ISO)
 62
    18
420
        0
370
     5
100
AcDbLine
 10
106.6689921758686
 20
174.9846625983181
 30
0.0
 11
106.6689921758686
 21
175.1875016787271
 31
0.0
  0
SPLINE
  5
1DE
330
BA
100
AcDbEntity
  8
Sichtbar schmal (ISO)
 62
    18
420
        0
370
     5
100
AcDbSpline
210
0.0
220
0.0
230
1.0
 70
     8
 71
     3
 72
     8
 73
     4
 74
     0
 42
0.0000000001
 43
0.0000000001
 40
0.0
 40
0.0
 40
0.0
 40
0.0
 40
1.0
 40
1.0
 40
1.0
 40
1.0
 10
86.53642750294206
 20
172.771140955746
 30
0.0
 10
86.51866834404435
 20
172.7711409557457
 30
0.0
 10
86.50428316192435
 20
172.7529971734903
 30
0.0
 10
86.50428316192435
 20
172.7305978524821
 30
0.0
  0
LINE
  5
1DF
330
BA
100
AcDbEntity
  8
Sichtbar schmal (ISO)
 62
    18
420
        0
370
     5
100
AcDbLine
 10
86.50428316192435
 20
172.7305978524821
 30
0.0
 11
86.50428316192435
 21
171.8989081971685
 31
0.0
  0
SPLINE
  5
1E0
330
BA
100
AcDbEntity
  8
Sichtbar schmal (ISO)
 62
    18
420
        0
370
     5
100
AcDbSpline
210
0.0
220
0.0
230
1.0
 70
     8
 71
     3
 72
     8
 73
     4
 74
     0
 42
0.0000000001
 43
0.0000000001
 40
0.0
 40
0.0
 40
0.0
 40
0.0
 40
1.0
 40
1.0
 40
1.0
 40
1.0
 10
86.47213882090662
 20
171.8583650939042
 30
0.0
 10
86.48989797980465
 20
171.8583650939039
 30
0.0
 10
86.50428316192529
 20
171.87650887616
 30
0.0
 10
86.50428316192529
 20
171.8989081971685
 30
0.0
  0
LINE
  5
1E1
330
BA
100
AcDbEntity
  8
Sichtbar schmal (ISO)
 62
    18
420
        0
370
     5
100
AcDbLine
 10
86.47213882090662
 20
171.8583650939049
 30
0.0
 11
85.51917936784525
 21
171.8583650939049
 31
0.0
  0
SPLINE
  5
1E2
330
BA
100
AcDbEntity
  8
Sichtbar schmal (ISO)
 62
    18
420
        0
370
     5
100
AcDbSpline
210
0.0
220
0.0
230
1.0
 70
     8
 71
     3
 72
     8
 73
     4
 74
     0
 42
0.0000000001
 43
0.0000000001
 40
0.0
 40
0.0
 40
0.0
 40
0.0
 40
1.0
 40
1.0
 40
1.0
 40
1.0
 10
85.48703502682689
 20
171.8989081971685
 30
0.0
 10
85.48703502682689
 20
171.87650887616
 30
0.0
 10
85.50142020894723
 20
171.8583650939039
 30
0.0
 10
85.51917936784525
 20
171.8583650939042
 30
0.0
  0
LINE
  5
1E3
330
BA
100
AcDbEntity
  8
Sichtbar schmal (ISO)
 62
    18
420
        0
370
     5
100
AcDbLine
 10
85.48703502682753
 20
171.8989081971685
 30
0.0
 11
85.48703502682753
 21
172.7305978524821
 31
0.0
  0
SPLINE
  5
1E4
330
BA
100
AcDbEntity
  8
Sichtbar schmal (ISO)
 62
    18
420
        0
370
     5
100
AcDbSpline
210
0.0
220
0.0
230
1.0
 70
     8
 71
     3
 72
     8
 73
     4
 74
     0
 42
0.0000000001
 43
0.0000000001
 40
0.0
 40
0.0
 40
0.0
 40
0.0
 40
1.0
 40
1.0
 40
1.0
 40
1.0
 10
85.48703502682785
 20
172.7305978524821
 30
0.0
 10
85.48703502682785
 20
172.7529971734909
 30
0.0
 10
85.47264984470784
 20
172.771140955746
 30
0.0
 10
85.45489068580982
 20
172.7711409557463
 30
0.0
  0
LINE
  5
1E5
330
BA
100
AcDbEntity
  8
Sichtbar schmal (ISO)
 62
    18
420
        0
370
     5
100
AcDbLine
 10
85.45489068580982
 20
172.7711409557457
 30
0.0
 11
85.07692526959514
 21
172.7711409557457
 31
0.0
  0
SPLINE
  5
1E6
330
BA
100
AcDbEntity
  8
Sichtbar schmal (ISO)
 62
    18
420
        0
370
     5
100
AcDbSpline
210
0.0
220
0.0
230
1.0
 70
     8
 71
     3
 72
     8
 73
     4
 74
     0
 42
0.0000000001
 43
0.0000000001
 40
0.0
 40
0.0
 40
0.0
 40
0.0
 40
1.0
 40
1.0
 40
1.0
 40
1.0
 10
85.04478092857677
 20
172.8116840590093
 30
0.0
 10
85.04478092857709
 20
172.7892847380005
 30
0.0
 10
85.05916611069743
 20
172.7711409557457
 30
0.0
 10
85.07692526959514
 20
172.7711409557457
 30
0.0
  0
LINE
  5
1E7
330
BA
100
AcDbEntity
  8
Sichtbar schmal (ISO)
 62
    18
420
        0
370
     5
100
AcDbLine
 10
85.04478092857773
 20
172.8116840590093
 30
0.0
 11
85.04478092857773
 21
173.6079572304676
 31
0.0
  0
SPLINE
  5
1E8
330
BA
100
AcDbEntity
  8
Sichtbar schmal (ISO)
 62
    18
420
        0
370
     5
100
AcDbSpline
210
0.0
220
0.0
230
1.0
 70
     8
 71
     3
 72
     8
 73
     4
 74
     0
 42
0.0000000001
 43
0.0000000001
 40
0.0
 40
0.0
 40
0.0
 40
0.0
 40
1.0
 40
1.0
 40
1.0
 40
1.0
 10
85.07692526959514
 20
173.6485003337328
 30
0.0
 10
85.05916611069711
 20
173.6485003337328
 30
0.0
 10
85.04478092857645
 20
173.6303565514771
 30
0.0
 10
85.04478092857677
 20
173.6079572304676
 30
0.0
  0
LINE
  5
1E9
330
BA
100
AcDbEntity
  8
Sichtbar schmal (ISO)
 62
    18
420
        0
370
     5
100
AcDbLine
 10
85.07692526959514
 20
173.6485003337322
 30
0.0
 11
86.91439291915674
 21
173.6485003337322
 31
0.0
  0
SPLINE
  5
1EA
330
BA
100
AcDbEntity
  8
Sichtbar schmal (ISO)
 62
    18
420
        0
370
     5
100
AcDbSpline
210
0.0
220
0.0
230
1.0
 70
     8
 71
     3
 72
     8
 73
     4
 74
     0
 42
0.0000000001
 43
0.0000000001
 40
0.0
 40
0.0
 40
0.0
 40
0.0
 40
1.0
 40
1.0
 40
1.0
 40
1.0
 10
86.94653726017511
 20
173.6079572304676
 30
0.0
 10
86.94653726017541
 20
173.6303565514771
 30
0.0
 10
86.93215207805508
 20
173.6485003337328
 30
0.0
 10
86.91439291915674
 20
173.6485003337328
 30
0.0
  0
LINE
  5
1EB
330
BA
100
AcDbEntity
  8
Sichtbar schmal (ISO)
 62
    18
420
        0
370
     5
100
AcDbLine
 10
86.94653726017445
 20
173.6079572304676
 30
0.0
 11
86.94653726017445
 21
172.8116840590093
 31
0.0
  0
SPLINE
  5
1EC
330
BA
100
AcDbEntity
  8
Sichtbar schmal (ISO)
 62
    18
420
        0
370
     5
100
AcDbSpline
210
0.0
220
0.0
230
1.0
 70
     8
 71
     3
 72
     8
 73
     4
 74
     0
 42
0.0000000001
 43
0.0000000001
 40
0.0
 40
0.0
 40
0.0
 40
0.0
 40
1.0
 40
1.0
 40
1.0
 40
1.0
 10
86.91439291915674
 20
172.7711409557457
 30
0.0
 10
86.93215207805478
 20
172.7711409557457
 30
0.0
 10
86.94653726017511
 20
172.7892847380005
 30
0.0
 10
86.94653726017511
 20
172.8116840590093
 30
0.0
  0
LINE
  5
1ED
330
BA
100
AcDbEntity
  8
Sichtbar schmal (ISO)
 62
    18
420
        0
370
     5
100
AcDbLine
 10
86.91439291915674
 20
172.7711409557457
 30
0.0
 11
86.53642750294206
 21
172.7711409557457
 31
0.0
  0
SPLINE
  5
1EE
330
BA
100
AcDbEntity
  8
Sichtbar schmal (ISO)
 62
    18
420
        0
370
     5
100
AcDbSpline
210
0.0
220
0.0
230
1.0
 70
     8
 71
     3
 72
     8
 73
     4
 74
     0
 42
0.0000000001
 43
0.0000000001
 40
0.0
 40
0.0
 40
0.0
 40
0.0
 40
1.0
 40
1.0
 40
1.0
 40
1.0
 10
96.10113338482994
 20
172.7305978524821
 30
0.0
 10
96.10113338482962
 20
172.7529971734903
 30
0.0
 10
96.08674820270993
 20
172.7711409557457
 30
0.0
 10
96.06898904381189
 20
172.771140955746
 30
0.0
  0
LINE
  5
1EF
330
BA
100
AcDbEntity
  8
Sichtbar schmal (ISO)
 62
    18
420
        0
370
     5
100
AcDbLine
 10
95.69102362759755
 20
172.7711409557457
 30
0.0
 11
96.06898904381189
 21
172.7711409557457
 31
0.0
  0
SPLINE
  5
1F0
330
BA
100
AcDbEntity
  8
Sichtbar schmal (ISO)
 62
    18
420
        0
370
     5
100
AcDbSpline
210
0.0
220
0.0
230
1.0
 70
     8
 71
     3
 72
     8
 73
     4
 74
     0
 42
0.0000000001
 43
0.0000000001
 40
0.0
 40
0.0
 40
0.0
 40
0.0
 40
1.0
 40
1.0
 40
1.0
 40
1.0
 10
95.65887928657918
 20
172.8116840590093
 30
0.0
 10
95.65887928657918
 20
172.7892847380005
 30
0.0
 10
95.67326446869952
 20
172.7711409557457
 30
0.0
 10
95.69102362759755
 20
172.7711409557457
 30
0.0
  0
LINE
  5
1F1
330
BA
100
AcDbEntity
  8
Sichtbar schmal (ISO)
 62
    18
420
        0
370
     5
100
AcDbLine
 10
95.65887928657984
 20
173.6079572304676
 30
0.0
 11
95.65887928657984
 21
172.8116840590093
 31
0.0
  0
SPLINE
  5
1F2
330
BA
100
AcDbEntity
  8
Sichtbar schmal (ISO)
 62
    18
420
        0
370
     5
100
AcDbSpline
210
0.0
220
0.0
230
1.0
 70
     8
 71
     3
 72
     8
 73
     4
 74
     0
 42
0.0000000001
 43
0.0000000001
 40
0.0
 40
0.0
 40
0.0
 40
0.0
 40
1.0
 40
1.0
 40
1.0
 40
1.0
 10
95.69102362759755
 20
173.6485003337328
 30
0.0
 10
95.6732644686992
 20
173.6485003337328
 30
0.0
 10
95.65887928657854
 20
173.6303565514771
 30
0.0
 10
95.65887928657918
 20
173.6079572304676
 30
0.0
  0
LINE
  5
1F3
330
BA
100
AcDbEntity
  8
Sichtbar schmal (ISO)
 62
    18
420
        0
370
     5
100
AcDbLine
 10
97.52849127715883
 20
173.6485003337322
 30
0.0
 11
95.69102362759755
 21
173.6485003337322
 31
0.0
  0
SPLINE
  5
1F4
330
BA
100
AcDbEntity
  8
Sichtbar schmal (ISO)
 62
    18
420
        0
370
     5
100
AcDbSpline
210
0.0
220
0.0
230
1.0
 70
     8
 71
     3
 72
     8
 73
     4
 74
     0
 42
0.0000000001
 43
0.0000000001
 40
0.0
 40
0.0
 40
0.0
 40
0.0
 40
1.0
 40
1.0
 40
1.0
 40
1.0
 10
97.56063561817752
 20
173.6079572304676
 30
0.0
 10
97.56063561817816
 20
173.6303565514771
 30
0.0
 10
97.54625043605718
 20
173.6485003337328
 30
0.0
 10
97.52849127715883
 20
173.6485003337328
 30
0.0
  0
LINE
  5
1F5
330
BA
100
AcDbEntity
  8
Sichtbar schmal (ISO)
 62
    18
420
        0
370
     5
100
AcDbLine
 10
97.56063561817688
 20
172.8116840590093
 30
0.0
 11
97.56063561817688
 21
173.6079572304676
 31
0.0
  0
SPLINE
  5
1F6
330
BA
100
AcDbEntity
  8
Sichtbar schmal (ISO)
 62
    18
420
        0
370
     5
100
AcDbSpline
210
0.0
220
0.0
230
1.0
 70
     8
 71
     3
 72
     8
 73
     4
 74
     0
 42
0.0000000001
 43
0.0000000001
 40
0.0
 40
0.0
 40
0.0
 40
0.0
 40
1.0
 40
1.0
 40
1.0
 40
1.0
 10
97.52849127715883
 20
172.7711409557457
 30
0.0
 10
97.54625043605685
 20
172.7711409557457
 30
0.0
 10
97.56063561817718
 20
172.7892847380005
 30
0.0
 10
97.56063561817752
 20
172.8116840590093
 30
0.0
  0
LINE
  5
1F7
330
BA
100
AcDbEntity
  8
Sichtbar schmal (ISO)
 62
    18
420
        0
370
     5
100
AcDbLine
 10
97.15052586094447
 20
172.7711409557457
 30
0.0
 11
97.52849127715883
 21
172.7711409557457
 31
0.0
  0
SPLINE
  5
1F8
330
BA
100
AcDbEntity
  8
Sichtbar schmal (ISO)
 62
    18
420
        0
370
     5
100
AcDbSpline
210
0.0
220
0.0
230
1.0
 70
     8
 71
     3
 72
     8
 73
     4
 74
     0
 42
0.0000000001
 43
0.0000000001
 40
0.0
 40
0.0
 40
0.0
 40
0.0
 40
1.0
 40
1.0
 40
1.0
 40
1.0
 10
97.15052586094447
 20
172.7711409557463
 30
0.0
 10
97.13276670204644
 20
172.771140955746
 30
0.0
 10
97.11838151992612
 20
172.7529971734909
 30
0.0
 10
97.11838151992612
 20
172.7305978524821
 30
0.0
  0
LINE
  5
1F9
330
BA
100
AcDbEntity
  8
Sichtbar schmal (ISO)
 62
    18
420
        0
370
     5
100
AcDbLine
 10
97.11838151992676
 20
171.8989081971685
 30
0.0
 11
97.11838151992676
 21
172.7305978524821
 31
0.0
  0
SPLINE
  5
1FA
330
BA
100
AcDbEntity
  8
Sichtbar schmal (ISO)
 62
    18
420
        0
370
     5
100
AcDbSpline
210
0.0
220
0.0
230
1.0
 70
     8
 71
     3
 72
     8
 73
     4
 74
     0
 42
0.0000000001
 43
0.0000000001
 40
0.0
 40
0.0
 40
0.0
 40
0.0
 40
1.0
 40
1.0
 40
1.0
 40
1.0
 10
97.08623717890873
 20
171.8583650939042
 30
0.0
 10
97.10399633780706
 20
171.8583650939039
 30
0.0
 10
97.1183815199274
 20
171.87650887616
 30
0.0
 10
97.1183815199274
 20
171.8989081971685
 30
0.0
  0
LINE
  5
1FB
330
BA
100
AcDbEntity
  8
Sichtbar schmal (ISO)
 62
    18
420
        0
370
     5
100
AcDbLine
 10
96.13327772584799
 20
171.8583650939049
 30
0.0
 11
97.08623717890873
 21
171.8583650939049
 31
0.0
  0
SPLINE
  5
1FC
330
BA
100
AcDbEntity
  8
Sichtbar schmal (ISO)
 62
    18
420
        0
370
     5
100
AcDbSpline
210
0.0
220
0.0
230
1.0
 70
     8
 71
     3
 72
     8
 73
     4
 74
     0
 42
0.0000000001
 43
0.0000000001
 40
0.0
 40
0.0
 40
0.0
 40
0.0
 40
1.0
 40
1.0
 40
1.0
 40
1.0
 10
96.10113338482898
 20
171.8989081971685
 30
0.0
 10
96.10113338482898
 20
171.87650887616
 30
0.0
 10
96.115518566949
 20
171.8583650939039
 30
0.0
 10
96.13327772584799
 20
171.8583650939042
 30
0.0
  0
LINE
  5
1FD
330
BA
100
AcDbEntity
  8
Sichtbar schmal (ISO)
 62
    18
420
        0
370
     5
100
AcDbLine
 10
96.10113338482994
 20
172.7305978524821
 30
0.0
 11
96.10113338482994
 21
171.8989081971685
 31
0.0
  0
LINE
  5
1FE
330
BA
100
AcDbEntity
  8
Sichtbar schmal (ISO)
 62
    18
420
        0
370
     5
100
AcDbLine
 10
109.1161534622458
 20
174.9846625983181
 30
0.0
 11
108.2064200167797
 21
174.9846625983181
 31
0.0
  0
LINE
  5
1FF
330
BA
100
AcDbEntity
  8
Sichtbar schmal (ISO)
 62
    18
420
        0
370
     5
100
AcDbLine
 10
109.9577902359267
 20
174.9846625983181
 30
0.0
 11
109.1161534622465
 21
174.9846625983181
 31
0.0
  0
LINE
  5
200
330
BA
100
AcDbEntity
  8
Sichtbar schmal (ISO)
 62
    18
420
        0
370
     5
100
AcDbLine
 10
108.2064200167758
 20
174.9846625983181
 30
0.0
 11
107.3662027746873
 21
174.9846625983181
 31
0.0
  0
LINE
  5
201
330
BA
100
AcDbEntity
  8
Sichtbar schmal (ISO)
 62
    18
420
        0
370
     5
100
AcDbLine
 10
109.0610336459195
 20
166.8710993819558
 30
0.0
 11
109.0610336459195
 21
173.7676281158638
 31
0.0
  0
LINE
  5
202
330
BA
100
AcDbEntity
  8
Sichtbar schmal (ISO)
 62
    18
420
        0
370
     5
100
AcDbLine
 10
109.1161534622458
 20
173.7676281158638
 30
0.0
 11
109.0610336459195
 21
173.7676281158638
 31
0.0
  0
LINE
  5
203
330
BA
100
AcDbEntity
  8
Sichtbar schmal (ISO)
 62
    18
420
        0
370
     5
100
AcDbLine
 10
109.1161534622445
 20
173.7676281158638
 30
0.0
 11
109.1161534622445
 21
174.9846625983181
 31
0.0
  0
LINE
  5
204
330
BA
100
AcDbEntity
  8
Sichtbar schmal (ISO)
 62
    18
420
        0
370
     5
100
AcDbLine
 10
108.2064200167733
 20
173.7676281158638
 30
0.0
 11
108.2064200167733
 21
174.9846625983181
 31
0.0
  0
LINE
  5
205
330
BA
100
AcDbEntity
  8
Sichtbar schmal (ISO)
 62
    18
420
        0
370
     5
100
AcDbLine
 10
108.2177165400751
 20
173.7676281158638
 30
0.0
 11
108.2064200167797
 21
173.7676281158638
 31
0.0
  0
LINE
  5
206
330
BA
100
AcDbEntity
  8
Sichtbar schmal (ISO)
 62
    18
420
        0
370
     5
100
AcDbLine
 10
108.2177165400783
 20
166.8710993819558
 30
0.0
 11
108.2177165400783
 21
173.7676281158638
 31
0.0
  0
LINE
  5
207
330
BA
100
AcDbEntity
  8
Sichtbar schmal (ISO)
 62
    18
420
        0
370
     5
100
AcDbLine
 10
108.2064200167758
 20
173.7676281158638
 30
0.0
 11
107.3662027746873
 21
173.7676281158638
 31
0.0
  0
LINE
  5
208
330
BA
100
AcDbEntity
  8
Sichtbar schmal (ISO)
 62
    18
420
        0
370
     5
100
AcDbLine
 10
109.9577902359267
 20
173.7676281158638
 30
0.0
 11
109.1161534622465
 21
173.7676281158638
 31
0.0
  0
LINE
  5
209
330
BA
100
AcDbEntity
  8
Sichtbar schmal (ISO)
 62
    18
420
        0
370
     5
100
AcDbLine
 10
109.9577902359267
 20
174.9846625983181
 30
0.0
 11
109.9577902359267
 21
173.7676281158638
 31
0.0
  0
LINE
  5
20A
330
BA
100
AcDbEntity
  8
Sichtbar schmal (ISO)
 62
    18
420
        0
370
     5
100
AcDbLine
 10
109.9577902359267
 20
174.9846625983181
 30
0.0
 11
109.9577902359267
 21
175.1875016787271
 31
0.0
  0
LINE
  5
20B
330
BA
100
AcDbEntity
  8
Sichtbar schmal (ISO)
 62
    18
420
        0
370
     5
100
AcDbLine
 10
110.3598394161539
 20
173.1591108746365
 30
0.0
 11
110.3598394161539
 21
166.8710993819558
 31
0.0
  0
LINE
  5
20C
330
BA
100
AcDbEntity
  8
Sichtbar schmal (ISO)
 62
    18
420
        0
370
     5
100
AcDbLine
 10
110.3598394161539
 20
175.1875016787271
 30
0.0
 11
110.3598394161539
 21
173.1591108746365
 31
0.0
  0
LINE
  5
20D
330
BA
100
AcDbEntity
  8
Sichtbar schmal (ISO)
 62
    18
420
        0
370
     5
100
AcDbLine
 10
109.9577902359293
 20
173.7676281158638
 30
0.0
 11
110.0542820391862
 21
173.7676281158638
 31
0.0
  0
LINE
  5
20E
330
BA
100
AcDbEntity
  8
Sichtbar schmal (ISO)
 62
    18
420
        0
370
     5
100
AcDbLine
 10
84.14623286533018
 20
166.8710993819558
 30
0.0
 11
84.14623286533018
 21
170.7250419097278
 31
0.0
  0
LINE
  5
20F
330
BA
100
AcDbEntity
  8
Sichtbar schmal (ISO)
 62
    18
420
        0
370
     5
100
AcDbLine
 10
87.44303614319454
 20
173.7676281158638
 30
0.0
 11
90.33779024083145
 21
173.7676281158638
 31
0.0
  0
LINE
  5
210
330
BA
100
AcDbEntity
  8
Sichtbar schmal (ISO)
 62
    18
420
        0
370
     5
100
AcDbLine
 10
92.26762630592283
 20
173.7676281158638
 30
0.0
 11
95.16238040355942
 21
173.7676281158638
 31
0.0
  0
LINE
  5
211
330
BA
100
AcDbEntity
  8
Sichtbar schmal (ISO)
 62
    18
420
        0
370
     5
100
AcDbLine
 10
95.16238040355942
 20
173.7676281158638
 30
0.0
 11
95.16238040355942
 21
170.7858936338505
 31
0.0
  0
LINE
  5
212
330
BA
100
AcDbEntity
  8
Sichtbar schmal (ISO)
 62
    18
420
        0
370
     5
100
AcDbLine
 10
95.16238040355942
 20
170.7858936338505
 30
0.0
 11
97.01180663260549
 21
170.7858936338505
 31
0.0
  0
LINE
  5
213
330
BA
100
AcDbEntity
  8
Sichtbar schmal (ISO)
 62
    18
420
        0
370
     5
100
AcDbLine
 10
97.01180663260549
 20
170.7858936338505
 30
0.0
 11
97.01180663260549
 21
166.8710993819558
 31
0.0
  0
LINE
  5
214
330
BA
100
AcDbEntity
  8
Sichtbar schmal (ISO)
 62
    18
420
        0
370
     5
100
AcDbLine
 10
97.6550853209695
 20
166.8710993819558
 30
0.0
 11
97.6550853209695
 21
170.7250419097278
 31
0.0
  0
LINE
  5
215
330
BA
100
AcDbEntity
  8
Sichtbar schmal (ISO)
 62
    18
420
        0
370
     5
100
AcDbLine
 10
97.6550853209695
 20
170.7250419097278
 30
0.0
 11
98.45918368142378
 21
170.7250419097278
 31
0.0
  0
LINE
  5
216
330
BA
100
AcDbEntity
  8
Sichtbar schmal (ISO)
 62
    18
420
        0
370
     5
100
AcDbLine
 10
98.45918368142378
 20
166.8710993819558
 30
0.0
 11
98.45918368142378
 21
170.7250419097278
 31
0.0
  0
LINE
  5
217
330
BA
100
AcDbEntity
  8
Sichtbar schmal (ISO)
 62
    18
420
        0
370
     5
100
AcDbLine
 10
99.10246236978778
 20
173.7676281158638
 30
0.0
 11
99.10246236978778
 21
166.8710993819558
 31
0.0
  0
LINE
  5
218
330
BA
100
AcDbEntity
  8
Sichtbar schmal (ISO)
 62
    18
420
        0
370
     5
100
AcDbLine
 10
99.10246236978778
 20
173.7676281158638
 30
0.0
 11
105.6156590894709
 21
173.7676281158638
 31
0.0
  0
LINE
  5
219
330
BA
100
AcDbEntity
  8
Sichtbar schmal (ISO)
 62
    18
420
        0
370
     5
100
AcDbLine
 10
98.78082302560594
 20
174.1733062766819
 30
0.0
 11
105.6156590894709
 21
174.1733062766819
 31
0.0
  0
LINE
  5
21A
330
BA
100
AcDbEntity
  8
Sichtbar schmal (ISO)
 62
    18
420
        0
370
     5
100
AcDbLine
 10
98.78082302560594
 20
174.1733062766819
 30
0.0
 11
98.76844477992799
 21
171.1915717946687
 31
0.0
  0
LINE
  5
21B
330
BA
100
AcDbEntity
  8
Sichtbar schmal (ISO)
 62
    18
420
        0
370
     5
100
AcDbLine
 10
95.49639799341987
 20
171.1915717946687
 30
0.0
 11
98.76844477992799
 21
171.1915717946687
 31
0.0
  0
LINE
  5
21C
330
BA
100
AcDbEntity
  8
Sichtbar schmal (ISO)
 62
    18
420
        0
370
     5
100
AcDbLine
 10
95.48401974774158
 20
174.1733062766819
 30
0.0
 11
95.49639799341987
 21
171.1915717946687
 31
0.0
  0
LINE
  5
21D
330
BA
100
AcDbEntity
  8
Sichtbar schmal (ISO)
 62
    18
420
        0
370
     5
100
AcDbLine
 10
95.48401974774158
 20
174.1733062766819
 30
0.0
 11
92.26762630592283
 21
174.1733062766819
 31
0.0
  0
LINE
  5
21E
330
BA
100
AcDbEntity
  8
Sichtbar schmal (ISO)
 62
    18
420
        0
370
     5
100
AcDbLine
 10
90.33779024083145
 20
174.1733062766819
 30
0.0
 11
87.1213967990127
 21
174.1733062766819
 31
0.0
  0
LINE
  5
21F
330
BA
100
AcDbEntity
  8
Sichtbar schmal (ISO)
 62
    18
420
        0
370
     5
100
AcDbLine
 10
87.1213967990127
 20
174.1733062766819
 30
0.0
 11
87.10901855333442
 21
171.1915717946687
 31
0.0
  0
LINE
  5
220
330
BA
100
AcDbEntity
  8
Sichtbar schmal (ISO)
 62
    18
420
        0
370
     5
100
AcDbLine
 10
87.10901855333442
 20
171.1915717946687
 30
0.0
 11
83.83697176682629
 21
171.1915717946687
 31
0.0
  0
LINE
  5
221
330
BA
100
AcDbEntity
  8
Sichtbar schmal (ISO)
 62
    18
420
        0
370
     5
100
AcDbLine
 10
83.82459352114834
 20
174.1733062766819
 30
0.0
 11
83.83697176682629
 21
171.1915717946687
 31
0.0
  0
LINE
  5
222
330
BA
100
AcDbEntity
  8
Sichtbar schmal (ISO)
 62
    18
420
        0
370
     5
100
AcDbLine
 10
83.82459352114834
 20
174.1733062766819
 30
0.0
 11
76.9897574572837
 21
174.1733062766819
 31
0.0
  0
LINE
  5
223
330
BA
100
AcDbEntity
  8
Sichtbar schmal (ISO)
 62
    18
420
        0
370
     5
100
AcDbLine
 10
83.50295417696617
 20
173.7676281158638
 30
0.0
 11
76.9897574572837
 21
173.7676281158638
 31
0.0
  0
LINE
  5
224
330
BA
100
AcDbEntity
  8
Sichtbar schmal (ISO)
 62
    18
420
        0
370
     5
100
AcDbLine
 10
83.50295417696617
 20
173.7676281158638
 30
0.0
 11
83.50295417696617
 21
166.8710993819558
 31
0.0
  0
LINE
  5
225
330
BA
100
AcDbEntity
  8
Sichtbar schmal (ISO)
 62
    18
420
        0
370
     5
100
AcDbLine
 10
84.9503312257848
 20
170.7250419097278
 30
0.0
 11
84.14623286533018
 21
170.7250419097278
 31
0.0
  0
LINE
  5
226
330
BA
100
AcDbEntity
  8
Sichtbar schmal (ISO)
 62
    18
420
        0
370
     5
100
AcDbLine
 10
84.9503312257848
 20
166.8710993819558
 30
0.0
 11
84.9503312257848
 21
170.7250419097278
 31
0.0
  0
LINE
  5
227
330
BA
100
AcDbEntity
  8
Sichtbar schmal (ISO)
 62
    18
420
        0
370
     5
100
AcDbLine
 10
85.5936099141488
 20
170.7858936338505
 30
0.0
 11
85.5936099141488
 21
166.8710993819558
 31
0.0
  0
LINE
  5
228
330
BA
100
AcDbEntity
  8
Sichtbar schmal (ISO)
 62
    18
420
        0
370
     5
100
AcDbLine
 10
87.44303614319454
 20
170.7858936338505
 30
0.0
 11
85.5936099141488
 21
170.7858936338505
 31
0.0
  0
LINE
  5
229
330
BA
100
AcDbEntity
  8
Sichtbar schmal (ISO)
 62
    18
420
        0
370
     5
100
AcDbLine
 10
87.44303614319454
 20
173.7676281158638
 30
0.0
 11
87.44303614319454
 21
170.7858936338505
 31
0.0
  0
LINE
  5
22A
330
BA
100
AcDbEntity
  8
Sichtbar schmal (ISO)
 62
    18
420
        0
370
     5
100
AcDbLine
 10
76.40868719375816
 20
173.7676281158638
 30
0.0
 11
76.9897574572837
 21
173.7676281158638
 31
0.0
  0
LINE
  5
22B
330
BA
100
AcDbEntity
  8
Sichtbar schmal (ISO)
 62
    18
420
        0
370
     5
100
AcDbLine
 10
75.99719837925296
 20
173.7676281158638
 30
0.0
 11
76.4086871937588
 21
173.7676281158638
 31
0.0
  0
LINE
  5
22C
330
BA
100
AcDbEntity
  8
Sichtbar schmal (ISO)
 62
    18
420
        0
370
     5
100
AcDbLine
 10
106.1967293529961
 20
173.7676281158638
 30
0.0
 11
105.6156590894709
 21
173.7676281158638
 31
0.0
  0
LINE
  5
22D
330
BA
100
AcDbEntity
  8
Sichtbar schmal (ISO)
 62
    18
420
        0
370
     5
100
AcDbLine
 10
106.608218167501
 20
173.7676281158638
 30
0.0
 11
106.1967293529954
 21
173.7676281158638
 31
0.0
  0
LINE
  5
22E
330
BA
100
AcDbEntity
  8
Sichtbar schmal (ISO)
 62
    18
420
        0
370
     5
100
AcDbLine
 10
76.40868719375816
 20
174.1733062766819
 30
0.0
 11
76.9897574572837
 21
174.1733062766819
 31
0.0
  0
LINE
  5
22F
330
BA
100
AcDbEntity
  8
Sichtbar schmal (ISO)
 62
    18
420
        0
370
     5
100
AcDbLine
 10
75.99719837925296
 20
174.1733062766819
 30
0.0
 11
76.4086871937588
 21
174.1733062766819
 31
0.0
  0
LINE
  5
230
330
BA
100
AcDbEntity
  8
Sichtbar schmal (ISO)
 62
    18
420
        0
370
     5
100
AcDbLine
 10
106.1967293529961
 20
174.1733062766819
 30
0.0
 11
105.6156590894709
 21
174.1733062766819
 31
0.0
  0
LINE
  5
231
330
BA
100
AcDbEntity
  8
Sichtbar schmal (ISO)
 62
    18
420
        0
370
     5
100
AcDbLine
 10
106.608218167501
 20
174.1733062766819
 30
0.0
 11
106.1967293529954
 21
174.1733062766819
 31
0.0
  0
LINE
  5
232
330
BA
100
AcDbEntity
  8
Sichtbar schmal (ISO)
 62
    18
420
        0
370
     5
100
AcDbLine
 10
82.13598696419381
 20
175.1875016787271
 30
0.0
 11
82.13598696419381
 21
174.1733062766819
 31
0.0
  0
LINE
  5
233
330
BA
100
AcDbEntity
  8
Sichtbar schmal (ISO)
 62
    18
420
        0
370
     5
100
AcDbLine
 10
82.13598696419381
 20
173.7676281158638
 30
0.0
 11
82.13598696419381
 21
171.1307200705459
 31
0.0
  0
LINE
  5
234
330
BA
100
AcDbEntity
  8
Sichtbar schmal (ISO)
 62
    18
420
        0
370
     5
100
AcDbLine
 10
83.10090499673902
 20
175.1875016787271
 30
0.0
 11
83.10090499673902
 21
174.1733062766819
 31
0.0
  0
LINE
  5
235
330
BA
100
AcDbEntity
  8
Sichtbar schmal (ISO)
 62
    18
420
        0
370
     5
100
AcDbLine
 10
83.10090499673902
 20
171.1307200705459
 30
0.0
 11
82.13598696419381
 21
171.1307200705459
 31
0.0
  0
LINE
  5
236
330
BA
100
AcDbEntity
  8
Sichtbar schmal (ISO)
 62
    18
420
        0
370
     5
100
AcDbLine
 10
83.10090499673902
 20
173.7676281158638
 30
0.0
 11
83.10090499673902
 21
171.1307200705459
 31
0.0
  0
LINE
  5
237
330
BA
100
AcDbEntity
  8
Sichtbar schmal (ISO)
 62
    18
420
        0
370
     5
100
AcDbLine
 10
99.50451155001525
 20
175.1875016787271
 30
0.0
 11
99.50451155001525
 21
174.1733062766819
 31
0.0
  0
LINE
  5
238
330
BA
100
AcDbEntity
  8
Sichtbar schmal (ISO)
 62
    18
420
        0
370
     5
100
AcDbLine
 10
99.50451155001525
 20
173.7676281158638
 30
0.0
 11
99.50451155001525
 21
171.1307200705459
 31
0.0
  0
LINE
  5
239
330
BA
100
AcDbEntity
  8
Sichtbar schmal (ISO)
 62
    18
420
        0
370
     5
100
AcDbLine
 10
100.4694295825607
 20
175.1875016787271
 30
0.0
 11
100.4694295825607
 21
174.1733062766819
 31
0.0
  0
LINE
  5
23A
330
BA
100
AcDbEntity
  8
Sichtbar schmal (ISO)
 62
    18
420
        0
370
     5
100
AcDbLine
 10
99.50451155001525
 20
171.1307200705459
 30
0.0
 11
100.4694295825607
 21
171.1307200705459
 31
0.0
  0
LINE
  5
23B
330
BA
100
AcDbEntity
  8
Sichtbar schmal (ISO)
 62
    18
420
        0
370
     5
100
AcDbLine
 10
100.4694295825607
 20
173.7676281158638
 30
0.0
 11
100.4694295825607
 21
171.1307200705459
 31
0.0
  0
LINE
  5
23C
330
BA
100
AcDbEntity
  8
Sichtbar schmal (ISO)
 62
    18
420
        0
370
     5
100
AcDbLine
 10
72.6476263108253
 20
173.7676281158638
 30
0.0
 11
72.55113450756805
 21
173.7676281158638
 31
0.0
  0
LINE
  5
23D
330
BA
100
AcDbEntity
  8
Sichtbar schmal (ISO)
 62
    18
420
        0
370
     5
100
AcDbLine
 10
110.0542820391862
 20
173.7676281158638
 30
0.0
 11
110.0542820391862
 21
166.8710993819558
 31
0.0
  0
LINE
  5
23E
330
BA
100
AcDbEntity
  8
Sichtbar schmal (ISO)
 62
    18
420
        0
370
     5
100
AcDbLine
 10
72.55113450756805
 20
166.8710993819558
 30
0.0
 11
72.55113450756805
 21
173.7676281158638
 31
0.0
  0
LINE
  5
23F
330
BA
100
AcDbEntity
  8
Sichtbar schmal (ISO)
 62
    18
420
        0
370
     5
100
AcDbLine
 10
71.54376634862893
 20
174.4065712191524
 30
0.0
 11
72.2455771306004
 21
174.4065712191524
 31
0.0
  0
LINE
  5
240
330
BA
100
AcDbEntity
  8
Sichtbar schmal (ISO)
 62
    18
420
        0
370
     5
100
AcDbLine
 10
71.54376634862893
 20
173.1286850125753
 30
0.0
 11
71.54376634862893
 21
174.4065712191524
 31
0.0
  0
LINE
  5
241
330
BA
100
AcDbEntity
  8
Sichtbar schmal (ISO)
 62
    18
420
        0
370
     5
100
AcDbLine
 10
72.2455771306004
 20
173.1286850125753
 30
0.0
 11
71.54376634862893
 21
173.1286850125753
 31
0.0
  0
LINE
  5
242
330
BA
100
AcDbEntity
  8
Sichtbar schmal (ISO)
 62
    18
420
        0
370
     5
100
AcDbLine
 10
72.48431520990554
 20
172.7534327138184
 30
0.0
 11
72.33978311341491
 21
172.7534327138184
 31
0.0
  0
LINE
  5
243
330
BA
100
AcDbEntity
  8
Sichtbar schmal (ISO)
 62
    18
420
        0
370
     5
100
AcDbLine
 10
72.33978311341491
 20
174.781823517909
 30
0.0
 11
72.48431520990554
 21
174.781823517909
 31
0.0
  0
ELLIPSE
  5
244
330
BA
100
AcDbEntity
  8
Sichtbar schmal (ISO)
 62
    18
420
        0
370
     5
100
AcDbEllipse
 10
71.90993406043064
 20
173.7676281158638
 30
0.0
 11
0.0
 21
0.177484195357826
 31
0.0
210
0.0
220
0.0
230
1.0
 40
0.5606251046617493
 41
0.0
 42
6.283185307179586
  0
LINE
  5
245
330
BA
100
AcDbEntity
  8
Sichtbar schmal (ISO)
 62
    18
420
        0
370
     5
100
AcDbLine
 10
71.54376634862893
 20
174.4065712191524
 30
0.0
 11
71.45734167130945
 21
174.4065712191524
 31
0.0
  0
LINE
  5
246
330
BA
100
AcDbEntity
  8
Sichtbar schmal (ISO)
 62
    18
420
        0
370
     5
100
AcDbLine
 10
71.45734167130945
 20
173.1286850125753
 30
0.0
 11
71.54376634862893
 21
173.1286850125753
 31
0.0
  0
LINE
  5
247
330
BA
100
AcDbEntity
  8
Sichtbar schmal (ISO)
 62
    18
420
        0
370
     5
100
AcDbLine
 10
72.33978311341491
 20
172.7534327138184
 30
0.0
 11
72.25335843609542
 21
172.7534327138184
 31
0.0
  0
LINE
  5
248
330
BA
100
AcDbEntity
  8
Sichtbar schmal (ISO)
 62
    18
420
        0
370
     5
100
AcDbLine
 10
72.48431520990554
 20
172.7534327138184
 30
0.0
 11
72.55113450756805
 21
172.7534327138184
 31
0.0
  0
LINE
  5
249
330
BA
100
AcDbEntity
  8
Sichtbar schmal (ISO)
 62
    18
420
        0
370
     5
100
AcDbLine
 10
72.56721647478224
 20
173.7676281158638
 30
0.0
 11
72.56721647478224
 21
174.781823517909
 31
0.0
  0
LINE
  5
24A
330
BA
100
AcDbEntity
  8
Sichtbar schmal (ISO)
 62
    18
420
        0
370
     5
100
AcDbLine
 10
72.56721647478224
 20
174.781823517909
 30
0.0
 11
72.48431520990554
 21
174.781823517909
 31
0.0
  0
LINE
  5
24B
330
BA
100
AcDbEntity
  8
Sichtbar schmal (ISO)
 62
    18
420
        0
370
     5
100
AcDbLine
 10
72.25335843609542
 20
174.781823517909
 30
0.0
 11
72.33978311341491
 21
174.781823517909
 31
0.0
  0
LINE
  5
24C
330
BA
100
AcDbEntity
  8
Sichtbar schmal (ISO)
 62
    18
420
        0
370
     5
100
AcDbLine
 10
71.45734167130945
 20
173.1286850125753
 30
0.0
 11
71.37409528338081
 21
173.3315240929842
 31
0.0
  0
LINE
  5
24D
330
BA
100
AcDbEntity
  8
Sichtbar schmal (ISO)
 62
    18
420
        0
370
     5
100
AcDbLine
 10
71.37409528338081
 20
173.3315240929842
 30
0.0
 11
71.37409528338081
 21
174.2037321387431
 31
0.0
  0
LINE
  5
24E
330
BA
100
AcDbEntity
  8
Sichtbar schmal (ISO)
 62
    18
420
        0
370
     5
100
AcDbLine
 10
71.37409528338081
 20
174.2037321387431
 30
0.0
 11
71.45734167130945
 21
174.4065712191524
 31
0.0
  0
SPLINE
  5
24F
330
BA
100
AcDbEntity
  8
Sichtbar schmal (ISO)
 62
    18
420
        0
370
     5
100
AcDbSpline
210
0.0
220
0.0
230
1.0
 70
     8
 71
     3
 72
    20
 73
    16
 74
     0
 42
0.0000000001
 43
0.0000000001
 40
0.0
 40
0.0
 40
0.0
 40
0.0
 40
1.0
 40
1.0
 40
1.0
 40
2.0
 40
2.0
 40
2.0
 40
3.0
 40
3.0
 40
3.0
 40
4.0
 40
4.0
 40
4.0
 40
5.0
 40
5.0
 40
5.0
 40
5.0
 10
86.94653726017445
 20
173.3416672458478
 30
0.0
 10
86.75075051409589
 20
173.3416672025639
 30
0.0
 10
86.56427844040633
 20
173.3416663620103
 30
0.0
 10
86.38654622151255
 20
173.3416660470045
 30
0.0
 10
86.20409343747542
 20
173.3416657236324
 30
0.0
 10
86.03085093444638
 20
173.3416659540961
 30
0.0
 10
85.86993826788221
 20
173.3416660470041
 30
0.0
 10
85.70902560131834
 20
173.3416661399122
 30
0.0
 10
85.56044277121904
 20
173.3416660952647
 30
0.0
 10
85.42588335575578
 20
173.3416660470038
 30
0.0
 10
85.29132394029248
 20
173.3416659987429
 30
0.0
 10
85.17078793946492
 20
173.3416659468692
 30
0.0
 10
85.0651982936257
 20
173.3416660470041
 30
0.0
 10
85.05832918662685
 20
173.3416660535187
 30
0.0
 10
85.05152333438408
 20
173.3416660606762
 30
0.0
 10
85.04478092857773
 20
173.3416660682688
 30
0.0
  0
SPLINE
  5
250
330
BA
100
AcDbEntity
  8
Sichtbar schmal (ISO)
 62
    18
420
        0
370
     5
100
AcDbSpline
210
0.0
220
0.0
230
1.0
 70
     8
 71
     3
 72
    20
 73
    16
 74
     0
 42
0.0000000001
 43
0.0000000001
 40
0.0
 40
0.0
 40
0.0
 40
0.0
 40
1.0
 40
1.0
 40
1.0
 40
2.0
 40
2.0
 40
2.0
 40
3.0
 40
3.0
 40
3.0
 40
4.0
 40
4.0
 40
4.0
 40
5.0
 40
5.0
 40
5.0
 40
5.0
 10
97.56063561817688
 20
173.3416660272956
 30
0.0
 10
97.553888469699
 20
173.3416660343213
 30
0.0
 10
97.54707773664394
 20
173.3416660409545
 30
0.0
 10
97.54020359165375
 20
173.3416660470041
 30
0.0
 10
97.43463754847512
 20
173.3416661399122
 30
0.0
 10
97.31411665330551
 20
173.3416660952647
 30
0.0
 10
97.17955473232416
 20
173.3416660470038
 30
0.0
 10
97.04499281134314
 20
173.3416659987429
 30
0.0
 10
96.89638986455101
 20
173.3416659468692
 30
0.0
 10
96.73545593970471
 20
173.3416660470041
 30
0.0
 10
96.57452201485872
 20
173.3416661471397
 30
0.0
 10
96.40125711195883
 20
173.3416663992841
 30
0.0
 10
96.21877289675069
 20
173.3416660470038
 30
0.0
 10
96.0410424623398
 20
173.3416657039008
 30
0.0
 10
95.85456679213599
 20
173.3416647874542
 30
0.0
 10
95.65887931897696
 20
173.3416610045819
 30
0.0
  0
LINE
  5
251
330
BA
100
AcDbEntity
  8
Sichtbar schmal (ISO)
 62
    18
420
        0
370
     5
100
AcDbLine
 10
72.64762631082786
 20
174.9846625983181
 30
0.0
 11
72.56721647478224
 21
174.9846625983181
 31
0.0
  0
ENDBLK
  5
BD
330
BA
100
AcDbEntity
  8
0
100
AcDbBlockEnd
  0
BLOCK
  5
27F
330
27D
100
AcDbEntity
  8
0
100
AcDbBlockBegin
  2
Block_16
 70
     0
 10
0.0
 20
0.0
 30
0.0
  3
Block_16
  1

  0
INSERT
  5
282
330
27D
100
AcDbEntity
  8
Sichtbar schmal (ISO)
100
AcDbBlockReference
  2
Block_17
 10
0.0
 20
0.0
 30
0.0
  0
ENDBLK
  5
280
330
27D
100
AcDbEntity
  8
0
100
AcDbBlockEnd
  0
BLOCK
  5
283
330
281
100
AcDbEntity
  8
0
100
AcDbBlockBegin
  2
Block_17
 70
     0
 10
0.0
 20
0.0
 30
0.0
  3
Block_17
  1

  0
LINE
  5
285
330
281
100
AcDbEntity
  8
Sichtbar schmal (ISO)
 62
    18
420
        0
370
     5
100
AcDbLine
 10
132.6294690118459
 20
159.7722566840966
 30
0.0
 11
132.6326234273996
 21
114.5627315658688
 31
0.0
  0
INSERT
  5
287
330
281
100
AcDbEntity
  8
Sichtbar schmal (ISO)
100
AcDbBlockReference
  2
Block_18
 10
0.0
 20
0.0
 30
0.0
  0
INSERT
  5
28D
330
281
100
AcDbEntity
  8
Sichtbar schmal (ISO)
100
AcDbBlockReference
  2
Block_19
 10
0.0
 20
0.0
 30
0.0
  0
ENDBLK
  5
284
330
281
100
AcDbEntity
  8
0
100
AcDbBlockEnd
  0
BLOCK
  5
288
330
286
100
AcDbEntity
  8
0
100
AcDbBlockBegin
  2
Block_18
 70
     0
 10
0.0
 20
0.0
 30
0.0
  3
Block_18
  1

  0
LWPOLYLINE
  5
28A
330
286
100
AcDbEntity
  8
Sichtbar schmal (ISO)
100
AcDbPolyline
 90
        3
 70
     1
 43
0.0
 10
132.4081969883823
 20
159.1397909826217
 10
132.6287046312851
 20
160.8209760475772
 10
132.8508163967732
 20
159.1398232803919
  0
HATCH
  5
28B
330
286
100
AcDbEntity
  8
Sichtbar schmal (ISO)
 62
    18
420
        0
440
 33554687
100
AcDbHatch
 10
0.0
 20
0.0
 30
0.0
210
0.0
220
0.0
230
1.0
  2
SOLID
 70
     1
 71
     1
 91
        1
 92
        1
 93
        3
 72
     1
 10
132.4081969883823
 20
159.1397909826217
 11
132.6287046312851
 21
160.8209760475772
 72
     1
 10
132.6287046312851
 20
160.8209760475772
 11
132.8508163967732
 21
159.1398232803919
 72
     1
 10
132.8508163967732
 20
159.1398232803919
 11
132.4081969883823
 21
159.1397909826217
 97
        1
330
28A
 75
     2
 76
     1
 98
        1
 10
0.0
 20
0.0
450
        0
451
        0
460
0.0
461
0.0
452
        0
462
0.0
453
        0
470

  0
ENDBLK
  5
289
330
286
100
AcDbEntity
  8
0
100
AcDbBlockEnd
  0
BLOCK
  5
28E
330
28C
100
AcDbEntity
  8
0
100
AcDbBlockBegin
  2
Block_19
 70
     0
 10
0.0
 20
0.0
 30
0.0
  3
Block_19
  1

  0
LWPOLYLINE
  5
290
330
28C
100
AcDbEntity
  8
Sichtbar schmal (ISO)
100
AcDbPolyline
 90
        3
 70
     1
 43
0.0
 10
132.4112652765488
 20
115.195175735497
 10
132.6320097697662
 20
113.5140122023886
 10
132.8538954508631
 20
115.1952080332671
  0
HATCH
  5
291
330
28C
100
AcDbEntity
  8
Sichtbar schmal (ISO)
 62
    18
420
        0
440
 33554687
100
AcDbHatch
 10
0.0
 20
0.0
 30
0.0
210
0.0
220
0.0
230
1.0
  2
SOLID
 70
     1
 71
     1
 91
        1
 92
        1
 93
        3
 72
     1
 10
132.4112652765488
 20
115.195175735497
 11
132.6320097697662
 21
113.5140122023886
 72
     1
 10
132.6320097697662
 20
113.5140122023886
 11
132.8538954508631
 21
115.1952080332671
 72
     1
 10
132.8538954508631
 20
115.1952080332671
 11
132.4112652765488
 21
115.195175735497
 97
        1
330
290
 75
     2
 76
     1
 98
        1
 10
0.0
 20
0.0
450
        0
451
        0
460
0.0
461
0.0
452
        0
462
0.0
453
        0
470

  0
ENDBLK
  5
28F
330
28C
100
AcDbEntity
  8
0
100
AcDbBlockEnd
  0
BLOCK
  5
297
330
295
100
AcDbEntity
  8
0
100
AcDbBlockBegin
  2
Block_20
 70
     0
 10
0.0
 20
0.0
 30
0.0
  3
Block_20
  1

  0
INSERT
  5
29A
330
295
100
AcDbEntity
  8
Sichtbar schmal (ISO)
100
AcDbBlockReference
  2
Block_21
 10
0.0
 20
0.0
 30
0.0
  0
ENDBLK
  5
298
330
295
100
AcDbEntity
  8
0
100
AcDbBlockEnd
  0
BLOCK
  5
29B
330
299
100
AcDbEntity
  8
0
100
AcDbBlockBegin
  2
Block_21
 70
     0
 10
0.0
 20
0.0
 30
0.0
  3
Block_21
  1

  0
LINE
  5
29D
330
299
100
AcDbEntity
  8
Sichtbar schmal (ISO)
 62
    18
420
        0
370
     5
100
AcDbLine
 10
139.6858535417387
 20
160.6042257119377
 30
0.0
 11
139.6781020768969
 21
113.6383155538658
 31
0.0
  0
INSERT
  5
29F
330
299
100
AcDbEntity
  8
Sichtbar schmal (ISO)
100
AcDbBlockReference
  2
Block_22
 10
0.0
 20
0.0
 30
0.0
  0
INSERT
  5
2A5
330
299
100
AcDbEntity
  8
Sichtbar schmal (ISO)
100
AcDbBlockReference
  2
Block_23
 10
0.0
 20
0.0
 30
0.0
  0
ENDBLK
  5
29C
330
299
100
AcDbEntity
  8
0
100
AcDbBlockEnd
  0
BLOCK
  5
2A0
330
29E
100
AcDbEntity
  8
0
100
AcDbBlockBegin
  2
Block_22
 70
     0
 10
0.0
 20
0.0
 30
0.0
  3
Block_22
  1

  0
LWPOLYLINE
  5
2A2
330
29E
100
AcDbEntity
  8
Sichtbar schmal (ISO)
100
AcDbPolyline
 90
        3
 70
     1
 43
0.0
 10
139.464441561271
 20
159.9718030741563
 10
139.6853367774159
 20
161.6529450754179
 10
139.9070609696619
 20
159.9717277126926
  0
HATCH
  5
2A3
330
29E
100
AcDbEntity
  8
Sichtbar schmal (ISO)
 62
    18
420
        0
440
 33554687
100
AcDbHatch
 10
0.0
 20
0.0
 30
0.0
210
0.0
220
0.0
230
1.0
  2
SOLID
 70
     1
 71
     1
 91
        1
 92
        1
 93
        3
 72
     1
 10
139.464441561271
 20
159.9718030741563
 11
139.6853367774159
 21
161.6529450754179
 72
     1
 10
139.6853367774159
 20
161.6529450754179
 11
139.9070609696619
 21
159.9717277126926
 72
     1
 10
139.9070609696619
 20
159.9717277126926
 11
139.464441561271
 21
159.9718030741563
 97
        1
330
2A2
 75
     2
 76
     1
 98
        1
 10
0.0
 20
0.0
450
        0
451
        0
460
0.0
461
0.0
452
        0
462
0.0
453
        0
470

  0
ENDBLK
  5
2A1
330
29E
100
AcDbEntity
  8
0
100
AcDbBlockEnd
  0
BLOCK
  5
2A6
330
2A4
100
AcDbEntity
  8
0
100
AcDbBlockBegin
  2
Block_23
 70
     0
 10
0.0
 20
0.0
 30
0.0
  3
Block_23
  1

  0
LWPOLYLINE
  5
2A8
330
2A4
100
AcDbEntity
  8
Sichtbar schmal (ISO)
100
AcDbPolyline
 90
        3
 70
     1
 43
0.0
 10
139.4568946489737
 20
114.2708027871875
 10
139.6772408030255
 20
112.5895854244622
 10
139.8995140573645
 20
114.2707274257237
  0
HATCH
  5
2A9
330
2A4
100
AcDbEntity
  8
Sichtbar schmal (ISO)
 62
    18
420
        0
440
 33554687
100
AcDbHatch
 10
0.0
 20
0.0
 30
0.0
210
0.0
220
0.0
230
1.0
  2
SOLID
 70
     1
 71
     1
 91
        1
 92
        1
 93
        3
 72
     1
 10
139.4568946489737
 20
114.2708027871875
 11
139.6772408030255
 21
112.5895854244622
 72
     1
 10
139.6772408030255
 20
112.5895854244622
 11
139.8995140573645
 21
114.2707274257237
 72
     1
 10
139.8995140573645
 20
114.2707274257237
 11
139.4568946489737
 21
114.2708027871875
 97
        1
330
2A8
 75
     2
 76
     1
 98
        1
 10
0.0
 20
0.0
450
        0
451
        0
460
0.0
461
0.0
452
        0
462
0.0
453
        0
470

  0
ENDBLK
  5
2A7
330
2A4
100
AcDbEntity
  8
0
100
AcDbBlockEnd
  0
BLOCK
  5
2B0
330
2AE
100
AcDbEntity
  8
0
100
AcDbBlockBegin
  2
Block_24
 70
     0
 10
0.0
 20
0.0
 30
0.0
  3
Block_24
  1

  0
INSERT
  5
2B3
330
2AE
100
AcDbEntity
  8
Sichtbar schmal (ISO)
100
AcDbBlockReference
  2
Block_25
 10
0.0
 20
0.0
 30
0.0
  0
ENDBLK
  5
2B1
330
2AE
100
AcDbEntity
  8
0
100
AcDbBlockEnd
  0
BLOCK
  5
2B4
330
2B2
100
AcDbEntity
  8
0
100
AcDbBlockBegin
  2
Block_25
 70
     0
 10
0.0
 20
0.0
 30
0.0
  3
Block_25
  1

  0
LINE
  5
2B6
330
2B2
100
AcDbEntity
  8
Sichtbar schmal (ISO)
 62
    18
420
        0
370
     5
100
AcDbLine
 10
125.6528707402068
 20
176.1317555305117
 30
0.0
 11
125.6531937179085
 21
172.5192068728316
 31
0.0
  0
INSERT
  5
2B8
330
2B2
100
AcDbEntity
  8
Sichtbar schmal (ISO)
100
AcDbBlockReference
  2
Block_26
 10
0.0
 20
0.0
 30
0.0
  0
ENDBLK
  5
2B5
330
2B2
100
AcDbEntity
  8
0
100
AcDbBlockEnd
  0
BLOCK
  5
2B9
330
2B7
100
AcDbEntity
  8
0
100
AcDbBlockBegin
  2
Block_26
 70
     0
 10
0.0
 20
0.0
 30
0.0
  3
Block_26
  1

  0
LWPOLYLINE
  5
2BB
330
2B7
100
AcDbEntity
  8
Sichtbar schmal (ISO)
100
AcDbPolyline
 90
        3
 70
     1
 43
0.0
 10
125.43162024859
 20
175.4992898290364
 10
125.6520955937226
 20
177.1804856599149
 10
125.8742396569809
 20
175.4993221268069
  0
HATCH
  5
2BC
330
2B7
100
AcDbEntity
  8
Sichtbar schmal (ISO)
 62
    18
420
        0
440
 33554687
100
AcDbHatch
 10
0.0
 20
0.0
 30
0.0
210
0.0
220
0.0
230
1.0
  2
SOLID
 70
     1
 71
     1
 91
        1
 92
        1
 93
        3
 72
     1
 10
125.43162024859
 20
175.4992898290364
 11
125.6520955937226
 21
177.1804856599149
 72
     1
 10
125.6520955937226
 20
177.1804856599149
 11
125.8742396569809
 21
175.4993221268069
 72
     1
 10
125.8742396569809
 20
175.4993221268069
 11
125.43162024859
 21
175.4992898290364
 97
        1
330
2BB
 75
     2
 76
     1
 98
        1
 10
0.0
 20
0.0
450
        0
451
        0
460
0.0
461
0.0
452
        0
462
0.0
453
        0
470

  0
ENDBLK
  5
2BA
330
2B7
100
AcDbEntity
  8
0
100
AcDbBlockEnd
  0
BLOCK
  5
2BF
330
2BD
100
AcDbEntity
  8
0
100
AcDbBlockBegin
  2
Block_27
 70
     0
 10
0.0
 20
0.0
 30
0.0
  3
Block_27
  1

  0
INSERT
  5
2C2
330
2BD
100
AcDbEntity
  8
Sichtbar schmal (ISO)
100
AcDbBlockReference
  2
Block_28
 10
0.0
 20
0.0
 30
0.0
  0
ENDBLK
  5
2C0
330
2BD
100
AcDbEntity
  8
0
100
AcDbBlockEnd
  0
BLOCK
  5
2C3
330
2C1
100
AcDbEntity
  8
0
100
AcDbBlockBegin
  2
Block_28
 70
     0
 10
0.0
 20
0.0
 30
0.0
  3
Block_28
  1

  0
LINE
  5
2C5
330
2C1
100
AcDbEntity
  8
Sichtbar schmal (ISO)
 62
    18
420
        0
370
     5
100
AcDbLine
 10
139.6376329708686
 20
165.0702752442413
 30
0.0
 11
139.6198261335792
 21
180.6481249887464
 31
0.0
  0
INSERT
  5
2C7
330
2C1
100
AcDbEntity
  8
Sichtbar schmal (ISO)
100
AcDbBlockReference
  2
Block_29
 10
0.0
 20
0.0
 30
0.0
  0
INSERT
  5
2CD
330
2C1
100
AcDbEntity
  8
Sichtbar schmal (ISO)
100
AcDbBlockReference
  2
Block_30
 10
0.0
 20
0.0
 30
0.0
  0
ENDBLK
  5
2C4
330
2C1
100
AcDbEntity
  8
0
100
AcDbBlockEnd
  0
BLOCK
  5
2C8
330
2C6
100
AcDbEntity
  8
0
100
AcDbBlockBegin
  2
Block_29
 70
     0
 10
0.0
 20
0.0
 30
0.0
  3
Block_29
  1

  0
LWPOLYLINE
  5
2CA
330
2C6
100
AcDbEntity
  8
Sichtbar schmal (ISO)
100
AcDbPolyline
 90
        3
 70
     1
 43
0.0
 10
139.8582159752351
 20
165.7029885619542
 10
139.6395170074621
 20
164.0215558807614
 10
139.4155965668442
 20
165.7024825635548
  0
HATCH
  5
2CB
330
2C6
100
AcDbEntity
  8
Sichtbar schmal (ISO)
 62
    18
420
        0
440
 33554687
100
AcDbHatch
 10
0.0
 20
0.0
 30
0.0
210
0.0
220
0.0
230
1.0
  2
SOLID
 70
     1
 71
     1
 91
        1
 92
        1
 93
        3
 72
     1
 10
139.8582159752351
 20
165.7029885619542
 11
139.6395170074621
 21
164.0215558807614
 72
     1
 10
139.6395170074621
 20
164.0215558807614
 11
139.4155965668442
 21
165.7024825635548
 72
     1
 10
139.4155965668442
 20
165.7024825635548
 11
139.8582159752351
 21
165.7029885619542
 97
        1
330
2CA
 75
     2
 76
     1
 98
        1
 10
0.0
 20
0.0
450
        0
451
        0
460
0.0
461
0.0
452
        0
462
0.0
453
        0
470

  0
ENDBLK
  5
2C9
330
2C6
100
AcDbEntity
  8
0
100
AcDbBlockEnd
  0
BLOCK
  5
2CE
330
2CC
100
AcDbEntity
  8
0
100
AcDbBlockBegin
  2
Block_30
 70
     0
 10
0.0
 20
0.0
 30
0.0
  3
Block_30
  1

  0
LWPOLYLINE
  5
2D0
330
2CC
100
AcDbEntity
  8
Sichtbar schmal (ISO)
100
AcDbPolyline
 90
        3
 70
     1
 43
0.0
 10
139.8418625376035
 20
180.0159284353566
 10
139.6193201351798
 20
181.69685511815
 10
139.3992431292127
 20
180.0154224369569
  0
HATCH
  5
2D1
330
2CC
100
AcDbEntity
  8
Sichtbar schmal (ISO)
 62
    18
420
        0
440
 33554687
100
AcDbHatch
 10
0.0
 20
0.0
 30
0.0
210
0.0
220
0.0
230
1.0
  2
SOLID
 70
     1
 71
     1
 91
        1
 92
        1
 93
        3
 72
     1
 10
139.8418625376035
 20
180.0159284353566
 11
139.6193201351798
 21
181.69685511815
 72
     1
 10
139.6193201351798
 20
181.69685511815
 11
139.3992431292127
 21
180.0154224369569
 72
     1
 10
139.3992431292127
 20
180.0154224369569
 11
139.8418625376035
 21
180.0159284353566
 97
        1
330
2D0
 75
     2
 76
     1
 98
        1
 10
0.0
 20
0.0
450
        0
451
        0
460
0.0
461
0.0
452
        0
462
0.0
453
        0
470

  0
ENDBLK
  5
2CF
330
2CC
100
AcDbEntity
  8
0
100
AcDbBlockEnd
  0
BLOCK
  5
2D4
330
2D2
100
AcDbEntity
  8
0
100
AcDbBlockBegin
  2
Block_31
 70
     0
 10
0.0
 20
0.0
 30
0.0
  3
Block_31
  1

  0
INSERT
  5
2D7
330
2D2
100
AcDbEntity
  8
Sichtbar schmal (ISO)
100
AcDbBlockReference
  2
Block_32
 10
0.0
 20
0.0
 30
0.0
  0
ENDBLK
  5
2D5
330
2D2
100
AcDbEntity
  8
0
100
AcDbBlockEnd
  0
BLOCK
  5
2D8
330
2D6
100
AcDbEntity
  8
0
100
AcDbBlockBegin
  2
Block_32
 70
     0
 10
0.0
 20
0.0
 30
0.0
  3
Block_32
  1

  0
SPLINE
  5
2DA
330
2D6
100
AcDbEntity
  8
Sichtbar schmal (ISO)
100
AcDbSpline
210
0.0
220
0.0
230
1.0
 70
    11
 71
     3
 72
    26
 73
    22
 74
     0
 42
0.0000000001
 43
0.0000000001
 40
0.0
 40
0.0
 40
0.0
 40
0.0
 40
1.0
 40
1.0
 40
1.0
 40
2.0
 40
2.0
 40
2.0
 40
3.0
 40
3.0
 40
3.0
 40
4.0
 40
4.0
 40
4.0
 40
5.0
 40
5.0
 40
5.0
 40
6.0
 40
6.0
 40
6.0
 40
7.0
 40
7.0
 40
7.0
 40
7.0
 10
127.0530544387228
 20
173.1535996745935
 30
0.0
 10
127.0530544387228
 20
173.1535996745935
 30
0.0
 10
127.0530544387228
 20
172.6345960397406
 30
0.0
 10
127.0530544387228
 20
172.6345960397406
 30
0.0
 10
127.0530544387228
 20
172.6345960397406
 30
0.0
 10
126.8611626201944
 20
172.6345960397406
 30
0.0
 10
126.8611626201944
 20
172.6345960397406
 30
0.0
 10
126.8611626201944
 20
172.9081366212695
 30
0.0
 10
126.7905381627468
 20
173.1563557509817
 30
0.0
 10
126.4859917218507
 20
173.2099269857774
 30
0.0
 10
126.4859917218507
 20
173.2099269857774
 30
0.0
 10
126.4859917218507
 20
173.3933783203669
 30
0.0
 10
126.4859917218507
 20
173.3933783203669
 30
0.0
 10
126.4859917218507
 20
173.3933783203669
 30
0.0
 10
128.4858696510382
 20
173.3933783203669
 30
0.0
 10
128.4858696510382
 20
173.3933783203669
 30
0.0
 10
128.4858696510382
 20
173.3933783203669
 30
0.0
 10
128.4858696510382
 20
173.1535996745935
 30
0.0
 10
128.4858696510382
 20
173.1535996745935
 30
0.0
 10
128.4858696510382
 20
173.1535996745935
 30
0.0
 10
127.0530544387228
 20
173.1535996745935
 30
0.0
 10
127.0530544387228
 20
173.1535996745935
 30
0.0
  0
HATCH
  5
2DB
330
2D6
100
AcDbEntity
  8
Sichtbar schmal (ISO)
 62
    18
420
        0
440
 33554687
100
AcDbHatch
 10
0.0
 20
0.0
 30
0.0
210
0.0
220
0.0
230
1.0
  2
SOLID
 70
     1
 71
     1
 91
        1
 92
        1
 93
        1
 72
     4
 94
        3
 73
     0
 74
     0
 95
       26
 96
       22
 40
0.0
 40
0.0
 40
0.0
 40
0.0
 40
1.0
 40
1.0
 40
1.0
 40
2.0
 40
2.0
 40
2.0
 40
3.0
 40
3.0
 40
3.0
 40
4.0
 40
4.0
 40
4.0
 40
5.0
 40
5.0
 40
5.0
 40
6.0
 40
6.0
 40
6.0
 40
7.0
 40
7.0
 40
7.0
 40
7.0
 10
127.0530544387228
 20
173.1535996745935
 10
127.0530544387228
 20
173.1535996745935
 10
127.0530544387228
 20
172.6345960397406
 10
127.0530544387228
 20
172.6345960397406
 10
127.0530544387228
 20
172.6345960397406
 10
126.8611626201944
 20
172.6345960397406
 10
126.8611626201944
 20
172.6345960397406
 10
126.8611626201944
 20
172.9081366212695
 10
126.7905381627468
 20
173.1563557509817
 10
126.4859917218507
 20
173.2099269857774
 10
126.4859917218507
 20
173.2099269857774
 10
126.4859917218507
 20
173.3933783203669
 10
126.4859917218507
 20
173.3933783203669
 10
126.4859917218507
 20
173.3933783203669
 10
128.4858696510382
 20
173.3933783203669
 10
128.4858696510382
 20
173.3933783203669
 10
128.4858696510382
 20
173.3933783203669
 10
128.4858696510382
 20
173.1535996745935
 10
128.4858696510382
 20
173.1535996745935
 10
128.4858696510382
 20
173.1535996745935
 10
127.0530544387228
 20
173.1535996745935
 10
127.0530544387228
 20
173.1535996745935
 97
        0
 97
        1
330
2DA
 75
     2
 76
     1
 98
        1
 10
0.0
 20
0.0
450
        0
451
        0
460
0.0
461
0.0
452
        0
462
0.0
453
        0
470

  0
SPLINE
  5
2DC
330
2D6
100
AcDbEntity
  8
Sichtbar schmal (ISO)
100
AcDbSpline
210
0.0
220
0.0
230
1.0
 70
     9
 71
     3
 72
    53
 73
    49
 74
     0
 42
0.0000000001
 43
0.0000000001
 40
0.0
 40
0.0
 40
0.0
 40
0.0
 40
1.0
 40
1.0
 40
1.0
 40
2.0
 40
2.0
 40
2.0
 40
3.0
 40
3.0
 40
3.0
 40
4.0
 40
4.0
 40
4.0
 40
5.0
 40
5.0
 40
5.0
 40
6.0
 40
6.0
 40
6.0
 40
7.0
 40
7.0
 40
7.0
 40
8.0
 40
8.0
 40
8.0
 40
9.0
 40
9.0
 40
9.0
 40
10.0
 40
10.0
 40
10.0
 40
11.0
 40
11.0
 40
11.0
 40
12.0
 40
12.0
 40
12.0
 40
13.0
 40
13.0
 40
13.0
 40
14.0
 40
14.0
 40
14.0
 40
15.0
 40
15.0
 40
15.0
 40
16.0
 40
16.0
 40
16.0
 40
16.0
 10
127.9470567171452
 20
174.2968546113737
 30
0.0
 10
128.1530734271631
 20
174.3109795028632
 30
0.0
 10
128.3081027239994
 20
174.4773776148008
 30
0.0
 10
128.3081027239994
 20
174.7171562605742
 30
0.0
 10
128.3081027239994
 20
174.9455660912462
 30
0.0
 10
128.1499728412264
 20
175.1402139861629
 30
0.0
 10
127.834057585229
 20
175.1402139861629
 30
0.0
 10
127.5718858188015
 20
175.1402139861629
 30
0.0
 10
127.379994000273
 20
174.9596909827358
 30
0.0
 10
127.379994000273
 20
174.6889064775951
 30
0.0
 10
127.379994000273
 20
174.5337049259846
 30
0.0
 10
127.456130610497
 20
174.4096814885156
 30
0.0
 10
127.5691297424133
 20
174.3166639104139
 30
0.0
 10
127.5691297424133
 20
174.3166639104139
 30
0.0
 10
127.5577609273119
 20
174.1106472003959
 30
0.0
 10
127.5577609273119
 20
174.1106472003959
 30
0.0
 10
127.5577609273119
 20
174.1106472003959
 30
0.0
 10
126.5197536576061
 20
174.2968546113737
 30
0.0
 10
126.5197536576061
 20
174.2968546113737
 30
0.0
 10
126.5197536576061
 20
174.2968546113737
 30
0.0
 10
126.5197536576061
 20
175.284046722672
 30
0.0
 10
126.5197536576061
 20
175.284046722672
 30
0.0
 10
126.5197536576061
 20
175.284046722672
 30
0.0
 10
126.7312825204005
 20
175.284046722672
 30
0.0
 10
126.7312825204005
 20
175.284046722672
 30
0.0
 10
126.7312825204005
 20
175.284046722672
 30
0.0
 10
126.7312825204005
 20
174.4773776148008
 30
0.0
 10
126.7312825204005
 20
174.4773776148008
 30
0.0
 10
126.7312825204005
 20
174.4773776148008
 30
0.0
 10
127.3066134664372
 20
174.3702351452095
 30
0.0
 10
127.3066134664372
 20
174.3702351452095
 30
0.0
 10
127.3066134664372
 20
174.3702351452095
 30
0.0
 10
127.3124701287621
 20
174.3759195527602
 30
0.0
 10
127.3124701287621
 20
174.3759195527602
 30
0.0
 10
127.2135958883355
 20
174.4632527233113
 30
0.0
 10
127.1684651374787
 20
174.6127698673711
 30
0.0
 10
127.1684651374787
 20
174.7481621199414
 30
0.0
 10
127.1684651374787
 20
175.1035237192449
 30
0.0
 10
127.3941188917626
 20
175.3941175234258
 30
0.0
 10
127.8540391390434
 20
175.3941175234258
 30
0.0
 10
128.1923475156949
 20
175.3941175234258
 30
0.0
 10
128.5196315867937
 20
175.160023285203
 30
0.0
 10
128.5196315867937
 20
174.6945908851458
 30
0.0
 10
128.5196315867937
 20
174.3476697697811
 30
0.0
 10
128.3081027239994
 20
174.0655164495391
 30
0.0
 10
127.9470567171452
 20
174.0570759656003
 30
0.0
 10
127.9470567171452
 20
174.0570759656003
 30
0.0
 10
127.9470567171452
 20
174.2968546113737
 30
0.0
 10
127.9470567171452
 20
174.2968546113737
 30
0.0
  0
HATCH
  5
2DD
330
2D6
100
AcDbEntity
  8
Sichtbar schmal (ISO)
 62
    18
420
        0
440
 33554687
100
AcDbHatch
 10
0.0
 20
0.0
 30
0.0
210
0.0
220
0.0
230
1.0
  2
SOLID
 70
     1
 71
     1
 91
        1
 92
        1
 93
        1
 72
     4
 94
        3
 73
     0
 74
     0
 95
       53
 96
       49
 40
0.0
 40
0.0
 40
0.0
 40
0.0
 40
1.0
 40
1.0
 40
1.0
 40
2.0
 40
2.0
 40
2.0
 40
3.0
 40
3.0
 40
3.0
 40
4.0
 40
4.0
 40
4.0
 40
5.0
 40
5.0
 40
5.0
 40
6.0
 40
6.0
 40
6.0
 40
7.0
 40
7.0
 40
7.0
 40
8.0
 40
8.0
 40
8.0
 40
9.0
 40
9.0
 40
9.0
 40
10.0
 40
10.0
 40
10.0
 40
11.0
 40
11.0
 40
11.0
 40
12.0
 40
12.0
 40
12.0
 40
13.0
 40
13.0
 40
13.0
 40
14.0
 40
14.0
 40
14.0
 40
15.0
 40
15.0
 40
15.0
 40
16.0
 40
16.0
 40
16.0
 40
16.0
 10
127.9470567171452
 20
174.2968546113737
 10
128.1530734271631
 20
174.3109795028632
 10
128.3081027239994
 20
174.4773776148008
 10
128.3081027239994
 20
174.7171562605742
 10
128.3081027239994
 20
174.9455660912462
 10
128.1499728412264
 20
175.1402139861629
 10
127.834057585229
 20
175.1402139861629
 10
127.5718858188015
 20
175.1402139861629
 10
127.379994000273
 20
174.9596909827358
 10
127.379994000273
 20
174.6889064775951
 10
127.379994000273
 20
174.5337049259846
 10
127.456130610497
 20
174.4096814885156
 10
127.5691297424133
 20
174.3166639104139
 10
127.5691297424133
 20
174.3166639104139
 10
127.5577609273119
 20
174.1106472003959
 10
127.5577609273119
 20
174.1106472003959
 10
127.5577609273119
 20
174.1106472003959
 10
126.5197536576061
 20
174.2968546113737
 10
126.5197536576061
 20
174.2968546113737
 10
126.5197536576061
 20
174.2968546113737
 10
126.5197536576061
 20
175.284046722672
 10
126.5197536576061
 20
175.284046722672
 10
126.5197536576061
 20
175.284046722672
 10
126.7312825204005
 20
175.284046722672
 10
126.7312825204005
 20
175.284046722672
 10
126.7312825204005
 20
175.284046722672
 10
126.7312825204005
 20
174.4773776148008
 10
126.7312825204005
 20
174.4773776148008
 10
126.7312825204005
 20
174.4773776148008
 10
127.3066134664372
 20
174.3702351452095
 10
127.3066134664372
 20
174.3702351452095
 10
127.3066134664372
 20
174.3702351452095
 10
127.3124701287621
 20
174.3759195527602
 10
127.3124701287621
 20
174.3759195527602
 10
127.2135958883355
 20
174.4632527233113
 10
127.1684651374787
 20
174.6127698673711
 10
127.1684651374787
 20
174.7481621199414
 10
127.1684651374787
 20
175.1035237192449
 10
127.3941188917626
 20
175.3941175234258
 10
127.8540391390434
 20
175.3941175234258
 10
128.1923475156949
 20
175.3941175234258
 10
128.5196315867937
 20
175.160023285203
 10
128.5196315867937
 20
174.6945908851458
 10
128.5196315867937
 20
174.3476697697811
 10
128.3081027239994
 20
174.0655164495391
 10
127.9470567171452
 20
174.0570759656003
 10
127.9470567171452
 20
174.0570759656003
 10
127.9470567171452
 20
174.2968546113737
 10
127.9470567171452
 20
174.2968546113737
 97
        0
 97
        1
330
2DC
 75
     2
 76
     1
 98
        1
 10
0.0
 20
0.0
450
        0
451
        0
460
0.0
461
0.0
452
        0
462
0.0
453
        0
470

  0
ENDBLK
  5
2D9
330
2D6
100
AcDbEntity
  8
0
100
AcDbBlockEnd
  0
BLOCK
  5
2E3
330
2E1
100
AcDbEntity
  8
0
100
AcDbBlockBegin
  2
Block_33
 70
     0
 10
0.0
 20
0.0
 30
0.0
  3
Block_33
  1

  0
INSERT
  5
2E6
330
2E1
100
AcDbEntity
  8
Sichtbar schmal (ISO)
100
AcDbBlockReference
  2
Block_34
 10
0.0
 20
0.0
 30
0.0
  0
ENDBLK
  5
2E4
330
2E1
100
AcDbEntity
  8
0
100
AcDbBlockEnd
  0
BLOCK
  5
2E7
330
2E5
100
AcDbEntity
  8
0
100
AcDbBlockBegin
  2
Block_34
 70
     0
 10
0.0
 20
0.0
 30
0.0
  3
Block_34
  1

  0
SPLINE
  5
2E9
330
2E5
100
AcDbEntity
  8
Sichtbar schmal (ISO)
100
AcDbSpline
210
0.0
220
0.0
230
1.0
 70
     9
 71
     3
 72
    17
 73
    13
 74
     0
 42
0.0000000001
 43
0.0000000001
 40
0.0
 40
0.0
 40
0.0
 40
0.0
 40
1.0
 40
1.0
 40
1.0
 40
2.0
 40
2.0
 40
2.0
 40
3.0
 40
3.0
 40
3.0
 40
4.0
 40
4.0
 40
4.0
 40
4.0
 10
142.4488416527558
 20
172.0136175785244
 30
0.0
 10
142.4488416527558
 20
172.2533962242978
 30
0.0
 10
142.2824435408183
 20
172.4227226673978
 30
0.0
 10
142.0598903724711
 20
172.4227226673978
 30
0.0
 10
141.8452609237401
 20
172.4227226673978
 30
0.0
 10
141.6788628118025
 20
172.23651525642
 30
0.0
 10
141.6788628118025
 20
172.0108615021362
 30
0.0
 10
141.6788628118025
 20
171.773838932751
 30
0.0
 10
141.8283799558623
 20
171.5878037765475
 30
0.0
 10
142.0626464488593
 20
171.5878037765475
 30
0.0
 10
142.3024250946327
 20
171.5878037765475
 30
0.0
 10
142.4488416527558
 20
171.7653984488121
 30
0.0
 10
142.4488416527558
 20
172.0136175785244
 30
0.0
  0
SPLINE
  5
2EA
330
2E5
100
AcDbEntity
  8
Sichtbar schmal (ISO)
100
AcDbSpline
210
0.0
220
0.0
230
1.0
 70
     9
 71
     3
 72
    17
 73
    13
 74
     0
 42
0.0000000001
 43
0.0000000001
 40
0.0
 40
0.0
 40
0.0
 40
0.0
 40
1.0
 40
1.0
 40
1.0
 40
2.0
 40
2.0
 40
2.0
 40
3.0
 40
3.0
 40
3.0
 40
4.0
 40
4.0
 40
4.0
 40
4.0
 10
141.1459065402343
 20
172.3436577260113
 30
0.0
 10
140.9426459066046
 20
172.3436577260113
 30
0.0
 10
140.8382595134015
 20
172.2027533206646
 30
0.0
 10
140.8382595134015
 20
172.0081054257479
 30
0.0
 10
140.8382595134015
 20
171.8162136072195
 30
0.0
 10
140.9457464925413
 20
171.6582559792208
 30
0.0
 10
141.1459065402343
 20
171.6582559792208
 30
0.0
 10
141.3629475558051
 20
171.6582559792208
 30
0.0
 10
141.4673339490082
 20
171.8189696836077
 30
0.0
 10
141.4673339490082
 20
172.0136175785244
 30
0.0
 10
141.4673339490082
 20
172.2055093970528
 30
0.0
 10
141.3488226643156
 20
172.3436577260113
 30
0.0
 10
141.1459065402343
 20
172.3436577260113
 30
0.0
  0
SPLINE
  5
2EB
330
2E5
100
AcDbEntity
  8
Sichtbar schmal (ISO)
100
AcDbSpline
210
0.0
220
0.0
230
1.0
 70
     9
 71
     3
 72
    29
 73
    25
 74
     0
 42
0.0000000001
 43
0.0000000001
 40
0.0
 40
0.0
 40
0.0
 40
0.0
 40
1.0
 40
1.0
 40
1.0
 40
2.0
 40
2.0
 40
2.0
 40
3.0
 40
3.0
 40
3.0
 40
4.0
 40
4.0
 40
4.0
 40
5.0
 40
5.0
 40
5.0
 40
6.0
 40
6.0
 40
6.0
 40
7.0
 40
7.0
 40
7.0
 40
8.0
 40
8.0
 40
8.0
 40
8.0
 10
141.5520832979453
 20
171.6835774310374
 30
0.0
 10
141.4842149168859
 20
171.5144232427116
 30
0.0
 10
141.3178168049483
 20
171.4043524419579
 30
0.0
 10
141.1372938015212
 20
171.4043524419579
 30
0.0
 10
140.810354239971
 20
171.4043524419579
 30
0.0
 10
140.6267306506072
 20
171.6835774310374
 30
0.0
 10
140.6267306506072
 20
171.991052203096
 30
0.0
 10
140.6267306506072
 20
172.4284070749484
 30
0.0
 10
140.8806341878701
 20
172.5975612632742
 30
0.0
 10
141.1372938015212
 20
172.5975612632742
 30
0.0
 10
141.3178168049483
 20
172.5975612632742
 30
0.0
 10
141.4759466877213
 20
172.4874904625205
 30
0.0
 10
141.5520832979453
 20
172.3210923505829
 30
0.0
 10
141.6282199081693
 20
172.5608709963563
 30
0.0
 10
141.80323075882
 20
172.6764539498864
 30
0.0
 10
142.051277633758
 20
172.6764539498864
 30
0.0
 10
142.437817347203
 20
172.6764539498864
 30
0.0
 10
142.6607150250987
 20
172.3832763240917
 30
0.0
 10
142.6607150250987
 20
172.0136175785244
 30
0.0
 10
142.6607150250987
 20
171.6300061962418
 30
0.0
 10
142.457454391469
 20
171.3339002392846
 30
0.0
 10
142.051277633758
 20
171.3339002392846
 30
0.0
 10
141.8142550643728
 20
171.3339002392846
 30
0.0
 10
141.6309759845575
 20
171.4579236767536
 30
0.0
 10
141.5520832979453
 20
171.6835774310374
 30
0.0
  0
HATCH
  5
2EC
330
2E5
100
AcDbEntity
  8
Sichtbar schmal (ISO)
 62
    18
420
        0
440
 33554687
100
AcDbHatch
 10
0.0
 20
0.0
 30
0.0
210
0.0
220
0.0
230
1.0
  2
SOLID
 70
     1
 71
     1
 91
        3
 92
        1
 93
        1
 72
     4
 94
        3
 73
     0
 74
     0
 95
       17
 96
       13
 40
0.0
 40
0.0
 40
0.0
 40
0.0
 40
1.0
 40
1.0
 40
1.0
 40
2.0
 40
2.0
 40
2.0
 40
3.0
 40
3.0
 40
3.0
 40
4.0
 40
4.0
 40
4.0
 40
4.0
 10
142.4488416527558
 20
172.0136175785244
 10
142.4488416527558
 20
172.2533962242978
 10
142.2824435408183
 20
172.4227226673978
 10
142.0598903724711
 20
172.4227226673978
 10
141.8452609237401
 20
172.4227226673978
 10
141.6788628118025
 20
172.23651525642
 10
141.6788628118025
 20
172.0108615021362
 10
141.6788628118025
 20
171.773838932751
 10
141.8283799558623
 20
171.5878037765475
 10
142.0626464488593
 20
171.5878037765475
 10
142.3024250946327
 20
171.5878037765475
 10
142.4488416527558
 20
171.7653984488121
 10
142.4488416527558
 20
172.0136175785244
 97
        0
 97
        1
330
2E9
 92
        1
 93
        1
 72
     4
 94
        3
 73
     0
 74
     0
 95
       17
 96
       13
 40
0.0
 40
0.0
 40
0.0
 40
0.0
 40
1.0
 40
1.0
 40
1.0
 40
2.0
 40
2.0
 40
2.0
 40
3.0
 40
3.0
 40
3.0
 40
4.0
 40
4.0
 40
4.0
 40
4.0
 10
141.1459065402343
 20
172.3436577260113
 10
140.9426459066046
 20
172.3436577260113
 10
140.8382595134015
 20
172.2027533206646
 10
140.8382595134015
 20
172.0081054257479
 10
140.8382595134015
 20
171.8162136072195
 10
140.9457464925413
 20
171.6582559792208
 10
141.1459065402343
 20
171.6582559792208
 10
141.3629475558051
 20
171.6582559792208
 10
141.4673339490082
 20
171.8189696836077
 10
141.4673339490082
 20
172.0136175785244
 10
141.4673339490082
 20
172.2055093970528
 10
141.3488226643156
 20
172.3436577260113
 10
141.1459065402343
 20
172.3436577260113
 97
        0
 97
        1
330
2EA
 92
        1
 93
        1
 72
     4
 94
        3
 73
     0
 74
     0
 95
       29
 96
       25
 40
0.0
 40
0.0
 40
0.0
 40
0.0
 40
1.0
 40
1.0
 40
1.0
 40
2.0
 40
2.0
 40
2.0
 40
3.0
 40
3.0
 40
3.0
 40
4.0
 40
4.0
 40
4.0
 40
5.0
 40
5.0
 40
5.0
 40
6.0
 40
6.0
 40
6.0
 40
7.0
 40
7.0
 40
7.0
 40
8.0
 40
8.0
 40
8.0
 40
8.0
 10
141.5520832979453
 20
171.6835774310374
 10
141.4842149168859
 20
171.5144232427116
 10
141.3178168049483
 20
171.4043524419579
 10
141.1372938015212
 20
171.4043524419579
 10
140.810354239971
 20
171.4043524419579
 10
140.6267306506072
 20
171.6835774310374
 10
140.6267306506072
 20
171.991052203096
 10
140.6267306506072
 20
172.4284070749484
 10
140.8806341878701
 20
172.5975612632742
 10
141.1372938015212
 20
172.5975612632742
 10
141.3178168049483
 20
172.5975612632742
 10
141.4759466877213
 20
172.4874904625205
 10
141.5520832979453
 20
172.3210923505829
 10
141.6282199081693
 20
172.5608709963563
 10
141.80323075882
 20
172.6764539498864
 10
142.051277633758
 20
172.6764539498864
 10
142.437817347203
 20
172.6764539498864
 10
142.6607150250987
 20
172.3832763240917
 10
142.6607150250987
 20
172.0136175785244
 10
142.6607150250987
 20
171.6300061962418
 10
142.457454391469
 20
171.3339002392846
 10
142.051277633758
 20
171.3339002392846
 10
141.8142550643728
 20
171.3339002392846
 10
141.6309759845575
 20
171.4579236767536
 10
141.5520832979453
 20
171.6835774310374
 97
        0
 97
        1
330
2EB
 75
     2
 76
     1
 98
        1
 10
0.0
 20
0.0
450
        0
451
        0
460
0.0
461
0.0
452
        0
462
0.0
453
        0
470

  0
SPLINE
  5
2ED
330
2E5
100
AcDbEntity
  8
Sichtbar schmal (ISO)
100
AcDbSpline
210
0.0
220
0.0
230
1.0
 70
     9
 71
     3
 72
    26
 73
    22
 74
     0
 42
0.0000000001
 43
0.0000000001
 40
0.0
 40
0.0
 40
0.0
 40
0.0
 40
1.0
 40
1.0
 40
1.0
 40
2.0
 40
2.0
 40
2.0
 40
3.0
 40
3.0
 40
3.0
 40
4.0
 40
4.0
 40
4.0
 40
5.0
 40
5.0
 40
5.0
 40
6.0
 40
6.0
 40
6.0
 40
7.0
 40
7.0
 40
7.0
 40
7.0
 10
140.886490850195
 20
173.9804225910535
 30
0.0
 10
140.886490850195
 20
173.9804225910535
 30
0.0
 10
140.886490850195
 20
172.9312187610207
 30
0.0
 10
140.886490850195
 20
172.9312187610207
 30
0.0
 10
140.886490850195
 20
172.9312187610207
 30
0.0
 10
140.6608370959111
 20
172.9312187610207
 30
0.0
 10
140.6608370959111
 20
172.9312187610207
 30
0.0
 10
140.6608370959111
 20
172.9312187610207
 30
0.0
 10
140.6608370959111
 20
174.2258856443775
 30
0.0
 10
140.6608370959111
 20
174.2258856443775
 30
0.0
 10
140.6608370959111
 20
174.2258856443775
 30
0.0
 10
140.8665092963806
 20
174.2258856443775
 30
0.0
 10
140.8665092963806
 20
174.2258856443775
 30
0.0
 10
141.2644178249269
 20
173.8224649630548
 30
0.0
 10
142.003390806513
 20
173.4953531467303
 30
0.0
 10
142.6266085797947
 20
173.4586628798124
 30
0.0
 10
142.6266085797947
 20
173.4586628798124
 30
0.0
 10
142.6266085797947
 20
173.19063445106
 30
0.0
 10
142.6266085797947
 20
173.19063445106
 30
0.0
 10
141.9496473169431
 20
173.2357652019167
 30
0.0
 10
141.3291856200496
 20
173.560120941853
 30
0.0
 10
140.886490850195
 20
173.9804225910535
 30
0.0
  0
HATCH
  5
2EE
330
2E5
100
AcDbEntity
  8
Sichtbar schmal (ISO)
 62
    18
420
        0
440
 33554687
100
AcDbHatch
 10
0.0
 20
0.0
 30
0.0
210
0.0
220
0.0
230
1.0
  2
SOLID
 70
     1
 71
     1
 91
        1
 92
        1
 93
        1
 72
     4
 94
        3
 73
     0
 74
     0
 95
       26
 96
       22
 40
0.0
 40
0.0
 40
0.0
 40
0.0
 40
1.0
 40
1.0
 40
1.0
 40
2.0
 40
2.0
 40
2.0
 40
3.0
 40
3.0
 40
3.0
 40
4.0
 40
4.0
 40
4.0
 40
5.0
 40
5.0
 40
5.0
 40
6.0
 40
6.0
 40
6.0
 40
7.0
 40
7.0
 40
7.0
 40
7.0
 10
140.886490850195
 20
173.9804225910535
 10
140.886490850195
 20
173.9804225910535
 10
140.886490850195
 20
172.9312187610207
 10
140.886490850195
 20
172.9312187610207
 10
140.886490850195
 20
172.9312187610207
 10
140.6608370959111
 20
172.9312187610207
 10
140.6608370959111
 20
172.9312187610207
 10
140.6608370959111
 20
172.9312187610207
 10
140.6608370959111
 20
174.2258856443775
 10
140.6608370959111
 20
174.2258856443775
 10
140.6608370959111
 20
174.2258856443775
 10
140.8665092963806
 20
174.2258856443775
 10
140.8665092963806
 20
174.2258856443775
 10
141.2644178249269
 20
173.8224649630548
 10
142.003390806513
 20
173.4953531467303
 10
142.6266085797947
 20
173.4586628798124
 10
142.6266085797947
 20
173.4586628798124
 10
142.6266085797947
 20
173.19063445106
 10
142.6266085797947
 20
173.19063445106
 10
141.9496473169431
 20
173.2357652019167
 10
141.3291856200496
 20
173.560120941853
 10
140.886490850195
 20
173.9804225910535
 97
        0
 97
        1
330
2ED
 75
     2
 76
     1
 98
        1
 10
0.0
 20
0.0
450
        0
451
        0
460
0.0
461
0.0
452
        0
462
0.0
453
        0
470

  0
ENDBLK
  5
2E8
330
2E5
100
AcDbEntity
  8
0
100
AcDbBlockEnd
  0
BLOCK
  5
2F1
330
2EF
100
AcDbEntity
  8
0
100
AcDbBlockBegin
  2
Block_35
 70
     0
 10
0.0
 20
0.0
 30
0.0
  3
Block_35
  1

  0
INSERT
  5
2F4
330
2EF
100
AcDbEntity
  8
Sichtbar schmal (ISO)
100
AcDbBlockReference
  2
Block_36
 10
0.0
 20
0.0
 30
0.0
  0
ENDBLK
  5
2F2
330
2EF
100
AcDbEntity
  8
0
100
AcDbBlockEnd
  0
BLOCK
  5
2F5
330
2F3
100
AcDbEntity
  8
0
100
AcDbBlockBegin
  2
Block_36
 70
     0
 10
0.0
 20
0.0
 30
0.0
  3
Block_36
  1

  0
SPLINE
  5
2F7
330
2F3
100
AcDbEntity
  8
Sichtbar schmal (ISO)
100
AcDbSpline
210
0.0
220
0.0
230
1.0
 70
     9
 71
     3
 72
    26
 73
    22
 74
     0
 42
0.0000000001
 43
0.0000000001
 40
0.0
 40
0.0
 40
0.0
 40
0.0
 40
1.0
 40
1.0
 40
1.0
 40
2.0
 40
2.0
 40
2.0
 40
3.0
 40
3.0
 40
3.0
 40
4.0
 40
4.0
 40
4.0
 40
5.0
 40
5.0
 40
5.0
 40
6.0
 40
6.0
 40
6.0
 40
7.0
 40
7.0
 40
7.0
 40
7.0
 10
135.4563313463442
 20
134.9230305652276
 30
0.0
 10
135.474590352416
 20
134.9760850357004
 30
0.0
 10
135.4838921102262
 20
135.0298285252703
 30
0.0
 10
135.4838921102262
 20
135.0849500530343
 30
0.0
 10
135.4838921102262
 20
135.2603054132335
 30
0.0
 10
135.4018988376773
 20
135.3846733602511
 30
0.0
 10
135.2386013116764
 20
135.4583984036354
 30
0.0
 10
135.1400715807983
 20
135.5028401353951
 30
0.0
 10
135.0270724488821
 20
135.5252332560492
 30
0.0
 10
134.8996039159279
 20
135.5252332560492
 30
0.0
 10
134.8169216242819
 20
135.5252332560492
 30
0.0
 10
134.7456081477372
 20
135.5183430650787
 30
0.0
 10
134.6860079958424
 20
135.5042181735892
 30
0.0
 10
134.653624098281
 20
135.4966389635217
 30
0.0
 10
134.6160725574918
 20
135.4838921102262
 30
0.0
 10
134.5730088639262
 20
135.4659776137029
 30
0.0
 10
134.5730088639262
 20
135.4659776137029
 30
0.0
 10
135.3512559340441
 20
134.7752359689103
 30
0.0
 10
135.3512559340441
 20
134.7752359689103
 30
0.0
 10
135.4032768758714
 20
134.8210557388642
 30
0.0
 10
135.4384168498209
 20
134.8699760947547
 30
0.0
 10
135.4563313463442
 20
134.9230305652276
 30
0.0
  0
SPLINE
  5
2F8
330
2F3
100
AcDbEntity
  8
Sichtbar schmal (ISO)
100
AcDbSpline
210
0.0
220
0.0
230
1.0
 70
     9
 71
     3
 72
    26
 73
    22
 74
     0
 42
0.0000000001
 43
0.0000000001
 40
0.0
 40
0.0
 40
0.0
 40
0.0
 40
1.0
 40
1.0
 40
1.0
 40
2.0
 40
2.0
 40
2.0
 40
3.0
 40
3.0
 40
3.0
 40
4.0
 40
4.0
 40
4.0
 40
5.0
 40
5.0
 40
5.0
 40
6.0
 40
6.0
 40
6.0
 40
7.0
 40
7.0
 40
7.0
 40
7.0
 10
134.3824950835919
 20
135.2868326484699
 30
0.0
 10
134.3559678483554
 20
135.2292995538663
 30
0.0
 10
134.3428764855115
 20
135.1652207778406
 30
0.0
 10
134.3428764855115
 20
135.094596320393
 30
0.0
 10
134.3428764855115
 20
134.9598930869197
 30
0.0
 10
134.3986870323725
 20
134.8520615982314
 30
0.0
 10
134.5106526356431
 20
134.7707573447795
 30
0.0
 10
134.6222737293653
 20
134.6894530913276
 30
0.0
 10
134.7659342111002
 20
134.6488009646017
 30
0.0
 10
134.9416340808479
 20
134.6488009646017
 30
0.0
 10
135.0081244237132
 20
134.6488009646017
 30
0.0
 10
135.0715141806418
 20
134.6556911555722
 30
0.0
 10
135.1321478611822
 20
134.6701605566102
 30
0.0
 10
135.1662543064862
 20
134.6784287857748
 30
0.0
 10
135.2093180000518
 20
134.6928981868129
 30
0.0
 10
135.2620279609761
 20
134.7125352310788
 30
0.0
 10
135.2620279609761
 20
134.7125352310788
 30
0.0
 10
134.4799912858244
 20
135.412234124133
 30
0.0
 10
134.4799912858244
 20
135.412234124133
 30
0.0
 10
134.4414062163896
 20
135.3860513984451
 30
0.0
 10
134.4090223188283
 20
135.3447102526221
 30
0.0
 10
134.3824950835919
 20
135.2868326484699
 30
0.0
  0
SPLINE
  5
2F9
330
2F3
100
AcDbEntity
  8
Sichtbar schmal (ISO)
100
AcDbSpline
210
0.0
220
0.0
230
1.0
 70
    11
 71
     3
 72
    59
 73
    55
 74
     0
 42
0.0000000001
 43
0.0000000001
 40
0.0
 40
0.0
 40
0.0
 40
0.0
 40
1.0
 40
1.0
 40
1.0
 40
2.0
 40
2.0
 40
2.0
 40
3.0
 40
3.0
 40
3.0
 40
4.0
 40
4.0
 40
4.0
 40
5.0
 40
5.0
 40
5.0
 40
6.0
 40
6.0
 40
6.0
 40
7.0
 40
7.0
 40
7.0
 40
8.0
 40
8.0
 40
8.0
 40
9.0
 40
9.0
 40
9.0
 40
10.0
 40
10.0
 40
10.0
 40
11.0
 40
11.0
 40
11.0
 40
12.0
 40
12.0
 40
12.0
 40
13.0
 40
13.0
 40
13.0
 40
14.0
 40
14.0
 40
14.0
 40
15.0
 40
15.0
 40
15.0
 40
16.0
 40
16.0
 40
16.0
 40
17.0
 40
17.0
 40
17.0
 40
18.0
 40
18.0
 40
18.0
 40
18.0
 10
135.6382323879654
 20
134.3649250966171
 30
0.0
 10
135.6382323879654
 20
134.3649250966171
 30
0.0
 10
135.452886250859
 20
134.5420030045589
 30
0.0
 10
135.452886250859
 20
134.5420030045589
 30
0.0
 10
135.3850178697996
 20
134.4958387250566
 30
0.0
 10
135.308536750027
 20
134.46000973201
 30
0.0
 10
135.2241319106384
 20
134.4352050445162
 30
0.0
 10
135.1397270712498
 20
134.4104003570224
 30
0.0
 10
135.039474792629
 20
134.3979980132755
 30
0.0
 10
134.9240640938731
 20
134.3979980132755
 30
0.0
 10
134.7156358170155
 20
134.3979980132755
 30
0.0
 10
134.5302896799091
 20
134.4565646365247
 30
0.0
 10
134.3680256825538
 20
134.5736978830232
 30
0.0
 10
134.2061061947471
 20
134.6904866199732
 30
0.0
 10
134.1251464508437
 20
134.8610188464931
 30
0.0
 10
134.1251464508437
 20
135.0849500530343
 30
0.0
 10
134.1251464508437
 20
135.2013942804358
 30
0.0
 10
134.1458170237552
 20
135.3037136163477
 30
0.0
 10
134.1875026791267
 20
135.3915635512215
 30
0.0
 10
134.211962857072
 20
135.4432399835003
 30
0.0
 10
134.2515814551523
 20
135.5024956258466
 30
0.0
 10
134.3067029829164
 20
135.5693304782604
 30
0.0
 10
134.3067029829164
 20
135.5693304782604
 30
0.0
 10
134.1127441070968
 20
135.7443413289111
 30
0.0
 10
134.1127441070968
 20
135.7443413289111
 30
0.0
 10
134.1127441070968
 20
135.7443413289111
 30
0.0
 10
134.1830240549959
 20
135.8159993150043
 30
0.0
 10
134.1830240549959
 20
135.8159993150043
 30
0.0
 10
134.1830240549959
 20
135.8159993150043
 30
0.0
 10
134.3804280263007
 20
135.6389214070625
 30
0.0
 10
134.3804280263007
 20
135.6389214070625
 30
0.0
 10
134.4648328656893
 20
135.6967990112147
 30
0.0
 10
134.5616400488248
 20
135.7384846665862
 30
0.0
 10
134.6711940852558
 20
135.7636338636285
 30
0.0
 10
134.7418185427034
 20
135.7791367933121
 30
0.0
 10
134.812443000151
 20
135.7870605129282
 30
0.0
 10
134.8830674575987
 20
135.7870605129282
 30
0.0
 10
135.1200900269838
 20
135.7870605129282
 30
0.0
 10
135.3154269409975
 20
135.722637227354
 30
0.0
 10
135.4694227091882
 20
135.5937906562057
 30
0.0
 10
135.6234184773788
 20
135.4649440850574
 30
0.0
 10
135.7002441066999
 20
135.2933783298919
 30
0.0
 10
135.7002441066999
 20
135.0790933907094
 30
0.0
 10
135.7002441066999
 20
134.977118564346
 30
0.0
 10
135.6854301961133
 20
134.8865125530839
 30
0.0
 10
135.6554578653917
 20
134.8065863378261
 30
0.0
 10
135.6258300442185
 20
134.7266601225683
 30
0.0
 10
135.5851779174926
 20
134.6625813465426
 30
0.0
 10
135.5338459947623
 20
134.6133164811036
 30
0.0
 10
135.5338459947623
 20
134.6133164811036
 30
0.0
 10
135.7098903740586
 20
134.446229350069
 30
0.0
 10
135.7098903740586
 20
134.446229350069
 30
0.0
 10
135.7098903740586
 20
134.446229350069
 30
0.0
 10
135.6382323879654
 20
134.3649250966171
 30
0.0
 10
135.6382323879654
 20
134.3649250966171
 30
0.0
  0
HATCH
  5
2FA
330
2F3
100
AcDbEntity
  8
Sichtbar schmal (ISO)
 62
   250
420
  2039067
440
 33554687
100
AcDbHatch
 10
0.0
 20
0.0
 30
0.0
210
0.0
220
0.0
230
1.0
  2
SOLID
 70
     1
 71
     1
 91
        3
 92
        1
 93
        1
 72
     4
 94
        3
 73
     0
 74
     0
 95
       26
 96
       22
 40
0.0
 40
0.0
 40
0.0
 40
0.0
 40
1.0
 40
1.0
 40
1.0
 40
2.0
 40
2.0
 40
2.0
 40
3.0
 40
3.0
 40
3.0
 40
4.0
 40
4.0
 40
4.0
 40
5.0
 40
5.0
 40
5.0
 40
6.0
 40
6.0
 40
6.0
 40
7.0
 40
7.0
 40
7.0
 40
7.0
 10
135.4563313463442
 20
134.9230305652276
 10
135.474590352416
 20
134.9760850357004
 10
135.4838921102262
 20
135.0298285252703
 10
135.4838921102262
 20
135.0849500530343
 10
135.4838921102262
 20
135.2603054132335
 10
135.4018988376773
 20
135.3846733602511
 10
135.2386013116764
 20
135.4583984036354
 10
135.1400715807983
 20
135.5028401353951
 10
135.0270724488821
 20
135.5252332560492
 10
134.8996039159279
 20
135.5252332560492
 10
134.8169216242819
 20
135.5252332560492
 10
134.7456081477372
 20
135.5183430650787
 10
134.6860079958424
 20
135.5042181735892
 10
134.653624098281
 20
135.4966389635217
 10
134.6160725574918
 20
135.4838921102262
 10
134.5730088639262
 20
135.4659776137029
 10
134.5730088639262
 20
135.4659776137029
 10
135.3512559340441
 20
134.7752359689103
 10
135.3512559340441
 20
134.7752359689103
 10
135.4032768758714
 20
134.8210557388642
 10
135.4384168498209
 20
134.8699760947547
 10
135.4563313463442
 20
134.9230305652276
 97
        0
 97
        1
330
2F7
 92
        1
 93
        1
 72
     4
 94
        3
 73
     0
 74
     0
 95
       26
 96
       22
 40
0.0
 40
0.0
 40
0.0
 40
0.0
 40
1.0
 40
1.0
 40
1.0
 40
2.0
 40
2.0
 40
2.0
 40
3.0
 40
3.0
 40
3.0
 40
4.0
 40
4.0
 40
4.0
 40
5.0
 40
5.0
 40
5.0
 40
6.0
 40
6.0
 40
6.0
 40
7.0
 40
7.0
 40
7.0
 40
7.0
 10
134.3824950835919
 20
135.2868326484699
 10
134.3559678483554
 20
135.2292995538663
 10
134.3428764855115
 20
135.1652207778406
 10
134.3428764855115
 20
135.094596320393
 10
134.3428764855115
 20
134.9598930869197
 10
134.3986870323725
 20
134.8520615982314
 10
134.5106526356431
 20
134.7707573447795
 10
134.6222737293653
 20
134.6894530913276
 10
134.7659342111002
 20
134.6488009646017
 10
134.9416340808479
 20
134.6488009646017
 10
135.0081244237132
 20
134.6488009646017
 10
135.0715141806418
 20
134.6556911555722
 10
135.1321478611822
 20
134.6701605566102
 10
135.1662543064862
 20
134.6784287857748
 10
135.2093180000518
 20
134.6928981868129
 10
135.2620279609761
 20
134.7125352310788
 10
135.2620279609761
 20
134.7125352310788
 10
134.4799912858244
 20
135.412234124133
 10
134.4799912858244
 20
135.412234124133
 10
134.4414062163896
 20
135.3860513984451
 10
134.4090223188283
 20
135.3447102526221
 10
134.3824950835919
 20
135.2868326484699
 97
        0
 97
        1
330
2F8
 92
        1
 93
        1
 72
     4
 94
        3
 73
     0
 74
     0
 95
       59
 96
       55
 40
0.0
 40
0.0
 40
0.0
 40
0.0
 40
1.0
 40
1.0
 40
1.0
 40
2.0
 40
2.0
 40
2.0
 40
3.0
 40
3.0
 40
3.0
 40
4.0
 40
4.0
 40
4.0
 40
5.0
 40
5.0
 40
5.0
 40
6.0
 40
6.0
 40
6.0
 40
7.0
 40
7.0
 40
7.0
 40
8.0
 40
8.0
 40
8.0
 40
9.0
 40
9.0
 40
9.0
 40
10.0
 40
10.0
 40
10.0
 40
11.0
 40
11.0
 40
11.0
 40
12.0
 40
12.0
 40
12.0
 40
13.0
 40
13.0
 40
13.0
 40
14.0
 40
14.0
 40
14.0
 40
15.0
 40
15.0
 40
15.0
 40
16.0
 40
16.0
 40
16.0
 40
17.0
 40
17.0
 40
17.0
 40
18.0
 40
18.0
 40
18.0
 40
18.0
 10
135.6382323879654
 20
134.3649250966171
 10
135.6382323879654
 20
134.3649250966171
 10
135.452886250859
 20
134.5420030045589
 10
135.452886250859
 20
134.5420030045589
 10
135.3850178697996
 20
134.4958387250566
 10
135.308536750027
 20
134.46000973201
 10
135.2241319106384
 20
134.4352050445162
 10
135.1397270712498
 20
134.4104003570224
 10
135.039474792629
 20
134.3979980132755
 10
134.9240640938731
 20
134.3979980132755
 10
134.7156358170155
 20
134.3979980132755
 10
134.5302896799091
 20
134.4565646365247
 10
134.3680256825538
 20
134.5736978830232
 10
134.2061061947471
 20
134.6904866199732
 10
134.1251464508437
 20
134.8610188464931
 10
134.1251464508437
 20
135.0849500530343
 10
134.1251464508437
 20
135.2013942804358
 10
134.1458170237552
 20
135.3037136163477
 10
134.1875026791267
 20
135.3915635512215
 10
134.211962857072
 20
135.4432399835003
 10
134.2515814551523
 20
135.5024956258466
 10
134.3067029829164
 20
135.5693304782604
 10
134.3067029829164
 20
135.5693304782604
 10
134.1127441070968
 20
135.7443413289111
 10
134.1127441070968
 20
135.7443413289111
 10
134.1127441070968
 20
135.7443413289111
 10
134.1830240549959
 20
135.8159993150043
 10
134.1830240549959
 20
135.8159993150043
 10
134.1830240549959
 20
135.8159993150043
 10
134.3804280263007
 20
135.6389214070625
 10
134.3804280263007
 20
135.6389214070625
 10
134.4648328656893
 20
135.6967990112147
 10
134.5616400488248
 20
135.7384846665862
 10
134.6711940852558
 20
135.7636338636285
 10
134.7418185427034
 20
135.7791367933121
 10
134.812443000151
 20
135.7870605129282
 10
134.8830674575987
 20
135.7870605129282
 10
135.1200900269838
 20
135.7870605129282
 10
135.3154269409975
 20
135.722637227354
 10
135.4694227091882
 20
135.5937906562057
 10
135.6234184773788
 20
135.4649440850574
 10
135.7002441066999
 20
135.2933783298919
 10
135.7002441066999
 20
135.0790933907094
 10
135.7002441066999
 20
134.977118564346
 10
135.6854301961133
 20
134.8865125530839
 10
135.6554578653917
 20
134.8065863378261
 10
135.6258300442185
 20
134.7266601225683
 10
135.5851779174926
 20
134.6625813465426
 10
135.5338459947623
 20
134.6133164811036
 10
135.5338459947623
 20
134.6133164811036
 10
135.7098903740586
 20
134.446229350069
 10
135.7098903740586
 20
134.446229350069
 10
135.7098903740586
 20
134.446229350069
 10
135.6382323879654
 20
134.3649250966171
 10
135.6382323879654
 20
134.3649250966171
 97
        0
 97
        1
330
2F9
 75
     2
 76
     1
 98
        1
 10
0.0
 20
0.0
450
        0
451
        0
460
0.0
461
0.0
452
        0
462
0.0
453
        0
470

  0
SPLINE
  5
2FB
330
2F3
100
AcDbEntity
  8
Sichtbar schmal (ISO)
100
AcDbSpline
210
0.0
220
0.0
230
1.0
 70
     9
 71
     3
 72
    41
 73
    37
 74
     0
 42
0.0000000001
 43
0.0000000001
 40
0.0
 40
0.0
 40
0.0
 40
0.0
 40
1.0
 40
1.0
 40
1.0
 40
2.0
 40
2.0
 40
2.0
 40
3.0
 40
3.0
 40
3.0
 40
4.0
 40
4.0
 40
4.0
 40
5.0
 40
5.0
 40
5.0
 40
6.0
 40
6.0
 40
6.0
 40
7.0
 40
7.0
 40
7.0
 40
8.0
 40
8.0
 40
8.0
 40
9.0
 40
9.0
 40
9.0
 40
10.0
 40
10.0
 40
10.0
 40
11.0
 40
11.0
 40
11.0
 40
12.0
 40
12.0
 40
12.0
 40
12.0
 10
134.825534362995
 20
136.5911457991855
 30
0.0
 10
134.6140055002007
 20
136.9294541758371
 30
0.0
 10
134.4954942155081
 20
137.1017089500996
 30
0.0
 10
134.2164414812028
 20
137.1017089500996
 30
0.0
 10
133.9990559560835
 20
137.1017089500996
 30
0.0
 10
133.8553954743486
 20
136.9266980994489
 30
0.0
 10
133.8553954743486
 20
136.7151692366545
 30
0.0
 10
133.8553954743486
 20
136.4361165023493
 30
0.0
 10
134.1120550879997
 20
136.3176052176567
 30
0.0
 10
134.3518337337731
 20
136.3258734468213
 30
0.0
 10
134.3518337337731
 20
136.3258734468213
 30
0.0
 10
134.3518337337731
 20
136.0860948010479
 30
0.0
 10
134.3518337337731
 20
136.0860948010479
 30
0.0
 10
133.9456569760622
 20
136.0637016803938
 30
0.0
 10
133.6438666115543
 20
136.3062364025554
 30
0.0
 10
133.6438666115543
 20
136.729294128144
 30
0.0
 10
133.6438666115543
 20
137.0762152435087
 30
0.0
 10
133.8467827356355
 20
137.355267977814
 30
0.0
 10
134.219197557591
 20
137.355267977814
 30
0.0
 10
134.5719753352806
 20
137.355267977814
 30
0.0
 10
134.7466416763827
 20
137.1185899179773
 30
0.0
 10
134.9047715591557
 20
136.8701985334908
 30
0.0
 10
135.0542887032156
 20
136.6221516585528
 30
0.0
 10
135.1865803698492
 20
136.3541232298003
 30
0.0
 10
135.4322156779475
 20
136.3089924789436
 30
0.0
 10
135.4322156779475
 20
136.3089924789436
 30
0.0
 10
135.4322156779475
 20
137.3359754430965
 30
0.0
 10
135.4322156779475
 20
137.3359754430965
 30
0.0
 10
135.4322156779475
 20
137.3359754430965
 30
0.0
 10
135.6437445407418
 20
137.3359754430965
 30
0.0
 10
135.6437445407418
 20
137.3359754430965
 30
0.0
 10
135.6437445407418
 20
137.3359754430965
 30
0.0
 10
135.6437445407418
 20
136.0295952350898
 30
0.0
 10
135.6437445407418
 20
136.0295952350898
 30
0.0
 10
135.1724554783596
 20
136.066457756782
 30
0.0
 10
134.9950330608693
 20
136.3089924789436
 30
0.0
 10
134.825534362995
 20
136.5911457991855
 30
0.0
  0
HATCH
  5
2FC
330
2F3
100
AcDbEntity
  8
Sichtbar schmal (ISO)
 62
    18
420
        0
440
 33554687
100
AcDbHatch
 10
0.0
 20
0.0
 30
0.0
210
0.0
220
0.0
230
1.0
  2
SOLID
 70
     1
 71
     1
 91
        1
 92
        1
 93
        1
 72
     4
 94
        3
 73
     0
 74
     0
 95
       41
 96
       37
 40
0.0
 40
0.0
 40
0.0
 40
0.0
 40
1.0
 40
1.0
 40
1.0
 40
2.0
 40
2.0
 40
2.0
 40
3.0
 40
3.0
 40
3.0
 40
4.0
 40
4.0
 40
4.0
 40
5.0
 40
5.0
 40
5.0
 40
6.0
 40
6.0
 40
6.0
 40
7.0
 40
7.0
 40
7.0
 40
8.0
 40
8.0
 40
8.0
 40
9.0
 40
9.0
 40
9.0
 40
10.0
 40
10.0
 40
10.0
 40
11.0
 40
11.0
 40
11.0
 40
12.0
 40
12.0
 40
12.0
 40
12.0
 10
134.825534362995
 20
136.5911457991855
 10
134.6140055002007
 20
136.9294541758371
 10
134.4954942155081
 20
137.1017089500996
 10
134.2164414812028
 20
137.1017089500996
 10
133.9990559560835
 20
137.1017089500996
 10
133.8553954743486
 20
136.9266980994489
 10
133.8553954743486
 20
136.7151692366545
 10
133.8553954743486
 20
136.4361165023493
 10
134.1120550879997
 20
136.3176052176567
 10
134.3518337337731
 20
136.3258734468213
 10
134.3518337337731
 20
136.3258734468213
 10
134.3518337337731
 20
136.0860948010479
 10
134.3518337337731
 20
136.0860948010479
 10
133.9456569760622
 20
136.0637016803938
 10
133.6438666115543
 20
136.3062364025554
 10
133.6438666115543
 20
136.729294128144
 10
133.6438666115543
 20
137.0762152435087
 10
133.8467827356355
 20
137.355267977814
 10
134.219197557591
 20
137.355267977814
 10
134.5719753352806
 20
137.355267977814
 10
134.7466416763827
 20
137.1185899179773
 10
134.9047715591557
 20
136.8701985334908
 10
135.0542887032156
 20
136.6221516585528
 10
135.1865803698492
 20
136.3541232298003
 10
135.4322156779475
 20
136.3089924789436
 10
135.4322156779475
 20
136.3089924789436
 10
135.4322156779475
 20
137.3359754430965
 10
135.4322156779475
 20
137.3359754430965
 10
135.4322156779475
 20
137.3359754430965
 10
135.6437445407418
 20
137.3359754430965
 10
135.6437445407418
 20
137.3359754430965
 10
135.6437445407418
 20
137.3359754430965
 10
135.6437445407418
 20
136.0295952350898
 10
135.6437445407418
 20
136.0295952350898
 10
135.1724554783596
 20
136.066457756782
 10
134.9950330608693
 20
136.3089924789436
 10
134.825534362995
 20
136.5911457991855
 97
        0
 97
        1
330
2FB
 75
     2
 76
     1
 98
        1
 10
0.0
 20
0.0
450
        0
451
        0
460
0.0
461
0.0
452
        0
462
0.0
453
        0
470

  0
SPLINE
  5
2FD
330
2F3
100
AcDbEntity
  8
Sichtbar schmal (ISO)
100
AcDbSpline
210
0.0
220
0.0
230
1.0
 70
     9
 71
     3
 72
    17
 73
    13
 74
     0
 42
0.0000000001
 43
0.0000000001
 40
0.0
 40
0.0
 40
0.0
 40
0.0
 40
1.0
 40
1.0
 40
1.0
 40
2.0
 40
2.0
 40
2.0
 40
3.0
 40
3.0
 40
3.0
 40
4.0
 40
4.0
 40
4.0
 40
4.0
 10
134.3122151356928
 20
138.6850748351204
 30
0.0
 10
134.066924337143
 20
138.6850748351204
 30
0.0
 10
133.8553954743486
 20
138.5410698438369
 30
0.0
 10
133.8553954743486
 20
138.2730414150845
 30
0.0
 10
133.8553954743486
 20
137.9884765280029
 30
0.0
 10
134.0838053050207
 20
137.8809895488631
 30
0.0
 10
134.3290961035705
 20
137.8809895488631
 30
0.0
 10
134.5464816286898
 20
137.8809895488631
 30
0.0
 10
134.7524983387077
 20
138.0446315844124
 30
0.0
 10
134.7524983387077
 20
138.2757974914727
 30
0.0
 10
134.7524983387077
 20
138.5269449523474
 30
0.0
 10
134.549237705078
 20
138.6850748351204
 30
0.0
 10
134.3122151356928
 20
138.6850748351204
 30
0.0
  0
SPLINE
  5
2FE
330
2F3
100
AcDbEntity
  8
Sichtbar schmal (ISO)
100
AcDbSpline
210
0.0
220
0.0
230
1.0
 70
     9
 71
     3
 72
    35
 73
    31
 74
     0
 42
0.0000000001
 43
0.0000000001
 40
0.0
 40
0.0
 40
0.0
 40
0.0
 40
1.0
 40
1.0
 40
1.0
 40
2.0
 40
2.0
 40
2.0
 40
3.0
 40
3.0
 40
3.0
 40
4.0
 40
4.0
 40
4.0
 40
5.0
 40
5.0
 40
5.0
 40
6.0
 40
6.0
 40
6.0
 40
7.0
 40
7.0
 40
7.0
 40
8.0
 40
8.0
 40
8.0
 40
9.0
 40
9.0
 40
9.0
 40
10.0
 40
10.0
 40
10.0
 40
10.0
 10
135.1614311728068
 20
137.9092393318421
 30
0.0
 10
135.3560790677235
 20
137.9292208856566
 30
0.0
 10
135.4659776137029
 20
138.0842501824928
 30
0.0
 10
135.4659776137029
 20
138.2757974914727
 30
0.0
 10
135.4659776137029
 20
138.569319626816
 30
0.0
 10
135.21207407644
 20
138.7133246180994
 30
0.0
 10
134.6932426963614
 20
138.7271050000404
 30
0.0
 10
134.6932426963614
 20
138.7271050000404
 30
0.0
 10
134.6873860340365
 20
138.721592847264
 30
0.0
 10
134.6873860340365
 20
138.721592847264
 30
0.0
 10
134.8565402223622
 20
138.6313313455505
 30
0.0
 10
134.964027201502
 20
138.4535644185116
 30
0.0
 10
134.964027201502
 20
138.2592610331435
 30
0.0
 10
134.964027201502
 20
137.8499836894958
 30
0.0
 10
134.6901421104247
 20
137.6274305211487
 30
0.0
 10
134.295334167815
 20
137.6274305211487
 30
0.0
 10
133.9118950403067
 20
137.6274305211487
 30
0.0
 10
133.6438666115543
 20
137.8982150262893
 30
0.0
 10
133.6438666115543
 20
138.2844102301858
 30
0.0
 10
133.6438666115543
 20
138.6568250521413
 30
0.0
 10
133.8440266592473
 20
138.969639722202
 30
0.0
 10
134.5998806087111
 20
138.969639722202
 30
0.0
 10
135.2909667630523
 20
138.969639722202
 30
0.0
 10
135.6775064764973
 20
138.7612114453444
 30
0.0
 10
135.6775064764973
 20
138.2757974914727
 30
0.0
 10
135.6775064764973
 20
137.9402451912094
 30
0.0
 10
135.5055962117833
 20
137.700466545436
 30
0.0
 10
135.1614311728068
 20
137.6694606860687
 30
0.0
 10
135.1614311728068
 20
137.6694606860687
 30
0.0
 10
135.1614311728068
 20
137.9092393318421
 30
0.0
 10
135.1614311728068
 20
137.9092393318421
 30
0.0
  0
HATCH
  5
2FF
330
2F3
100
AcDbEntity
  8
Sichtbar schmal (ISO)
 62
    18
420
        0
440
 33554687
100
AcDbHatch
 10
0.0
 20
0.0
 30
0.0
210
0.0
220
0.0
230
1.0
  2
SOLID
 70
     1
 71
     1
 91
        2
 92
        1
 93
        1
 72
     4
 94
        3
 73
     0
 74
     0
 95
       17
 96
       13
 40
0.0
 40
0.0
 40
0.0
 40
0.0
 40
1.0
 40
1.0
 40
1.0
 40
2.0
 40
2.0
 40
2.0
 40
3.0
 40
3.0
 40
3.0
 40
4.0
 40
4.0
 40
4.0
 40
4.0
 10
134.3122151356928
 20
138.6850748351204
 10
134.066924337143
 20
138.6850748351204
 10
133.8553954743486
 20
138.5410698438369
 10
133.8553954743486
 20
138.2730414150845
 10
133.8553954743486
 20
137.9884765280029
 10
134.0838053050207
 20
137.8809895488631
 10
134.3290961035705
 20
137.8809895488631
 10
134.5464816286898
 20
137.8809895488631
 10
134.7524983387077
 20
138.0446315844124
 10
134.7524983387077
 20
138.2757974914727
 10
134.7524983387077
 20
138.5269449523474
 10
134.549237705078
 20
138.6850748351204
 10
134.3122151356928
 20
138.6850748351204
 97
        0
 97
        1
330
2FD
 92
        1
 93
        1
 72
     4
 94
        3
 73
     0
 74
     0
 95
       35
 96
       31
 40
0.0
 40
0.0
 40
0.0
 40
0.0
 40
1.0
 40
1.0
 40
1.0
 40
2.0
 40
2.0
 40
2.0
 40
3.0
 40
3.0
 40
3.0
 40
4.0
 40
4.0
 40
4.0
 40
5.0
 40
5.0
 40
5.0
 40
6.0
 40
6.0
 40
6.0
 40
7.0
 40
7.0
 40
7.0
 40
8.0
 40
8.0
 40
8.0
 40
9.0
 40
9.0
 40
9.0
 40
10.0
 40
10.0
 40
10.0
 40
10.0
 10
135.1614311728068
 20
137.9092393318421
 10
135.3560790677235
 20
137.9292208856566
 10
135.4659776137029
 20
138.0842501824928
 10
135.4659776137029
 20
138.2757974914727
 10
135.4659776137029
 20
138.569319626816
 10
135.21207407644
 20
138.7133246180994
 10
134.6932426963614
 20
138.7271050000404
 10
134.6932426963614
 20
138.7271050000404
 10
134.6873860340365
 20
138.721592847264
 10
134.6873860340365
 20
138.721592847264
 10
134.8565402223622
 20
138.6313313455505
 10
134.964027201502
 20
138.4535644185116
 10
134.964027201502
 20
138.2592610331435
 10
134.964027201502
 20
137.8499836894958
 10
134.6901421104247
 20
137.6274305211487
 10
134.295334167815
 20
137.6274305211487
 10
133.9118950403067
 20
137.6274305211487
 10
133.6438666115543
 20
137.8982150262893
 10
133.6438666115543
 20
138.2844102301858
 10
133.6438666115543
 20
138.6568250521413
 10
133.8440266592473
 20
138.969639722202
 10
134.5998806087111
 20
138.969639722202
 10
135.2909667630523
 20
138.969639722202
 10
135.6775064764973
 20
138.7612114453444
 10
135.6775064764973
 20
138.2757974914727
 10
135.6775064764973
 20
137.9402451912094
 10
135.5055962117833
 20
137.700466545436
 10
135.1614311728068
 20
137.6694606860687
 10
135.1614311728068
 20
137.6694606860687
 10
135.1614311728068
 20
137.9092393318421
 10
135.1614311728068
 20
137.9092393318421
 97
        0
 97
        1
330
2FE
 75
     2
 76
     1
 98
        1
 10
0.0
 20
0.0
450
        0
451
        0
460
0.0
461
0.0
452
        0
462
0.0
453
        0
470

  0
SPLINE
  5
300
330
2F3
100
AcDbEntity
  8
Sichtbar schmal (ISO)
100
AcDbSpline
210
0.0
220
0.0
230
1.0
 70
     9
 71
     3
 72
    53
 73
    49
 74
     0
 42
0.0000000001
 43
0.0000000001
 40
0.0
 40
0.0
 40
0.0
 40
0.0
 40
1.0
 40
1.0
 40
1.0
 40
2.0
 40
2.0
 40
2.0
 40
3.0
 40
3.0
 40
3.0
 40
4.0
 40
4.0
 40
4.0
 40
5.0
 40
5.0
 40
5.0
 40
6.0
 40
6.0
 40
6.0
 40
7.0
 40
7.0
 40
7.0
 40
8.0
 40
8.0
 40
8.0
 40
9.0
 40
9.0
 40
9.0
 40
10.0
 40
10.0
 40
10.0
 40
11.0
 40
11.0
 40
11.0
 40
12.0
 40
12.0
 40
12.0
 40
13.0
 40
13.0
 40
13.0
 40
14.0
 40
14.0
 40
14.0
 40
15.0
 40
15.0
 40
15.0
 40
16.0
 40
16.0
 40
16.0
 40
16.0
 10
135.1049316068487
 20
139.438861727293
 30
0.0
 10
135.3109483168667
 20
139.4533311283311
 30
0.0
 10
135.4659776137029
 20
139.6193847307201
 30
0.0
 10
135.4659776137029
 20
139.8591633764935
 30
0.0
 10
135.4659776137029
 20
140.0879177167141
 30
0.0
 10
135.30784773093
 20
140.2822211020822
 30
0.0
 10
134.9919324749325
 20
140.2822211020822
 30
0.0
 10
134.729760708505
 20
140.2822211020822
 30
0.0
 10
134.5378688899766
 20
140.1016980986551
 30
0.0
 10
134.5378688899766
 20
139.8309135935145
 30
0.0
 10
134.5378688899766
 20
139.6758842966782
 30
0.0
 10
134.6140055002007
 20
139.5518608592092
 30
0.0
 10
134.7270046321168
 20
139.4588432811075
 30
0.0
 10
134.7270046321168
 20
139.4588432811075
 30
0.0
 10
134.7156358170155
 20
139.2528265710895
 30
0.0
 10
134.7156358170155
 20
139.2528265710895
 30
0.0
 10
134.7156358170155
 20
139.2528265710895
 30
0.0
 10
133.6776285473097
 20
139.438861727293
 30
0.0
 10
133.6776285473097
 20
139.438861727293
 30
0.0
 10
133.6776285473097
 20
139.438861727293
 30
0.0
 10
133.6776285473097
 20
140.4262260933657
 30
0.0
 10
133.6776285473097
 20
140.4262260933657
 30
0.0
 10
133.6776285473097
 20
140.4262260933657
 30
0.0
 10
133.8891574101041
 20
140.4262260933657
 30
0.0
 10
133.8891574101041
 20
140.4262260933657
 30
0.0
 10
133.8891574101041
 20
140.4262260933657
 30
0.0
 10
133.8891574101041
 20
139.6193847307201
 30
0.0
 10
133.8891574101041
 20
139.6193847307201
 30
0.0
 10
133.8891574101041
 20
139.6193847307201
 30
0.0
 10
134.4644883561408
 20
139.5125867706774
 30
0.0
 10
134.4644883561408
 20
139.5125867706774
 30
0.0
 10
134.4644883561408
 20
139.5125867706774
 30
0.0
 10
134.4703450184657
 20
139.5180989234538
 30
0.0
 10
134.4703450184657
 20
139.5180989234538
 30
0.0
 10
134.3714707780391
 20
139.6056043487791
 30
0.0
 10
134.3263400271823
 20
139.755121492839
 30
0.0
 10
134.3263400271823
 20
139.8901692358608
 30
0.0
 10
134.3263400271823
 20
140.2457030899386
 30
0.0
 10
134.5519937814661
 20
140.5364691488937
 30
0.0
 10
135.011914028747
 20
140.5364691488937
 30
0.0
 10
135.3502224053986
 20
140.5364691488937
 30
0.0
 10
135.6775064764973
 20
140.3022026558967
 30
0.0
 10
135.6775064764973
 20
139.8367702558394
 30
0.0
 10
135.6775064764973
 20
139.4898491404747
 30
0.0
 10
135.4659776137029
 20
139.2076958202328
 30
0.0
 10
135.1049316068487
 20
139.1990830815197
 30
0.0
 10
135.1049316068487
 20
139.1990830815197
 30
0.0
 10
135.1049316068487
 20
139.438861727293
 30
0.0
 10
135.1049316068487
 20
139.438861727293
 30
0.0
  0
HATCH
  5
301
330
2F3
100
AcDbEntity
  8
Sichtbar schmal (ISO)
 62
    18
420
        0
440
 33554687
100
AcDbHatch
 10
0.0
 20
0.0
 30
0.0
210
0.0
220
0.0
230
1.0
  2
SOLID
 70
     1
 71
     1
 91
        1
 92
        1
 93
        1
 72
     4
 94
        3
 73
     0
 74
     0
 95
       53
 96
       49
 40
0.0
 40
0.0
 40
0.0
 40
0.0
 40
1.0
 40
1.0
 40
1.0
 40
2.0
 40
2.0
 40
2.0
 40
3.0
 40
3.0
 40
3.0
 40
4.0
 40
4.0
 40
4.0
 40
5.0
 40
5.0
 40
5.0
 40
6.0
 40
6.0
 40
6.0
 40
7.0
 40
7.0
 40
7.0
 40
8.0
 40
8.0
 40
8.0
 40
9.0
 40
9.0
 40
9.0
 40
10.0
 40
10.0
 40
10.0
 40
11.0
 40
11.0
 40
11.0
 40
12.0
 40
12.0
 40
12.0
 40
13.0
 40
13.0
 40
13.0
 40
14.0
 40
14.0
 40
14.0
 40
15.0
 40
15.0
 40
15.0
 40
16.0
 40
16.0
 40
16.0
 40
16.0
 10
135.1049316068487
 20
139.438861727293
 10
135.3109483168667
 20
139.4533311283311
 10
135.4659776137029
 20
139.6193847307201
 10
135.4659776137029
 20
139.8591633764935
 10
135.4659776137029
 20
140.0879177167141
 10
135.30784773093
 20
140.2822211020822
 10
134.9919324749325
 20
140.2822211020822
 10
134.729760708505
 20
140.2822211020822
 10
134.5378688899766
 20
140.1016980986551
 10
134.5378688899766
 20
139.8309135935145
 10
134.5378688899766
 20
139.6758842966782
 10
134.6140055002007
 20
139.5518608592092
 10
134.7270046321168
 20
139.4588432811075
 10
134.7270046321168
 20
139.4588432811075
 10
134.7156358170155
 20
139.2528265710895
 10
134.7156358170155
 20
139.2528265710895
 10
134.7156358170155
 20
139.2528265710895
 10
133.6776285473097
 20
139.438861727293
 10
133.6776285473097
 20
139.438861727293
 10
133.6776285473097
 20
139.438861727293
 10
133.6776285473097
 20
140.4262260933657
 10
133.6776285473097
 20
140.4262260933657
 10
133.6776285473097
 20
140.4262260933657
 10
133.8891574101041
 20
140.4262260933657
 10
133.8891574101041
 20
140.4262260933657
 10
133.8891574101041
 20
140.4262260933657
 10
133.8891574101041
 20
139.6193847307201
 10
133.8891574101041
 20
139.6193847307201
 10
133.8891574101041
 20
139.6193847307201
 10
134.4644883561408
 20
139.5125867706774
 10
134.4644883561408
 20
139.5125867706774
 10
134.4644883561408
 20
139.5125867706774
 10
134.4703450184657
 20
139.5180989234538
 10
134.4703450184657
 20
139.5180989234538
 10
134.3714707780391
 20
139.6056043487791
 10
134.3263400271823
 20
139.755121492839
 10
134.3263400271823
 20
139.8901692358608
 10
134.3263400271823
 20
140.2457030899386
 10
134.5519937814661
 20
140.5364691488937
 10
135.011914028747
 20
140.5364691488937
 10
135.3502224053986
 20
140.5364691488937
 10
135.6775064764973
 20
140.3022026558967
 10
135.6775064764973
 20
139.8367702558394
 10
135.6775064764973
 20
139.4898491404747
 10
135.4659776137029
 20
139.2076958202328
 10
135.1049316068487
 20
139.1990830815197
 10
135.1049316068487
 20
139.1990830815197
 10
135.1049316068487
 20
139.438861727293
 10
135.1049316068487
 20
139.438861727293
 97
        0
 97
        1
330
300
 75
     2
 76
     1
 98
        1
 10
0.0
 20
0.0
450
        0
451
        0
460
0.0
461
0.0
452
        0
462
0.0
453
        0
470

  0
ENDBLK
  5
2F6
330
2F3
100
AcDbEntity
  8
0
100
AcDbBlockEnd
  0
BLOCK
  5
304
330
302
100
AcDbEntity
  8
0
100
AcDbBlockBegin
  2
Block_37
 70
     0
 10
0.0
 20
0.0
 30
0.0
  3
Block_37
  1

  0
INSERT
  5
307
330
302
100
AcDbEntity
  8
Sichtbar schmal (ISO)
100
AcDbBlockReference
  2
Block_38
 10
0.0
 20
0.0
 30
0.0
  0
ENDBLK
  5
305
330
302
100
AcDbEntity
  8
0
100
AcDbBlockEnd
  0
BLOCK
  5
308
330
306
100
AcDbEntity
  8
0
100
AcDbBlockBegin
  2
Block_38
 70
     0
 10
0.0
 20
0.0
 30
0.0
  3
Block_38
  1

  0
SPLINE
  5
30A
330
306
100
AcDbEntity
  8
Sichtbar schmal (ISO)
100
AcDbSpline
210
0.0
220
0.0
230
1.0
 70
     9
 71
     3
 72
    26
 73
    22
 74
     0
 42
0.0000000001
 43
0.0000000001
 40
0.0
 40
0.0
 40
0.0
 40
0.0
 40
1.0
 40
1.0
 40
1.0
 40
2.0
 40
2.0
 40
2.0
 40
3.0
 40
3.0
 40
3.0
 40
4.0
 40
4.0
 40
4.0
 40
5.0
 40
5.0
 40
5.0
 40
6.0
 40
6.0
 40
6.0
 40
7.0
 40
7.0
 40
7.0
 40
7.0
 10
142.4960394609037
 20
134.9361219280715
 30
0.0
 10
142.5142984669756
 20
134.9891763985443
 30
0.0
 10
142.5236002247858
 20
135.0429198881142
 30
0.0
 10
142.5236002247858
 20
135.0980414158782
 30
0.0
 10
142.5236002247858
 20
135.2733967760775
 30
0.0
 10
142.4416069522368
 20
135.397764723095
 30
0.0
 10
142.278309426236
 20
135.4714897664793
 30
0.0
 10
142.1797796953578
 20
135.515931498239
 30
0.0
 10
142.0667805634416
 20
135.5383246188932
 30
0.0
 10
141.9393120304874
 20
135.5383246188932
 30
0.0
 10
141.8566297388414
 20
135.5383246188932
 30
0.0
 10
141.7853162622967
 20
135.5314344279227
 30
0.0
 10
141.7257161104019
 20
135.5173095364331
 30
0.0
 10
141.6933322128405
 20
135.5097303263656
 30
0.0
 10
141.6557806720513
 20
135.4969834730702
 30
0.0
 10
141.6127169784857
 20
135.4790689765469
 30
0.0
 10
141.6127169784857
 20
135.4790689765469
 30
0.0
 10
142.3909640486036
 20
134.7883273317543
 30
0.0
 10
142.3909640486036
 20
134.7883273317543
 30
0.0
 10
142.4429849904309
 20
134.8341471017081
 30
0.0
 10
142.4781249643805
 20
134.8830674575987
 30
0.0
 10
142.4960394609037
 20
134.9361219280715
 30
0.0
  0
SPLINE
  5
30B
330
306
100
AcDbEntity
  8
Sichtbar schmal (ISO)
100
AcDbSpline
210
0.0
220
0.0
230
1.0
 70
     9
 71
     3
 72
    26
 73
    22
 74
     0
 42
0.0000000001
 43
0.0000000001
 40
0.0
 40
0.0
 40
0.0
 40
0.0
 40
1.0
 40
1.0
 40
1.0
 40
2.0
 40
2.0
 40
2.0
 40
3.0
 40
3.0
 40
3.0
 40
4.0
 40
4.0
 40
4.0
 40
5.0
 40
5.0
 40
5.0
 40
6.0
 40
6.0
 40
6.0
 40
7.0
 40
7.0
 40
7.0
 40
7.0
 10
141.4222031981514
 20
135.2999240113139
 30
0.0
 10
141.3956759629149
 20
135.2423909167102
 30
0.0
 10
141.382584600071
 20
135.1783121406846
 30
0.0
 10
141.382584600071
 20
135.1076876832369
 30
0.0
 10
141.382584600071
 20
134.9729844497637
 30
0.0
 10
141.438395146932
 20
134.8651529610753
 30
0.0
 10
141.5503607502027
 20
134.7838487076235
 30
0.0
 10
141.6619818439248
 20
134.7025444541716
 30
0.0
 10
141.8056423256597
 20
134.6618923274456
 30
0.0
 10
141.9813421954074
 20
134.6618923274456
 30
0.0
 10
142.0478325382727
 20
134.6618923274456
 30
0.0
 10
142.1112222952013
 20
134.6687825184161
 30
0.0
 10
142.1718559757418
 20
134.6832519194542
 30
0.0
 10
142.2059624210457
 20
134.6915201486188
 30
0.0
 10
142.2490261146113
 20
134.7059895496568
 30
0.0
 10
142.3017360755356
 20
134.7256265939227
 30
0.0
 10
142.3017360755356
 20
134.7256265939227
 30
0.0
 10
141.5196994003839
 20
135.425325486977
 30
0.0
 10
141.5196994003839
 20
135.425325486977
 30
0.0
 10
141.4811143309491
 20
135.3991427612891
 30
0.0
 10
141.4487304333878
 20
135.3578016154661
 30
0.0
 10
141.4222031981514
 20
135.2999240113139
 30
0.0
  0
SPLINE
  5
30C
330
306
100
AcDbEntity
  8
Sichtbar schmal (ISO)
100
AcDbSpline
210
0.0
220
0.0
230
1.0
 70
    11
 71
     3
 72
    59
 73
    55
 74
     0
 42
0.0000000001
 43
0.0000000001
 40
0.0
 40
0.0
 40
0.0
 40
0.0
 40
1.0
 40
1.0
 40
1.0
 40
2.0
 40
2.0
 40
2.0
 40
3.0
 40
3.0
 40
3.0
 40
4.0
 40
4.0
 40
4.0
 40
5.0
 40
5.0
 40
5.0
 40
6.0
 40
6.0
 40
6.0
 40
7.0
 40
7.0
 40
7.0
 40
8.0
 40
8.0
 40
8.0
 40
9.0
 40
9.0
 40
9.0
 40
10.0
 40
10.0
 40
10.0
 40
11.0
 40
11.0
 40
11.0
 40
12.0
 40
12.0
 40
12.0
 40
13.0
 40
13.0
 40
13.0
 40
14.0
 40
14.0
 40
14.0
 40
15.0
 40
15.0
 40
15.0
 40
16.0
 40
16.0
 40
16.0
 40
17.0
 40
17.0
 40
17.0
 40
18.0
 40
18.0
 40
18.0
 40
18.0
 10
142.6779405025249
 20
134.378016459461
 30
0.0
 10
142.6779405025249
 20
134.378016459461
 30
0.0
 10
142.4925943654185
 20
134.5550943674029
 30
0.0
 10
142.4925943654185
 20
134.5550943674029
 30
0.0
 10
142.4247259843591
 20
134.5089300879005
 30
0.0
 10
142.3482448645865
 20
134.4731010948539
 30
0.0
 10
142.2638400251979
 20
134.4482964073601
 30
0.0
 10
142.1794351858093
 20
134.4234917198663
 30
0.0
 10
142.0791829071885
 20
134.4110893761194
 30
0.0
 10
141.9637722084327
 20
134.4110893761194
 30
0.0
 10
141.755343931575
 20
134.4110893761194
 30
0.0
 10
141.5699977944686
 20
134.4696559993687
 30
0.0
 10
141.4077337971133
 20
134.5867892458672
 30
0.0
 10
141.2458143093066
 20
134.7035779828171
 30
0.0
 10
141.1648545654032
 20
134.874110209337
 30
0.0
 10
141.1648545654032
 20
135.0980414158782
 30
0.0
 10
141.1648545654032
 20
135.2144856432797
 30
0.0
 10
141.1855251383147
 20
135.3168049791916
 30
0.0
 10
141.2272107936862
 20
135.4046549140655
 30
0.0
 10
141.2516709716315
 20
135.4563313463442
 30
0.0
 10
141.2912895697119
 20
135.5155869886905
 30
0.0
 10
141.3464110974759
 20
135.5824218411044
 30
0.0
 10
141.3464110974759
 20
135.5824218411044
 30
0.0
 10
141.1524522216563
 20
135.7574326917551
 30
0.0
 10
141.1524522216563
 20
135.7574326917551
 30
0.0
 10
141.1524522216563
 20
135.7574326917551
 30
0.0
 10
141.2227321695554
 20
135.8290906778483
 30
0.0
 10
141.2227321695554
 20
135.8290906778483
 30
0.0
 10
141.2227321695554
 20
135.8290906778483
 30
0.0
 10
141.4201361408602
 20
135.6520127699064
 30
0.0
 10
141.4201361408602
 20
135.6520127699064
 30
0.0
 10
141.5045409802488
 20
135.7098903740586
 30
0.0
 10
141.6013481633844
 20
135.7515760294301
 30
0.0
 10
141.7109021998153
 20
135.7767252264725
 30
0.0
 10
141.7815266572629
 20
135.7922281561561
 30
0.0
 10
141.8521511147106
 20
135.8001518757722
 30
0.0
 10
141.9227755721582
 20
135.8001518757722
 30
0.0
 10
142.1597981415434
 20
135.8001518757722
 30
0.0
 10
142.355135055557
 20
135.735728590198
 30
0.0
 10
142.5091308237477
 20
135.6068820190496
 30
0.0
 10
142.6631265919384
 20
135.4780354479013
 30
0.0
 10
142.7399522212595
 20
135.3064696927359
 30
0.0
 10
142.7399522212595
 20
135.0921847535533
 30
0.0
 10
142.7399522212595
 20
134.9902099271899
 30
0.0
 10
142.7251383106729
 20
134.8996039159279
 30
0.0
 10
142.6951659799512
 20
134.8196777006701
 30
0.0
 10
142.665538158778
 20
134.7397514854123
 30
0.0
 10
142.6248860320521
 20
134.6756727093866
 30
0.0
 10
142.5735541093219
 20
134.6264078439475
 30
0.0
 10
142.5735541093219
 20
134.6264078439475
 30
0.0
 10
142.7495984886181
 20
134.4593207129129
 30
0.0
 10
142.7495984886181
 20
134.4593207129129
 30
0.0
 10
142.7495984886181
 20
134.4593207129129
 30
0.0
 10
142.6779405025249
 20
134.378016459461
 30
0.0
 10
142.6779405025249
 20
134.378016459461
 30
0.0
  0
HATCH
  5
30D
330
306
100
AcDbEntity
  8
Sichtbar schmal (ISO)
 62
   250
420
  2039067
440
 33554687
100
AcDbHatch
 10
0.0
 20
0.0
 30
0.0
210
0.0
220
0.0
230
1.0
  2
SOLID
 70
     1
 71
     1
 91
        3
 92
        1
 93
        1
 72
     4
 94
        3
 73
     0
 74
     0
 95
       26
 96
       22
 40
0.0
 40
0.0
 40
0.0
 40
0.0
 40
1.0
 40
1.0
 40
1.0
 40
2.0
 40
2.0
 40
2.0
 40
3.0
 40
3.0
 40
3.0
 40
4.0
 40
4.0
 40
4.0
 40
5.0
 40
5.0
 40
5.0
 40
6.0
 40
6.0
 40
6.0
 40
7.0
 40
7.0
 40
7.0
 40
7.0
 10
142.4960394609037
 20
134.9361219280715
 10
142.5142984669756
 20
134.9891763985443
 10
142.5236002247858
 20
135.0429198881142
 10
142.5236002247858
 20
135.0980414158782
 10
142.5236002247858
 20
135.2733967760775
 10
142.4416069522368
 20
135.397764723095
 10
142.278309426236
 20
135.4714897664793
 10
142.1797796953578
 20
135.515931498239
 10
142.0667805634416
 20
135.5383246188932
 10
141.9393120304874
 20
135.5383246188932
 10
141.8566297388414
 20
135.5383246188932
 10
141.7853162622967
 20
135.5314344279227
 10
141.7257161104019
 20
135.5173095364331
 10
141.6933322128405
 20
135.5097303263656
 10
141.6557806720513
 20
135.4969834730702
 10
141.6127169784857
 20
135.4790689765469
 10
141.6127169784857
 20
135.4790689765469
 10
142.3909640486036
 20
134.7883273317543
 10
142.3909640486036
 20
134.7883273317543
 10
142.4429849904309
 20
134.8341471017081
 10
142.4781249643805
 20
134.8830674575987
 10
142.4960394609037
 20
134.9361219280715
 97
        0
 97
        1
330
30A
 92
        1
 93
        1
 72
     4
 94
        3
 73
     0
 74
     0
 95
       26
 96
       22
 40
0.0
 40
0.0
 40
0.0
 40
0.0
 40
1.0
 40
1.0
 40
1.0
 40
2.0
 40
2.0
 40
2.0
 40
3.0
 40
3.0
 40
3.0
 40
4.0
 40
4.0
 40
4.0
 40
5.0
 40
5.0
 40
5.0
 40
6.0
 40
6.0
 40
6.0
 40
7.0
 40
7.0
 40
7.0
 40
7.0
 10
141.4222031981514
 20
135.2999240113139
 10
141.3956759629149
 20
135.2423909167102
 10
141.382584600071
 20
135.1783121406846
 10
141.382584600071
 20
135.1076876832369
 10
141.382584600071
 20
134.9729844497637
 10
141.438395146932
 20
134.8651529610753
 10
141.5503607502027
 20
134.7838487076235
 10
141.6619818439248
 20
134.7025444541716
 10
141.8056423256597
 20
134.6618923274456
 10
141.9813421954074
 20
134.6618923274456
 10
142.0478325382727
 20
134.6618923274456
 10
142.1112222952013
 20
134.6687825184161
 10
142.1718559757418
 20
134.6832519194542
 10
142.2059624210457
 20
134.6915201486188
 10
142.2490261146113
 20
134.7059895496568
 10
142.3017360755356
 20
134.7256265939227
 10
142.3017360755356
 20
134.7256265939227
 10
141.5196994003839
 20
135.425325486977
 10
141.5196994003839
 20
135.425325486977
 10
141.4811143309491
 20
135.3991427612891
 10
141.4487304333878
 20
135.3578016154661
 10
141.4222031981514
 20
135.2999240113139
 97
        0
 97
        1
330
30B
 92
        1
 93
        1
 72
     4
 94
        3
 73
     0
 74
     0
 95
       59
 96
       55
 40
0.0
 40
0.0
 40
0.0
 40
0.0
 40
1.0
 40
1.0
 40
1.0
 40
2.0
 40
2.0
 40
2.0
 40
3.0
 40
3.0
 40
3.0
 40
4.0
 40
4.0
 40
4.0
 40
5.0
 40
5.0
 40
5.0
 40
6.0
 40
6.0
 40
6.0
 40
7.0
 40
7.0
 40
7.0
 40
8.0
 40
8.0
 40
8.0
 40
9.0
 40
9.0
 40
9.0
 40
10.0
 40
10.0
 40
10.0
 40
11.0
 40
11.0
 40
11.0
 40
12.0
 40
12.0
 40
12.0
 40
13.0
 40
13.0
 40
13.0
 40
14.0
 40
14.0
 40
14.0
 40
15.0
 40
15.0
 40
15.0
 40
16.0
 40
16.0
 40
16.0
 40
17.0
 40
17.0
 40
17.0
 40
18.0
 40
18.0
 40
18.0
 40
18.0
 10
142.6779405025249
 20
134.378016459461
 10
142.6779405025249
 20
134.378016459461
 10
142.4925943654185
 20
134.5550943674029
 10
142.4925943654185
 20
134.5550943674029
 10
142.4247259843591
 20
134.5089300879005
 10
142.3482448645865
 20
134.4731010948539
 10
142.2638400251979
 20
134.4482964073601
 10
142.1794351858093
 20
134.4234917198663
 10
142.0791829071885
 20
134.4110893761194
 10
141.9637722084327
 20
134.4110893761194
 10
141.755343931575
 20
134.4110893761194
 10
141.5699977944686
 20
134.4696559993687
 10
141.4077337971133
 20
134.5867892458672
 10
141.2458143093066
 20
134.7035779828171
 10
141.1648545654032
 20
134.874110209337
 10
141.1648545654032
 20
135.0980414158782
 10
141.1648545654032
 20
135.2144856432797
 10
141.1855251383147
 20
135.3168049791916
 10
141.2272107936862
 20
135.4046549140655
 10
141.2516709716315
 20
135.4563313463442
 10
141.2912895697119
 20
135.5155869886905
 10
141.3464110974759
 20
135.5824218411044
 10
141.3464110974759
 20
135.5824218411044
 10
141.1524522216563
 20
135.7574326917551
 10
141.1524522216563
 20
135.7574326917551
 10
141.1524522216563
 20
135.7574326917551
 10
141.2227321695554
 20
135.8290906778483
 10
141.2227321695554
 20
135.8290906778483
 10
141.2227321695554
 20
135.8290906778483
 10
141.4201361408602
 20
135.6520127699064
 10
141.4201361408602
 20
135.6520127699064
 10
141.5045409802488
 20
135.7098903740586
 10
141.6013481633844
 20
135.7515760294301
 10
141.7109021998153
 20
135.7767252264725
 10
141.7815266572629
 20
135.7922281561561
 10
141.8521511147106
 20
135.8001518757722
 10
141.9227755721582
 20
135.8001518757722
 10
142.1597981415434
 20
135.8001518757722
 10
142.355135055557
 20
135.735728590198
 10
142.5091308237477
 20
135.6068820190496
 10
142.6631265919384
 20
135.4780354479013
 10
142.7399522212595
 20
135.3064696927359
 10
142.7399522212595
 20
135.0921847535533
 10
142.7399522212595
 20
134.9902099271899
 10
142.7251383106729
 20
134.8996039159279
 10
142.6951659799512
 20
134.8196777006701
 10
142.665538158778
 20
134.7397514854123
 10
142.6248860320521
 20
134.6756727093866
 10
142.5735541093219
 20
134.6264078439475
 10
142.5735541093219
 20
134.6264078439475
 10
142.7495984886181
 20
134.4593207129129
 10
142.7495984886181
 20
134.4593207129129
 10
142.7495984886181
 20
134.4593207129129
 10
142.6779405025249
 20
134.378016459461
 10
142.6779405025249
 20
134.378016459461
 97
        0
 97
        1
330
30C
 75
     2
 76
     1
 98
        1
 10
0.0
 20
0.0
450
        0
451
        0
460
0.0
461
0.0
452
        0
462
0.0
453
        0
470

  0
SPLINE
  5
30E
330
306
100
AcDbEntity
  8
Sichtbar schmal (ISO)
100
AcDbSpline
210
0.0
220
0.0
230
1.0
 70
     9
 71
     3
 72
    62
 73
    58
 74
     0
 42
0.0000000001
 43
0.0000000001
 40
0.0
 40
0.0
 40
0.0
 40
0.0
 40
1.0
 40
1.0
 40
1.0
 40
2.0
 40
2.0
 40
2.0
 40
3.0
 40
3.0
 40
3.0
 40
4.0
 40
4.0
 40
4.0
 40
5.0
 40
5.0
 40
5.0
 40
6.0
 40
6.0
 40
6.0
 40
7.0
 40
7.0
 40
7.0
 40
8.0
 40
8.0
 40
8.0
 40
9.0
 40
9.0
 40
9.0
 40
10.0
 40
10.0
 40
10.0
 40
11.0
 40
11.0
 40
11.0
 40
12.0
 40
12.0
 40
12.0
 40
13.0
 40
13.0
 40
13.0
 40
14.0
 40
14.0
 40
14.0
 40
15.0
 40
15.0
 40
15.0
 40
16.0
 40
16.0
 40
16.0
 40
17.0
 40
17.0
 40
17.0
 40
18.0
 40
18.0
 40
18.0
 40
19.0
 40
19.0
 40
19.0
 40
19.0
 10
142.065747034796
 20
136.2996907211334
 30
0.0
 10
142.3251627248354
 20
136.307958950298
 30
0.0
 10
142.5056857282624
 20
136.4519639415814
 30
0.0
 10
142.5056857282624
 20
136.7255045231103
 30
0.0
 10
142.5056857282624
 20
136.9597710161073
 30
0.0
 10
142.3589246605908
 20
137.1599310638003
 30
0.0
 10
142.1191460148174
 20
137.1599310638003
 30
0.0
 10
141.8683430634913
 20
137.1599310638003
 30
0.0
 10
141.7357068873091
 20
136.9707953216601
 30
0.0
 10
141.7357068873091
 20
136.7337727522749
 30
0.0
 10
141.7357068873091
 20
136.6831298486417
 30
0.0
 10
141.7384629636973
 20
136.6352430213967
 30
0.0
 10
141.7439751164737
 20
136.59011227054
 30
0.0
 10
141.7439751164737
 20
136.59011227054
 30
0.0
 10
141.5410589923925
 20
136.59011227054
 30
0.0
 10
141.5410589923925
 20
136.59011227054
 30
0.0
 10
141.5438150687807
 20
136.6097493148059
 30
0.0
 10
141.5438150687807
 20
136.6269747922321
 30
0.0
 10
141.5438150687807
 20
136.6435112505613
 30
0.0
 10
141.5438150687807
 20
136.6435112505613
 30
0.0
 10
141.5438150687807
 20
136.694498663743
 30
0.0
 10
141.5438150687807
 20
136.694498663743
 30
0.0
 10
141.5438150687807
 20
136.8977592973728
 30
0.0
 10
141.431160446413
 20
137.0751817148631
 30
0.0
 10
141.216530997682
 20
137.0751817148631
 30
0.0
 10
141.0050021348876
 20
137.0751817148631
 30
0.0
 10
140.8951035889081
 20
136.9229084944151
 30
0.0
 10
140.8951035889081
 20
136.7199923703339
 30
0.0
 10
140.8951035889081
 20
136.460232170746
 30
0.0
 10
141.0952636366012
 20
136.3417208860534
 30
0.0
 10
141.3295301295981
 20
136.3417208860534
 30
0.0
 10
141.3295301295981
 20
136.3417208860534
 30
0.0
 10
141.3295301295981
 20
136.10194224028
 30
0.0
 10
141.3295301295981
 20
136.10194224028
 30
0.0
 10
140.9485025689295
 20
136.1164116413181
 30
0.0
 10
140.6835747261138
 20
136.3193277653993
 30
0.0
 10
140.6835747261138
 20
136.7199923703339
 30
0.0
 10
140.6835747261138
 20
137.06656897615
 30
0.0
 10
140.8499728380514
 20
137.3290852521261
 30
0.0
 10
141.2192870740702
 20
137.3290852521261
 30
0.0
 10
141.397054001109
 20
137.3290852521261
 30
0.0
 10
141.5465711451689
 20
137.2078178910452
 30
0.0
 10
141.6171956026165
 20
137.052788594209
 30
0.0
 10
141.6171956026165
 20
137.052788594209
 30
0.0
 10
141.6227077553929
 20
137.052788594209
 30
0.0
 10
141.6227077553929
 20
137.052788594209
 30
0.0
 10
141.6764512449628
 20
137.2980793927588
 30
0.0
 10
141.8683430634913
 20
137.4138346010632
 30
0.0
 10
142.1081217092646
 20
137.4138346010632
 30
0.0
 10
142.5056857282624
 20
137.4138346010632
 30
0.0
 10
142.7172145910568
 20
137.100675421454
 30
0.0
 10
142.7172145910568
 20
136.7255045231103
 30
0.0
 10
142.7172145910568
 20
136.3193277653993
 30
0.0
 10
142.4801920216716
 20
136.0512993366469
 30
0.0
 10
142.065747034796
 20
136.05991207536
 30
0.0
 10
142.065747034796
 20
136.05991207536
 30
0.0
 10
142.065747034796
 20
136.2996907211334
 30
0.0
 10
142.065747034796
 20
136.2996907211334
 30
0.0
  0
HATCH
  5
30F
330
306
100
AcDbEntity
  8
Sichtbar schmal (ISO)
 62
    18
420
        0
440
 33554687
100
AcDbHatch
 10
0.0
 20
0.0
 30
0.0
210
0.0
220
0.0
230
1.0
  2
SOLID
 70
     1
 71
     1
 91
        1
 92
        1
 93
        1
 72
     4
 94
        3
 73
     0
 74
     0
 95
       62
 96
       58
 40
0.0
 40
0.0
 40
0.0
 40
0.0
 40
1.0
 40
1.0
 40
1.0
 40
2.0
 40
2.0
 40
2.0
 40
3.0
 40
3.0
 40
3.0
 40
4.0
 40
4.0
 40
4.0
 40
5.0
 40
5.0
 40
5.0
 40
6.0
 40
6.0
 40
6.0
 40
7.0
 40
7.0
 40
7.0
 40
8.0
 40
8.0
 40
8.0
 40
9.0
 40
9.0
 40
9.0
 40
10.0
 40
10.0
 40
10.0
 40
11.0
 40
11.0
 40
11.0
 40
12.0
 40
12.0
 40
12.0
 40
13.0
 40
13.0
 40
13.0
 40
14.0
 40
14.0
 40
14.0
 40
15.0
 40
15.0
 40
15.0
 40
16.0
 40
16.0
 40
16.0
 40
17.0
 40
17.0
 40
17.0
 40
18.0
 40
18.0
 40
18.0
 40
19.0
 40
19.0
 40
19.0
 40
19.0
 10
142.065747034796
 20
136.2996907211334
 10
142.3251627248354
 20
136.307958950298
 10
142.5056857282624
 20
136.4519639415814
 10
142.5056857282624
 20
136.7255045231103
 10
142.5056857282624
 20
136.9597710161073
 10
142.3589246605908
 20
137.1599310638003
 10
142.1191460148174
 20
137.1599310638003
 10
141.8683430634913
 20
137.1599310638003
 10
141.7357068873091
 20
136.9707953216601
 10
141.7357068873091
 20
136.7337727522749
 10
141.7357068873091
 20
136.6831298486417
 10
141.7384629636973
 20
136.6352430213967
 10
141.7439751164737
 20
136.59011227054
 10
141.7439751164737
 20
136.59011227054
 10
141.5410589923925
 20
136.59011227054
 10
141.5410589923925
 20
136.59011227054
 10
141.5438150687807
 20
136.6097493148059
 10
141.5438150687807
 20
136.6269747922321
 10
141.5438150687807
 20
136.6435112505613
 10
141.5438150687807
 20
136.6435112505613
 10
141.5438150687807
 20
136.694498663743
 10
141.5438150687807
 20
136.694498663743
 10
141.5438150687807
 20
136.8977592973728
 10
141.431160446413
 20
137.0751817148631
 10
141.216530997682
 20
137.0751817148631
 10
141.0050021348876
 20
137.0751817148631
 10
140.8951035889081
 20
136.9229084944151
 10
140.8951035889081
 20
136.7199923703339
 10
140.8951035889081
 20
136.460232170746
 10
141.0952636366012
 20
136.3417208860534
 10
141.3295301295981
 20
136.3417208860534
 10
141.3295301295981
 20
136.3417208860534
 10
141.3295301295981
 20
136.10194224028
 10
141.3295301295981
 20
136.10194224028
 10
140.9485025689295
 20
136.1164116413181
 10
140.6835747261138
 20
136.3193277653993
 10
140.6835747261138
 20
136.7199923703339
 10
140.6835747261138
 20
137.06656897615
 10
140.8499728380514
 20
137.3290852521261
 10
141.2192870740702
 20
137.3290852521261
 10
141.397054001109
 20
137.3290852521261
 10
141.5465711451689
 20
137.2078178910452
 10
141.6171956026165
 20
137.052788594209
 10
141.6171956026165
 20
137.052788594209
 10
141.6227077553929
 20
137.052788594209
 10
141.6227077553929
 20
137.052788594209
 10
141.6764512449628
 20
137.2980793927588
 10
141.8683430634913
 20
137.4138346010632
 10
142.1081217092646
 20
137.4138346010632
 10
142.5056857282624
 20
137.4138346010632
 10
142.7172145910568
 20
137.100675421454
 10
142.7172145910568
 20
136.7255045231103
 10
142.7172145910568
 20
136.3193277653993
 10
142.4801920216716
 20
136.0512993366469
 10
142.065747034796
 20
136.05991207536
 10
142.065747034796
 20
136.05991207536
 10
142.065747034796
 20
136.2996907211334
 10
142.065747034796
 20
136.2996907211334
 97
        0
 97
        1
330
30E
 75
     2
 76
     1
 98
        1
 10
0.0
 20
0.0
450
        0
451
        0
460
0.0
461
0.0
452
        0
462
0.0
453
        0
470

  0
SPLINE
  5
310
330
306
100
AcDbEntity
  8
Sichtbar schmal (ISO)
100
AcDbSpline
210
0.0
220
0.0
230
1.0
 70
     9
 71
     3
 72
    17
 73
    13
 74
     0
 42
0.0000000001
 43
0.0000000001
 40
0.0
 40
0.0
 40
0.0
 40
0.0
 40
1.0
 40
1.0
 40
1.0
 40
2.0
 40
2.0
 40
2.0
 40
3.0
 40
3.0
 40
3.0
 40
4.0
 40
4.0
 40
4.0
 40
4.0
 10
141.6988443656169
 20
138.7401963628844
 30
0.0
 10
141.402910663434
 20
138.7401963628844
 30
0.0
 10
140.8951035889081
 20
138.7374402864962
 30
0.0
 10
140.8951035889081
 20
138.328507452397
 30
0.0
 10
140.8951035889081
 20
137.9195746182979
 30
0.0
 10
141.402910663434
 20
137.9168185419097
 30
0.0
 10
141.6988443656169
 20
137.9168185419097
 30
0.0
 10
141.9978786537366
 20
137.9168185419097
 30
0.0
 10
142.5056857282624
 20
137.9195746182979
 30
0.0
 10
142.5056857282624
 20
138.328507452397
 30
0.0
 10
142.5056857282624
 20
138.7374402864962
 30
0.0
 10
141.9978786537366
 20
138.7401963628844
 30
0.0
 10
141.6988443656169
 20
138.7401963628844
 30
0.0
  0
SPLINE
  5
311
330
306
100
AcDbEntity
  8
Sichtbar schmal (ISO)
100
AcDbSpline
210
0.0
220
0.0
230
1.0
 70
     9
 71
     3
 72
    17
 73
    13
 74
     0
 42
0.0000000001
 43
0.0000000001
 40
0.0
 40
0.0
 40
0.0
 40
0.0
 40
1.0
 40
1.0
 40
1.0
 40
2.0
 40
2.0
 40
2.0
 40
3.0
 40
3.0
 40
3.0
 40
4.0
 40
4.0
 40
4.0
 40
4.0
 10
141.7019449515537
 20
137.6629150046468
 30
0.0
 10
141.2616617485387
 20
137.6629150046468
 30
0.0
 10
140.6835747261138
 20
137.7025336027271
 30
0.0
 10
140.6835747261138
 20
138.328507452397
 30
0.0
 10
140.6835747261138
 20
138.9548258116155
 30
0.0
 10
141.2616617485387
 20
138.9944444096958
 30
0.0
 10
141.7019449515537
 20
138.9944444096958
 30
0.0
 10
142.1418836450201
 20
138.9944444096958
 30
0.0
 10
142.7172145910568
 20
138.9548258116155
 30
0.0
 10
142.7172145910568
 20
138.328507452397
 30
0.0
 10
142.7172145910568
 20
137.7025336027271
 30
0.0
 10
142.1418836450201
 20
137.6629150046468
 30
0.0
 10
141.7019449515537
 20
137.6629150046468
 30
0.0
  0
HATCH
  5
312
330
306
100
AcDbEntity
  8
Sichtbar schmal (ISO)
 62
    18
420
        0
440
 33554687
100
AcDbHatch
 10
0.0
 20
0.0
 30
0.0
210
0.0
220
0.0
230
1.0
  2
SOLID
 70
     1
 71
     1
 91
        2
 92
        1
 93
        1
 72
     4
 94
        3
 73
     0
 74
     0
 95
       17
 96
       13
 40
0.0
 40
0.0
 40
0.0
 40
0.0
 40
1.0
 40
1.0
 40
1.0
 40
2.0
 40
2.0
 40
2.0
 40
3.0
 40
3.0
 40
3.0
 40
4.0
 40
4.0
 40
4.0
 40
4.0
 10
141.6988443656169
 20
138.7401963628844
 10
141.402910663434
 20
138.7401963628844
 10
140.8951035889081
 20
138.7374402864962
 10
140.8951035889081
 20
138.328507452397
 10
140.8951035889081
 20
137.9195746182979
 10
141.402910663434
 20
137.9168185419097
 10
141.6988443656169
 20
137.9168185419097
 10
141.9978786537366
 20
137.9168185419097
 10
142.5056857282624
 20
137.9195746182979
 10
142.5056857282624
 20
138.328507452397
 10
142.5056857282624
 20
138.7374402864962
 10
141.9978786537366
 20
138.7401963628844
 10
141.6988443656169
 20
138.7401963628844
 97
        0
 97
        1
330
310
 92
        1
 93
        1
 72
     4
 94
        3
 73
     0
 74
     0
 95
       17
 96
       13
 40
0.0
 40
0.0
 40
0.0
 40
0.0
 40
1.0
 40
1.0
 40
1.0
 40
2.0
 40
2.0
 40
2.0
 40
3.0
 40
3.0
 40
3.0
 40
4.0
 40
4.0
 40
4.0
 40
4.0
 10
141.7019449515537
 20
137.6629150046468
 10
141.2616617485387
 20
137.6629150046468
 10
140.6835747261138
 20
137.7025336027271
 10
140.6835747261138
 20
138.328507452397
 10
140.6835747261138
 20
138.9548258116155
 10
141.2616617485387
 20
138.9944444096958
 10
141.7019449515537
 20
138.9944444096958
 10
142.1418836450201
 20
138.9944444096958
 10
142.7172145910568
 20
138.9548258116155
 10
142.7172145910568
 20
138.328507452397
 10
142.7172145910568
 20
137.7025336027271
 10
142.1418836450201
 20
137.6629150046468
 10
141.7019449515537
 20
137.6629150046468
 97
        0
 97
        1
330
311
 75
     2
 76
     1
 98
        1
 10
0.0
 20
0.0
450
        0
451
        0
460
0.0
461
0.0
452
        0
462
0.0
453
        0
470

  0
SPLINE
  5
313
330
306
100
AcDbEntity
  8
Sichtbar schmal (ISO)
100
AcDbSpline
210
0.0
220
0.0
230
1.0
 70
     9
 71
     3
 72
    53
 73
    49
 74
     0
 42
0.0000000001
 43
0.0000000001
 40
0.0
 40
0.0
 40
0.0
 40
0.0
 40
1.0
 40
1.0
 40
1.0
 40
2.0
 40
2.0
 40
2.0
 40
3.0
 40
3.0
 40
3.0
 40
4.0
 40
4.0
 40
4.0
 40
5.0
 40
5.0
 40
5.0
 40
6.0
 40
6.0
 40
6.0
 40
7.0
 40
7.0
 40
7.0
 40
8.0
 40
8.0
 40
8.0
 40
9.0
 40
9.0
 40
9.0
 40
10.0
 40
10.0
 40
10.0
 40
11.0
 40
11.0
 40
11.0
 40
12.0
 40
12.0
 40
12.0
 40
13.0
 40
13.0
 40
13.0
 40
14.0
 40
14.0
 40
14.0
 40
15.0
 40
15.0
 40
15.0
 40
16.0
 40
16.0
 40
16.0
 40
16.0
 10
142.1446397214083
 20
139.451953090137
 30
0.0
 10
142.3506564314262
 20
139.4664224911751
 30
0.0
 10
142.5056857282624
 20
139.6324760935641
 30
0.0
 10
142.5056857282624
 20
139.8722547393375
 30
0.0
 10
142.5056857282624
 20
140.1010090795581
 30
0.0
 10
142.3475558454895
 20
140.2953124649262
 30
0.0
 10
142.0316405894921
 20
140.2953124649262
 30
0.0
 10
141.7694688230645
 20
140.2953124649262
 30
0.0
 10
141.5775770045362
 20
140.1147894614991
 30
0.0
 10
141.5775770045362
 20
139.8440049563584
 30
0.0
 10
141.5775770045362
 20
139.6889756595222
 30
0.0
 10
141.6537136147602
 20
139.5649522220532
 30
0.0
 10
141.7667127466764
 20
139.4719346439514
 30
0.0
 10
141.7667127466764
 20
139.4719346439514
 30
0.0
 10
141.755343931575
 20
139.2659179339335
 30
0.0
 10
141.755343931575
 20
139.2659179339335
 30
0.0
 10
141.755343931575
 20
139.2659179339335
 30
0.0
 10
140.7173366618693
 20
139.451953090137
 30
0.0
 10
140.7173366618693
 20
139.451953090137
 30
0.0
 10
140.7173366618693
 20
139.451953090137
 30
0.0
 10
140.7173366618693
 20
140.4393174562096
 30
0.0
 10
140.7173366618693
 20
140.4393174562096
 30
0.0
 10
140.7173366618693
 20
140.4393174562096
 30
0.0
 10
140.9288655246636
 20
140.4393174562096
 30
0.0
 10
140.9288655246636
 20
140.4393174562096
 30
0.0
 10
140.9288655246636
 20
140.4393174562096
 30
0.0
 10
140.9288655246636
 20
139.6324760935641
 30
0.0
 10
140.9288655246636
 20
139.6324760935641
 30
0.0
 10
140.9288655246636
 20
139.6324760935641
 30
0.0
 10
141.5041964707003
 20
139.5256781335213
 30
0.0
 10
141.5041964707003
 20
139.5256781335213
 30
0.0
 10
141.5041964707003
 20
139.5256781335213
 30
0.0
 10
141.5100531330253
 20
139.5311902862977
 30
0.0
 10
141.5100531330253
 20
139.5311902862977
 30
0.0
 10
141.4111788925986
 20
139.6186957116231
 30
0.0
 10
141.3660481417418
 20
139.7682128556829
 30
0.0
 10
141.3660481417418
 20
139.9032605987047
 30
0.0
 10
141.3660481417418
 20
140.2587944527825
 30
0.0
 10
141.5917018960256
 20
140.5495605117376
 30
0.0
 10
142.0516221433065
 20
140.5495605117376
 30
0.0
 10
142.3899305199581
 20
140.5495605117376
 30
0.0
 10
142.7172145910568
 20
140.3152940187406
 30
0.0
 10
142.7172145910568
 20
139.8498616186834
 30
0.0
 10
142.7172145910568
 20
139.5029405033187
 30
0.0
 10
142.5056857282624
 20
139.2207871830767
 30
0.0
 10
142.1446397214083
 20
139.2121744443636
 30
0.0
 10
142.1446397214083
 20
139.2121744443636
 30
0.0
 10
142.1446397214083
 20
139.451953090137
 30
0.0
 10
142.1446397214083
 20
139.451953090137
 30
0.0
  0
HATCH
  5
314
330
306
100
AcDbEntity
  8
Sichtbar schmal (ISO)
 62
    18
420
        0
440
 33554687
100
AcDbHatch
 10
0.0
 20
0.0
 30
0.0
210
0.0
220
0.0
230
1.0
  2
SOLID
 70
     1
 71
     1
 91
        1
 92
        1
 93
        1
 72
     4
 94
        3
 73
     0
 74
     0
 95
       53
 96
       49
 40
0.0
 40
0.0
 40
0.0
 40
0.0
 40
1.0
 40
1.0
 40
1.0
 40
2.0
 40
2.0
 40
2.0
 40
3.0
 40
3.0
 40
3.0
 40
4.0
 40
4.0
 40
4.0
 40
5.0
 40
5.0
 40
5.0
 40
6.0
 40
6.0
 40
6.0
 40
7.0
 40
7.0
 40
7.0
 40
8.0
 40
8.0
 40
8.0
 40
9.0
 40
9.0
 40
9.0
 40
10.0
 40
10.0
 40
10.0
 40
11.0
 40
11.0
 40
11.0
 40
12.0
 40
12.0
 40
12.0
 40
13.0
 40
13.0
 40
13.0
 40
14.0
 40
14.0
 40
14.0
 40
15.0
 40
15.0
 40
15.0
 40
16.0
 40
16.0
 40
16.0
 40
16.0
 10
142.1446397214083
 20
139.451953090137
 10
142.3506564314262
 20
139.4664224911751
 10
142.5056857282624
 20
139.6324760935641
 10
142.5056857282624
 20
139.8722547393375
 10
142.5056857282624
 20
140.1010090795581
 10
142.3475558454895
 20
140.2953124649262
 10
142.0316405894921
 20
140.2953124649262
 10
141.7694688230645
 20
140.2953124649262
 10
141.5775770045362
 20
140.1147894614991
 10
141.5775770045362
 20
139.8440049563584
 10
141.5775770045362
 20
139.6889756595222
 10
141.6537136147602
 20
139.5649522220532
 10
141.7667127466764
 20
139.4719346439514
 10
141.7667127466764
 20
139.4719346439514
 10
141.755343931575
 20
139.2659179339335
 10
141.755343931575
 20
139.2659179339335
 10
141.755343931575
 20
139.2659179339335
 10
140.7173366618693
 20
139.451953090137
 10
140.7173366618693
 20
139.451953090137
 10
140.7173366618693
 20
139.451953090137
 10
140.7173366618693
 20
140.4393174562096
 10
140.7173366618693
 20
140.4393174562096
 10
140.7173366618693
 20
140.4393174562096
 10
140.9288655246636
 20
140.4393174562096
 10
140.9288655246636
 20
140.4393174562096
 10
140.9288655246636
 20
140.4393174562096
 10
140.9288655246636
 20
139.6324760935641
 10
140.9288655246636
 20
139.6324760935641
 10
140.9288655246636
 20
139.6324760935641
 10
141.5041964707003
 20
139.5256781335213
 10
141.5041964707003
 20
139.5256781335213
 10
141.5041964707003
 20
139.5256781335213
 10
141.5100531330253
 20
139.5311902862977
 10
141.5100531330253
 20
139.5311902862977
 10
141.4111788925986
 20
139.6186957116231
 10
141.3660481417418
 20
139.7682128556829
 10
141.3660481417418
 20
139.9032605987047
 10
141.3660481417418
 20
140.2587944527825
 10
141.5917018960256
 20
140.5495605117376
 10
142.0516221433065
 20
140.5495605117376
 10
142.3899305199581
 20
140.5495605117376
 10
142.7172145910568
 20
140.3152940187406
 10
142.7172145910568
 20
139.8498616186834
 10
142.7172145910568
 20
139.5029405033187
 10
142.5056857282624
 20
139.2207871830767
 10
142.1446397214083
 20
139.2121744443636
 10
142.1446397214083
 20
139.2121744443636
 10
142.1446397214083
 20
139.451953090137
 10
142.1446397214083
 20
139.451953090137
 97
        0
 97
        1
330
313
 75
     2
 76
     1
 98
        1
 10
0.0
 20
0.0
450
        0
451
        0
460
0.0
461
0.0
452
        0
462
0.0
453
        0
470

  0
ENDBLK
  5
309
330
306
100
AcDbEntity
  8
0
100
AcDbBlockEnd
  0
BLOCK
  5
319
330
317
100
AcDbEntity
  8
0
100
AcDbBlockBegin
  2
Block_39
 70
     0
 10
0.0
 20
0.0
 30
0.0
  3
Block_39
  1

  0
INSERT
  5
31C
330
317
100
AcDbEntity
  8
Sichtbar schmal (ISO)
100
AcDbBlockReference
  2
Block_40
 10
0.0
 20
0.0
 30
0.0
  0
ENDBLK
  5
31A
330
317
100
AcDbEntity
  8
0
100
AcDbBlockEnd
  0
BLOCK
  5
31D
330
31B
100
AcDbEntity
  8
0
100
AcDbBlockBegin
  2
Block_40
 70
     0
 10
0.0
 20
0.0
 30
0.0
  3
Block_40
  1

  0
LINE
  5
31F
330
31B
100
AcDbEntity
  8
Sichtbar schmal (ISO)
 62
    18
420
        0
370
     5
100
AcDbLine
 10
125.1594254074851
 20
145.3021343291801
 30
0.0
 11
125.1623322068008
 21
128.8973432430577
 31
0.0
  0
INSERT
  5
321
330
31B
100
AcDbEntity
  8
Sichtbar schmal (ISO)
100
AcDbBlockReference
  2
Block_41
 10
0.0
 20
0.0
 30
0.0
  0
INSERT
  5
327
330
31B
100
AcDbEntity
  8
Sichtbar schmal (ISO)
100
AcDbBlockReference
  2
Block_42
 10
0.0
 20
0.0
 30
0.0
  0
ENDBLK
  5
31E
330
31B
100
AcDbEntity
  8
0
100
AcDbBlockEnd
  0
BLOCK
  5
322
330
320
100
AcDbEntity
  8
0
100
AcDbBlockBegin
  2
Block_41
 70
     0
 10
0.0
 20
0.0
 30
0.0
  3
Block_41
  1

  0
LWPOLYLINE
  5
324
330
320
100
AcDbEntity
  8
Sichtbar schmal (ISO)
100
AcDbPolyline
 90
        3
 70
     1
 43
0.0
 10
124.9382179795619
 20
144.669636329935
 10
125.158542601767
 20
146.3508536926603
 10
125.3808481538761
 20
144.6697116913987
  0
HATCH
  5
325
330
320
100
AcDbEntity
  8
Sichtbar schmal (ISO)
 62
    18
420
        0
440
 33554687
100
AcDbHatch
 10
0.0
 20
0.0
 30
0.0
210
0.0
220
0.0
230
1.0
  2
SOLID
 70
     1
 71
     1
 91
        1
 92
        1
 93
        3
 72
     1
 10
124.9382179795619
 20
144.669636329935
 11
125.158542601767
 21
146.3508536926603
 72
     1
 10
125.158542601767
 20
146.3508536926603
 11
125.3808481538761
 21
144.6697116913987
 72
     1
 10
125.3808481538761
 20
144.6697116913987
 11
124.9382179795619
 21
144.669636329935
 97
        1
330
324
 75
     2
 76
     1
 98
        1
 10
0.0
 20
0.0
450
        0
451
        0
460
0.0
461
0.0
452
        0
462
0.0
453
        0
470

  0
ENDBLK
  5
323
330
320
100
AcDbEntity
  8
0
100
AcDbBlockEnd
  0
BLOCK
  5
328
330
326
100
AcDbEntity
  8
0
100
AcDbBlockBegin
  2
Block_42
 70
     0
 10
0.0
 20
0.0
 30
0.0
  3
Block_42
  1

  0
LWPOLYLINE
  5
32A
330
326
100
AcDbEntity
  8
Sichtbar schmal (ISO)
100
AcDbPolyline
 90
        3
 70
     1
 43
0.0
 10
124.9408986944863
 20
129.5297551149157
 10
125.1618262084014
 20
127.8486131136541
 10
125.3835288688006
 20
129.5298304763795
  0
HATCH
  5
32B
330
326
100
AcDbEntity
  8
Sichtbar schmal (ISO)
 62
    18
420
        0
440
 33554687
100
AcDbHatch
 10
0.0
 20
0.0
 30
0.0
210
0.0
220
0.0
230
1.0
  2
SOLID
 70
     1
 71
     1
 91
        1
 92
        1
 93
        3
 72
     1
 10
124.9408986944863
 20
129.5297551149157
 11
125.1618262084014
 21
127.8486131136541
 72
     1
 10
125.1618262084014
 20
127.8486131136541
 11
125.3835288688006
 21
129.5298304763795
 72
     1
 10
125.3835288688006
 20
129.5298304763795
 11
124.9408986944863
 21
129.5297551149157
 97
        1
330
32A
 75
     2
 76
     1
 98
        1
 10
0.0
 20
0.0
450
        0
451
        0
460
0.0
461
0.0
452
        0
462
0.0
453
        0
470

  0
ENDBLK
  5
329
330
326
100
AcDbEntity
  8
0
100
AcDbBlockEnd
  0
BLOCK
  5
32E
330
32C
100
AcDbEntity
  8
0
100
AcDbBlockBegin
  2
Block_43
 70
     0
 10
0.0
 20
0.0
 30
0.0
  3
Block_43
  1

  0
INSERT
  5
331
330
32C
100
AcDbEntity
  8
Sichtbar schmal (ISO)
100
AcDbBlockReference
  2
Block_44
 10
0.0
 20
0.0
 30
0.0
  0
ENDBLK
  5
32F
330
32C
100
AcDbEntity
  8
0
100
AcDbBlockEnd
  0
BLOCK
  5
332
330
330
100
AcDbEntity
  8
0
100
AcDbBlockBegin
  2
Block_44
 70
     0
 10
0.0
 20
0.0
 30
0.0
  3
Block_44
  1

  0
SPLINE
  5
334
330
330
100
AcDbEntity
  8
Sichtbar schmal (ISO)
100
AcDbSpline
210
0.0
220
0.0
230
1.0
 70
     9
 71
     3
 72
    26
 73
    22
 74
     0
 42
0.0000000001
 43
0.0000000001
 40
0.0
 40
0.0
 40
0.0
 40
0.0
 40
1.0
 40
1.0
 40
1.0
 40
2.0
 40
2.0
 40
2.0
 40
3.0
 40
3.0
 40
3.0
 40
4.0
 40
4.0
 40
4.0
 40
5.0
 40
5.0
 40
5.0
 40
6.0
 40
6.0
 40
6.0
 40
7.0
 40
7.0
 40
7.0
 40
7.0
 10
128.0004556971665
 20
134.9030490114131
 30
0.0
 10
128.0183701936898
 20
134.956103481886
 30
0.0
 10
128.0276719515
 20
135.0098469714559
 30
0.0
 10
128.0276719515
 20
135.0649684992198
 30
0.0
 10
128.0276719515
 20
135.2403238594191
 30
0.0
 10
127.9460231884996
 20
135.3646918064366
 30
0.0
 10
127.7823811529502
 20
135.4384168498209
 30
0.0
 10
127.6841959316206
 20
135.4828585815806
 30
0.0
 10
127.5711967997044
 20
135.5052517022348
 30
0.0
 10
127.4433837572016
 20
135.5052517022348
 30
0.0
 10
127.3607014655556
 20
135.5052517022348
 30
0.0
 10
127.289387989011
 20
135.4983615112643
 30
0.0
 10
127.2297878371161
 20
135.4842366197748
 30
0.0
 10
127.1977484491033
 20
135.4766574097072
 30
0.0
 10
127.1598523987656
 20
135.4639105564118
 30
0.0
 10
127.1167887052
 20
135.4459960598885
 30
0.0
 10
127.1167887052
 20
135.4459960598885
 30
0.0
 10
127.8950357753179
 20
134.7552544150959
 30
0.0
 10
127.8950357753179
 20
134.7552544150959
 30
0.0
 10
127.9470567171452
 20
134.8010741850497
 30
0.0
 10
127.9821966910947
 20
134.8499945409403
 30
0.0
 10
128.0004556971665
 20
134.9030490114131
 30
0.0
  0
SPLINE
  5
335
330
330
100
AcDbEntity
  8
Sichtbar schmal (ISO)
100
AcDbSpline
210
0.0
220
0.0
230
1.0
 70
     9
 71
     3
 72
    26
 73
    22
 74
     0
 42
0.0000000001
 43
0.0000000001
 40
0.0
 40
0.0
 40
0.0
 40
0.0
 40
1.0
 40
1.0
 40
1.0
 40
2.0
 40
2.0
 40
2.0
 40
3.0
 40
3.0
 40
3.0
 40
4.0
 40
4.0
 40
4.0
 40
5.0
 40
5.0
 40
5.0
 40
6.0
 40
6.0
 40
6.0
 40
7.0
 40
7.0
 40
7.0
 40
7.0
 10
126.9262749248657
 20
135.2668510946555
 30
0.0
 10
126.9000921991777
 20
135.2093180000518
 30
0.0
 10
126.8866563267853
 20
135.1452392240262
 30
0.0
 10
126.8866563267853
 20
135.0746147665786
 30
0.0
 10
126.8866563267853
 20
134.9399115331053
 30
0.0
 10
126.9424668736463
 20
134.832080044417
 30
0.0
 10
127.0544324769169
 20
134.7507757909651
 30
0.0
 10
127.166053570639
 20
134.6694715375132
 30
0.0
 10
127.3100585619225
 20
134.6288194107872
 30
0.0
 10
127.4857584316702
 20
134.6288194107872
 30
0.0
 10
127.551904264987
 20
134.6288194107872
 30
0.0
 10
127.6152940219156
 20
134.6357096017577
 30
0.0
 10
127.675927702456
 20
134.6501790027958
 30
0.0
 10
127.71003414776
 20
134.6584472319604
 30
0.0
 10
127.7530978413256
 20
134.6729166329984
 30
0.0
 10
127.8058078022499
 20
134.6925536772643
 30
0.0
 10
127.8058078022499
 20
134.6925536772643
 30
0.0
 10
127.0241156366467
 20
135.3922525703186
 30
0.0
 10
127.0241156366467
 20
135.3922525703186
 30
0.0
 10
126.9855305672119
 20
135.3660698446307
 30
0.0
 10
126.952802160102
 20
135.3247286988077
 30
0.0
 10
126.9262749248657
 20
135.2668510946555
 30
0.0
  0
SPLINE
  5
336
330
330
100
AcDbEntity
  8
Sichtbar schmal (ISO)
100
AcDbSpline
210
0.0
220
0.0
230
1.0
 70
    11
 71
     3
 72
    59
 73
    55
 74
     0
 42
0.0000000001
 43
0.0000000001
 40
0.0
 40
0.0
 40
0.0
 40
0.0
 40
1.0
 40
1.0
 40
1.0
 40
2.0
 40
2.0
 40
2.0
 40
3.0
 40
3.0
 40
3.0
 40
4.0
 40
4.0
 40
4.0
 40
5.0
 40
5.0
 40
5.0
 40
6.0
 40
6.0
 40
6.0
 40
7.0
 40
7.0
 40
7.0
 40
8.0
 40
8.0
 40
8.0
 40
9.0
 40
9.0
 40
9.0
 40
10.0
 40
10.0
 40
10.0
 40
11.0
 40
11.0
 40
11.0
 40
12.0
 40
12.0
 40
12.0
 40
13.0
 40
13.0
 40
13.0
 40
14.0
 40
14.0
 40
14.0
 40
15.0
 40
15.0
 40
15.0
 40
16.0
 40
16.0
 40
16.0
 40
17.0
 40
17.0
 40
17.0
 40
18.0
 40
18.0
 40
18.0
 40
18.0
 10
128.1820122292392
 20
134.3449435428026
 30
0.0
 10
128.1820122292392
 20
134.3449435428026
 30
0.0
 10
127.9966660921328
 20
134.5220214507445
 30
0.0
 10
127.9966660921328
 20
134.5220214507445
 30
0.0
 10
127.9287977110733
 20
134.4758571712421
 30
0.0
 10
127.8523165913008
 20
134.4400281781955
 30
0.0
 10
127.7682562614607
 20
134.4152234907017
 30
0.0
 10
127.6835069125235
 20
134.3904188032079
 30
0.0
 10
127.5835991434513
 20
134.378016459461
 30
0.0
 10
127.4678439351469
 20
134.378016459461
 30
0.0
 10
127.2594156582893
 20
134.378016459461
 30
0.0
 10
127.0740695211828
 20
134.4365830827103
 30
0.0
 10
126.9118055238276
 20
134.5537163292088
 30
0.0
 10
126.7498860360208
 20
134.6705050661587
 30
0.0
 10
126.6689262921175
 20
134.8410372926786
 30
0.0
 10
126.6689262921175
 20
135.0649684992198
 30
0.0
 10
126.6689262921175
 20
135.1814127266213
 30
0.0
 10
126.6899413745775
 20
135.2837320625332
 30
0.0
 10
126.7312825204005
 20
135.3715819974071
 30
0.0
 10
126.7557426983458
 20
135.4232584296858
 30
0.0
 10
126.7953612964261
 20
135.4825140720321
 30
0.0
 10
126.8504828241901
 20
135.549348924446
 30
0.0
 10
126.8504828241901
 20
135.549348924446
 30
0.0
 10
126.6568684579191
 20
135.7243597750967
 30
0.0
 10
126.6568684579191
 20
135.7243597750967
 30
0.0
 10
126.6568684579191
 20
135.7243597750967
 30
0.0
 10
126.7268038962697
 20
135.7960177611899
 30
0.0
 10
126.7268038962697
 20
135.7960177611899
 30
0.0
 10
126.7268038962697
 20
135.7960177611899
 30
0.0
 10
126.9242078675745
 20
135.618939853248
 30
0.0
 10
126.9242078675745
 20
135.618939853248
 30
0.0
 10
127.0089572165116
 20
135.6768174574002
 30
0.0
 10
127.1054198900986
 20
135.7185031127718
 30
0.0
 10
127.2149739265296
 20
135.7436523098141
 30
0.0
 10
127.2855983839772
 20
135.7591552394977
 30
0.0
 10
127.3562228414248
 20
135.7670789591138
 30
0.0
 10
127.427191808421
 20
135.7670789591138
 30
0.0
 10
127.6642143778061
 20
135.7670789591138
 30
0.0
 10
127.8592067822713
 20
135.7026556735396
 30
0.0
 10
128.013202550462
 20
135.5738091023912
 30
0.0
 10
128.1671983186526
 20
135.4449625312429
 30
0.0
 10
128.2440239479737
 20
135.2733967760775
 30
0.0
 10
128.2440239479737
 20
135.0591118368949
 30
0.0
 10
128.2440239479737
 20
134.9571370105316
 30
0.0
 10
128.2292100373871
 20
134.8665309992695
 30
0.0
 10
128.199582216214
 20
134.7866047840117
 30
0.0
 10
128.1696098854923
 20
134.7066785687539
 30
0.0
 10
128.1293022683149
 20
134.6425997927282
 30
0.0
 10
128.0776258360361
 20
134.5933349272891
 30
0.0
 10
128.0776258360361
 20
134.5933349272891
 30
0.0
 10
128.2536702153324
 20
134.4262477962545
 30
0.0
 10
128.2536702153324
 20
134.4262477962545
 30
0.0
 10
128.2536702153324
 20
134.4262477962545
 30
0.0
 10
128.1820122292392
 20
134.3449435428026
 30
0.0
 10
128.1820122292392
 20
134.3449435428026
 30
0.0
  0
HATCH
  5
337
330
330
100
AcDbEntity
  8
Sichtbar schmal (ISO)
 62
   250
420
  2039067
440
 33554687
100
AcDbHatch
 10
0.0
 20
0.0
 30
0.0
210
0.0
220
0.0
230
1.0
  2
SOLID
 70
     1
 71
     1
 91
        3
 92
        1
 93
        1
 72
     4
 94
        3
 73
     0
 74
     0
 95
       26
 96
       22
 40
0.0
 40
0.0
 40
0.0
 40
0.0
 40
1.0
 40
1.0
 40
1.0
 40
2.0
 40
2.0
 40
2.0
 40
3.0
 40
3.0
 40
3.0
 40
4.0
 40
4.0
 40
4.0
 40
5.0
 40
5.0
 40
5.0
 40
6.0
 40
6.0
 40
6.0
 40
7.0
 40
7.0
 40
7.0
 40
7.0
 10
128.0004556971665
 20
134.9030490114131
 10
128.0183701936898
 20
134.956103481886
 10
128.0276719515
 20
135.0098469714559
 10
128.0276719515
 20
135.0649684992198
 10
128.0276719515
 20
135.2403238594191
 10
127.9460231884996
 20
135.3646918064366
 10
127.7823811529502
 20
135.4384168498209
 10
127.6841959316206
 20
135.4828585815806
 10
127.5711967997044
 20
135.5052517022348
 10
127.4433837572016
 20
135.5052517022348
 10
127.3607014655556
 20
135.5052517022348
 10
127.289387989011
 20
135.4983615112643
 10
127.2297878371161
 20
135.4842366197748
 10
127.1977484491033
 20
135.4766574097072
 10
127.1598523987656
 20
135.4639105564118
 10
127.1167887052
 20
135.4459960598885
 10
127.1167887052
 20
135.4459960598885
 10
127.8950357753179
 20
134.7552544150959
 10
127.8950357753179
 20
134.7552544150959
 10
127.9470567171452
 20
134.8010741850497
 10
127.9821966910947
 20
134.8499945409403
 10
128.0004556971665
 20
134.9030490114131
 97
        0
 97
        1
330
334
 92
        1
 93
        1
 72
     4
 94
        3
 73
     0
 74
     0
 95
       26
 96
       22
 40
0.0
 40
0.0
 40
0.0
 40
0.0
 40
1.0
 40
1.0
 40
1.0
 40
2.0
 40
2.0
 40
2.0
 40
3.0
 40
3.0
 40
3.0
 40
4.0
 40
4.0
 40
4.0
 40
5.0
 40
5.0
 40
5.0
 40
6.0
 40
6.0
 40
6.0
 40
7.0
 40
7.0
 40
7.0
 40
7.0
 10
126.9262749248657
 20
135.2668510946555
 10
126.9000921991777
 20
135.2093180000518
 10
126.8866563267853
 20
135.1452392240262
 10
126.8866563267853
 20
135.0746147665786
 10
126.8866563267853
 20
134.9399115331053
 10
126.9424668736463
 20
134.832080044417
 10
127.0544324769169
 20
134.7507757909651
 10
127.166053570639
 20
134.6694715375132
 10
127.3100585619225
 20
134.6288194107872
 10
127.4857584316702
 20
134.6288194107872
 10
127.551904264987
 20
134.6288194107872
 10
127.6152940219156
 20
134.6357096017577
 10
127.675927702456
 20
134.6501790027958
 10
127.71003414776
 20
134.6584472319604
 10
127.7530978413256
 20
134.6729166329984
 10
127.8058078022499
 20
134.6925536772643
 10
127.8058078022499
 20
134.6925536772643
 10
127.0241156366467
 20
135.3922525703186
 10
127.0241156366467
 20
135.3922525703186
 10
126.9855305672119
 20
135.3660698446307
 10
126.952802160102
 20
135.3247286988077
 10
126.9262749248657
 20
135.2668510946555
 97
        0
 97
        1
330
335
 92
        1
 93
        1
 72
     4
 94
        3
 73
     0
 74
     0
 95
       59
 96
       55
 40
0.0
 40
0.0
 40
0.0
 40
0.0
 40
1.0
 40
1.0
 40
1.0
 40
2.0
 40
2.0
 40
2.0
 40
3.0
 40
3.0
 40
3.0
 40
4.0
 40
4.0
 40
4.0
 40
5.0
 40
5.0
 40
5.0
 40
6.0
 40
6.0
 40
6.0
 40
7.0
 40
7.0
 40
7.0
 40
8.0
 40
8.0
 40
8.0
 40
9.0
 40
9.0
 40
9.0
 40
10.0
 40
10.0
 40
10.0
 40
11.0
 40
11.0
 40
11.0
 40
12.0
 40
12.0
 40
12.0
 40
13.0
 40
13.0
 40
13.0
 40
14.0
 40
14.0
 40
14.0
 40
15.0
 40
15.0
 40
15.0
 40
16.0
 40
16.0
 40
16.0
 40
17.0
 40
17.0
 40
17.0
 40
18.0
 40
18.0
 40
18.0
 40
18.0
 10
128.1820122292392
 20
134.3449435428026
 10
128.1820122292392
 20
134.3449435428026
 10
127.9966660921328
 20
134.5220214507445
 10
127.9966660921328
 20
134.5220214507445
 10
127.9287977110733
 20
134.4758571712421
 10
127.8523165913008
 20
134.4400281781955
 10
127.7682562614607
 20
134.4152234907017
 10
127.6835069125235
 20
134.3904188032079
 10
127.5835991434513
 20
134.378016459461
 10
127.4678439351469
 20
134.378016459461
 10
127.2594156582893
 20
134.378016459461
 10
127.0740695211828
 20
134.4365830827103
 10
126.9118055238276
 20
134.5537163292088
 10
126.7498860360208
 20
134.6705050661587
 10
126.6689262921175
 20
134.8410372926786
 10
126.6689262921175
 20
135.0649684992198
 10
126.6689262921175
 20
135.1814127266213
 10
126.6899413745775
 20
135.2837320625332
 10
126.7312825204005
 20
135.3715819974071
 10
126.7557426983458
 20
135.4232584296858
 10
126.7953612964261
 20
135.4825140720321
 10
126.8504828241901
 20
135.549348924446
 10
126.8504828241901
 20
135.549348924446
 10
126.6568684579191
 20
135.7243597750967
 10
126.6568684579191
 20
135.7243597750967
 10
126.6568684579191
 20
135.7243597750967
 10
126.7268038962697
 20
135.7960177611899
 10
126.7268038962697
 20
135.7960177611899
 10
126.7268038962697
 20
135.7960177611899
 10
126.9242078675745
 20
135.618939853248
 10
126.9242078675745
 20
135.618939853248
 10
127.0089572165116
 20
135.6768174574002
 10
127.1054198900986
 20
135.7185031127718
 10
127.2149739265296
 20
135.7436523098141
 10
127.2855983839772
 20
135.7591552394977
 10
127.3562228414248
 20
135.7670789591138
 10
127.427191808421
 20
135.7670789591138
 10
127.6642143778061
 20
135.7670789591138
 10
127.8592067822713
 20
135.7026556735396
 10
128.013202550462
 20
135.5738091023912
 10
128.1671983186526
 20
135.4449625312429
 10
128.2440239479737
 20
135.2733967760775
 10
128.2440239479737
 20
135.0591118368949
 10
128.2440239479737
 20
134.9571370105316
 10
128.2292100373871
 20
134.8665309992695
 10
128.199582216214
 20
134.7866047840117
 10
128.1696098854923
 20
134.7066785687539
 10
128.1293022683149
 20
134.6425997927282
 10
128.0776258360361
 20
134.5933349272891
 10
128.0776258360361
 20
134.5933349272891
 10
128.2536702153324
 20
134.4262477962545
 10
128.2536702153324
 20
134.4262477962545
 10
128.2536702153324
 20
134.4262477962545
 10
128.1820122292392
 20
134.3449435428026
 10
128.1820122292392
 20
134.3449435428026
 97
        0
 97
        1
330
336
 75
     2
 76
     1
 98
        1
 10
0.0
 20
0.0
450
        0
451
        0
460
0.0
461
0.0
452
        0
462
0.0
453
        0
470

  0
SPLINE
  5
338
330
330
100
AcDbEntity
  8
Sichtbar schmal (ISO)
100
AcDbSpline
210
0.0
220
0.0
230
1.0
 70
    11
 71
     3
 72
    26
 73
    22
 74
     0
 42
0.0000000001
 43
0.0000000001
 40
0.0
 40
0.0
 40
0.0
 40
0.0
 40
1.0
 40
1.0
 40
1.0
 40
2.0
 40
2.0
 40
2.0
 40
3.0
 40
3.0
 40
3.0
 40
4.0
 40
4.0
 40
4.0
 40
5.0
 40
5.0
 40
5.0
 40
6.0
 40
6.0
 40
6.0
 40
7.0
 40
7.0
 40
7.0
 40
7.0
 10
126.7547091697002
 20
136.7065564979414
 30
0.0
 10
126.7547091697002
 20
136.7065564979414
 30
0.0
 10
126.7547091697002
 20
136.1873806083143
 30
0.0
 10
126.7547091697002
 20
136.1873806083143
 30
0.0
 10
126.7547091697002
 20
136.1873806083143
 30
0.0
 10
126.5628173511718
 20
136.1873806083143
 30
0.0
 10
126.5628173511718
 20
136.1873806083143
 30
0.0
 10
126.5628173511718
 20
136.4609211898431
 30
0.0
 10
126.4921928937241
 20
136.7093125743296
 30
0.0
 10
126.1876464528281
 20
136.762711554351
 30
0.0
 10
126.1876464528281
 20
136.762711554351
 30
0.0
 10
126.1876464528281
 20
136.9463351437148
 30
0.0
 10
126.1876464528281
 20
136.9463351437148
 30
0.0
 10
126.1876464528281
 20
136.9463351437148
 30
0.0
 10
128.1875243820156
 20
136.9463351437148
 30
0.0
 10
128.1875243820156
 20
136.9463351437148
 30
0.0
 10
128.1875243820156
 20
136.9463351437148
 30
0.0
 10
128.1875243820156
 20
136.7065564979414
 30
0.0
 10
128.1875243820156
 20
136.7065564979414
 30
0.0
 10
128.1875243820156
 20
136.7065564979414
 30
0.0
 10
126.7547091697002
 20
136.7065564979414
 30
0.0
 10
126.7547091697002
 20
136.7065564979414
 30
0.0
  0
HATCH
  5
339
330
330
100
AcDbEntity
  8
Sichtbar schmal (ISO)
 62
    18
420
        0
440
 33554687
100
AcDbHatch
 10
0.0
 20
0.0
 30
0.0
210
0.0
220
0.0
230
1.0
  2
SOLID
 70
     1
 71
     1
 91
        1
 92
        1
 93
        1
 72
     4
 94
        3
 73
     0
 74
     0
 95
       26
 96
       22
 40
0.0
 40
0.0
 40
0.0
 40
0.0
 40
1.0
 40
1.0
 40
1.0
 40
2.0
 40
2.0
 40
2.0
 40
3.0
 40
3.0
 40
3.0
 40
4.0
 40
4.0
 40
4.0
 40
5.0
 40
5.0
 40
5.0
 40
6.0
 40
6.0
 40
6.0
 40
7.0
 40
7.0
 40
7.0
 40
7.0
 10
126.7547091697002
 20
136.7065564979414
 10
126.7547091697002
 20
136.7065564979414
 10
126.7547091697002
 20
136.1873806083143
 10
126.7547091697002
 20
136.1873806083143
 10
126.7547091697002
 20
136.1873806083143
 10
126.5628173511718
 20
136.1873806083143
 10
126.5628173511718
 20
136.1873806083143
 10
126.5628173511718
 20
136.4609211898431
 10
126.4921928937241
 20
136.7093125743296
 10
126.1876464528281
 20
136.762711554351
 10
126.1876464528281
 20
136.762711554351
 10
126.1876464528281
 20
136.9463351437148
 10
126.1876464528281
 20
136.9463351437148
 10
126.1876464528281
 20
136.9463351437148
 10
128.1875243820156
 20
136.9463351437148
 10
128.1875243820156
 20
136.9463351437148
 10
128.1875243820156
 20
136.9463351437148
 10
128.1875243820156
 20
136.7065564979414
 10
128.1875243820156
 20
136.7065564979414
 10
128.1875243820156
 20
136.7065564979414
 10
126.7547091697002
 20
136.7065564979414
 10
126.7547091697002
 20
136.7065564979414
 97
        0
 97
        1
330
338
 75
     2
 76
     1
 98
        1
 10
0.0
 20
0.0
450
        0
451
        0
460
0.0
461
0.0
452
        0
462
0.0
453
        0
470

  0
SPLINE
  5
33A
330
330
100
AcDbEntity
  8
Sichtbar schmal (ISO)
100
AcDbSpline
210
0.0
220
0.0
230
1.0
 70
    11
 71
     3
 72
    26
 73
    22
 74
     0
 42
0.0000000001
 43
0.0000000001
 40
0.0
 40
0.0
 40
0.0
 40
0.0
 40
1.0
 40
1.0
 40
1.0
 40
2.0
 40
2.0
 40
2.0
 40
3.0
 40
3.0
 40
3.0
 40
4.0
 40
4.0
 40
4.0
 40
5.0
 40
5.0
 40
5.0
 40
6.0
 40
6.0
 40
6.0
 40
7.0
 40
7.0
 40
7.0
 40
7.0
 10
126.7547091697002
 20
138.2757974914727
 30
0.0
 10
126.7547091697002
 20
138.2757974914727
 30
0.0
 10
126.7547091697002
 20
137.7569661113941
 30
0.0
 10
126.7547091697002
 20
137.7569661113941
 30
0.0
 10
126.7547091697002
 20
137.7569661113941
 30
0.0
 10
126.5628173511718
 20
137.7569661113941
 30
0.0
 10
126.5628173511718
 20
137.7569661113941
 30
0.0
 10
126.5628173511718
 20
138.0305066929229
 30
0.0
 10
126.4921928937241
 20
138.2785535678609
 30
0.0
 10
126.1876464528281
 20
138.3322970574308
 30
0.0
 10
126.1876464528281
 20
138.3322970574308
 30
0.0
 10
126.1876464528281
 20
138.5155761372461
 30
0.0
 10
126.1876464528281
 20
138.5155761372461
 30
0.0
 10
126.1876464528281
 20
138.5155761372461
 30
0.0
 10
128.1875243820156
 20
138.5155761372461
 30
0.0
 10
128.1875243820156
 20
138.5155761372461
 30
0.0
 10
128.1875243820156
 20
138.5155761372461
 30
0.0
 10
128.1875243820156
 20
138.2757974914727
 30
0.0
 10
128.1875243820156
 20
138.2757974914727
 30
0.0
 10
128.1875243820156
 20
138.2757974914727
 30
0.0
 10
126.7547091697002
 20
138.2757974914727
 30
0.0
 10
126.7547091697002
 20
138.2757974914727
 30
0.0
  0
HATCH
  5
33B
330
330
100
AcDbEntity
  8
Sichtbar schmal (ISO)
 62
    18
420
        0
440
 33554687
100
AcDbHatch
 10
0.0
 20
0.0
 30
0.0
210
0.0
220
0.0
230
1.0
  2
SOLID
 70
     1
 71
     1
 91
        1
 92
        1
 93
        1
 72
     4
 94
        3
 73
     0
 74
     0
 95
       26
 96
       22
 40
0.0
 40
0.0
 40
0.0
 40
0.0
 40
1.0
 40
1.0
 40
1.0
 40
2.0
 40
2.0
 40
2.0
 40
3.0
 40
3.0
 40
3.0
 40
4.0
 40
4.0
 40
4.0
 40
5.0
 40
5.0
 40
5.0
 40
6.0
 40
6.0
 40
6.0
 40
7.0
 40
7.0
 40
7.0
 40
7.0
 10
126.7547091697002
 20
138.2757974914727
 10
126.7547091697002
 20
138.2757974914727
 10
126.7547091697002
 20
137.7569661113941
 10
126.7547091697002
 20
137.7569661113941
 10
126.7547091697002
 20
137.7569661113941
 10
126.5628173511718
 20
137.7569661113941
 10
126.5628173511718
 20
137.7569661113941
 10
126.5628173511718
 20
138.0305066929229
 10
126.4921928937241
 20
138.2785535678609
 10
126.1876464528281
 20
138.3322970574308
 10
126.1876464528281
 20
138.3322970574308
 10
126.1876464528281
 20
138.5155761372461
 10
126.1876464528281
 20
138.5155761372461
 10
126.1876464528281
 20
138.5155761372461
 10
128.1875243820156
 20
138.5155761372461
 10
128.1875243820156
 20
138.5155761372461
 10
128.1875243820156
 20
138.5155761372461
 10
128.1875243820156
 20
138.2757974914727
 10
128.1875243820156
 20
138.2757974914727
 10
128.1875243820156
 20
138.2757974914727
 10
126.7547091697002
 20
138.2757974914727
 10
126.7547091697002
 20
138.2757974914727
 97
        0
 97
        1
330
33A
 75
     2
 76
     1
 98
        1
 10
0.0
 20
0.0
450
        0
451
        0
460
0.0
461
0.0
452
        0
462
0.0
453
        0
470

  0
SPLINE
  5
33C
330
330
100
AcDbEntity
  8
Sichtbar schmal (ISO)
100
AcDbSpline
210
0.0
220
0.0
230
1.0
 70
     9
 71
     3
 72
    53
 73
    49
 74
     0
 42
0.0000000001
 43
0.0000000001
 40
0.0
 40
0.0
 40
0.0
 40
0.0
 40
1.0
 40
1.0
 40
1.0
 40
2.0
 40
2.0
 40
2.0
 40
3.0
 40
3.0
 40
3.0
 40
4.0
 40
4.0
 40
4.0
 40
5.0
 40
5.0
 40
5.0
 40
6.0
 40
6.0
 40
6.0
 40
7.0
 40
7.0
 40
7.0
 40
8.0
 40
8.0
 40
8.0
 40
9.0
 40
9.0
 40
9.0
 40
10.0
 40
10.0
 40
10.0
 40
11.0
 40
11.0
 40
11.0
 40
12.0
 40
12.0
 40
12.0
 40
13.0
 40
13.0
 40
13.0
 40
14.0
 40
14.0
 40
14.0
 40
15.0
 40
15.0
 40
15.0
 40
16.0
 40
16.0
 40
16.0
 40
16.0
 10
127.6487114481225
 20
139.4188801734786
 30
0.0
 10
127.8547281581405
 20
139.4333495745167
 30
0.0
 10
128.0097574549767
 20
139.5994031769057
 30
0.0
 10
128.0097574549767
 20
139.8391818226791
 30
0.0
 10
128.0097574549767
 20
140.0679361628997
 30
0.0
 10
127.8516275722037
 20
140.2622395482678
 30
0.0
 10
127.5360568257549
 20
140.2622395482678
 30
0.0
 10
127.2735405497788
 20
140.2622395482678
 30
0.0
 10
127.0819932407989
 20
140.0817165448407
 30
0.0
 10
127.0819932407989
 20
139.8109320397
 30
0.0
 10
127.0819932407989
 20
139.6559027428638
 30
0.0
 10
127.1577853414744
 20
139.5318793053948
 30
0.0
 10
127.2707844733906
 20
139.438861727293
 30
0.0
 10
127.2707844733906
 20
139.438861727293
 30
0.0
 10
127.2597601678378
 20
139.2328450172751
 30
0.0
 10
127.2597601678378
 20
139.2328450172751
 30
0.0
 10
127.2597601678378
 20
139.2328450172751
 30
0.0
 10
126.2214083885835
 20
139.4188801734786
 30
0.0
 10
126.2214083885835
 20
139.4188801734786
 30
0.0
 10
126.2214083885835
 20
139.4188801734786
 30
0.0
 10
126.2214083885835
 20
140.4062445395512
 30
0.0
 10
126.2214083885835
 20
140.4062445395512
 30
0.0
 10
126.2214083885835
 20
140.4062445395512
 30
0.0
 10
126.4329372513778
 20
140.4062445395512
 30
0.0
 10
126.4329372513778
 20
140.4062445395512
 30
0.0
 10
126.4329372513778
 20
140.4062445395512
 30
0.0
 10
126.4329372513778
 20
139.5994031769057
 30
0.0
 10
126.4329372513778
 20
139.5994031769057
 30
0.0
 10
126.4329372513778
 20
139.5994031769057
 30
0.0
 10
127.0082681974146
 20
139.4926052168629
 30
0.0
 10
127.0082681974146
 20
139.4926052168629
 30
0.0
 10
127.0082681974146
 20
139.4926052168629
 30
0.0
 10
127.0141248597395
 20
139.4981173696393
 30
0.0
 10
127.0141248597395
 20
139.4981173696393
 30
0.0
 10
126.9152506193128
 20
139.5856227949647
 30
0.0
 10
126.8704643780046
 20
139.7351399390245
 30
0.0
 10
126.8704643780046
 20
139.8701876820463
 30
0.0
 10
126.8704643780046
 20
140.2257215361241
 30
0.0
 10
127.0957736227399
 20
140.5164875950792
 30
0.0
 10
127.5556938700208
 20
140.5164875950792
 30
0.0
 10
127.8943467562208
 20
140.5164875950792
 30
0.0
 10
128.221286317771
 20
140.2822211020822
 30
0.0
 10
128.221286317771
 20
139.816788702025
 30
0.0
 10
128.221286317771
 20
139.4698675866603
 30
0.0
 10
128.0097574549767
 20
139.1877142664183
 30
0.0
 10
127.6487114481225
 20
139.1791015277052
 30
0.0
 10
127.6487114481225
 20
139.1791015277052
 30
0.0
 10
127.6487114481225
 20
139.4188801734786
 30
0.0
 10
127.6487114481225
 20
139.4188801734786
 30
0.0
  0
HATCH
  5
33D
330
330
100
AcDbEntity
  8
Sichtbar schmal (ISO)
 62
    18
420
        0
440
 33554687
100
AcDbHatch
 10
0.0
 20
0.0
 30
0.0
210
0.0
220
0.0
230
1.0
  2
SOLID
 70
     1
 71
     1
 91
        1
 92
        1
 93
        1
 72
     4
 94
        3
 73
     0
 74
     0
 95
       53
 96
       49
 40
0.0
 40
0.0
 40
0.0
 40
0.0
 40
1.0
 40
1.0
 40
1.0
 40
2.0
 40
2.0
 40
2.0
 40
3.0
 40
3.0
 40
3.0
 40
4.0
 40
4.0
 40
4.0
 40
5.0
 40
5.0
 40
5.0
 40
6.0
 40
6.0
 40
6.0
 40
7.0
 40
7.0
 40
7.0
 40
8.0
 40
8.0
 40
8.0
 40
9.0
 40
9.0
 40
9.0
 40
10.0
 40
10.0
 40
10.0
 40
11.0
 40
11.0
 40
11.0
 40
12.0
 40
12.0
 40
12.0
 40
13.0
 40
13.0
 40
13.0
 40
14.0
 40
14.0
 40
14.0
 40
15.0
 40
15.0
 40
15.0
 40
16.0
 40
16.0
 40
16.0
 40
16.0
 10
127.6487114481225
 20
139.4188801734786
 10
127.8547281581405
 20
139.4333495745167
 10
128.0097574549767
 20
139.5994031769057
 10
128.0097574549767
 20
139.8391818226791
 10
128.0097574549767
 20
140.0679361628997
 10
127.8516275722037
 20
140.2622395482678
 10
127.5360568257549
 20
140.2622395482678
 10
127.2735405497788
 20
140.2622395482678
 10
127.0819932407989
 20
140.0817165448407
 10
127.0819932407989
 20
139.8109320397
 10
127.0819932407989
 20
139.6559027428638
 10
127.1577853414744
 20
139.5318793053948
 10
127.2707844733906
 20
139.438861727293
 10
127.2707844733906
 20
139.438861727293
 10
127.2597601678378
 20
139.2328450172751
 10
127.2597601678378
 20
139.2328450172751
 10
127.2597601678378
 20
139.2328450172751
 10
126.2214083885835
 20
139.4188801734786
 10
126.2214083885835
 20
139.4188801734786
 10
126.2214083885835
 20
139.4188801734786
 10
126.2214083885835
 20
140.4062445395512
 10
126.2214083885835
 20
140.4062445395512
 10
126.2214083885835
 20
140.4062445395512
 10
126.4329372513778
 20
140.4062445395512
 10
126.4329372513778
 20
140.4062445395512
 10
126.4329372513778
 20
140.4062445395512
 10
126.4329372513778
 20
139.5994031769057
 10
126.4329372513778
 20
139.5994031769057
 10
126.4329372513778
 20
139.5994031769057
 10
127.0082681974146
 20
139.4926052168629
 10
127.0082681974146
 20
139.4926052168629
 10
127.0082681974146
 20
139.4926052168629
 10
127.0141248597395
 20
139.4981173696393
 10
127.0141248597395
 20
139.4981173696393
 10
126.9152506193128
 20
139.5856227949647
 10
126.8704643780046
 20
139.7351399390245
 10
126.8704643780046
 20
139.8701876820463
 10
126.8704643780046
 20
140.2257215361241
 10
127.0957736227399
 20
140.5164875950792
 10
127.5556938700208
 20
140.5164875950792
 10
127.8943467562208
 20
140.5164875950792
 10
128.221286317771
 20
140.2822211020822
 10
128.221286317771
 20
139.816788702025
 10
128.221286317771
 20
139.4698675866603
 10
128.0097574549767
 20
139.1877142664183
 10
127.6487114481225
 20
139.1791015277052
 10
127.6487114481225
 20
139.1791015277052
 10
127.6487114481225
 20
139.4188801734786
 10
127.6487114481225
 20
139.4188801734786
 97
        0
 97
        1
330
33C
 75
     2
 76
     1
 98
        1
 10
0.0
 20
0.0
450
        0
451
        0
460
0.0
461
0.0
452
        0
462
0.0
453
        0
470

  0
ENDBLK
  5
333
330
330
100
AcDbEntity
  8
0
100
AcDbBlockEnd
  0
ENDSEC
  0
SECTION
  2
ENTITIES
  0
INSERT
  5
79
330
70
100
AcDbEntity
  8
0
100
AcDbBlockReference
  2
Block_0
 10
0.0
 20
0.0
 30
0.0
  0
INSERT
  5
7D
330
70
100
AcDbEntity
  8
0
100
AcDbBlockReference
  2
Block_1
 10
0.0
 20
0.0
 30
0.0
  0
INSERT
  5
81
330
70
100
AcDbEntity
  8
0
100
AcDbBlockReference
  2
Block_2
 10
0.0
 20
0.0
 30
0.0
  0
INSERT
  5
85
330
70
100
AcDbEntity
  8
0
100
AcDbBlockReference
  2
Block_3
 10
0.0
 20
0.0
 30
0.0
  0
INSERT
  5
89
330
70
100
AcDbEntity
  8
0
100
AcDbBlockReference
  2
Block_4
 10
0.0
 20
0.0
 30
0.0
  0
INSERT
  5
8F
330
70
100
AcDbEntity
  8
Titel (ISO)
100
AcDbBlockReference
  2
Block_5
 10
0.0
 20
0.0
 30
0.0
  0
INSERT
  5
93
330
70
100
AcDbEntity
  8
Titel (ISO)
100
AcDbBlockReference
  2
Block_6
 10
0.0
 20
0.0
 30
0.0
  0
INSERT
  5
97
330
70
100
AcDbEntity
  8
Titel (ISO)
100
AcDbBlockReference
  2
Block_7
 10
0.0
 20
0.0
 30
0.0
  0
INSERT
  5
9B
330
70
100
AcDbEntity
  8
Titel (ISO)
100
AcDbBlockReference
  2
Block_8
 10
0.0
 20
0.0
 30
0.0
  0
INSERT
  5
9F
330
70
100
AcDbEntity
  8
Titel (ISO)
100
AcDbBlockReference
  2
Block_9
 10
0.0
 20
0.0
 30
0.0
  0
INSERT
  5
A3
330
70
100
AcDbEntity
  8
Titel (ISO)
100
AcDbBlockReference
  2
Block_10
 10
0.0
 20
0.0
 30
0.0
  0
INSERT
  5
A7
330
70
100
AcDbEntity
  8
Titel (ISO)
100
AcDbBlockReference
  2
Block_11
 10
0.0
 20
0.0
 30
0.0
  0
INSERT
  5
AB
330
70
100
AcDbEntity
  8
Titel (ISO)
100
AcDbBlockReference
  2
Block_12
 10
0.0
 20
0.0
 30
0.0
  0
INSERT
  5
AF
330
70
100
AcDbEntity
  8
Titel (ISO)
100
AcDbBlockReference
  2
Block_13
 10
0.0
 20
0.0
 30
0.0
  0
INSERT
  5
B5
330
70
100
AcDbEntity
  8
Sichtbar schmal (ISO)
100
AcDbBlockReference
  2
Block_14
 10
0.0
 20
0.0
 30
0.0
  0
INSERT
  5
BB
330
70
100
AcDbEntity
  8
Sichtbar schmal (ISO)
100
AcDbBlockReference
  2
Block_15
 10
0.0
 20
0.0
 30
0.0
  0
SPLINE
  5
252
330
70
100
AcDbEntity
  8
Sichtbar schmal (ISO)
 62
    18
420
        0
370
     5
100
AcDbSpline
210
0.0
220
0.0
230
1.0
 70
     8
 71
     3
 72
    17
 73
    13
 74
     0
 42
0.0000000001
 43
0.0000000001
 40
0.0
 40
0.0
 40
0.0
 40
0.0
 40
1.0
 40
1.0
 40
1.0
 40
2.0
 40
2.0
 40
2.0
 40
3.0
 40
3.0
 40
3.0
 40
4.0
 40
4.0
 40
4.0
 40
4.0
 10
88.73935509084352
 20
112.7063216135178
 30
0.0
 10
102.208849214093
 20
111.2906207480776
 30
0.0
 10
114.2756839517875
 20
121.0621507546153
 30
0.0
 10
115.6913848310275
 20
134.5316447465693
 30
0.0
 10
117.1070857102674
 20
148.0011387385233
 30
0.0
 10
107.3355556084804
 20
160.0679733585957
 30
0.0
 10
93.86606148523158
 20
161.4836742240359
 30
0.0
 10
80.39656736198244
 20
162.8993750894761
 30
0.0
 10
68.3297326242879
 20
153.1278450829384
 30
0.0
 10
66.91403174504793
 20
139.6583510909844
 30
0.0
 10
65.49841822325837
 20
126.1896882496449
 30
0.0
 10
75.26868740132036
 20
114.1233342663074
 30
0.0
 10
88.7372267870775
 20
112.7065454011462
 30
0.0
  0
LINE
  5
253
330
70
100
AcDbEntity
  8
Sichtbar schmal (ISO)
 62
    18
420
        0
370
     5
100
AcDbLine
 10
109.8758779282127
 20
153.1079828888119
 30
0.0
 11
109.8758779282127
 21
153.1571929037929
 31
0.0
  0
SPLINE
  5
254
330
70
100
AcDbEntity
  8
Sichtbar schmal (ISO)
 62
    18
420
        0
370
     5
100
AcDbSpline
210
0.0
220
0.0
230
1.0
 70
     8
 71
     3
 72
     8
 73
     4
 74
     0
 42
0.0000000001
 43
0.0000000001
 40
0.0
 40
0.0
 40
0.0
 40
0.0
 40
1.0
 40
1.0
 40
1.0
 40
1.0
 10
108.2050527073969
 20
154.9070020225649
 30
0.0
 10
108.2083581307379
 20
154.8885389971351
 30
0.0
 10
108.2121245100146
 20
154.8701614727858
 30
0.0
 10
108.2163483169303
 20
154.8518866653513
 30
0.0
  0
SPLINE
  5
255
330
70
100
AcDbEntity
  8
Sichtbar schmal (ISO)
 62
    18
420
        0
370
     5
100
AcDbSpline
210
0.0
220
0.0
230
1.0
 70
     8
 71
     3
 72
     8
 73
     4
 74
     0
 42
0.0000000001
 43
0.0000000001
 40
0.0
 40
0.0
 40
0.0
 40
0.0
 40
1.0
 40
1.0
 40
1.0
 40
1.0
 10
109.0595972076994
 20
154.0086377828017
 30
0.0
 10
109.077872015311
 20
154.0044139759278
 30
0.0
 10
109.09624953984
 20
154.0006475966877
 30
0.0
 10
109.1147125654495
 20
153.9973421733787
 30
0.0
  0
SPLINE
  5
256
330
70
100
AcDbEntity
  8
Sichtbar schmal (ISO)
 62
    18
420
        0
370
     5
100
AcDbSpline
210
0.0
220
0.0
230
1.0
 70
     8
 71
     3
 72
     8
 73
     4
 74
     0
 42
0.0000000001
 43
0.0000000001
 40
0.0
 40
0.0
 40
0.0
 40
0.0
 40
1.0
 40
1.0
 40
1.0
 40
1.0
 10
108.2050527073918
 20
154.9070020225656
 30
0.0
 10
107.9010861546991
 20
155.1954449869558
 30
0.0
 10
107.589785871038
 20
155.476059789033
 30
0.0
 10
107.2714577265242
 20
155.7485707089002
 30
0.0
  0
LINE
  5
257
330
70
100
AcDbEntity
  8
Sichtbar schmal (ISO)
 62
    18
420
        0
370
     5
100
AcDbLine
 10
107.2714577265242
 20
155.7485707089002
 30
0.0
 11
107.2219588518128
 21
155.7485707089002
 31
0.0
  0
SPLINE
  5
258
330
70
100
AcDbEntity
  8
Sichtbar schmal (ISO)
 62
    18
420
        0
370
     5
100
AcDbSpline
210
0.0
220
0.0
230
1.0
 70
     8
 71
     3
 72
     8
 73
     4
 74
     0
 42
0.0000000001
 43
0.0000000001
 40
0.0
 40
0.0
 40
0.0
 40
0.0
 40
1.0
 40
1.0
 40
1.0
 40
1.0
 10
109.8758779282127
 20
153.1571929037936
 30
0.0
 10
109.6286555580965
 20
153.4430631060776
 30
0.0
 10
109.3748661503767
 20
153.7231874994809
 30
0.0
 10
109.1147125654501
 20
153.9973421733743
 30
0.0
  0
SPLINE
  5
259
330
70
100
AcDbEntity
  8
Sichtbar schmal (ISO)
 62
    18
420
        0
370
     5
100
AcDbSpline
210
0.0
220
0.0
230
1.0
 70
     8
 71
     3
 72
     8
 73
     4
 74
     0
 42
0.0000000001
 43
0.0000000001
 40
0.0
 40
0.0
 40
0.0
 40
0.0
 40
1.0
 40
1.0
 40
1.0
 40
1.0
 10
67.5837344457398
 20
137.115696633265
 30
0.0
 10
67.58372240371508
 20
137.1018974928992
 30
0.0
 10
67.58372240371508
 20
137.088098344652
 30
0.0
 10
67.5837344457398
 20
137.0742992042868
 30
0.0
  0
SPLINE
  5
25A
330
70
100
AcDbEntity
  8
Sichtbar schmal (ISO)
 62
    18
420
        0
370
     5
100
AcDbSpline
210
0.0
220
0.0
230
1.0
 70
     8
 71
     3
 72
    17
 73
    13
 74
     0
 42
0.0000000001
 43
0.0000000001
 40
0.0
 40
0.0
 40
0.0
 40
0.0
 40
1.0
 40
1.0
 40
1.0
 40
2.0
 40
2.0
 40
2.0
 40
3.0
 40
3.0
 40
3.0
 40
4.0
 40
4.0
 40
4.0
 40
4.0
 10
67.26212124109839
 20
137.0740185437523
 30
0.0
 10
67.27370783009907
 20
123.7967690701695
 30
0.0
 10
78.04643806026295
 20
113.0428245172891
 30
0.0
 10
91.32368766326747
 20
113.0544111061765
 30
0.0
 10
104.6009372662716
 20
113.065997695064
 30
0.0
 10
115.3548819239771
 20
123.8387278202199
 30
0.0
 10
115.3432953349767
 20
137.1159772938027
 30
0.0
 10
115.3317087459764
 20
150.3932267673862
 30
0.0
 10
104.5589785158118
 20
161.1471713202665
 30
0.0
 10
91.28172891280796
 20
161.1355847313791
 30
0.0
 10
78.02086225702058
 20
161.1240124393133
 30
0.0
 10
67.27369353327516
 20
150.3768438203259
 30
0.0
 10
67.26212124109839
 20
137.1159772938002
 30
0.0
  0
LINE
  5
25B
330
70
100
AcDbEntity
  8
Sichtbar schmal (ISO)
 62
    18
420
        0
370
     5
100
AcDbLine
 10
67.26212124109839
 20
137.0740185437504
 30
0.0
 11
67.5837344457398
 21
137.0742992042861
 31
0.0
  0
LINE
  5
25C
330
70
100
AcDbEntity
  8
Sichtbar schmal (ISO)
 62
    18
420
        0
370
     5
100
AcDbLine
 10
67.26212124110448
 20
137.1159772938008
 30
0.0
 11
67.58373444574139
 21
137.1156966332656
 31
0.0
  0
SPLINE
  5
25D
330
70
100
AcDbEntity
  8
Sichtbar schmal (ISO)
 62
    18
420
        0
370
     5
100
AcDbSpline
210
0.0
220
0.0
230
1.0
 70
     8
 71
     3
 72
    17
 73
    13
 74
     0
 42
0.0000000001
 43
0.0000000001
 40
0.0
 40
0.0
 40
0.0
 40
0.0
 40
1.0
 40
1.0
 40
1.0
 40
2.0
 40
2.0
 40
2.0
 40
3.0
 40
3.0
 40
3.0
 40
4.0
 40
4.0
 40
4.0
 40
4.0
 10
67.5837344457398
 20
137.0742992042868
 30
0.0
 10
67.59516603020675
 20
123.9746717972399
 30
0.0
 10
78.2237794679956
 20
113.3645927233292
 30
0.0
 10
91.3234070027323
 20
113.3760243076845
 30
0.0
 10
104.4230345374687
 20
113.3874558920398
 30
0.0
 10
115.0331137148022
 20
124.0160692262257
 30
0.0
 10
115.0216821303353
 20
137.1156966332726
 30
0.0
 10
115.0102505458683
 20
150.2153240403196
 30
0.0
 10
104.3816371080795
 20
160.8254031142302
 30
0.0
 10
91.28200957334312
 20
160.8139715298749
 30
0.0
 10
78.19854581596217
 20
160.8025540510791
 30
0.0
 10
67.59515192464317
 20
150.199160263115
 30
0.0
 10
67.5837344457398
 20
137.1156966332663
 30
0.0
  0
LINE
  5
25E
330
70
100
AcDbEntity
  8
Sichtbar schmal (ISO)
 62
    18
420
        0
370
     5
100
AcDbLine
 10
115.3170621371375
 20
138.2666154865407
 30
0.0
 11
115.3146961127907
 21
138.2674766489681
 31
0.0
  0
LINE
  5
25F
330
70
100
AcDbEntity
  8
Sichtbar schmal (ISO)
 62
    18
420
        0
370
     5
100
AcDbLine
 10
115.3384636672276
 20
137.5774179047281
 30
0.0
 11
115.3433044889566
 21
137.5774179047281
 31
0.0
  0
LINE
  5
260
330
70
100
AcDbEntity
  8
Sichtbar schmal (ISO)
 62
    18
420
        0
370
     5
100
AcDbLine
 10
115.3431700348484
 20
137.1754012497689
 30
0.0
 11
115.3433044889566
 21
137.1754012497689
 31
0.0
  0
LINE
  5
261
330
70
100
AcDbEntity
  8
Sichtbar schmal (ISO)
 62
    18
420
        0
370
     5
100
AcDbLine
 10
115.3170621371375
 20
135.923380351013
 30
0.0
 11
115.3146961127907
 21
135.9225191885855
 31
0.0
  0
LINE
  5
262
330
70
100
AcDbEntity
  8
Sichtbar schmal (ISO)
 62
    18
420
        0
370
     5
100
AcDbLine
 10
115.3431700348484
 20
137.0145945877849
 30
0.0
 11
115.3433044889566
 21
137.0145945877849
 31
0.0
  0
LINE
  5
263
330
70
100
AcDbEntity
  8
Sichtbar schmal (ISO)
 62
    18
420
        0
370
     5
100
AcDbLine
 10
80.31018195058171
 20
115.7121488488224
 30
0.0
 11
80.31211075130448
 21
115.7137673047818
 31
0.0
  0
LINE
  5
264
330
70
100
AcDbEntity
  8
Sichtbar schmal (ISO)
 62
    18
420
        0
370
     5
100
AcDbLine
 10
79.35210874250071
 20
116.2351458647752
 30
0.0
 11
79.35204151544501
 21
116.2350294240998
 31
0.0
  0
LINE
  5
265
330
70
100
AcDbEntity
  8
Sichtbar schmal (ISO)
 62
    18
420
        0
370
     5
100
AcDbLine
 10
79.21284608676739
 20
116.3155491957665
 30
0.0
 11
79.21277885971136
 21
116.3154327550917
 31
0.0
  0
LINE
  5
266
330
70
100
AcDbEntity
  8
Sichtbar schmal (ISO)
 62
    18
420
        0
370
     5
100
AcDbLine
 10
78.28088077639378
 20
157.3062294209675
 30
0.0
 11
78.28131800002164
 21
157.3037498025793
 31
0.0
  0
LINE
  5
267
330
70
100
AcDbEntity
  8
Sichtbar schmal (ISO)
 62
    18
420
        0
370
     5
100
AcDbLine
 10
79.21284608676739
 20
157.8744466417871
 30
0.0
 11
79.21277885971136
 21
157.8745630824619
 31
0.0
  0
LINE
  5
268
330
70
100
AcDbEntity
  8
Sichtbar schmal (ISO)
 62
    18
420
        0
370
     5
100
AcDbLine
 10
80.31018195058171
 20
158.4778469887313
 30
0.0
 11
80.31211075130448
 21
158.4762285327719
 31
0.0
  0
LINE
  5
269
330
70
100
AcDbEntity
  8
Sichtbar schmal (ISO)
 62
    18
420
        0
370
     5
100
AcDbLine
 10
79.70261856564409
 20
158.1517824663791
 30
0.0
 11
79.70019815477799
 21
158.1559747409336
 31
0.0
  0
LINE
  5
26A
330
70
100
AcDbEntity
  8
Sichtbar schmal (ISO)
 62
    18
420
        0
370
     5
100
AcDbLine
 10
79.35210874250071
 20
157.9548499727785
 30
0.0
 11
79.35204151544501
 21
157.9549664134539
 31
0.0
  0
LINE
  5
26B
330
70
100
AcDbEntity
  8
Sichtbar schmal (ISO)
 62
    18
420
        0
370
     5
100
AcDbLine
 10
114.8287231655927
 20
139.5070978485343
 30
0.0
 11
114.8287231655927
 21
134.6828979890194
 31
0.0
  0
LINE
  5
26C
330
70
100
AcDbEntity
  8
Sichtbar schmal (ISO)
 62
    18
420
        0
370
     5
100
AcDbLine
 10
81.62864068525886
 20
115.5148216187267
 30
0.0
 11
77.45076101326176
 21
117.9269215484841
 31
0.0
  0
LINE
  5
26D
330
70
100
AcDbEntity
  8
Sichtbar schmal (ISO)
 62
    18
420
        0
370
     5
100
AcDbLine
 10
77.45076101326176
 20
156.2630742890696
 30
0.0
 11
81.62864068525886
 21
158.675174218827
 31
0.0
  0
CIRCLE
  5
26E
330
70
100
AcDbEntity
  8
Sichtbar schmal (ISO)
 62
    18
420
        0
370
     5
100
AcDbCircle
 10
91.30270828803764
 20
137.0949979187767
 30
0.0
 40
9.24638310913456
  0
CIRCLE
  5
26F
330
70
100
AcDbEntity
  8
Sichtbar schmal (ISO)
 62
    18
420
        0
370
     5
100
AcDbCircle
 10
84.06640842822941
 20
129.8586981295049
 30
0.0
 40
0.3216133255351096
  0
CIRCLE
  5
270
330
70
100
AcDbEntity
  8
Sichtbar schmal (ISO)
 62
    18
420
        0
370
     5
100
AcDbCircle
 10
84.06640842822941
 20
144.3312977080486
 30
0.0
 40
0.3216133255353502
  0
CIRCLE
  5
271
330
70
100
AcDbEntity
  8
Sichtbar schmal (ISO)
 62
    18
420
        0
370
     5
100
AcDbCircle
 10
98.53900814784594
 20
144.3312977080486
 30
0.0
 40
0.3216133255351497
  0
CIRCLE
  5
272
330
70
100
AcDbEntity
  8
Sichtbar schmal (ISO)
 62
    18
420
        0
370
     5
100
AcDbCircle
 10
98.53900814784594
 20
129.8586981295049
 30
0.0
 40
0.321613325534909
  0
LINE
  5
273
330
70
100
AcDbEntity
  8
Sichtbar schmal (ISO)
 62
    18
420
        0
370
     5
100
AcDbLine
 10
115.3170621371375
 20
138.2666154865407
 30
0.0
 11
115.3150122831886
 21
138.2609835591588
 31
0.0
  0
CIRCLE
  5
274
330
70
100
AcDbEntity
  8
Sichtbar schmal (ISO)
 62
    18
420
        0
370
     5
100
AcDbCircle
 10
91.30270828803757
 20
137.0949979187768
 30
0.0
 40
8.967954480025696
  0
SPLINE
  5
275
330
70
100
AcDbEntity
  8
Sichtbar schmal (ISO)
 62
    18
420
        0
370
     5
100
AcDbSpline
210
0.0
220
0.0
230
1.0
 70
     8
 71
     3
 72
     8
 73
     4
 74
     0
 42
0.0000000001
 43
0.0000000001
 40
0.0
 40
0.0
 40
0.0
 40
0.0
 40
1.0
 40
1.0
 40
1.0
 40
1.0
 10
89.35701411570013
 20
136.8780038499842
 30
0.0
 10
89.35702341801773
 20
136.8514501699588
 30
0.0
 10
89.38028982457037
 20
136.8300807317298
 30
0.0
 10
89.40918750696923
 20
136.8300842858076
 30
0.0
  0
LINE
  5
276
330
70
100
AcDbEntity
  8
Sichtbar schmal (ISO)
 62
    18
420
        0
370
     5
100
AcDbLine
 10
89.35701411570013
 20
136.8780038499406
 30
0.0
 11
89.35701411081614
 21
137.3119919875413
 31
0.0
  0
SPLINE
  5
277
330
70
100
AcDbEntity
  8
Sichtbar schmal (ISO)
 62
    18
420
        0
370
     5
100
AcDbSpline
210
0.0
220
0.0
230
1.0
 70
     8
 71
     3
 72
     8
 73
     4
 74
     0
 42
0.0000000001
 43
0.0000000001
 40
0.0
 40
0.0
 40
0.0
 40
0.0
 40
1.0
 40
1.0
 40
1.0
 40
1.0
 10
89.40918747764776
 20
137.3599115517461
 30
0.0
 10
89.3802921288959
 20
137.3599171912784
 30
0.0
 10
89.35701984890147
 20
137.338542348456
 30
0.0
 10
89.35701411081614
 20
137.3119919875336
 30
0.0
  0
LINE
  5
278
330
70
100
AcDbEntity
  8
Sichtbar schmal (ISO)
 62
    18
420
        0
370
     5
100
AcDbLine
 10
89.40918747764776
 20
137.3599115517461
 30
0.0
 11
93.19622906910588
 21
137.3599115517461
 31
0.0
  0
SPLINE
  5
279
330
70
100
AcDbEntity
  8
Sichtbar schmal (ISO)
 62
    18
420
        0
370
     5
100
AcDbSpline
210
0.0
220
0.0
230
1.0
 70
     8
 71
     3
 72
     8
 73
     4
 74
     0
 42
0.0000000001
 43
0.0000000001
 40
0.0
 40
0.0
 40
0.0
 40
0.0
 40
1.0
 40
1.0
 40
1.0
 40
1.0
 10
93.24840246037501
 20
137.3119919875695
 30
0.0
 10
93.24839315805707
 20
137.3385456675949
 30
0.0
 10
93.22512675150475
 20
137.3599151058239
 30
0.0
 10
93.19622906910588
 20
137.3599115517461
 30
0.0
  0
LINE
  5
27A
330
70
100
AcDbEntity
  8
Sichtbar schmal (ISO)
 62
    18
420
        0
370
     5
100
AcDbLine
 10
93.24840246037501
 20
137.3119919876131
 30
0.0
 11
93.24840246525962
 21
136.8780038500124
 31
0.0
  0
SPLINE
  5
27B
330
70
100
AcDbEntity
  8
Sichtbar schmal (ISO)
 62
    18
420
        0
370
     5
100
AcDbSpline
210
0.0
220
0.0
230
1.0
 70
     8
 71
     3
 72
     8
 73
     4
 74
     0
 42
0.0000000001
 43
0.0000000001
 40
0.0
 40
0.0
 40
0.0
 40
0.0
 40
1.0
 40
1.0
 40
1.0
 40
1.0
 10
93.19622909842735
 20
136.8300842858076
 30
0.0
 10
93.22512444717697
 20
136.8300786462728
 30
0.0
 10
93.24839672717461
 20
136.8514534890983
 30
0.0
 10
93.24840246525898
 20
136.8780038500201
 30
0.0
  0
LINE
  5
27C
330
70
100
AcDbEntity
  8
Sichtbar schmal (ISO)
 62
    18
420
        0
370
     5
100
AcDbLine
 10
93.19622909842735
 20
136.8300842858076
 30
0.0
 11
89.40918750696923
 21
136.8300842858076
 31
0.0
  0
INSERT
  5
27E
330
70
100
AcDbEntity
  8
Sichtbar schmal (ISO)
100
AcDbBlockReference
  2
Block_16
 10
0.0
 20
0.0
 30
0.0
  0
LINE
  5
292
330
70
100
AcDbEntity
  8
Sichtbar schmal (ISO)
 62
    18
420
        0
370
     5
100
AcDbLine
 10
91.30271296502987
 20
113.376015078837
 30
0.0
 11
134.7251095000637
 21
113.5209962118051
 31
0.0
  0
LINE
  5
293
330
70
100
AcDbEntity
  8
Sichtbar schmal (ISO)
 62
    18
420
        0
370
     5
100
AcDbLine
 10
91.28200957334312
 20
160.8062444033093
 30
0.0
 11
134.6958950126029
 21
160.8217171141364
 31
0.0
  0
LINE
  5
294
330
70
100
AcDbEntity
  8
Sichtbar schmal (ISO)
 62
    18
420
        0
370
     5
100
AcDbLine
 10
91.32630624491337
 20
112.5780265014143
 30
0.0
 11
141.6526937989285
 21
112.5898648128906
 31
0.0
  0
INSERT
  5
296
330
70
100
AcDbEntity
  8
Sichtbar schmal (ISO)
100
AcDbBlockReference
  2
Block_20
 10
0.0
 20
0.0
 30
0.0
  0
LINE
  5
2AA
330
70
100
AcDbEntity
  8
Sichtbar schmal (ISO)
 62
    18
420
        0
370
     5
100
AcDbLine
 10
91.30952874009205
 20
161.6258287214268
 30
0.0
 11
141.6635805041105
 21
161.5995424052257
 31
0.0
  0
LINE
  5
2AB
330
70
100
AcDbEntity
  8
Sichtbar schmal (ISO)
 62
    18
420
        0
370
     5
100
AcDbLine
 10
114.782380398655
 20
164.0151074933901
 30
0.0
 11
141.7117958088929
 21
164.0207914604381
 31
0.0
  0
LINE
  5
2AC
330
70
100
AcDbEntity
  8
Sichtbar schmal (ISO)
  6
AI-Linetype-0
 62
    18
420
        0
370
     5
100
AcDbLine
 10
127.6405328253299
 20
177.1757392736804
 30
0.0
 11
114.3065461439315
 21
177.1332291867209
 31
0.0
  0
INSERT
  5
2AF
330
70
100
AcDbEntity
  8
Sichtbar schmal (ISO)
100
AcDbBlockReference
  2
Block_24
 10
0.0
 20
0.0
 30
0.0
  0
INSERT
  5
2BE
330
70
100
AcDbEntity
  8
Sichtbar schmal (ISO)
100
AcDbBlockReference
  2
Block_27
 10
0.0
 20
0.0
 30
0.0
  0
INSERT
  5
2D3
330
70
100
AcDbEntity
  8
Sichtbar schmal (ISO)
100
AcDbBlockReference
  2
Block_31
 10
0.0
 20
0.0
 30
0.0
  0
LINE
  5
2DE
330
70
100
AcDbEntity
  8
Sichtbar schmal (ISO)
 62
    18
420
        0
370
     5
100
AcDbLine
 10
115.7154343589267
 20
181.6767932528718
 30
0.0
 11
141.7693715450741
 21
181.6960931991563
 31
0.0
  0
LINE
  5
2DF
330
70
100
AcDbEntity
  8
Sichtbar schmal (ISO)
  6
AI-Linetype-1
 62
    18
420
        0
370
     5
100
AcDbLine
 10
125.6570702173966
 20
181.6544842290759
 30
0.0
 11
125.6534291696882
 21
177.2628584513695
 31
0.0
  0
INSERT
  5
2E2
330
70
100
AcDbEntity
  8
Sichtbar schmal (ISO)
100
AcDbBlockReference
  2
Block_33
 10
0.0
 20
0.0
 30
0.0
  0
INSERT
  5
2F0
330
70
100
AcDbEntity
  8
Sichtbar schmal (ISO)
100
AcDbBlockReference
  2
Block_35
 10
0.0
 20
0.0
 30
0.0
  0
INSERT
  5
303
330
70
100
AcDbEntity
  8
Sichtbar schmal (ISO)
100
AcDbBlockReference
  2
Block_37
 10
0.0
 20
0.0
 30
0.0
  0
LINE
  5
315
330
70
100
AcDbEntity
  8
Sichtbar schmal (ISO)
 62
    18
420
        0
370
     5
100
AcDbLine
 10
90.97790476850596
 20
146.3307295936719
 30
0.0
 11
127.1593749265817
 21
146.3520323720205
 31
0.0
  0
LINE
  5
316
330
70
100
AcDbEntity
  8
Sichtbar schmal (ISO)
 62
    18
420
        0
370
     5
100
AcDbLine
 10
91.37009916269226
 20
127.8463151063196
 30
0.0
 11
127.1593749265817
 21
127.8509146030941
 31
0.0
  0
INSERT
  5
318
330
70
100
AcDbEntity
  8
Sichtbar schmal (ISO)
100
AcDbBlockReference
  2
Block_39
 10
0.0
 20
0.0
 30
0.0
  0
INSERT
  5
32D
330
70
100
AcDbEntity
  8
Sichtbar schmal (ISO)
100
AcDbBlockReference
  2
Block_43
 10
0.0
 20
0.0
 30
0.0
  0
ENDSEC
  0
SECTION
  2
OBJECTS
  0
DICTIONARY
  5
C
330
0
100
AcDbDictionary
281
     1
  3
ACAD_COLOR
350
63
  3
ACAD_DETAILVIEWSTYLE
350
6A
  3
ACAD_GROUP
350
D
  3
ACAD_LAYOUT
350
62
  3
ACAD_MATERIAL
350
10
  3
ACAD_MLEADERSTYLE
350
66
  3
ACAD_MLINESTYLE
350
5F
  3
ACAD_PLOTSETTINGS
350
61
  3
ACAD_PLOTSTYLENAME
350
E
  3
ACAD_SCALELIST
350
42
  3
ACAD_SECTIONVIEWSTYLE
350
68
  3
ACAD_TABLESTYLE
350
64
  3
ACAD_VISUALSTYLE
350
29
  3
ACDB_RECOMPOSE_DATA
350
346
  3
AcDbVariableDictionary
350
33E
  0
DICTIONARY
  5
63
102
{ACAD_REACTORS
330
C
102
}
330
C
100
AcDbDictionary
281
     1
  0
DICTIONARY
  5
6A
102
{ACAD_REACTORS
330
C
102
}
330
C
100
AcDbDictionary
281
     1
  3
Imperial24
350
6B
  0
DICTIONARY
  5
D
102
{ACAD_REACTORS
330
C
102
}
330
C
100
AcDbDictionary
281
     1
  0
DICTIONARY
  5
62
102
{ACAD_REACTORS
330
C
102
}
330
C
100
AcDbDictionary
281
     1
  3
Layout1
350
6F
  3
Layout2
350
77
  3
Model
350
73
  0
DICTIONARY
  5
10
102
{ACAD_REACTORS
330
C
102
}
330
C
100
AcDbDictionary
281
     1
  3
ByBlock
350
19
  3
ByLayer
350
11
  3
Global
350
21
  0
DICTIONARY
  5
66
102
{ACAD_REACTORS
330
C
102
}
330
C
100
AcDbDictionary
281
     1
  3
Standard
350
67
  0
DICTIONARY
  5
5F
102
{ACAD_REACTORS
330
C
102
}
330
C
100
AcDbDictionary
281
     1
  3
Standard
350
60
  0
DICTIONARY
  5
61
102
{ACAD_REACTORS
330
C
102
}
330
C
100
AcDbDictionary
281
     1
  0
ACDBDICTIONARYWDFLT
  5
E
102
{ACAD_REACTORS
330
C
102
}
330
C
100
AcDbDictionary
281
     1
  3
Normal
350
F
100
AcDbDictionaryWithDefault
340
F
  0
DICTIONARY
  5
42
102
{ACAD_REACTORS
330
C
102
}
330
C
100
AcDbDictionary
281
     1
  3
A0
350
43
  3
A1
350
44
  3
A2
350
45
  3
A3
350
46
  3
A4
350
47
  3
A5
350
48
  3
A6
350
49
  3
A7
350
4A
  3
A8
350
4B
  3
A9
350
4C
  3
B0
350
4D
  3
B1
350
4E
  3
B2
350
4F
  3
B3
350
50
  3
B4
350
51
  3
B5
350
52
  3
B6
350
53
  0
DICTIONARY
  5
68
102
{ACAD_REACTORS
330
C
102
}
330
C
100
AcDbDictionary
281
     1
  3
Imperial24
350
69
  0
DICTIONARY
  5
64
102
{ACAD_REACTORS
330
C
102
}
330
C
100
AcDbDictionary
281
     1
  3
Standard
350
65
  0
DICTIONARY
  5
29
102
{ACAD_REACTORS
330
C
102
}
330
C
100
AcDbDictionary
281
     1
  3
2dWireframe
350
2F
  3
Basic
350
2E
  3
Brighten
350
35
  3
ColorChange
350
39
  3
Conceptual
350
32
  3
Dim
350
34
  3
EdgeColorOff
350
41
  3
Facepattern
350
38
  3
Flat
350
2A
  3
FlatWithEdges
350
2B
  3
Gouraud
350
2C
  3
GouraudWithEdges
350
2D
  3
Hidden
350
31
  3
JitterOff
350
3F
  3
Linepattern
350
37
  3
OverhangOff
350
40
  3
Realistic
350
33
  3
Shaded
350
3E
  3
Shaded with edges
350
3D
  3
Shades of Gray
350
3A
  3
Sketchy
350
3B
  3
Thicken
350
36
  3
Wireframe
350
30
  3
X-Ray
350
3C
  0
XRECORD
  5
346
102
{ACAD_REACTORS
330
C
102
}
330
C
100
AcDbXrecord
280
     1
 90
        1
330
65
  0
DICTIONARY
  5
33E
102
{ACAD_REACTORS
330
C
102
}
330
C
100
AcDbDictionary
281
     1
  3
CANNOSCALE
350
343
  3
CMLEADERSTYLE
350
340
  3
CTABLESTYLE
350
33F
  3
CVIEWDETAILSTYLE
350
341
  3
CVIEWSECTIONSTYLE
350
342
  0
ACDBDETAILVIEWSTYLE
  5
6B
102
{ACAD_REACTORS
330
6A
102
}
330
6A
100
AcDbModelDocViewStyle
 70
     0
  3
Imperial24
290
     1
300
Imperial24
 90
        0
100
AcDbDetailViewStyle
 70
     0
 71
     0
 90
        3
 71
     1
340
55
 62
   256
 40
0.24
340
0
 62
   256
 40
0.24
300

 40
0.36
280
     3
 71
     2
340
5D
 90
       25
 62
   256
 71
     3
340
55
 62
   256
 40
0.24
 90
        1
 40
0.75
 90
        1
300
%<\AcVar ViewType \f "%tc1">% %<\AcVar ViewDetailId>%\PSCALE %<\AcVar ViewScale \f "%sn">%
 71
     4
340
5D
 90
       25
 62
   256
340
5D
 90
       25
 62
   256
280
     0
  0
LAYOUT
  5
6F
102
{ACAD_REACTORS
330
62
102
}
330
62
100
AcDbPlotSettings
  1

  2

  4

  6

 40
0.0
 41
0.0
 42
0.0
 43
0.0
 44
0.0
 45
0.0
 46
0.0
 47
0.0
 48
0.0
 49
0.0
140
0.0
141
0.0
142
1.0
143
1.0
 70
   688
 72
     0
 73
     0
 74
     5
  7

 75
    16
147
1.0
 76
     0
 77
     2
 78
   300
148
0.0
149
0.0
100
AcDbLayout
  1
Layout1
 70
     1
 71
     1
 10
0.0
 20
0.0
 11
12.0
 21
9.0
 12
0.0
 22
0.0
 32
0.0
 14
0.0
 24
0.0
 34
0.0
 15
0.0
 25
0.0
 35
0.0
146
0.0
 13
0.0
 23
0.0
 33
0.0
 16
1.0
 26
0.0
 36
0.0
 17
0.0
 27
1.0
 37
0.0
 76
     0
330
6C
  0
LAYOUT
  5
77
102
{ACAD_REACTORS
330
62
102
}
330
62
100
AcDbPlotSettings
  1

  2

  4

  6

 40
0.0
 41
0.0
 42
0.0
 43
0.0
 44
0.0
 45
0.0
 46
0.0
 47
0.0
 48
0.0
 49
0.0
140
0.0
141
0.0
142
1.0
143
1.0
 70
   688
 72
     0
 73
     0
 74
     5
  7

 75
    16
147
1.0
 76
     0
 77
     2
 78
   300
148
0.0
149
0.0
100
AcDbLayout
  1
Layout2
 70
     1
 71
     2
 10
0.0
 20
0.0
 11
12.0
 21
9.0
 12
0.0
 22
0.0
 32
0.0
 14
0.0
 24
0.0
 34
0.0
 15
0.0
 25
0.0
 35
0.0
146
0.0
 13
0.0
 23
0.0
 33
0.0
 16
1.0
 26
0.0
 36
0.0
 17
0.0
 27
1.0
 37
0.0
 76
     0
330
74
  0
LAYOUT
  5
73
102
{ACAD_REACTORS
330
62
102
}
330
62
100
AcDbPlotSettings
  1

  2

  4

  6

 40
0.0
 41
0.0
 42
0.0
 43
0.0
 44
0.0
 45
0.0
 46
0.0
 47
0.0
 48
0.0
 49
0.0
140
0.0
141
0.0
142
1.0
143
1.0
 70
  1712
 72
     0
 73
     0
 74
     0
  7

 75
     0
147
1.0
 76
     0
 77
     2
 78
   300
148
0.0
149
0.0
100
AcDbLayout
  1
Model
 70
     1
 71
     0
 10
0.0
 20
0.0
 11
12.0
 21
9.0
 12
0.0
 22
0.0
 32
0.0
 14
0.0
 24
0.0
 34
0.0
 15
0.0
 25
0.0
 35
0.0
146
0.0
 13
0.0
 23
0.0
 33
0.0
 16
1.0
 26
0.0
 36
0.0
 17
0.0
 27
1.0
 37
0.0
 76
     0
330
70
  0
MATERIAL
  5
19
102
{ACAD_XDICTIONARY
360
1A
102
}
102
{ACAD_REACTORS
330
10
102
}
330
10
100
AcDbMaterial
  1
ByBlock
 72
     0
 43
0.0208333333333333
 43
0.0
 43
0.0
 43
0.0
 43
0.0
 43
0.0208333333333333
 43
0.0
 43
0.0
 43
0.0
 43
0.0
 43
1.0
 43
0.0
 43
0.0
 43
0.0
 43
0.0
 43
1.0
 77
     0
 47
0.0208333333333333
 47
0.0
 47
0.0
 47
0.0
 47
0.0
 47
0.0208333333333333
 47
0.0
 47
0.0
 47
0.0
 47
0.0
 47
1.0
 47
0.0
 47
0.0
 47
0.0
 47
0.0
 47
1.0
171
     0
 49
0.0208333333333333
 49
0.0
 49
0.0
 49
0.0
 49
0.0
 49
0.0208333333333333
 49
0.0
 49
0.0
 49
0.0
 49
0.0
 49
1.0
 49
0.0
 49
0.0
 49
0.0
 49
0.0
 49
1.0
175
     0
142
0.0208333333333333
142
0.0
142
0.0
142
0.0
142
0.0
142
0.0208333333333333
142
0.0
142
0.0
142
0.0
142
0.0
142
1.0
142
0.0
142
0.0
142
0.0
142
0.0
142
1.0
179
     0
144
0.0208333333333333
144
0.0
144
0.0
144
0.0
144
0.0
144
0.0208333333333333
144
0.0
144
0.0
144
0.0
144
0.0
144
1.0
144
0.0
144
0.0
144
0.0
144
0.0
144
1.0
147
0.0208333333333333
147
0.0
147
0.0
147
0.0
147
0.0
147
0.0208333333333333
147
0.0
147
0.0
147
0.0
147
0.0
147
1.0
147
0.0
147
0.0
147
0.0
147
0.0
147
1.0
  0
MATERIAL
  5
11
102
{ACAD_XDICTIONARY
360
12
102
}
102
{ACAD_REACTORS
330
10
102
}
330
10
100
AcDbMaterial
  1
ByLayer
 72
     0
 43
0.0208333333333333
 43
0.0
 43
0.0
 43
0.0
 43
0.0
 43
0.0208333333333333
 43
0.0
 43
0.0
 43
0.0
 43
0.0
 43
1.0
 43
0.0
 43
0.0
 43
0.0
 43
0.0
 43
1.0
 77
     0
 47
0.0208333333333333
 47
0.0
 47
0.0
 47
0.0
 47
0.0
 47
0.0208333333333333
 47
0.0
 47
0.0
 47
0.0
 47
0.0
 47
1.0
 47
0.0
 47
0.0
 47
0.0
 47
0.0
 47
1.0
171
     0
 49
0.0208333333333333
 49
0.0
 49
0.0
 49
0.0
 49
0.0
 49
0.0208333333333333
 49
0.0
 49
0.0
 49
0.0
 49
0.0
 49
1.0
 49
0.0
 49
0.0
 49
0.0
 49
0.0
 49
1.0
175
     0
142
0.0208333333333333
142
0.0
142
0.0
142
0.0
142
0.0
142
0.0208333333333333
142
0.0
142
0.0
142
0.0
142
0.0
142
1.0
142
0.0
142
0.0
142
0.0
142
0.0
142
1.0
179
     0
144
0.0208333333333333
144
0.0
144
0.0
144
0.0
144
0.0
144
0.0208333333333333
144
0.0
144
0.0
144
0.0
144
0.0
144
1.0
144
0.0
144
0.0
144
0.0
144
0.0
144
1.0
147
0.0208333333333333
147
0.0
147
0.0
147
0.0
147
0.0
147
0.0208333333333333
147
0.0
147
0.0
147
0.0
147
0.0
147
1.0
147
0.0
147
0.0
147
0.0
147
0.0
147
1.0
  0
MATERIAL
  5
21
102
{ACAD_XDICTIONARY
360
22
102
}
102
{ACAD_REACTORS
330
10
102
}
330
10
100
AcDbMaterial
  1
Global
 72
     0
 43
0.0208333333333333
 43
0.0
 43
0.0
 43
0.0
 43
0.0
 43
0.0208333333333333
 43
0.0
 43
0.0
 43
0.0
 43
0.0
 43
1.0
 43
0.0
 43
0.0
 43
0.0
 43
0.0
 43
1.0
 77
     0
 47
0.0208333333333333
 47
0.0
 47
0.0
 47
0.0
 47
0.0
 47
0.0208333333333333
 47
0.0
 47
0.0
 47
0.0
 47
0.0
 47
1.0
 47
0.0
 47
0.0
 47
0.0
 47
0.0
 47
1.0
171
     0
 49
0.0208333333333333
 49
0.0
 49
0.0
 49
0.0
 49
0.0
 49
0.0208333333333333
 49
0.0
 49
0.0
 49
0.0
 49
0.0
 49
1.0
 49
0.0
 49
0.0
 49
0.0
 49
0.0
 49
1.0
175
     0
142
0.0208333333333333
142
0.0
142
0.0
142
0.0
142
0.0
142
0.0208333333333333
142
0.0
142
0.0
142
0.0
142
0.0
142
1.0
142
0.0
142
0.0
142
0.0
142
0.0
142
1.0
179
     0
144
0.0208333333333333
144
0.0
144
0.0
144
0.0
144
0.0
144
0.0208333333333333
144
0.0
144
0.0
144
0.0
144
0.0
144
1.0
144
0.0
144
0.0
144
0.0
144
0.0
144
1.0
147
0.0208333333333333
147
0.0
147
0.0
147
0.0
147
0.0
147
0.0208333333333333
147
0.0
147
0.0
147
0.0
147
0.0
147
1.0
147
0.0
147
0.0
147
0.0
147
0.0
147
1.0
  0
MLEADERSTYLE
  5
67
102
{ACAD_REACTORS
330
66
102
}
330
66
100
AcDbMLeaderStyle
179
     2
170
     2
171
     1
172
     0
 90
        2
 40
0.0
 41
0.0
173
     1
 91
-1056964608
340
5B
 92
       -2
290
     1
 42
0.09
291
     1
 43
0.36
  3
Standard
 44
0.18
300

342
55
174
     1
178
     6
175
     1
176
     0
 93
-1056964608
 45
0.18
292
     0
297
     0
 46
0.18
 94
-1056964608
 47
1.0
 49
1.0
140
1.0
293
     1
141
0.0
294
     1
177
     0
142
1.0
295
     1
296
     0
143
0.125
271
     0
272
     9
273
     9
298
     1
  0
MLINESTYLE
  5
60
102
{ACAD_REACTORS
330
5F
102
}
330
5F
100
AcDbMlineStyle
  2
STANDARD
 70
     0
  3

 62
   256
 51
90.0
 52
90.0
 71
     2
 49
0.5
 62
   256
  6
BYLAYER
 49
-0.5
 62
   256
  6
BYLAYER
  0
ACDBPLACEHOLDER
  5
F
102
{ACAD_REACTORS
330
E
102
}
330
E
  0
SCALE
  5
43
102
{ACAD_REACTORS
330
42
102
}
330
42
100
AcDbScale
 70
     0
300
1:1
140
1.0
141
1.0
290
     1
  0
SCALE
  5
44
102
{ACAD_REACTORS
330
42
102
}
330
42
100
AcDbScale
 70
     0
300
1/128" = 1'-0"
140
0.0078125
141
12.0
290
     0
  0
SCALE
  5
45
102
{ACAD_REACTORS
330
42
102
}
330
42
100
AcDbScale
 70
     0
300
1/64" = 1'-0"
140
0.015625
141
12.0
290
     0
  0
SCALE
  5
46
102
{ACAD_REACTORS
330
42
102
}
330
42
100
AcDbScale
 70
     0
300
1/32" = 1'-0"
140
0.03125
141
12.0
290
     0
  0
SCALE
  5
47
102
{ACAD_REACTORS
330
42
102
}
330
42
100
AcDbScale
 70
     0
300
1/16" = 1'-0"
140
0.0625
141
12.0
290
     0
  0
SCALE
  5
48
102
{ACAD_REACTORS
330
42
102
}
330
42
100
AcDbScale
 70
     0
300
3/32" = 1'-0"
140
0.09375
141
12.0
290
     0
  0
SCALE
  5
49
102
{ACAD_REACTORS
330
42
102
}
330
42
100
AcDbScale
 70
     0
300
1/8" = 1'-0"
140
0.125
141
12.0
290
     0
  0
SCALE
  5
4A
102
{ACAD_REACTORS
330
42
102
}
330
42
100
AcDbScale
 70
     0
300
3/16" = 1'-0"
140
0.1875
141
12.0
290
     0
  0
SCALE
  5
4B
102
{ACAD_REACTORS
330
42
102
}
330
42
100
AcDbScale
 70
     0
300
1/4" = 1'-0"
140
0.25
141
12.0
290
     0
  0
SCALE
  5
4C
102
{ACAD_REACTORS
330
42
102
}
330
42
100
AcDbScale
 70
     0
300
3/8" = 1'-0"
140
0.375
141
12.0
290
     0
  0
SCALE
  5
4D
102
{ACAD_REACTORS
330
42
102
}
330
42
100
AcDbScale
 70
     0
300
1/2" = 1'-0"
140
0.5
141
12.0
290
     0
  0
SCALE
  5
4E
102
{ACAD_REACTORS
330
42
102
}
330
42
100
AcDbScale
 70
     0
300
3/4" = 1'-0"
140
0.75
141
12.0
290
     0
  0
SCALE
  5
4F
102
{ACAD_REACTORS
330
42
102
}
330
42
100
AcDbScale
 70
     0
300
1" = 1'-0"
140
1.0
141
12.0
290
     0
  0
SCALE
  5
50
102
{ACAD_REACTORS
330
42
102
}
330
42
100
AcDbScale
 70
     0
300
1-1/2" = 1'-0"
140
1.5
141
12.0
290
     0
  0
SCALE
  5
51
102
{ACAD_REACTORS
330
42
102
}
330
42
100
AcDbScale
 70
     0
300
3" = 1'-0"
140
3.0
141
12.0
290
     0
  0
SCALE
  5
52
102
{ACAD_REACTORS
330
42
102
}
330
42
100
AcDbScale
 70
     0
300
6" = 1'-0"
140
6.0
141
12.0
290
     0
  0
SCALE
  5
53
102
{ACAD_REACTORS
330
42
102
}
330
42
100
AcDbScale
 70
     0
300
1'-0" = 1'-0"
140
12.0
141
12.0
290
     0
  0
ACDBSECTIONVIEWSTYLE
  5
69
102
{ACAD_REACTORS
330
68
102
}
330
68
100
AcDbModelDocViewStyle
 70
     0
  3
Imperial24
290
     1
300
Imperial24
 90
        0
100
AcDbSectionViewStyle
 70
     0
 71
     0
 90
       78
 71
     1
340
55
 62
   256
 40
0.24
340
0
340
0
 62
   256
 40
0.24
300
I, O, Q, S, X, Z
 40
0.48
 90
        3
 40
0.18
 90
        1
 71
     2
340
5D
 90
       25
 62
   256
340
5D
 90
       50
 62
   256
 40
0.24
 40
0.0
 40
0.24
 71
     3
340
55
 62
   256
 40
0.24
 90
        1
 40
0.75
 90
        1
300
%<\AcVar ViewType \f "%tc1">% %<\AcVar ViewSectionStartId>%-%<\AcVar ViewSectionEndId>%\PSCALE %<\AcVar ViewScale \f "%sn">%
 71
     4
 62
   256
 62
   257
300
ANSI31
 40
1.0
 90
        0
290
     0
290
     0
 90
        6
 40
0.0
 40
1.570796326794896
 40
0.2617993877991494
 40
1.308996938995747
 40
-0.2617993877991494
 40
1.832595714594046
  0
TABLESTYLE
  5
65
102
{ACAD_XDICTIONARY
360
344
102
}
102
{ACAD_REACTORS
330
64
102
}
330
64
100
AcDbTableStyle
280
     0
  3
Standard
 70
     0
 71
     0
 40
0.06
 41
0.06
280
     0
281
     0
  7
Standard
140
0.18
170
     2
 62
     0
 63
     7
283
     0
 90
      512
 91
        0
  1

274
    -2
284
     1
 64
     0
275
    -2
285
     1
 65
     0
276
    -2
286
     1
 66
     0
277
    -2
287
     1
 67
     0
278
    -2
288
     1
 68
     0
279
    -2
289
     1
 69
     0
  7
Standard
140
0.25
170
     5
 62
     0
 63
     7
283
     0
 90
      512
 91
        0
  1

274
    -2
284
     1
 64
     0
275
    -2
285
     1
 65
     0
276
    -2
286
     1
 66
     0
277
    -2
287
     1
 67
     0
278
    -2
288
     1
 68
     0
279
    -2
289
     1
 69
     0
  7
Standard
140
0.18
170
     5
 62
     0
 63
     7
283
     0
 90
      512
 91
        0
  1

274
    -2
284
     1
 64
     0
275
    -2
285
     1
 65
     0
276
    -2
286
     1
 66
     0
277
    -2
287
     1
 67
     0
278
    -2
288
     1
 68
     0
279
    -2
289
     1
 69
     0
  0
VISUALSTYLE
  5
2F
102
{ACAD_REACTORS
330
29
102
}
330
29
100
AcDbVisualStyle
  2
2dWireframe
 70
     4
177
     3
291
     0
 70
    58
 90
        0
176
     1
 90
        2
176
     1
 90
        0
176
     1
 90
        0
176
     1
 40
0.6
176
     1
 40
30.0
176
     1
 62
     7
420
 16777215
176
     1
 90
        1
176
     1
 90
        4
176
     1
 62
     7
176
     1
 62
   257
176
     1
 90
        1
176
     1
 90
        1
176
     1
 40
1.0
176
     1
 90
        0
176
     1
 62
   257
176
     1
 40
1.0
176
     1
 90
        1
176
     1
 90
        6
176
     1
 90
        2
176
     1
 62
     7
176
     1
 90
        5
176
     1
 90
        0
176
     1
 90
        0
176
     1
290
     0
176
     1
 90
        1
176
     1
 40
0.0
176
     1
 90
        0
176
     1
290
     1
176
     1
290
     1
176
     1
290
     0
176
     1
290
     0
176
     1
290
     0
176
     1
290
     0
176
     1
290
     0
176
     1
290
     0
176
     1
290
     0
176
     1
 90
       50
176
     1
 40
0.0
176
     1
 40
1.0
176
     1
 90
        0
176
     1
 62
    18
420
        0
176
     1
 90
       50
176
     1
 90
        3
176
     1
 62
     5
420
      255
176
     1
290
     0
176
     1
 90
       50
176
     1
 90
       50
176
     1
 90
       50
176
     1
290
     0
176
     1
 90
       50
176
     1
 62
   256
176
     0
 40
1.0
176
     0
 90
        2
176
     1
  1
strokes_ogs.tif
176
     1
290
     0
176
     1
 40
1.0
176
     1
 40
1.0
176
     1
  0
VISUALSTYLE
  5
2E
102
{ACAD_REACTORS
330
29
102
}
330
29
100
AcDbVisualStyle
  2
Basic
 70
     7
177
     3
291
     1
 70
    58
 90
        1
176
     1
 90
        0
176
     1
 90
        1
176
     1
 90
        0
176
     1
 40
0.6
176
     1
 40
30.0
176
     1
 62
     7
420
 16777215
176
     1
 90
        0
176
     1
 90
        4
176
     1
 62
     7
176
     1
 62
   257
176
     1
 90
        1
176
     1
 90
        1
176
     1
 40
1.0
176
     1
 90
        8
176
     1
 62
     7
176
     1
 40
1.0
176
     1
 90
        1
176
     1
 90
        6
176
     1
 90
        2
176
     1
 62
     7
176
     1
 90
        5
176
     1
 90
        0
176
     1
 90
        0
176
     1
290
     0
176
     1
 90
        1
176
     1
 40
0.0
176
     1
 90
        0
176
     1
290
     0
176
     1
290
     1
176
     1
290
     1
176
     1
290
     0
176
     1
290
     0
176
     1
290
     0
176
     1
290
     0
176
     1
290
     0
176
     1
290
     0
176
     1
 90
       50
176
     1
 40
0.0
176
     1
 40
1.0
176
     1
 90
        0
176
     1
 62
    18
420
        0
176
     1
 90
       50
176
     1
 90
        3
176
     1
 62
     5
420
      255
176
     1
290
     0
176
     1
 90
       50
176
     1
 90
       50
176
     1
 90
       50
176
     1
290
     0
176
     1
 90
       50
176
     1
 62
   256
176
     0
 40
1.0
176
     0
 90
        2
176
     1
  1
strokes_ogs.tif
176
     1
290
     0
176
     1
 40
1.0
176
     1
 40
1.0
176
     1
  0
VISUALSTYLE
  5
35
102
{ACAD_REACTORS
330
29
102
}
330
29
100
AcDbVisualStyle
  2
Brighten
 70
    12
177
     3
291
     1
 70
    58
 90
        2
176
     1
 90
        2
176
     1
 90
        0
176
     1
 90
        0
176
     1
 40
0.6
176
     1
 40
30.0
176
     1
 62
     7
420
 16777215
176
     1
 90
        1
176
     1
 90
        4
176
     1
 62
     7
176
     1
 62
   257
176
     1
 90
        1
176
     1
 90
        1
176
     1
 40
1.0
176
     1
 90
        8
176
     1
 62
     7
176
     1
 40
1.0
176
     1
 90
        1
176
     1
 90
        6
176
     1
 90
        2
176
     1
 62
     7
176
     1
 90
        5
176
     1
 90
        0
176
     1
 90
        0
176
     1
290
     0
176
     1
 90
        1
176
     1
 40
50.0
176
     1
 90
        0
176
     1
290
     0
176
     1
290
     1
176
     1
290
     1
176
     1
290
     0
176
     1
290
     0
176
     1
290
     0
176
     1
290
     0
176
     1
290
     0
176
     1
290
     0
176
     1
 90
       50
176
     1
 40
0.0
176
     1
 40
1.0
176
     1
 90
        0
176
     1
 62
    18
420
        0
176
     1
 90
       50
176
     1
 90
        3
176
     1
 62
     5
420
      255
176
     1
290
     0
176
     1
 90
       50
176
     1
 90
       50
176
     1
 90
       50
176
     1
290
     0
176
     1
 90
       50
176
     1
 62
   256
176
     0
 40
1.0
176
     0
 90
        2
176
     1
  1
strokes_ogs.tif
176
     1
290
     0
176
     1
 40
1.0
176
     1
 40
1.0
176
     1
  0
VISUALSTYLE
  5
39
102
{ACAD_REACTORS
330
29
102
}
330
29
100
AcDbVisualStyle
  2
ColorChange
 70
    16
177
     3
291
     1
 70
    58
 90
        2
176
     1
 90
        2
176
     1
 90
        3
176
     1
 90
        0
176
     1
 40
0.6
176
     1
 40
30.0
176
     1
 62
     8
420
  8421504
176
     1
 90
        1
176
     1
 90
        4
176
     1
 62
     7
176
     1
 62
   257
176
     1
 90
        1
176
     1
 90
        1
176
     1
 40
1.0
176
     1
 90
        8
176
     1
 62
     8
420
  8421504
176
     1
 40
1.0
176
     1
 90
        1
176
     1
 90
        6
176
     1
 90
        2
176
     1
 62
     7
176
     1
 90
        5
176
     1
 90
        0
176
     1
 90
        0
176
     1
290
     0
176
     1
 90
        1
176
     1
 40
0.0
176
     1
 90
        0
176
     1
290
     0
176
     1
290
     1
176
     1
290
     1
176
     1
290
     0
176
     1
290
     0
176
     1
290
     0
176
     1
290
     0
176
     1
290
     0
176
     1
290
     0
176
     1
 90
       50
176
     1
 40
0.0
176
     1
 40
1.0
176
     1
 90
        0
176
     1
 62
    18
420
        0
176
     1
 90
       50
176
     1
 90
        3
176
     1
 62
     5
420
      255
176
     1
290
     0
176
     1
 90
       50
176
     1
 90
       50
176
     1
 90
       50
176
     1
290
     0
176
     1
 90
       50
176
     1
 62
   256
176
     0
 40
1.0
176
     0
 90
        2
176
     1
  1
strokes_ogs.tif
176
     1
290
     0
176
     1
 40
1.0
176
     1
 40
1.0
176
     1
  0
VISUALSTYLE
  5
32
102
{ACAD_REACTORS
330
29
102
}
330
29
100
AcDbVisualStyle
  2
Conceptual
 70
     9
177
     3
291
     0
 70
    58
 90
        3
176
     1
 90
        2
176
     1
 90
        0
176
     1
 90
        0
176
     1
 40
0.6
176
     1
 40
30.0
176
     1
 62
     7
420
 16777215
176
     1
 90
        2
176
     1
 90
        2
176
     1
 62
     7
176
     1
 62
   257
176
     1
 90
        1
176
     1
 90
        1
176
     1
 40
179.0
176
     1
 90
        8
176
     1
 62
     7
176
     1
 40
1.0
176
     1
 90
        1
176
     1
 90
        6
176
     1
 90
        2
176
     1
 62
     7
176
     1
 90
        3
176
     1
 90
        0
176
     1
 90
        0
176
     1
290
     0
176
     1
 90
        1
176
     1
 40
0.0
176
     1
 90
        0
176
     1
290
     0
176
     1
290
     1
176
     1
290
     1
176
     1
290
     0
176
     1
290
     0
176
     1
290
     0
176
     1
290
     0
176
     1
290
     0
176
     1
290
     0
176
     1
 90
       50
176
     1
 40
0.0
176
     1
 40
1.0
176
     1
 90
        0
176
     1
 62
    18
420
        0
176
     1
 90
       50
176
     1
 90
        3
176
     1
 62
     5
420
      255
176
     1
290
     0
176
     1
 90
       50
176
     1
 90
       50
176
     1
 90
       50
176
     1
290
     0
176
     1
 90
       50
176
     1
 62
   256
176
     0
 40
1.0
176
     0
 90
        2
176
     1
  1
strokes_ogs.tif
176
     1
290
     0
176
     1
 40
1.0
176
     1
 40
1.0
176
     1
  0
VISUALSTYLE
  5
34
102
{ACAD_REACTORS
330
29
102
}
330
29
100
AcDbVisualStyle
  2
Dim
 70
    11
177
     3
291
     1
 70
    58
 90
        2
176
     1
 90
        2
176
     1
 90
        0
176
     1
 90
        0
176
     1
 40
0.6
176
     1
 40
30.0
176
     1
 62
     7
420
 16777215
176
     1
 90
        1
176
     1
 90
        4
176
     1
 62
     7
176
     1
 62
   257
176
     1
 90
        1
176
     1
 90
        1
176
     1
 40
1.0
176
     1
 90
        8
176
     1
 62
     7
176
     1
 40
1.0
176
     1
 90
        1
176
     1
 90
        6
176
     1
 90
        2
176
     1
 62
     7
176
     1
 90
        5
176
     1
 90
        0
176
     1
 90
        0
176
     1
290
     0
176
     1
 90
        1
176
     1
 40
-50.0
176
     1
 90
        0
176
     1
290
     0
176
     1
290
     1
176
     1
290
     1
176
     1
290
     0
176
     1
290
     0
176
     1
290
     0
176
     1
290
     0
176
     1
290
     0
176
     1
290
     0
176
     1
 90
       50
176
     1
 40
0.0
176
     1
 40
1.0
176
     1
 90
        0
176
     1
 62
    18
420
        0
176
     1
 90
       50
176
     1
 90
        3
176
     1
 62
     5
420
      255
176
     1
290
     0
176
     1
 90
       50
176
     1
 90
       50
176
     1
 90
       50
176
     1
290
     0
176
     1
 90
       50
176
     1
 62
   256
176
     0
 40
1.0
176
     0
 90
        2
176
     1
  1
strokes_ogs.tif
176
     1
290
     0
176
     1
 40
1.0
176
     1
 40
1.0
176
     1
  0
VISUALSTYLE
  5
41
102
{ACAD_REACTORS
330
29
102
}
330
29
100
AcDbVisualStyle
  2
EdgeColorOff
 70
    22
177
     3
291
     1
 70
    58
 90
        2
176
     0
 90
        2
176
     0
 90
        0
176
     0
 90
        0
176
     0
 40
0.6
176
     0
 40
30.0
176
     0
 62
     7
420
 16777215
176
     0
 90
        1
176
     0
 90
        4
176
     0
 62
     7
176
     0
 62
   257
176
     0
 90
        1
176
     0
 90
        1
176
     0
 40
1.0
176
     0
 90
        8
176
     2
 62
     7
176
     0
 40
1.0
176
     0
 90
        1
176
     0
 90
        6
176
     0
 90
        2
176
     0
 62
     7
176
     0
 90
        5
176
     0
 90
        0
176
     0
 90
        0
176
     0
290
     0
176
     0
 90
        1
176
     0
 40
0.0
176
     0
 90
        0
176
     0
290
     0
176
     0
290
     1
176
     0
290
     1
176
     0
290
     0
176
     0
290
     0
176
     0
290
     0
176
     0
290
     0
176
     0
290
     0
176
     0
290
     0
176
     0
 90
       50
176
     0
 40
0.0
176
     0
 40
1.0
176
     0
 90
        0
176
     0
 62
    18
420
        0
176
     0
 90
       50
176
     0
 90
        3
176
     0
 62
     5
420
      255
176
     0
290
     0
176
     0
 90
       50
176
     0
 90
       50
176
     0
 90
       50
176
     0
290
     0
176
     0
 90
       50
176
     0
 62
   256
176
     0
 40
1.0
176
     0
 90
        2
176
     0
  1
strokes_ogs.tif
176
     0
290
     0
176
     0
 40
1.0
176
     0
 40
1.0
176
     0
  0
VISUALSTYLE
  5
38
102
{ACAD_REACTORS
330
29
102
}
330
29
100
AcDbVisualStyle
  2
Facepattern
 70
    15
177
     3
291
     1
 70
    58
 90
        2
176
     1
 90
        2
176
     1
 90
        0
176
     1
 90
        0
176
     1
 40
0.6
176
     1
 40
30.0
176
     1
 62
     7
420
 16777215
176
     1
 90
        1
176
     1
 90
        4
176
     1
 62
     7
176
     1
 62
   257
176
     1
 90
        1
176
     1
 90
        1
176
     1
 40
1.0
176
     1
 90
        8
176
     1
 62
     7
176
     1
 40
1.0
176
     1
 90
        1
176
     1
 90
        6
176
     1
 90
        2
176
     1
 62
     7
176
     1
 90
        5
176
     1
 90
        0
176
     1
 90
        0
176
     1
290
     0
176
     1
 90
        1
176
     1
 40
0.0
176
     1
 90
        0
176
     1
290
     0
176
     1
290
     1
176
     1
290
     1
176
     1
290
     0
176
     1
290
     0
176
     1
290
     0
176
     1
290
     0
176
     1
290
     0
176
     1
290
     0
176
     1
 90
       50
176
     1
 40
0.0
176
     1
 40
1.0
176
     1
 90
        0
176
     1
 62
    18
420
        0
176
     1
 90
       50
176
     1
 90
        3
176
     1
 62
     5
420
      255
176
     1
290
     0
176
     1
 90
       50
176
     1
 90
       50
176
     1
 90
       50
176
     1
290
     0
176
     1
 90
       50
176
     1
 62
   256
176
     0
 40
1.0
176
     0
 90
        2
176
     1
  1
strokes_ogs.tif
176
     1
290
     0
176
     1
 40
1.0
176
     1
 40
1.0
176
     1
  0
VISUALSTYLE
  5
2A
102
{ACAD_REACTORS
330
29
102
}
330
29
100
AcDbVisualStyle
  2
Flat
 70
     0
177
     3
291
     1
 70
    58
 90
        2
176
     1
 90
        1
176
     1
 90
        1
176
     1
 90
        2
176
     1
 40
0.6
176
     1
 40
30.0
176
     1
 62
     7
420
 16777215
176
     1
 90
        0
176
     1
 90
        0
176
     1
 62
     7
176
     1
 62
   257
176
     1
 90
        1
176
     1
 90
        1
176
     1
 40
1.0
176
     1
 90
        8
176
     1
 62
     7
176
     1
 40
1.0
176
     1
 90
        1
176
     1
 90
        6
176
     1
 90
        2
176
     1
 62
     7
176
     1
 90
        5
176
     1
 90
        0
176
     1
 90
        0
176
     1
290
     0
176
     1
 90
       13
176
     1
 40
0.0
176
     1
 90
        0
176
     1
290
     0
176
     1
290
     1
176
     1
290
     1
176
     1
290
     0
176
     1
290
     0
176
     1
290
     0
176
     1
290
     0
176
     1
290
     0
176
     1
290
     0
176
     1
 90
       50
176
     1
 40
0.0
176
     1
 40
1.0
176
     1
 90
        0
176
     1
 62
    18
420
        0
176
     1
 90
       50
176
     1
 90
        3
176
     1
 62
     5
420
      255
176
     1
290
     0
176
     1
 90
       50
176
     1
 90
       50
176
     1
 90
       50
176
     1
290
     0
176
     1
 90
       50
176
     1
 62
   256
176
     0
 40
1.0
176
     0
 90
        2
176
     1
  1
strokes_ogs.tif
176
     1
290
     0
176
     1
 40
1.0
176
     1
 40
1.0
176
     1
  0
VISUALSTYLE
  5
2B
102
{ACAD_REACTORS
330
29
102
}
330
29
100
AcDbVisualStyle
  2
FlatWithEdges
 70
     1
177
     3
291
     1
 70
    58
 90
        2
176
     1
 90
        1
176
     1
 90
        1
176
     1
 90
        2
176
     1
 40
0.6
176
     1
 40
30.0
176
     1
 62
     7
420
 16777215
176
     1
 90
        1
176
     1
 90
        0
176
     1
 62
     7
176
     1
 62
   257
176
     1
 90
        1
176
     1
 90
        1
176
     1
 40
1.0
176
     1
 90
        0
176
     1
 62
   257
176
     1
 40
1.0
176
     1
 90
        1
176
     1
 90
        6
176
     1
 90
        2
176
     1
 62
     7
176
     1
 90
        5
176
     1
 90
        0
176
     1
 90
        0
176
     1
290
     0
176
     1
 90
       13
176
     1
 40
0.0
176
     1
 90
        0
176
     1
290
     0
176
     1
290
     1
176
     1
290
     1
176
     1
290
     0
176
     1
290
     0
176
     1
290
     0
176
     1
290
     0
176
     1
290
     0
176
     1
290
     0
176
     1
 90
       50
176
     1
 40
0.0
176
     1
 40
1.0
176
     1
 90
        0
176
     1
 62
    18
420
        0
176
     1
 90
       50
176
     1
 90
        3
176
     1
 62
     5
420
      255
176
     1
290
     0
176
     1
 90
       50
176
     1
 90
       50
176
     1
 90
       50
176
     1
290
     0
176
     1
 90
       50
176
     1
 62
   256
176
     0
 40
1.0
176
     0
 90
        2
176
     1
  1
strokes_ogs.tif
176
     1
290
     0
176
     1
 40
1.0
176
     1
 40
1.0
176
     1
  0
VISUALSTYLE
  5
2C
102
{ACAD_REACTORS
330
29
102
}
330
29
100
AcDbVisualStyle
  2
Gouraud
 70
     2
177
     3
291
     1
 70
    58
 90
        2
176
     1
 90
        2
176
     1
 90
        1
176
     1
 90
        2
176
     1
 40
0.6
176
     1
 40
30.0
176
     1
 62
     7
420
 16777215
176
     1
 90
        0
176
     1
 90
        0
176
     1
 62
     7
176
     1
 62
   257
176
     1
 90
        1
176
     1
 90
        1
176
     1
 40
1.0
176
     1
 90
        0
176
     1
 62
     7
176
     1
 40
1.0
176
     1
 90
        1
176
     1
 90
        6
176
     1
 90
        2
176
     1
 62
     7
176
     1
 90
        5
176
     1
 90
        0
176
     1
 90
        0
176
     1
290
     0
176
     1
 90
       13
176
     1
 40
0.0
176
     1
 90
        0
176
     1
290
     0
176
     1
290
     1
176
     1
290
     1
176
     1
290
     0
176
     1
290
     0
176
     1
290
     0
176
     1
290
     0
176
     1
290
     0
176
     1
290
     0
176
     1
 90
       50
176
     1
 40
0.0
176
     1
 40
1.0
176
     1
 90
        0
176
     1
 62
    18
420
        0
176
     1
 90
       50
176
     1
 90
        3
176
     1
 62
     5
420
      255
176
     1
290
     0
176
     1
 90
       50
176
     1
 90
       50
176
     1
 90
       50
176
     1
290
     0
176
     1
 90
       50
176
     1
 62
   256
176
     0
 40
1.0
176
     0
 90
        2
176
     1
  1
strokes_ogs.tif
176
     1
290
     0
176
     1
 40
1.0
176
     1
 40
1.0
176
     1
  0
VISUALSTYLE
  5
2D
102
{ACAD_REACTORS
330
29
102
}
330
29
100
AcDbVisualStyle
  2
GouraudWithEdges
 70
     3
177
     3
291
     1
 70
    58
 90
        2
176
     1
 90
        2
176
     1
 90
        1
176
     1
 90
        2
176
     1
 40
0.6
176
     1
 40
30.0
176
     1
 62
     7
420
 16777215
176
     1
 90
        1
176
     1
 90
        0
176
     1
 62
     7
176
     1
 62
   257
176
     1
 90
        1
176
     1
 90
        1
176
     1
 40
1.0
176
     1
 90
        0
176
     1
 62
   257
176
     1
 40
1.0
176
     1
 90
        1
176
     1
 90
        6
176
     1
 90
        2
176
     1
 62
     7
176
     1
 90
        5
176
     1
 90
        0
176
     1
 90
        0
176
     1
290
     0
176
     1
 90
       13
176
     1
 40
0.0
176
     1
 90
        0
176
     1
290
     0
176
     1
290
     1
176
     1
290
     1
176
     1
290
     0
176
     1
290
     0
176
     1
290
     0
176
     1
290
     0
176
     1
290
     0
176
     1
290
     0
176
     1
 90
       50
176
     1
 40
0.0
176
     1
 40
1.0
176
     1
 90
        0
176
     1
 62
    18
420
        0
176
     1
 90
       50
176
     1
 90
        3
176
     1
 62
     5
420
      255
176
     1
290
     0
176
     1
 90
       50
176
     1
 90
       50
176
     1
 90
       50
176
     1
290
     0
176
     1
 90
       50
176
     1
 62
   256
176
     0
 40
1.0
176
     0
 90
        2
176
     1
  1
strokes_ogs.tif
176
     1
290
     0
176
     1
 40
1.0
176
     1
 40
1.0
176
     1
  0
VISUALSTYLE
  5
31
102
{ACAD_REACTORS
330
29
102
}
330
29
100
AcDbVisualStyle
  2
Hidden
 70
     6
177
     3
291
     0
 70
    58
 90
        1
176
     1
 90
        2
176
     1
 90
        2
176
     1
 90
        0
176
     1
 40
0.6
176
     1
 40
30.0
176
     1
 62
     7
420
 16777215
176
     1
 90
        2
176
     1
 90
        2
176
     1
 62
     7
176
     1
 62
   257
176
     1
 90
        2
176
     1
 90
        1
176
     1
 40
40.0
176
     1
 90
        0
176
     1
 62
   257
176
     1
 40
1.0
176
     1
 90
        1
176
     1
 90
        6
176
     1
 90
        2
176
     1
 62
     7
176
     1
 90
        3
176
     1
 90
        0
176
     1
 90
        0
176
     1
290
     0
176
     1
 90
        1
176
     1
 40
0.0
176
     1
 90
        0
176
     1
290
     0
176
     1
290
     1
176
     1
290
     1
176
     1
290
     0
176
     1
290
     0
176
     1
290
     0
176
     1
290
     0
176
     1
290
     0
176
     1
290
     0
176
     1
 90
       50
176
     1
 40
0.0
176
     1
 40
1.0
176
     1
 90
        0
176
     1
 62
    18
420
        0
176
     1
 90
       50
176
     1
 90
        3
176
     1
 62
     5
420
      255
176
     1
290
     0
176
     1
 90
       50
176
     1
 90
       50
176
     1
 90
       50
176
     1
290
     0
176
     1
 90
       50
176
     1
 62
   256
176
     0
 40
1.0
176
     0
 90
        2
176
     1
  1
strokes_ogs.tif
176
     1
290
     0
176
     1
 40
1.0
176
     1
 40
1.0
176
     1
  0
VISUALSTYLE
  5
3F
102
{ACAD_REACTORS
330
29
102
}
330
29
100
AcDbVisualStyle
  2
JitterOff
 70
    20
177
     3
291
     1
 70
    58
 90
        2
176
     0
 90
        2
176
     0
 90
        0
176
     0
 90
        0
176
     0
 40
0.6
176
     0
 40
30.0
176
     0
 62
     7
420
 16777215
176
     0
 90
        1
176
     0
 90
        4
176
     0
 62
     7
176
     0
 62
   257
176
     0
 90
        1
176
     0
 90
        1
176
     0
 40
1.0
176
     0
 90
       10
176
     2
 62
     7
176
     0
 40
1.0
176
     0
 90
        1
176
     0
 90
        6
176
     0
 90
        2
176
     0
 62
     7
176
     0
 90
        5
176
     0
 90
        0
176
     0
 90
        0
176
     0
290
     0
176
     0
 90
        1
176
     0
 40
0.0
176
     0
 90
        0
176
     0
290
     0
176
     0
290
     1
176
     0
290
     1
176
     0
290
     0
176
     0
290
     0
176
     0
290
     0
176
     0
290
     0
176
     0
290
     0
176
     0
290
     0
176
     0
 90
       50
176
     0
 40
0.0
176
     0
 40
1.0
176
     0
 90
        0
176
     0
 62
    18
420
        0
176
     0
 90
       50
176
     0
 90
        3
176
     0
 62
     5
420
      255
176
     0
290
     0
176
     0
 90
       50
176
     0
 90
       50
176
     0
 90
       50
176
     0
290
     0
176
     0
 90
       50
176
     0
 62
   256
176
     0
 40
1.0
176
     0
 90
        2
176
     0
  1
strokes_ogs.tif
176
     0
290
     0
176
     0
 40
1.0
176
     0
 40
1.0
176
     0
  0
VISUALSTYLE
  5
37
102
{ACAD_REACTORS
330
29
102
}
330
29
100
AcDbVisualStyle
  2
Linepattern
 70
    14
177
     3
291
     1
 70
    58
 90
        2
176
     1
 90
        2
176
     1
 90
        0
176
     1
 90
        0
176
     1
 40
0.6
176
     1
 40
30.0
176
     1
 62
     7
420
 16777215
176
     1
 90
        1
176
     1
 90
        4
176
     1
 62
     7
176
     1
 62
   257
176
     1
 90
        7
176
     1
 90
        7
176
     1
 40
1.0
176
     1
 90
        8
176
     1
 62
     7
176
     1
 40
1.0
176
     1
 90
        1
176
     1
 90
        6
176
     1
 90
        2
176
     1
 62
     7
176
     1
 90
        5
176
     1
 90
        0
176
     1
 90
        0
176
     1
290
     0
176
     1
 90
        1
176
     1
 40
0.0
176
     1
 90
        0
176
     1
290
     0
176
     1
290
     1
176
     1
290
     1
176
     1
290
     0
176
     1
290
     0
176
     1
290
     0
176
     1
290
     0
176
     1
290
     0
176
     1
290
     0
176
     1
 90
       50
176
     1
 40
0.0
176
     1
 40
1.0
176
     1
 90
        0
176
     1
 62
    18
420
        0
176
     1
 90
       50
176
     1
 90
        3
176
     1
 62
     5
420
      255
176
     1
290
     0
176
     1
 90
       50
176
     1
 90
       50
176
     1
 90
       50
176
     1
290
     0
176
     1
 90
       50
176
     1
 62
   256
176
     0
 40
1.0
176
     0
 90
        2
176
     1
  1
strokes_ogs.tif
176
     1
290
     0
176
     1
 40
1.0
176
     1
 40
1.0
176
     1
  0
VISUALSTYLE
  5
40
102
{ACAD_REACTORS
330
29
102
}
330
29
100
AcDbVisualStyle
  2
OverhangOff
 70
    21
177
     3
291
     1
 70
    58
 90
        2
176
     0
 90
        2
176
     0
 90
        0
176
     0
 90
        0
176
     0
 40
0.6
176
     0
 40
30.0
176
     0
 62
     7
420
 16777215
176
     0
 90
        1
176
     0
 90
        4
176
     0
 62
     7
176
     0
 62
   257
176
     0
 90
        1
176
     0
 90
        1
176
     0
 40
1.0
176
     0
 90
        9
176
     2
 62
     7
176
     0
 40
1.0
176
     0
 90
        1
176
     0
 90
        6
176
     0
 90
        2
176
     0
 62
     7
176
     0
 90
        5
176
     0
 90
        0
176
     0
 90
        0
176
     0
290
     0
176
     0
 90
        1
176
     0
 40
0.0
176
     0
 90
        0
176
     0
290
     0
176
     0
290
     1
176
     0
290
     1
176
     0
290
     0
176
     0
290
     0
176
     0
290
     0
176
     0
290
     0
176
     0
290
     0
176
     0
290
     0
176
     0
 90
       50
176
     0
 40
0.0
176
     0
 40
1.0
176
     0
 90
        0
176
     0
 62
    18
420
        0
176
     0
 90
       50
176
     0
 90
        3
176
     0
 62
     5
420
      255
176
     0
290
     0
176
     0
 90
       50
176
     0
 90
       50
176
     0
 90
       50
176
     0
290
     0
176
     0
 90
       50
176
     0
 62
   256
176
     0
 40
1.0
176
     0
 90
        2
176
     0
  1
strokes_ogs.tif
176
     0
290
     0
176
     0
 40
1.0
176
     0
 40
1.0
176
     0
  0
VISUALSTYLE
  5
33
102
{ACAD_REACTORS
330
29
102
}
330
29
100
AcDbVisualStyle
  2
Realistic
 70
     8
177
     3
291
     0
 70
    58
 90
        2
176
     1
 90
        3
176
     1
 90
        0
176
     1
 90
        2
176
     1
 40
0.6
176
     1
 40
30.0
176
     1
 62
     7
420
 16777215
176
     1
 90
        0
176
     1
 90
        0
176
     1
 62
     7
176
     1
 62
   257
176
     1
 90
        1
176
     1
 90
        1
176
     1
 40
1.0
176
     1
 90
        8
176
     1
 62
   257
176
     1
 40
1.0
176
     1
 90
        1
176
     1
 90
        6
176
     1
 90
        2
176
     1
 62
     7
176
     1
 90
        3
176
     1
 90
        0
176
     1
 90
        0
176
     1
290
     0
176
     1
 90
       13
176
     1
 40
0.0
176
     1
 90
        0
176
     1
290
     0
176
     1
290
     1
176
     1
290
     1
176
     1
290
     0
176
     1
290
     0
176
     1
290
     0
176
     1
290
     0
176
     1
290
     0
176
     1
290
     0
176
     1
 90
       50
176
     1
 40
0.0
176
     1
 40
1.0
176
     1
 90
        0
176
     1
 62
    18
420
        0
176
     1
 90
       50
176
     1
 90
        3
176
     1
 62
     5
420
      255
176
     1
290
     0
176
     1
 90
       50
176
     1
 90
       50
176
     1
 90
       50
176
     1
290
     0
176
     1
 90
       50
176
     1
 62
   256
176
     0
 40
1.0
176
     0
 90
        2
176
     1
  1
strokes_ogs.tif
176
     1
290
     0
176
     1
 40
1.0
176
     1
 40
1.0
176
     1
  0
VISUALSTYLE
  5
3E
102
{ACAD_REACTORS
330
29
102
}
330
29
100
AcDbVisualStyle
  2
Shaded
 70
    27
177
     3
291
     0
 70
    58
 90
        2
176
     1
 90
        2
176
     1
 90
        1
176
     1
 90
        2
176
     1
 40
0.6
176
     1
 40
30.0
176
     1
 62
     7
420
 16777215
176
     1
 90
        0
176
     1
 90
        4
176
     1
 62
     7
176
     1
 62
   257
176
     1
 90
        1
176
     1
 90
        1
176
     1
 40
1.0
176
     1
 90
        8
176
     1
 62
   257
176
     1
 40
1.0
176
     1
 90
        1
176
     1
 90
        6
176
     1
 90
        2
176
     1
 62
     8
420
  7895160
176
     1
 90
        3
176
     1
 90
        0
176
     1
 90
        0
176
     1
290
     0
176
     1
 90
        5
176
     1
 40
0.0
176
     1
 90
        0
176
     1
290
     0
176
     1
290
     1
176
     1
290
     1
176
     1
290
     0
176
     1
290
     0
176
     1
290
     0
176
     1
290
     0
176
     1
290
     0
176
     1
290
     0
176
     1
 90
       50
176
     1
 40
0.0
176
     1
 40
1.0
176
     1
 90
        0
176
     1
 62
    18
420
        0
176
     1
 90
       50
176
     1
 90
        3
176
     1
 62
     5
420
      255
176
     1
290
     0
176
     1
 90
       50
176
     1
 90
       50
176
     1
 90
       50
176
     1
290
     0
176
     1
 90
       50
176
     1
 62
   256
176
     0
 40
1.0
176
     0
 90
        2
176
     1
  1
strokes_ogs.tif
176
     1
290
     0
176
     1
 40
1.0
176
     1
 40
1.0
176
     1
  0
VISUALSTYLE
  5
3D
102
{ACAD_REACTORS
330
29
102
}
330
29
100
AcDbVisualStyle
  2
Shaded with edges
 70
    26
177
     3
291
     0
 70
    58
 90
        2
176
     1
 90
        2
176
     1
 90
        1
176
     1
 90
        2
176
     1
 40
0.6
176
     1
 40
30.0
176
     1
 62
     7
420
 16777215
176
     1
 90
        1
176
     1
 90
        2
176
     1
 62
     7
176
     1
 62
   257
176
     1
 90
        2
176
     1
 90
        1
176
     1
 40
1.0
176
     1
 90
        8
176
     1
 62
   257
176
     1
 40
1.0
176
     1
 90
        1
176
     1
 90
        6
176
     1
 90
        2
176
     1
 62
     7
176
     1
 90
        3
176
     1
 90
        0
176
     1
 90
        0
176
     1
290
     0
176
     1
 90
        5
176
     1
 40
0.0
176
     1
 90
        0
176
     1
290
     0
176
     1
290
     1
176
     1
290
     1
176
     1
290
     0
176
     1
290
     0
176
     1
290
     0
176
     1
290
     0
176
     1
290
     0
176
     1
290
     0
176
     1
 90
       50
176
     1
 40
0.0
176
     1
 40
1.0
176
     1
 90
        0
176
     1
 62
    18
420
        0
176
     1
 90
       50
176
     1
 90
        3
176
     1
 62
     5
420
      255
176
     1
290
     0
176
     1
 90
       50
176
     1
 90
       50
176
     1
 90
       50
176
     1
290
     0
176
     1
 90
       50
176
     1
 62
   256
176
     0
 40
1.0
176
     0
 90
        2
176
     1
  1
strokes_ogs.tif
176
     1
290
     0
176
     1
 40
1.0
176
     1
 40
1.0
176
     1
  0
VISUALSTYLE
  5
3A
102
{ACAD_REACTORS
330
29
102
}
330
29
100
AcDbVisualStyle
  2
Shades of Gray
 70
    23
177
     3
291
     0
 70
    58
 90
        2
176
     1
 90
        2
176
     1
 90
        3
176
     1
 90
        0
176
     1
 40
0.6
176
     1
 40
30.0
176
     1
 62
     7
420
 16777215
176
     1
 90
        2
176
     1
 90
        2
176
     1
 62
     7
176
     1
 62
     7
176
     1
 90
        1
176
     1
 90
        1
176
     1
 40
40.0
176
     1
 90
        8
176
     1
 62
     7
176
     1
 40
1.0
176
     1
 90
        1
176
     1
 90
        6
176
     1
 90
        2
176
     1
 62
     7
176
     1
 90
        3
176
     1
 90
        0
176
     1
 90
        0
176
     1
290
     0
176
     1
 90
        1
176
     1
 40
0.0
176
     1
 90
        0
176
     1
290
     0
176
     1
290
     1
176
     1
290
     1
176
     1
290
     0
176
     1
290
     0
176
     1
290
     0
176
     1
290
     0
176
     1
290
     0
176
     1
290
     0
176
     1
 90
       50
176
     1
 40
0.0
176
     1
 40
1.0
176
     1
 90
        0
176
     1
 62
    18
420
        0
176
     1
 90
       50
176
     1
 90
        3
176
     1
 62
     5
420
      255
176
     1
290
     0
176
     1
 90
       50
176
     1
 90
       50
176
     1
 90
       50
176
     1
290
     0
176
     1
 90
       50
176
     1
 62
   256
176
     0
 40
1.0
176
     0
 90
        2
176
     1
  1
strokes_ogs.tif
176
     1
290
     0
176
     1
 40
1.0
176
     1
 40
1.0
176
     1
  0
VISUALSTYLE
  5
3B
102
{ACAD_REACTORS
330
29
102
}
330
29
100
AcDbVisualStyle
  2
Sketchy
 70
    24
177
     3
291
     0
 70
    58
 90
        1
176
     1
 90
        2
176
     1
 90
        2
176
     1
 90
        0
176
     1
 40
0.6
176
     1
 40
30.0
176
     1
 62
     7
420
 16777215
176
     1
 90
        2
176
     1
 90
        2
176
     1
 62
     7
176
     1
 62
     7
176
     1
 90
        1
176
     1
 90
        1
176
     1
 40
40.0
176
     1
 90
       11
176
     1
 62
     7
176
     1
 40
1.0
176
     1
 90
        1
176
     1
 90
        6
176
     1
 90
        2
176
     1
 62
     7
176
     1
 90
        6
176
     1
 90
        0
176
     1
 90
        0
176
     1
290
     0
176
     1
 90
        1
176
     1
 40
0.0
176
     1
 90
        0
176
     1
290
     0
176
     1
290
     1
176
     1
290
     1
176
     1
290
     0
176
     1
290
     0
176
     1
290
     0
176
     1
290
     0
176
     1
290
     0
176
     1
290
     0
176
     1
 90
       50
176
     1
 40
0.0
176
     1
 40
1.0
176
     1
 90
        0
176
     1
 62
    18
420
        0
176
     1
 90
       50
176
     1
 90
        3
176
     1
 62
     5
420
      255
176
     1
290
     0
176
     1
 90
       50
176
     1
 90
       50
176
     1
 90
       50
176
     1
290
     0
176
     1
 90
       50
176
     1
 62
   256
176
     0
 40
1.0
176
     0
 90
        2
176
     1
  1
strokes_ogs.tif
176
     1
290
     0
176
     1
 40
1.0
176
     1
 40
1.0
176
     1
  0
VISUALSTYLE
  5
36
102
{ACAD_REACTORS
330
29
102
}
330
29
100
AcDbVisualStyle
  2
Thicken
 70
    13
177
     3
291
     1
 70
    58
 90
        2
176
     1
 90
        2
176
     1
 90
        0
176
     1
 90
        0
176
     1
 40
0.6
176
     1
 40
30.0
176
     1
 62
     7
420
 16777215
176
     1
 90
        1
176
     1
 90
        4
176
     1
 62
     7
176
     1
 62
   257
176
     1
 90
        1
176
     1
 90
        1
176
     1
 40
1.0
176
     1
 90
       12
176
     1
 62
     7
176
     1
 40
1.0
176
     1
 90
        1
176
     1
 90
        6
176
     1
 90
        2
176
     1
 62
     7
176
     1
 90
        5
176
     1
 90
        0
176
     1
 90
        0
176
     1
290
     0
176
     1
 90
        1
176
     1
 40
0.0
176
     1
 90
        0
176
     1
290
     0
176
     1
290
     1
176
     1
290
     1
176
     1
290
     0
176
     1
290
     0
176
     1
290
     0
176
     1
290
     0
176
     1
290
     0
176
     1
290
     0
176
     1
 90
       50
176
     1
 40
0.0
176
     1
 40
1.0
176
     1
 90
        0
176
     1
 62
    18
420
        0
176
     1
 90
       50
176
     1
 90
        3
176
     1
 62
     5
420
      255
176
     1
290
     0
176
     1
 90
       50
176
     1
 90
       50
176
     1
 90
       50
176
     1
290
     0
176
     1
 90
       50
176
     1
 62
   256
176
     0
 40
1.0
176
     0
 90
        2
176
     1
  1
strokes_ogs.tif
176
     1
290
     0
176
     1
 40
1.0
176
     1
 40
1.0
176
     1
  0
VISUALSTYLE
  5
30
102
{ACAD_REACTORS
330
29
102
}
330
29
100
AcDbVisualStyle
  2
Wireframe
 70
     5
177
     3
291
     0
 70
    58
 90
        0
176
     1
 90
        2
176
     1
 90
        0
176
     1
 90
        0
176
     1
 40
0.6
176
     1
 40
30.0
176
     1
 62
     7
420
 16777215
176
     1
 90
        1
176
     1
 90
        4
176
     1
 62
     7
176
     1
 62
   257
176
     1
 90
        1
176
     1
 90
        1
176
     1
 40
1.0
176
     1
 90
        0
176
     1
 62
   257
176
     1
 40
1.0
176
     1
 90
        1
176
     1
 90
        6
176
     1
 90
        2
176
     1
 62
     7
176
     1
 90
        3
176
     1
 90
        0
176
     1
 90
        0
176
     1
290
     0
176
     1
 90
        1
176
     1
 40
0.0
176
     1
 90
        0
176
     1
290
     0
176
     1
290
     1
176
     1
290
     1
176
     1
290
     0
176
     1
290
     0
176
     1
290
     0
176
     1
290
     0
176
     1
290
     0
176
     1
290
     0
176
     1
 90
       50
176
     1
 40
0.0
176
     1
 40
1.0
176
     1
 90
        0
176
     1
 62
    18
420
        0
176
     1
 90
       50
176
     1
 90
        3
176
     1
 62
     5
420
      255
176
     1
290
     0
176
     1
 90
       50
176
     1
 90
       50
176
     1
 90
       50
176
     1
290
     0
176
     1
 90
       50
176
     1
 62
   256
176
     0
 40
1.0
176
     0
 90
        2
176
     1
  1
strokes_ogs.tif
176
     1
290
     0
176
     1
 40
1.0
176
     1
 40
1.0
176
     1
  0
VISUALSTYLE
  5
3C
102
{ACAD_REACTORS
330
29
102
}
330
29
100
AcDbVisualStyle
  2
X-Ray
 70
    25
177
     3
291
     0
 70
    58
 90
        2
176
     1
 90
        2
176
     1
 90
        1
176
     1
 90
        1
176
     1
 40
0.5
176
     1
 40
30.0
176
     1
 62
     7
420
 16777215
176
     1
 90
        1
176
     1
 90
        0
176
     1
 62
     7
176
     1
 62
   257
176
     1
 90
        1
176
     1
 90
        1
176
     1
 40
1.0
176
     1
 90
        8
176
     1
 62
     7
176
     1
 40
1.0
176
     1
 90
        1
176
     1
 90
        6
176
     1
 90
        2
176
     1
 62
     7
176
     1
 90
        3
176
     1
 90
        0
176
     1
 90
        0
176
     1
290
     0
176
     1
 90
       13
176
     1
 40
0.0
176
     1
 90
        0
176
     1
290
     0
176
     1
290
     1
176
     1
290
     1
176
     1
290
     0
176
     1
290
     0
176
     1
290
     0
176
     1
290
     0
176
     1
290
     0
176
     1
290
     0
176
     1
 90
       50
176
     1
 40
0.0
176
     1
 40
1.0
176
     1
 90
        0
176
     1
 62
    18
420
        0
176
     1
 90
       50
176
     1
 90
        3
176
     1
 62
     5
420
      255
176
     1
290
     0
176
     1
 90
       50
176
     1
 90
       50
176
     1
 90
       50
176
     1
290
     0
176
     1
 90
       50
176
     1
 62
   256
176
     0
 40
1.0
176
     0
 90
        2
176
     1
  1
strokes_ogs.tif
176
     1
290
     0
176
     1
 40
1.0
176
     1
 40
1.0
176
     1
  0
DICTIONARYVAR
  5
343
102
{ACAD_REACTORS
330
33E
102
}
330
33E
100
DictionaryVariables
280
     0
  1
1:1
  0
DICTIONARYVAR
  5
340
102
{ACAD_REACTORS
330
33E
102
}
330
33E
100
DictionaryVariables
280
     0
  1
STANDARD
  0
DICTIONARYVAR
  5
33F
102
{ACAD_REACTORS
330
33E
102
}
330
33E
100
DictionaryVariables
280
     0
  1
STANDARD
  0
DICTIONARYVAR
  5
341
102
{ACAD_REACTORS
330
33E
102
}
330
33E
100
DictionaryVariables
280
     0
  1
Imperial24
  0
DICTIONARYVAR
  5
342
102
{ACAD_REACTORS
330
33E
102
}
330
33E
100
DictionaryVariables
280
     0
  1
Imperial24
  0
DICTIONARY
  5
1A
330
19
100
AcDbDictionary
280
     1
281
     1
  3
BUMPTILE
360
1C
  3
DIFFUSETILE
360
1B
  3
OPACITYTILE
360
1F
  3
REFLECTIONTILE
360
1E
  3
REFRACTIONTILE
360
20
  3
SPECULARTILE
360
1D
  0
DICTIONARY
  5
12
330
11
100
AcDbDictionary
280
     1
281
     1
  3
BUMPTILE
360
14
  3
DIFFUSETILE
360
13
  3
OPACITYTILE
360
17
  3
REFLECTIONTILE
360
16
  3
REFRACTIONTILE
360
18
  3
SPECULARTILE
360
15
  0
DICTIONARY
  5
22
330
21
100
AcDbDictionary
280
     1
281
     1
  3
BUMPTILE
360
24
  3
DIFFUSETILE
360
23
  3
OPACITYTILE
360
27
  3
REFLECTIONTILE
360
26
  3
REFRACTIONTILE
360
28
  3
SPECULARTILE
360
25
  0
DICTIONARY
  5
344
330
65
100
AcDbDictionary
280
     1
281
     1
  3
ACAD_ROUNDTRIP_2008_TABLESTYLE_CELLSTYLEMAP
360
345
  0
XRECORD
  5
1C
102
{ACAD_REACTORS
330
1A
102
}
330
1A
100
AcDbXrecord
280
     1
270
     1
271
     1
  0
XRECORD
  5
1B
102
{ACAD_REACTORS
330
1A
102
}
330
1A
100
AcDbXrecord
280
     1
270
     1
271
     1
  0
XRECORD
  5
1F
102
{ACAD_REACTORS
330
1A
102
}
330
1A
100
AcDbXrecord
280
     1
270
     1
271
     1
  0
XRECORD
  5
1E
102
{ACAD_REACTORS
330
1A
102
}
330
1A
100
AcDbXrecord
280
     1
270
     1
271
     1
  0
XRECORD
  5
20
102
{ACAD_REACTORS
330
1A
102
}
330
1A
100
AcDbXrecord
280
     1
270
     1
271
     1
  0
XRECORD
  5
1D
102
{ACAD_REACTORS
330
1A
102
}
330
1A
100
AcDbXrecord
280
     1
270
     1
271
     1
  0
XRECORD
  5
14
102
{ACAD_REACTORS
330
12
102
}
330
12
100
AcDbXrecord
280
     1
270
     1
271
     1
  0
XRECORD
  5
13
102
{ACAD_REACTORS
330
12
102
}
330
12
100
AcDbXrecord
280
     1
270
     1
271
     1
  0
XRECORD
  5
17
102
{ACAD_REACTORS
330
12
102
}
330
12
100
AcDbXrecord
280
     1
270
     1
271
     1
  0
XRECORD
  5
16
102
{ACAD_REACTORS
330
12
102
}
330
12
100
AcDbXrecord
280
     1
270
     1
271
     1
  0
XRECORD
  5
18
102
{ACAD_REACTORS
330
12
102
}
330
12
100
AcDbXrecord
280
     1
270
     1
271
     1
  0
XRECORD
  5
15
102
{ACAD_REACTORS
330
12
102
}
330
12
100
AcDbXrecord
280
     1
270
     1
271
     1
  0
XRECORD
  5
24
102
{ACAD_REACTORS
330
22
102
}
330
22
100
AcDbXrecord
280
     1
270
     1
271
     1
  0
XRECORD
  5
23
102
{ACAD_REACTORS
330
22
102
}
330
22
100
AcDbXrecord
280
     1
270
     1
271
     1
  0
XRECORD
  5
27
102
{ACAD_REACTORS
330
22
102
}
330
22
100
AcDbXrecord
280
     1
270
     1
271
     1
  0
XRECORD
  5
26
102
{ACAD_REACTORS
330
22
102
}
330
22
100
AcDbXrecord
280
     1
270
     1
271
     1
  0
XRECORD
  5
28
102
{ACAD_REACTORS
330
22
102
}
330
22
100
AcDbXrecord
280
     1
270
     1
271
     1
  0
XRECORD
  5
25
102
{ACAD_REACTORS
330
22
102
}
330
22
100
AcDbXrecord
280
     1
270
     1
271
     1
  0
CELLSTYLEMAP
  5
345
102
{ACAD_REACTORS
330
344
102
}
330
344
100
AcDbCellStyleMap
 90
        3
300
CELLSTYLE
  1
TABLEFORMAT_BEGIN
 90
        5
170
     1
 91
        0
 92
    32768
 62
   257
 93
        1
300
CONTENTFORMAT
  1
CONTENTFORMAT_BEGIN
 90
        0
 91
        0
 92
      512
 93
        0
300

 40
0.0
140
1.0
 94
        5
 62
     0
340
55
144
0.25
309
CONTENTFORMAT_END
171
     0
 94
        0
309
TABLEFORMAT_END
  1
CELLSTYLE_BEGIN
 90
        1
 91
        1
300
_TITLE
309
CELLSTYLE_END
300
CELLSTYLE
  1
TABLEFORMAT_BEGIN
 90
        5
170
     1
 91
        0
 92
        0
 62
   257
 93
        1
300
CONTENTFORMAT
  1
CONTENTFORMAT_BEGIN
 90
        0
 91
        0
 92
      512
 93
        0
300

 40
0.0
140
1.0
 94
        5
 62
     0
340
55
144
0.18
309
CONTENTFORMAT_END
171
     0
 94
        0
309
TABLEFORMAT_END
  1
CELLSTYLE_BEGIN
 90
        2
 91
        1
300
_HEADER
309
CELLSTYLE_END
300
CELLSTYLE
  1
TABLEFORMAT_BEGIN
 90
        5
170
     1
 91
        0
 92
        0
 62
   257
 93
        1
300
CONTENTFORMAT
  1
CONTENTFORMAT_BEGIN
 90
        0
 91
        0
 92
      512
 93
        0
300

 40
0.0
140
1.0
 94
        2
 62
     0
340
55
144
0.18
309
CONTENTFORMAT_END
171
     0
 94
        0
309
TABLEFORMAT_END
  1
CELLSTYLE_BEGIN
 90
        3
 91
        2
300
_DATA
309
CELLSTYLE_END
  0
ENDSEC
  0
EOF
