  0
SECTION
  2
HEADER
  9
$ACADVER
  1
AC1032
  9
$ACADMAINTVER
 90
      251
  9
$DWGCODEPAGE
  3
ANSI_1252
  9
$REQUIREDVERSIONS
160
                 0
  9
$INSBASE
 10
0.0
 20
0.0
 30
0.0
  9
$EXTMIN
 10
1.000000000000000E+20
 20
1.000000000000000E+20
 30
1.000000000000000E+20
  9
$EXTMAX
 10
-1.000000000000000E+20
 20
-1.000000000000000E+20
 30
-1.000000000000000E+20
  9
$LIMMIN
 10
0.0
 20
0.0
  9
$LIMMAX
 10
12.0
 20
9.0
  9
$ORTHOMODE
 70
     0
  9
$REGENMODE
 70
     1
  9
$FILLMODE
 70
     1
  9
$QTEXTMODE
 70
     0
  9
$MIRRTEXT
 70
     0
  9
$LTSCALE
 40
1.0
  9
$ATTMODE
 70
     1
  9
$TEXTSIZE
 40
0.2
  9
$TRACEWID
 40
0.05
  9
$TEXTSTYLE
  7
Standard
  9
$CLAYER
  8
0
  9
$CELTYPE
  6
ByLayer
  9
$CECOLOR
 62
   256
  9
$CELTSCALE
 40
1.0
  9
$DISPSILH
 70
     0
  9
$DIMSCALE
 40
1.0
  9
$DIMASZ
 40
0.18
  9
$DIMEXO
 40
0.0625
  9
$DIMDLI
 40
0.38
  9
$DIMRND
 40
0.0
  9
$DIMDLE
 40
0.0
  9
$DIMEXE
 40
0.18
  9
$DIMTP
 40
0.0
  9
$DIMTM
 40
0.0
  9
$DIMTXT
 40
0.18
  9
$DIMCEN
 40
0.09
  9
$DIMTSZ
 40
0.0
  9
$DIMTOL
 70
     0
  9
$DIMLIM
 70
     0
  9
$DIMTIH
 70
     1
  9
$DIMTOH
 70
     1
  9
$DIMSE1
 70
     0
  9
$DIMSE2
 70
     0
  9
$DIMTAD
 70
     0
  9
$DIMZIN
 70
     0
  9
$DIMBLK
  1

  9
$DIMASO
 70
     1
  9
$DIMSHO
 70
     1
  9
$DIMPOST
  1

  9
$DIMAPOST
  1

  9
$DIMALT
 70
     0
  9
$DIMALTD
 70
     2
  9
$DIMALTF
 40
25.4
  9
$DIMLFAC
 40
1.0
  9
$DIMTOFL
 70
     0
  9
$DIMTVP
 40
0.0
  9
$DIMTIX
 70
     0
  9
$DIMSOXD
 70
     0
  9
$DIMSAH
 70
     0
  9
$DIMBLK1
  1

  9
$DIMBLK2
  1

  9
$DIMSTYLE
  2
Standard
  9
$DIMCLRD
 70
     0
  9
$DIMCLRE
 70
     0
  9
$DIMCLRT
 70
     0
  9
$DIMTFAC
 40
1.0
  9
$DIMGAP
 40
0.09
  9
$DIMJUST
 70
     0
  9
$DIMSD1
 70
     0
  9
$DIMSD2
 70
     0
  9
$DIMTOLJ
 70
     1
  9
$DIMTZIN
 70
     0
  9
$DIMALTZ
 70
     0
  9
$DIMALTTZ
 70
     0
  9
$DIMUPT
 70
     0
  9
$DIMDEC
 70
     4
  9
$DIMTDEC
 70
     4
  9
$DIMALTU
 70
     2
  9
$DIMALTTD
 70
     2
  9
$DIMTXSTY
  7
Standard
  9
$DIMAUNIT
 70
     0
  9
$DIMADEC
 70
     0
  9
$DIMALTRND
 40
0.0
  9
$DIMAZIN
 70
     0
  9
$DIMDSEP
 70
    46
  9
$DIMATFIT
 70
     3
  9
$DIMFRAC
 70
     0
  9
$DIMLDRBLK
  1

  9
$DIMLUNIT
 70
     2
  9
$DIMLWD
 70
    -2
  9
$DIMLWE
 70
    -2
  9
$DIMTMOVE
 70
     0
  9
$DIMFXL
 40
1.0
  9
$DIMFXLON
 70
     0
  9
$DIMJOGANG
 40
0.7853981633974483
  9
$DIMTFILL
 70
     0
  9
$DIMTFILLCLR
 70
     0
  9
$DIMARCSYM
 70
     0
  9
$DIMLTYPE
  6

  9
$DIMLTEX1
  6

  9
$DIMLTEX2
  6

  9
$DIMTXTDIRECTION
 70
     0
  9
$LUNITS
 70
     2
  9
$LUPREC
 70
     4
  9
$SKETCHINC
 40
0.1
  9
$FILLETRAD
 40
0.0
  9
$AUNITS
 70
     0
  9
$AUPREC
 70
     0
  9
$MENU
  1
.
  9
$ELEVATION
 40
0.0
  9
$PELEVATION
 40
0.0
  9
$THICKNESS
 40
0.0
  9
$LIMCHECK
 70
     0
  9
$CHAMFERA
 40
0.0
  9
$CHAMFERB
 40
0.0
  9
$CHAMFERC
 40
0.0
  9
$CHAMFERD
 40
0.0
  9
$SKPOLY
 70
     0
  9
$TDCREATE
 40
2459963.385717593
  9
$TDUCREATE
 40
2459963.344050926
  9
$TDUPDATE
 40
2459963.385717593
  9
$TDUUPDATE
 40
2459963.344050926
  9
$TDINDWG
 40
0.0000000000
  9
$TDUSRTIMER
 40
0.0000000000
  9
$USRTIMER
 70
     1
  9
$ANGBASE
 50
0.0
  9
$ANGDIR
 70
     0
  9
$PDMODE
 70
     0
  9
$PDSIZE
 40
0.0
  9
$PLINEWID
 40
0.0
  9
$SPLFRAME
 70
     0
  9
$SPLINETYPE
 70
     6
  9
$SPLINESEGS
 70
     8
  9
$HANDSEED
  5
34B
  9
$SURFTAB1
 70
     6
  9
$SURFTAB2
 70
     6
  9
$SURFTYPE
 70
     6
  9
$SURFU
 70
     6
  9
$SURFV
 70
     6
  9
$UCSBASE
  2

  9
$UCSNAME
  2

  9
$UCSORG
 10
0.0
 20
0.0
 30
0.0
  9
$UCSXDIR
 10
1.0
 20
0.0
 30
0.0
  9
$UCSYDIR
 10
0.0
 20
1.0
 30
0.0
  9
$UCSORTHOREF
  2

  9
$UCSORTHOVIEW
 70
     0
  9
$UCSORGTOP
 10
0.0
 20
0.0
 30
0.0
  9
$UCSORGBOTTOM
 10
0.0
 20
0.0
 30
0.0
  9
$UCSORGLEFT
 10
0.0
 20
0.0
 30
0.0
  9
$UCSORGRIGHT
 10
0.0
 20
0.0
 30
0.0
  9
$UCSORGFRONT
 10
0.0
 20
0.0
 30
0.0
  9
$UCSORGBACK
 10
0.0
 20
0.0
 30
0.0
  9
$PUCSBASE
  2

  9
$PUCSNAME
  2

  9
$PUCSORG
 10
0.0
 20
0.0
 30
0.0
  9
$PUCSXDIR
 10
1.0
 20
0.0
 30
0.0
  9
$PUCSYDIR
 10
0.0
 20
1.0
 30
0.0
  9
$PUCSORTHOREF
  2

  9
$PUCSORTHOVIEW
 70
     0
  9
$PUCSORGTOP
 10
0.0
 20
0.0
 30
0.0
  9
$PUCSORGBOTTOM
 10
0.0
 20
0.0
 30
0.0
  9
$PUCSORGLEFT
 10
0.0
 20
0.0
 30
0.0
  9
$PUCSORGRIGHT
 10
0.0
 20
0.0
 30
0.0
  9
$PUCSORGFRONT
 10
0.0
 20
0.0
 30
0.0
  9
$PUCSORGBACK
 10
0.0
 20
0.0
 30
0.0
  9
$USERI1
 70
     0
  9
$USERI2
 70
     0
  9
$USERI3
 70
     0
  9
$USERI4
 70
     0
  9
$USERI5
 70
     0
  9
$USERR1
 40
0.0
  9
$USERR2
 40
0.0
  9
$USERR3
 40
0.0
  9
$USERR4
 40
0.0
  9
$USERR5
 40
0.0
  9
$WORLDVIEW
 70
     1
  9
$SHADEDGE
 70
     3
  9
$SHADEDIF
 70
    70
  9
$TILEMODE
 70
     1
  9
$MAXACTVP
 70
    64
  9
$PINSBASE
 10
0.0
 20
0.0
 30
0.0
  9
$PLIMCHECK
 70
     0
  9
$PEXTMIN
 10
1.000000000000000E+20
 20
1.000000000000000E+20
 30
1.000000000000000E+20
  9
$PEXTMAX
 10
-1.000000000000000E+20
 20
-1.000000000000000E+20
 30
-1.000000000000000E+20
  9
$PLIMMIN
 10
0.0
 20
0.0
  9
$PLIMMAX
 10
12.0
 20
9.0
  9
$UNITMODE
 70
     0
  9
$VISRETAIN
 70
     1
  9
$PLINEGEN
 70
     0
  9
$PSLTSCALE
 70
     1
  9
$TREEDEPTH
 70
  3020
  9
$CMLSTYLE
  2
Standard
  9
$CMLJUST
 70
     0
  9
$CMLSCALE
 40
1.0
  9
$PROXYGRAPHICS
 70
     1
  9
$MEASUREMENT
 70
     0
  9
$CELWEIGHT
370
    -1
  9
$ENDCAPS
280
     0
  9
$JOINSTYLE
280
     0
  9
$LWDISPLAY
290
     1
  9
$INSUNITS
 70
     4
  9
$HYPERLINKBASE
  1

  9
$STYLESHEET
  1

  9
$XEDIT
290
     1
  9
$CEPSNTYPE
380
     0
  9
$PSTYLEMODE
290
     1
  9
$FINGERPRINTGUID
  2
{8E8E64FF-E6BF-FE4E-9FC8-A62678D3C1D3}
  9
$VERSIONGUID
  2
{9F205978-8D87-664D-B9ED-ABDB9BE8FE72}
  9
$EXTNAMES
290
     1
  9
$PSVPSCALE
 40
0.0
  9
$OLESTARTUP
290
     0
  9
$SORTENTS
280
   127
  9
$INDEXCTL
280
     0
  9
$HIDETEXT
280
     1
  9
$XCLIPFRAME
280
     2
  9
$HALOGAP
280
     0
  9
$OBSCOLOR
 70
   257
  9
$OBSLTYPE
280
     0
  9
$INTERSECTIONDISPLAY
280
     0
  9
$INTERSECTIONCOLOR
 70
   257
  9
$DIMASSOC
280
     2
  9
$PROJECTNAME
  1

  9
$CAMERADISPLAY
290
     0
  9
$LENSLENGTH
 40
50.0
  9
$CAMERAHEIGHT
 40
0.0
  9
$STEPSPERSEC
 40
2.0
  9
$STEPSIZE
 40
6.0
  9
$3DDWFPREC
 40
2.0
  9
$PSOLWIDTH
 40
0.25
  9
$PSOLHEIGHT
 40
4.0
  9
$LOFTANG1
 40
1.570796326794896
  9
$LOFTANG2
 40
1.570796326794896
  9
$LOFTMAG1
 40
0.0
  9
$LOFTMAG2
 40
0.0
  9
$LOFTPARAM
 70
     7
  9
$LOFTNORMALS
280
     1
  9
$LATITUDE
 40
37.795
  9
$LONGITUDE
 40
-122.394
  9
$NORTHDIRECTION
 40
0.0
  9
$TIMEZONE
 70
 -8000
  9
$LIGHTGLYPHDISPLAY
280
     1
  9
$TILEMODELIGHTSYNCH
280
     1
  9
$CMATERIAL
347
11
  9
$SOLIDHIST
280
     0
  9
$SHOWHIST
280
     1
  9
$DWFFRAME
280
     2
  9
$DGNFRAME
280
     0
  9
$REALWORLDSCALE
290
     1
  9
$INTERFERECOLOR
 62
     1
  9
$INTERFEREOBJVS
345
33
  9
$INTERFEREVPVS
346
30
  9
$CSHADOW
280
     0
  9
$SHADOWPLANELOCATION
 40
0.0
  0
ENDSEC
  0
SECTION
  2
CLASSES
  0
CLASS
  1
ACDBDICTIONARYWDFLT
  2
AcDbDictionaryWithDefault
  3
ObjectDBX Classes
 90
        0
 91
        1
280
     0
281
     0
  0
CLASS
  1
MATERIAL
  2
AcDbMaterial
  3
ObjectDBX Classes
 90
     1153
 91
        3
280
     0
281
     0
  0
CLASS
  1
VISUALSTYLE
  2
AcDbVisualStyle
  3
ObjectDBX Classes
 90
     4095
 91
       24
280
     0
281
     0
  0
CLASS
  1
SCALE
  2
AcDbScale
  3
ObjectDBX Classes
 90
     1153
 91
       17
280
     0
281
     0
  0
CLASS
  1
TABLESTYLE
  2
AcDbTableStyle
  3
ObjectDBX Classes
 90
     4095
 91
        1
280
     0
281
     0
  0
CLASS
  1
MLEADERSTYLE
  2
AcDbMLeaderStyle
  3
ACDB_MLEADERSTYLE_CLASS
 90
     4095
 91
        1
280
     0
281
     0
  0
CLASS
  1
ACDBSECTIONVIEWSTYLE
  2
AcDbSectionViewStyle
  3
ObjectDBX Classes
 90
     1025
 91
        1
280
     0
281
     0
  0
CLASS
  1
ACDBDETAILVIEWSTYLE
  2
AcDbDetailViewStyle
  3
ObjectDBX Classes
 90
     1025
 91
        1
280
     0
281
     0
  0
CLASS
  1
DICTIONARYVAR
  2
AcDbDictionaryVar
  3
ObjectDBX Classes
 90
        0
 91
        5
280
     0
281
     0
  0
CLASS
  1
CELLSTYLEMAP
  2
AcDbCellStyleMap
  3
ObjectDBX Classes
 90
     1152
 91
        1
280
     0
281
     0
  0
ENDSEC
  0
SECTION
  2
TABLES
  0
TABLE
  2
VPORT
  5
8
330
0
100
AcDbSymbolTable
 70
     1
  0
VPORT
  5
57
330
8
100
AcDbSymbolTableRecord
100
AcDbViewportTableRecord
  2
*Active
 70
     0
 10
0.0
 20
0.0
 11
1.0
 21
1.0
 12
0.0
 22
0.0
 13
0.0
 23
0.0
 14
1.0
 24
1.0
 15
0.0
 25
0.0
 16
0.0
 26
0.0
 36
1.0
 17
43.99999998899994
 27
43.37792672017911
 37
0.0
 40
91.02902944595438
 41
0.9860590684519168
 42
50.0
 43
0.0
 44
0.0
 50
0.0
 51
0.0
 71
     0
 72
   100
 73
     1
 74
     1
 75
     0
 76
     0
 77
     0
 78
     0
281
     0
 65
     1
110
0.0
120
0.0
130
0.0
111
1.0
121
0.0
131
0.0
112
0.0
122
1.0
132
0.0
 79
     0
146
0.0
 60
     3
 61
     5
292
     1
282
     1
141
0.0
142
0.0
 63
   250
421
  3355443
  0
ENDTAB
  0
TABLE
  2
LTYPE
  5
5
330
0
100
AcDbSymbolTable
 70
     2
  0
LTYPE
  5
5B
330
5
100
AcDbSymbolTableRecord
100
AcDbLinetypeTableRecord
  2
ByBlock
 70
     0
  3

 72
    65
 73
     0
 40
0.0
  0
LTYPE
  5
5C
330
5
100
AcDbSymbolTableRecord
100
AcDbLinetypeTableRecord
  2
ByLayer
 70
     0
  3

 72
    65
 73
     0
 40
0.0
  0
LTYPE
  5
5D
330
5
100
AcDbSymbolTableRecord
100
AcDbLinetypeTableRecord
  2
Continuous
 70
     0
  3
Solid line
 72
    65
 73
     0
 40
0.0
  0
LTYPE
  5
2EA
330
5
100
AcDbSymbolTableRecord
100
AcDbLinetypeTableRecord
  2
AI-Linetype-0
 70
     0
  3
Adobe Illustrator Linetype No. 0
 72
    65
 73
     2
 40
1.411111110758333
 49
0.7055555553791667
 74
     0
 49
-0.7055555553791667
 74
     0
  0
ENDTAB
  0
TABLE
  2
LAYER
  5
2
330
0
100
AcDbSymbolTable
 70
     3
  0
LAYER
  5
54
330
2
100
AcDbSymbolTableRecord
100
AcDbLayerTableRecord
  2
0
 70
     0
 62
     7
  6
Continuous
370
    -3
390
F
347
21
348
0
  0
LAYER
  5
78
330
2
100
AcDbSymbolTableRecord
100
AcDbLayerTableRecord
  2
Sichtbar schmal (ISO)
 70
     0
 62
     7
  6
Continuous
370
     0
390
F
347
21
348
0
  0
LAYER
  5
9B
330
2
100
AcDbSymbolTableRecord
100
AcDbLayerTableRecord
  2
Sichtbar (ISO)
 70
     0
 62
     7
  6
Continuous
370
     0
390
F
347
21
348
0
  0
ENDTAB
  0
TABLE
  2
STYLE
  5
3
330
0
100
AcDbSymbolTable
 70
     2
  0
STYLE
  5
55
330
3
100
AcDbSymbolTableRecord
100
AcDbTextStyleTableRecord
  2
Standard
 70
     0
 40
0.0
 41
1.0
 50
0.0
 71
     0
 42
0.2
  3
txt
  4

  0
STYLE
  5
5A
330
3
100
AcDbSymbolTableRecord
100
AcDbTextStyleTableRecord
  2
Annotative
 70
     0
 40
0.0
 41
1.0
 50
0.0
 71
     0
 42
0.2
  3
txt
  4

1001
AcadAnnotative
1000
AnnotativeData
1002
{
1070
     1
1070
     1
1002
}
  0
ENDTAB
  0
TABLE
  2
VIEW
  5
6
330
0
100
AcDbSymbolTable
 70
     0
  0
ENDTAB
  0
TABLE
  2
UCS
  5
7
330
0
100
AcDbSymbolTable
 70
     0
  0
ENDTAB
  0
TABLE
  2
APPID
  5
9
330
0
100
AcDbSymbolTable
 70
     2
  0
APPID
  5
56
330
9
100
AcDbSymbolTableRecord
100
AcDbRegAppTableRecord
  2
ACAD
 70
     0
  0
APPID
  5
5E
330
9
100
AcDbSymbolTableRecord
100
AcDbRegAppTableRecord
  2
AcadAnnotative
 70
     0
  0
ENDTAB
  0
TABLE
  2
DIMSTYLE
  5
A
330
0
100
AcDbSymbolTable
 70
     2
100
AcDbDimStyleTable
 71
     0
  0
DIMSTYLE
105
58
330
A
100
AcDbSymbolTableRecord
100
AcDbDimStyleTableRecord
  2
Standard
 70
     0
340
55
  0
DIMSTYLE
105
59
330
A
100
AcDbSymbolTableRecord
100
AcDbDimStyleTableRecord
  2
Annotative
 70
     0
340
55
1001
AcadAnnotative
1000
AnnotativeData
1002
{
1070
     1
1070
     1
1002
}
  0
ENDTAB
  0
TABLE
  2
BLOCK_RECORD
  5
1
330
0
100
AcDbSymbolTable
 70
    38
  0
BLOCK_RECORD
  5
70
330
1
100
AcDbSymbolTableRecord
100
AcDbBlockTableRecord
  2
*Model_Space
340
73
 70
     0
280
     1
281
     0
  0
BLOCK_RECORD
  5
6C
330
1
100
AcDbSymbolTableRecord
100
AcDbBlockTableRecord
  2
*Paper_Space
340
6F
 70
     0
280
     1
281
     0
  0
BLOCK_RECORD
  5
74
330
1
100
AcDbSymbolTableRecord
100
AcDbBlockTableRecord
  2
*Paper_Space0
340
77
 70
     0
280
     1
281
     0
  0
BLOCK_RECORD
  5
7A
330
1
100
AcDbSymbolTableRecord
100
AcDbBlockTableRecord
  2
Block_0
340
0
102
{BLKREFS
331
7B
102
}
 70
     0
280
     1
281
     0
  0
BLOCK_RECORD
  5
7E
330
1
100
AcDbSymbolTableRecord
100
AcDbBlockTableRecord
  2
Block_1
340
0
102
{BLKREFS
331
7F
102
}
 70
     0
280
     1
281
     0
  0
BLOCK_RECORD
  5
83
330
1
100
AcDbSymbolTableRecord
100
AcDbBlockTableRecord
  2
Block_2
340
0
102
{BLKREFS
331
84
102
}
 70
     0
280
     1
281
     0
  0
BLOCK_RECORD
  5
89
330
1
100
AcDbSymbolTableRecord
100
AcDbBlockTableRecord
  2
Block_3
340
0
102
{BLKREFS
331
8A
102
}
 70
     0
280
     1
281
     0
  0
BLOCK_RECORD
  5
8F
330
1
100
AcDbSymbolTableRecord
100
AcDbBlockTableRecord
  2
Block_4
340
0
102
{BLKREFS
331
90
102
}
 70
     0
280
     1
281
     0
  0
BLOCK_RECORD
  5
93
330
1
100
AcDbSymbolTableRecord
100
AcDbBlockTableRecord
  2
Block_5
340
0
102
{BLKREFS
331
94
102
}
 70
     0
280
     1
281
     0
  0
BLOCK_RECORD
  5
9C
330
1
100
AcDbSymbolTableRecord
100
AcDbBlockTableRecord
  2
Block_6
340
0
102
{BLKREFS
331
9D
102
}
 70
     0
280
     1
281
     0
  0
BLOCK_RECORD
  5
C9
330
1
100
AcDbSymbolTableRecord
100
AcDbBlockTableRecord
  2
Block_7
340
0
102
{BLKREFS
331
CA
102
}
 70
     0
280
     1
281
     0
  0
BLOCK_RECORD
  5
D6
330
1
100
AcDbSymbolTableRecord
100
AcDbBlockTableRecord
  2
Block_8
340
0
102
{BLKREFS
331
D7
102
}
 70
     0
280
     1
281
     0
  0
BLOCK_RECORD
  5
DA
330
1
100
AcDbSymbolTableRecord
100
AcDbBlockTableRecord
  2
Block_9
340
0
102
{BLKREFS
331
DB
102
}
 70
     0
280
     1
281
     0
  0
BLOCK_RECORD
  5
DF
330
1
100
AcDbSymbolTableRecord
100
AcDbBlockTableRecord
  2
Block_10
340
0
102
{BLKREFS
331
E0
102
}
 70
     0
280
     1
281
     0
  0
BLOCK_RECORD
  5
E5
330
1
100
AcDbSymbolTableRecord
100
AcDbBlockTableRecord
  2
Block_11
340
0
102
{BLKREFS
331
E6
102
}
 70
     0
280
     1
281
     0
  0
BLOCK_RECORD
  5
EE
330
1
100
AcDbSymbolTableRecord
100
AcDbBlockTableRecord
  2
Block_12
340
0
102
{BLKREFS
331
EF
102
}
 70
     0
280
     1
281
     0
  0
BLOCK_RECORD
  5
F2
330
1
100
AcDbSymbolTableRecord
100
AcDbBlockTableRecord
  2
Block_13
340
0
102
{BLKREFS
331
F3
102
}
 70
     0
280
     1
281
     0
  0
BLOCK_RECORD
  5
F7
330
1
100
AcDbSymbolTableRecord
100
AcDbBlockTableRecord
  2
Block_14
340
0
102
{BLKREFS
331
F8
102
}
 70
     0
280
     1
281
     0
  0
BLOCK_RECORD
  5
FD
330
1
100
AcDbSymbolTableRecord
100
AcDbBlockTableRecord
  2
Block_15
340
0
102
{BLKREFS
331
FE
102
}
 70
     0
280
     1
281
     0
  0
BLOCK_RECORD
  5
104
330
1
100
AcDbSymbolTableRecord
100
AcDbBlockTableRecord
  2
Block_16
340
0
102
{BLKREFS
331
105
102
}
 70
     0
280
     1
281
     0
  0
BLOCK_RECORD
  5
111
330
1
100
AcDbSymbolTableRecord
100
AcDbBlockTableRecord
  2
Block_17
340
0
102
{BLKREFS
331
112
102
}
 70
     0
280
     1
281
     0
  0
BLOCK_RECORD
  5
13C
330
1
100
AcDbSymbolTableRecord
100
AcDbBlockTableRecord
  2
Block_18
340
0
102
{BLKREFS
331
13D
102
}
 70
     0
280
     1
281
     0
  0
BLOCK_RECORD
  5
14E
330
1
100
AcDbSymbolTableRecord
100
AcDbBlockTableRecord
  2
Block_19
340
0
102
{BLKREFS
331
14F
102
}
 70
     0
280
     1
281
     0
  0
BLOCK_RECORD
  5
152
330
1
100
AcDbSymbolTableRecord
100
AcDbBlockTableRecord
  2
Block_20
340
0
102
{BLKREFS
331
153
102
}
 70
     0
280
     1
281
     0
  0
BLOCK_RECORD
  5
157
330
1
100
AcDbSymbolTableRecord
100
AcDbBlockTableRecord
  2
Block_21
340
0
102
{BLKREFS
331
158
102
}
 70
     0
280
     1
281
     0
  0
BLOCK_RECORD
  5
15D
330
1
100
AcDbSymbolTableRecord
100
AcDbBlockTableRecord
  2
Block_22
340
0
102
{BLKREFS
331
15E
102
}
 70
     0
280
     1
281
     0
  0
BLOCK_RECORD
  5
2EC
330
1
100
AcDbSymbolTableRecord
100
AcDbBlockTableRecord
  2
Block_23
340
0
102
{BLKREFS
331
2ED
102
}
 70
     0
280
     1
281
     0
  0
BLOCK_RECORD
  5
2F0
330
1
100
AcDbSymbolTableRecord
100
AcDbBlockTableRecord
  2
Block_24
340
0
102
{BLKREFS
331
2F1
102
}
 70
     0
280
     1
281
     0
  0
BLOCK_RECORD
  5
2F5
330
1
100
AcDbSymbolTableRecord
100
AcDbBlockTableRecord
  2
Block_25
340
0
102
{BLKREFS
331
2F6
102
}
 70
     0
280
     1
281
     0
  0
BLOCK_RECORD
  5
2FB
330
1
100
AcDbSymbolTableRecord
100
AcDbBlockTableRecord
  2
Block_26
340
0
102
{BLKREFS
331
2FC
102
}
 70
     0
280
     1
281
     0
  0
BLOCK_RECORD
  5
303
330
1
100
AcDbSymbolTableRecord
100
AcDbBlockTableRecord
  2
Block_27
340
0
102
{BLKREFS
331
304
102
}
 70
     0
280
     1
281
     0
  0
BLOCK_RECORD
  5
307
330
1
100
AcDbSymbolTableRecord
100
AcDbBlockTableRecord
  2
Block_28
340
0
102
{BLKREFS
331
308
102
}
 70
     0
280
     1
281
     0
  0
BLOCK_RECORD
  5
30C
330
1
100
AcDbSymbolTableRecord
100
AcDbBlockTableRecord
  2
Block_29
340
0
102
{BLKREFS
331
30D
102
}
 70
     0
280
     1
281
     0
  0
BLOCK_RECORD
  5
312
330
1
100
AcDbSymbolTableRecord
100
AcDbBlockTableRecord
  2
Block_30
340
0
102
{BLKREFS
331
313
102
}
 70
     0
280
     1
281
     0
  0
BLOCK_RECORD
  5
318
330
1
100
AcDbSymbolTableRecord
100
AcDbBlockTableRecord
  2
Block_31
340
0
102
{BLKREFS
331
319
102
}
 70
     0
280
     1
281
     0
  0
BLOCK_RECORD
  5
31C
330
1
100
AcDbSymbolTableRecord
100
AcDbBlockTableRecord
  2
Block_32
340
0
102
{BLKREFS
331
31D
102
}
 70
     0
280
     1
281
     0
  0
BLOCK_RECORD
  5
324
330
1
100
AcDbSymbolTableRecord
100
AcDbBlockTableRecord
  2
Block_33
340
0
102
{BLKREFS
331
325
102
}
 70
     0
280
     1
281
     0
  0
BLOCK_RECORD
  5
328
330
1
100
AcDbSymbolTableRecord
100
AcDbBlockTableRecord
  2
Block_34
340
0
102
{BLKREFS
331
329
102
}
 70
     0
280
     1
281
     0
  0
BLOCK_RECORD
  5
332
330
1
100
AcDbSymbolTableRecord
100
AcDbBlockTableRecord
  2
Block_35
340
0
102
{BLKREFS
331
333
102
}
 70
     0
280
     1
281
     0
  0
BLOCK_RECORD
  5
336
330
1
100
AcDbSymbolTableRecord
100
AcDbBlockTableRecord
  2
Block_36
340
0
102
{BLKREFS
331
337
102
}
 70
     0
280
     1
281
     0
  0
ENDTAB
  0
ENDSEC
  0
SECTION
  2
BLOCKS
  0
BLOCK
  5
71
330
70
100
AcDbEntity
  8
0
100
AcDbBlockBegin
  2
*Model_Space
 70
     0
 10
0.0
 20
0.0
 30
0.0
  3
*Model_Space
  1

  0
ENDBLK
  5
72
330
70
100
AcDbEntity
  8
0
100
AcDbBlockEnd
  0
BLOCK
  5
6D
330
6C
100
AcDbEntity
 67
     1
  8
0
100
AcDbBlockBegin
  2
*Paper_Space
 70
     0
 10
0.0
 20
0.0
 30
0.0
  3
*Paper_Space
  1

  0
ENDBLK
  5
6E
330
6C
100
AcDbEntity
 67
     1
  8
0
100
AcDbBlockEnd
  0
BLOCK
  5
75
330
74
100
AcDbEntity
 67
     1
  8
0
100
AcDbBlockBegin
  2
*Paper_Space0
 70
     0
 10
0.0
 20
0.0
 30
0.0
  3
*Paper_Space0
  1

  0
ENDBLK
  5
76
330
74
100
AcDbEntity
 67
     1
  8
0
100
AcDbBlockEnd
  0
BLOCK
  5
7C
330
7A
100
AcDbEntity
  8
0
100
AcDbBlockBegin
  2
Block_0
 70
     0
 10
0.0
 20
0.0
 30
0.0
  3
Block_0
  1

  0
INSERT
  5
7F
330
7A
100
AcDbEntity
  8
Sichtbar schmal (ISO)
100
AcDbBlockReference
  2
Block_1
 10
0.0
 20
0.0
 30
0.0
  0
ENDBLK
  5
7D
330
7A
100
AcDbEntity
  8
0
100
AcDbBlockEnd
  0
BLOCK
  5
80
330
7E
100
AcDbEntity
  8
0
100
AcDbBlockBegin
  2
Block_1
 70
     0
 10
0.0
 20
0.0
 30
0.0
  3
Block_1
  1

  0
LINE
  5
82
330
7E
100
AcDbEntity
  8
Sichtbar schmal (ISO)
 62
    18
420
        0
370
     5
100
AcDbLine
 10
63.76909423929319
 20
20.4312141367379
 30
0.0
 11
63.76909423929319
 21
16.13870052358034
 31
0.0
  0
INSERT
  5
84
330
7E
100
AcDbEntity
  8
Sichtbar schmal (ISO)
100
AcDbBlockReference
  2
Block_2
 10
0.0
 20
0.0
 30
0.0
  0
INSERT
  5
8A
330
7E
100
AcDbEntity
  8
Sichtbar schmal (ISO)
100
AcDbBlockReference
  2
Block_3
 10
0.0
 20
0.0
 30
0.0
  0
ENDBLK
  5
81
330
7E
100
AcDbEntity
  8
0
100
AcDbBlockEnd
  0
BLOCK
  5
85
330
83
100
AcDbEntity
  8
0
100
AcDbBlockBegin
  2
Block_2
 70
     0
 10
0.0
 20
0.0
 30
0.0
  3
Block_2
  1

  0
LWPOLYLINE
  5
87
330
83
100
AcDbEntity
  8
Sichtbar schmal (ISO)
100
AcDbPolyline
 90
        3
 70
     1
 43
0.0
 10
63.54778453509775
 20
19.7987605469268
 10
63.76840522019613
 20
21.4799375374394
 10
63.99040394348862
 20
19.7987605469268
  0
HATCH
  5
88
330
83
100
AcDbEntity
  8
Sichtbar schmal (ISO)
 62
    18
420
        0
440
 33554687
100
AcDbHatch
 10
0.0
 20
0.0
 30
0.0
210
0.0
220
0.0
230
1.0
  2
SOLID
 70
     1
 71
     1
 91
        1
 92
        1
 93
        3
 72
     1
 10
63.54778453509775
 20
19.7987605469268
 11
63.76840522019613
 21
21.4799375374394
 72
     1
 10
63.76840522019613
 20
21.4799375374394
 11
63.99040394348862
 21
19.7987605469268
 72
     1
 10
63.99040394348862
 20
19.7987605469268
 11
63.54778453509775
 21
19.7987605469268
 97
        1
330
87
 75
     2
 76
     1
 98
        1
 10
0.0
 20
0.0
450
        0
451
        0
460
0.0
461
0.0
452
        0
462
0.0
453
        0
470

  0
ENDBLK
  5
86
330
83
100
AcDbEntity
  8
0
100
AcDbBlockEnd
  0
BLOCK
  5
8B
330
89
100
AcDbEntity
  8
0
100
AcDbBlockBegin
  2
Block_3
 70
     0
 10
0.0
 20
0.0
 30
0.0
  3
Block_3
  1

  0
LWPOLYLINE
  5
8D
330
89
100
AcDbEntity
  8
Sichtbar schmal (ISO)
100
AcDbPolyline
 90
        3
 70
     1
 43
0.0
 10
63.54778453509775
 20
16.77115545913186
 10
63.76840522019613
 20
15.08997712287884
 10
63.99040394348862
 20
16.77115545913186
  0
HATCH
  5
8E
330
89
100
AcDbEntity
  8
Sichtbar schmal (ISO)
 62
    18
420
        0
440
 33554687
100
AcDbHatch
 10
0.0
 20
0.0
 30
0.0
210
0.0
220
0.0
230
1.0
  2
SOLID
 70
     1
 71
     1
 91
        1
 92
        1
 93
        3
 72
     1
 10
63.54778453509775
 20
16.77115545913186
 11
63.76840522019613
 21
15.08997712287884
 72
     1
 10
63.76840522019613
 20
15.08997712287884
 11
63.99040394348862
 21
16.77115545913186
 72
     1
 10
63.99040394348862
 20
16.77115545913186
 11
63.54778453509775
 21
16.77115545913186
 97
        1
330
8D
 75
     2
 76
     1
 98
        1
 10
0.0
 20
0.0
450
        0
451
        0
460
0.0
461
0.0
452
        0
462
0.0
453
        0
470

  0
ENDBLK
  5
8C
330
89
100
AcDbEntity
  8
0
100
AcDbBlockEnd
  0
BLOCK
  5
91
330
8F
100
AcDbEntity
  8
0
100
AcDbBlockBegin
  2
Block_4
 70
     0
 10
0.0
 20
0.0
 30
0.0
  3
Block_4
  1

  0
INSERT
  5
94
330
8F
100
AcDbEntity
  8
Sichtbar schmal (ISO)
100
AcDbBlockReference
  2
Block_5
 10
0.0
 20
0.0
 30
0.0
  0
ENDBLK
  5
92
330
8F
100
AcDbEntity
  8
0
100
AcDbBlockEnd
  0
BLOCK
  5
95
330
93
100
AcDbEntity
  8
0
100
AcDbBlockBegin
  2
Block_5
 70
     0
 10
0.0
 20
0.0
 30
0.0
  3
Block_5
  1

  0
SPLINE
  5
97
330
93
100
AcDbEntity
  8
Sichtbar schmal (ISO)
100
AcDbSpline
210
0.0
220
0.0
230
1.0
 70
     9
 71
     3
 72
    62
 73
    58
 74
     0
 42
0.0000000001
 43
0.0000000001
 40
0.0
 40
0.0
 40
0.0
 40
0.0
 40
1.0
 40
1.0
 40
1.0
 40
2.0
 40
2.0
 40
2.0
 40
3.0
 40
3.0
 40
3.0
 40
4.0
 40
4.0
 40
4.0
 40
5.0
 40
5.0
 40
5.0
 40
6.0
 40
6.0
 40
6.0
 40
7.0
 40
7.0
 40
7.0
 40
8.0
 40
8.0
 40
8.0
 40
9.0
 40
9.0
 40
9.0
 40
10.0
 40
10.0
 40
10.0
 40
11.0
 40
11.0
 40
11.0
 40
12.0
 40
12.0
 40
12.0
 40
13.0
 40
13.0
 40
13.0
 40
14.0
 40
14.0
 40
14.0
 40
15.0
 40
15.0
 40
15.0
 40
16.0
 40
16.0
 40
16.0
 40
17.0
 40
17.0
 40
17.0
 40
18.0
 40
18.0
 40
18.0
 40
19.0
 40
19.0
 40
19.0
 40
19.0
 10
65.89330781772807
 20
17.02497286900765
 30
0.0
 10
66.15272350776738
 20
17.03324109817225
 30
0.0
 10
66.33324651119448
 20
17.17724608945569
 30
0.0
 10
66.33324651119448
 20
17.45078667098453
 30
0.0
 10
66.33324651119448
 20
17.68505316398151
 30
0.0
 10
66.18648544352282
 20
17.88521321167453
 30
0.0
 10
65.94670679774944
 20
17.88521321167453
 30
0.0
 10
65.69590384642324
 20
17.88521321167453
 30
0.0
 10
65.56326767024113
 20
17.69607746953431
 30
0.0
 10
65.56326767024113
 20
17.45905490014912
 30
0.0
 10
65.56326767024113
 20
17.40841199651595
 30
0.0
 10
65.56602374662933
 20
17.36052516927098
 30
0.0
 10
65.57153589940573
 20
17.31539441841421
 30
0.0
 10
65.57153589940573
 20
17.31539441841421
 30
0.0
 10
65.36861977532452
 20
17.31539441841421
 30
0.0
 10
65.36861977532452
 20
17.31539441841421
 30
0.0
 10
65.37137585171271
 20
17.33503146268013
 30
0.0
 10
65.37137585171271
 20
17.35225694010638
 30
0.0
 10
65.37137585171271
 20
17.36879339843558
 30
0.0
 10
65.37137585171271
 20
17.36879339843558
 30
0.0
 10
65.37137585171271
 20
17.41978081161728
 30
0.0
 10
65.37137585171271
 20
17.41978081161728
 30
0.0
 10
65.37137585171271
 20
17.62304144524702
 30
0.0
 10
65.25872122934504
 20
17.80046386273738
 30
0.0
 10
65.04409178061398
 20
17.80046386273738
 30
0.0
 10
64.83256291781964
 20
17.80046386273738
 30
0.0
 10
64.72266437184017
 20
17.64819064228934
 30
0.0
 10
64.72266437184017
 20
17.44527451820812
 30
0.0
 10
64.72266437184017
 20
17.18551431862029
 30
0.0
 10
64.92282441953318
 20
17.06700303392769
 30
0.0
 10
65.15709091253018
 20
17.06700303392769
 30
0.0
 10
65.15709091253018
 20
17.06700303392769
 30
0.0
 10
65.15709091253018
 20
16.8272243881543
 30
0.0
 10
65.15709091253018
 20
16.8272243881543
 30
0.0
 10
64.77606335186154
 20
16.84169378919235
 30
0.0
 10
64.51113550904583
 20
17.04460991327357
 30
0.0
 10
64.51113550904583
 20
17.44527451820812
 30
0.0
 10
64.51113550904583
 20
17.79185112402426
 30
0.0
 10
64.67753362098339
 20
18.0543674000003
 30
0.0
 10
65.04684785700217
 20
18.0543674000003
 30
0.0
 10
65.22461478404107
 20
18.0543674000003
 30
0.0
 10
65.37413192810091
 20
17.9331000389195
 30
0.0
 10
65.44475638554853
 20
17.77807074208326
 30
0.0
 10
65.44475638554853
 20
17.77807074208326
 30
0.0
 10
65.45026853832493
 20
17.77807074208326
 30
0.0
 10
65.45026853832493
 20
17.77807074208326
 30
0.0
 10
65.50401202789483
 20
18.02336154063305
 30
0.0
 10
65.69590384642324
 20
18.13911674893744
 30
0.0
 10
65.93568249219663
 20
18.13911674893744
 30
0.0
 10
66.33324651119448
 20
18.13911674893744
 30
0.0
 10
66.54477537398881
 20
17.82595756932823
 30
0.0
 10
66.54477537398881
 20
17.45078667098453
 30
0.0
 10
66.54477537398881
 20
17.04460991327357
 30
0.0
 10
66.30775280460362
 20
16.77658148452113
 30
0.0
 10
65.89330781772807
 20
16.78519422323425
 30
0.0
 10
65.89330781772807
 20
16.78519422323425
 30
0.0
 10
65.89330781772807
 20
17.02497286900765
 30
0.0
 10
65.89330781772807
 20
17.02497286900765
 30
0.0
  0
HATCH
  5
98
330
93
100
AcDbEntity
  8
Sichtbar schmal (ISO)
 62
    18
420
        0
440
 33554687
100
AcDbHatch
 10
0.0
 20
0.0
 30
0.0
210
0.0
220
0.0
230
1.0
  2
SOLID
 70
     1
 71
     1
 91
        1
 92
        1
 93
        1
 72
     4
 94
        3
 73
     0
 74
     0
 95
       62
 96
       58
 40
0.0
 40
0.0
 40
0.0
 40
0.0
 40
1.0
 40
1.0
 40
1.0
 40
2.0
 40
2.0
 40
2.0
 40
3.0
 40
3.0
 40
3.0
 40
4.0
 40
4.0
 40
4.0
 40
5.0
 40
5.0
 40
5.0
 40
6.0
 40
6.0
 40
6.0
 40
7.0
 40
7.0
 40
7.0
 40
8.0
 40
8.0
 40
8.0
 40
9.0
 40
9.0
 40
9.0
 40
10.0
 40
10.0
 40
10.0
 40
11.0
 40
11.0
 40
11.0
 40
12.0
 40
12.0
 40
12.0
 40
13.0
 40
13.0
 40
13.0
 40
14.0
 40
14.0
 40
14.0
 40
15.0
 40
15.0
 40
15.0
 40
16.0
 40
16.0
 40
16.0
 40
17.0
 40
17.0
 40
17.0
 40
18.0
 40
18.0
 40
18.0
 40
19.0
 40
19.0
 40
19.0
 40
19.0
 10
65.89330781772807
 20
17.02497286900765
 10
66.15272350776738
 20
17.03324109817225
 10
66.33324651119448
 20
17.17724608945569
 10
66.33324651119448
 20
17.45078667098453
 10
66.33324651119448
 20
17.68505316398151
 10
66.18648544352282
 20
17.88521321167453
 10
65.94670679774944
 20
17.88521321167453
 10
65.69590384642324
 20
17.88521321167453
 10
65.56326767024113
 20
17.69607746953431
 10
65.56326767024113
 20
17.45905490014912
 10
65.56326767024113
 20
17.40841199651595
 10
65.56602374662933
 20
17.36052516927098
 10
65.57153589940573
 20
17.31539441841421
 10
65.57153589940573
 20
17.31539441841421
 10
65.36861977532452
 20
17.31539441841421
 10
65.36861977532452
 20
17.31539441841421
 10
65.37137585171271
 20
17.33503146268013
 10
65.37137585171271
 20
17.35225694010638
 10
65.37137585171271
 20
17.36879339843558
 10
65.37137585171271
 20
17.36879339843558
 10
65.37137585171271
 20
17.41978081161728
 10
65.37137585171271
 20
17.41978081161728
 10
65.37137585171271
 20
17.62304144524702
 10
65.25872122934504
 20
17.80046386273738
 10
65.04409178061398
 20
17.80046386273738
 10
64.83256291781964
 20
17.80046386273738
 10
64.72266437184017
 20
17.64819064228934
 10
64.72266437184017
 20
17.44527451820812
 10
64.72266437184017
 20
17.18551431862029
 10
64.92282441953318
 20
17.06700303392769
 10
65.15709091253018
 20
17.06700303392769
 10
65.15709091253018
 20
17.06700303392769
 10
65.15709091253018
 20
16.8272243881543
 10
65.15709091253018
 20
16.8272243881543
 10
64.77606335186154
 20
16.84169378919235
 10
64.51113550904583
 20
17.04460991327357
 10
64.51113550904583
 20
17.44527451820812
 10
64.51113550904583
 20
17.79185112402426
 10
64.67753362098339
 20
18.0543674000003
 10
65.04684785700217
 20
18.0543674000003
 10
65.22461478404107
 20
18.0543674000003
 10
65.37413192810091
 20
17.9331000389195
 10
65.44475638554853
 20
17.77807074208326
 10
65.44475638554853
 20
17.77807074208326
 10
65.45026853832493
 20
17.77807074208326
 10
65.45026853832493
 20
17.77807074208326
 10
65.50401202789483
 20
18.02336154063305
 10
65.69590384642324
 20
18.13911674893744
 10
65.93568249219663
 20
18.13911674893744
 10
66.33324651119448
 20
18.13911674893744
 10
66.54477537398881
 20
17.82595756932823
 10
66.54477537398881
 20
17.45078667098453
 10
66.54477537398881
 20
17.04460991327357
 10
66.30775280460362
 20
16.77658148452113
 10
65.89330781772807
 20
16.78519422323425
 10
65.89330781772807
 20
16.78519422323425
 10
65.89330781772807
 20
17.02497286900765
 10
65.89330781772807
 20
17.02497286900765
 97
        0
 97
        1
330
97
 75
     2
 76
     1
 98
        1
 10
0.0
 20
0.0
450
        0
451
        0
460
0.0
461
0.0
452
        0
462
0.0
453
        0
470

  0
SPLINE
  5
99
330
93
100
AcDbEntity
  8
Sichtbar schmal (ISO)
100
AcDbSpline
210
0.0
220
0.0
230
1.0
 70
     9
 71
     3
 72
    53
 73
    49
 74
     0
 42
0.0000000001
 43
0.0000000001
 40
0.0
 40
0.0
 40
0.0
 40
0.0
 40
1.0
 40
1.0
 40
1.0
 40
2.0
 40
2.0
 40
2.0
 40
3.0
 40
3.0
 40
3.0
 40
4.0
 40
4.0
 40
4.0
 40
5.0
 40
5.0
 40
5.0
 40
6.0
 40
6.0
 40
6.0
 40
7.0
 40
7.0
 40
7.0
 40
8.0
 40
8.0
 40
8.0
 40
9.0
 40
9.0
 40
9.0
 40
10.0
 40
10.0
 40
10.0
 40
11.0
 40
11.0
 40
11.0
 40
12.0
 40
12.0
 40
12.0
 40
13.0
 40
13.0
 40
13.0
 40
14.0
 40
14.0
 40
14.0
 40
15.0
 40
15.0
 40
15.0
 40
16.0
 40
16.0
 40
16.0
 40
16.0
 10
65.97220050434029
 20
18.60833875402847
 30
0.0
 10
66.17821721435823
 20
18.62211913596947
 30
0.0
 10
66.33324651119448
 20
18.78886175745556
 30
0.0
 10
66.33324651119448
 20
19.02864040322895
 30
0.0
 10
66.33324651119448
 20
19.25670572435249
 30
0.0
 10
66.17511662842151
 20
19.45169812881763
 30
0.0
 10
65.8592013724241
 20
19.45169812881763
 30
0.0
 10
65.59702960599658
 20
19.45169812881763
 30
0.0
 10
65.40513778746817
 20
19.27117512539054
 30
0.0
 10
65.40513778746817
 20
19.0003906202499
 30
0.0
 10
65.40513778746817
 20
18.84501681386513
 30
0.0
 10
65.48127439769219
 20
18.72099337639614
 30
0.0
 10
65.59427352960837
 20
18.6279757982944
 30
0.0
 10
65.59427352960837
 20
18.6279757982944
 30
0.0
 10
65.58290471450705
 20
18.42195908827645
 30
0.0
 10
65.58290471450705
 20
18.42195908827645
 30
0.0
 10
65.58290471450705
 20
18.42195908827645
 30
0.0
 10
64.54489744480127
 20
18.60833875402847
 30
0.0
 10
64.54489744480127
 20
18.60833875402847
 30
0.0
 10
64.54489744480127
 20
18.60833875402847
 30
0.0
 10
64.54489744480127
 20
19.59535861055255
 30
0.0
 10
64.54489744480127
 20
19.59535861055255
 30
0.0
 10
64.54489744480127
 20
19.59535861055255
 30
0.0
 10
64.75642630759562
 20
19.59535861055255
 30
0.0
 10
64.75642630759562
 20
19.59535861055255
 30
0.0
 10
64.75642630759562
 20
19.59535861055255
 30
0.0
 10
64.75642630759562
 20
18.78886175745556
 30
0.0
 10
64.75642630759562
 20
18.78886175745556
 30
0.0
 10
64.75642630759562
 20
18.78886175745556
 30
0.0
 10
65.33175725363235
 20
18.68137477831577
 30
0.0
 10
65.33175725363235
 20
18.68137477831577
 30
0.0
 10
65.33175725363235
 20
18.68137477831577
 30
0.0
 10
65.33761391595726
 20
18.68723144064069
 30
0.0
 10
65.33761391595726
 20
18.68723144064069
 30
0.0
 10
65.23873967553059
 20
18.77439235641751
 30
0.0
 10
65.19360892467382
 20
18.92390950047736
 30
0.0
 10
65.19360892467382
 20
19.0596462625962
 30
0.0
 10
65.19360892467382
 20
19.41483560712546
 30
0.0
 10
65.41926267895769
 20
19.70525715653202
 30
0.0
 10
65.87918292623854
 20
19.70525715653202
 30
0.0
 10
66.21749130289007
 20
19.70525715653202
 30
0.0
 10
66.54477537398881
 20
19.47133517308355
 30
0.0
 10
66.54477537398881
 20
19.0059027730263
 30
0.0
 10
66.54477537398881
 20
18.65898165766164
 30
0.0
 10
66.33324651119448
 20
18.37682833741968
 30
0.0
 10
65.97220050434029
 20
18.36856010825508
 30
0.0
 10
65.97220050434029
 20
18.36856010825508
 30
0.0
 10
65.97220050434029
 20
18.60833875402847
 30
0.0
 10
65.97220050434029
 20
18.60833875402847
 30
0.0
  0
HATCH
  5
9A
330
93
100
AcDbEntity
  8
Sichtbar schmal (ISO)
 62
    18
420
        0
440
 33554687
100
AcDbHatch
 10
0.0
 20
0.0
 30
0.0
210
0.0
220
0.0
230
1.0
  2
SOLID
 70
     1
 71
     1
 91
        1
 92
        1
 93
        1
 72
     4
 94
        3
 73
     0
 74
     0
 95
       53
 96
       49
 40
0.0
 40
0.0
 40
0.0
 40
0.0
 40
1.0
 40
1.0
 40
1.0
 40
2.0
 40
2.0
 40
2.0
 40
3.0
 40
3.0
 40
3.0
 40
4.0
 40
4.0
 40
4.0
 40
5.0
 40
5.0
 40
5.0
 40
6.0
 40
6.0
 40
6.0
 40
7.0
 40
7.0
 40
7.0
 40
8.0
 40
8.0
 40
8.0
 40
9.0
 40
9.0
 40
9.0
 40
10.0
 40
10.0
 40
10.0
 40
11.0
 40
11.0
 40
11.0
 40
12.0
 40
12.0
 40
12.0
 40
13.0
 40
13.0
 40
13.0
 40
14.0
 40
14.0
 40
14.0
 40
15.0
 40
15.0
 40
15.0
 40
16.0
 40
16.0
 40
16.0
 40
16.0
 10
65.97220050434029
 20
18.60833875402847
 10
66.17821721435823
 20
18.62211913596947
 10
66.33324651119448
 20
18.78886175745556
 10
66.33324651119448
 20
19.02864040322895
 10
66.33324651119448
 20
19.25670572435249
 10
66.17511662842151
 20
19.45169812881763
 10
65.8592013724241
 20
19.45169812881763
 10
65.59702960599658
 20
19.45169812881763
 10
65.40513778746817
 20
19.27117512539054
 10
65.40513778746817
 20
19.0003906202499
 10
65.40513778746817
 20
18.84501681386513
 10
65.48127439769219
 20
18.72099337639614
 10
65.59427352960837
 20
18.6279757982944
 10
65.59427352960837
 20
18.6279757982944
 10
65.58290471450705
 20
18.42195908827645
 10
65.58290471450705
 20
18.42195908827645
 10
65.58290471450705
 20
18.42195908827645
 10
64.54489744480127
 20
18.60833875402847
 10
64.54489744480127
 20
18.60833875402847
 10
64.54489744480127
 20
18.60833875402847
 10
64.54489744480127
 20
19.59535861055255
 10
64.54489744480127
 20
19.59535861055255
 10
64.54489744480127
 20
19.59535861055255
 10
64.75642630759562
 20
19.59535861055255
 10
64.75642630759562
 20
19.59535861055255
 10
64.75642630759562
 20
19.59535861055255
 10
64.75642630759562
 20
18.78886175745556
 10
64.75642630759562
 20
18.78886175745556
 10
64.75642630759562
 20
18.78886175745556
 10
65.33175725363235
 20
18.68137477831577
 10
65.33175725363235
 20
18.68137477831577
 10
65.33175725363235
 20
18.68137477831577
 10
65.33761391595726
 20
18.68723144064069
 10
65.33761391595726
 20
18.68723144064069
 10
65.23873967553059
 20
18.77439235641751
 10
65.19360892467382
 20
18.92390950047736
 10
65.19360892467382
 20
19.0596462625962
 10
65.19360892467382
 20
19.41483560712546
 10
65.41926267895769
 20
19.70525715653202
 10
65.87918292623854
 20
19.70525715653202
 10
66.21749130289007
 20
19.70525715653202
 10
66.54477537398881
 20
19.47133517308355
 10
66.54477537398881
 20
19.0059027730263
 10
66.54477537398881
 20
18.65898165766164
 10
66.33324651119448
 20
18.37682833741968
 10
65.97220050434029
 20
18.36856010825508
 10
65.97220050434029
 20
18.36856010825508
 10
65.97220050434029
 20
18.60833875402847
 10
65.97220050434029
 20
18.60833875402847
 97
        0
 97
        1
330
99
 75
     2
 76
     1
 98
        1
 10
0.0
 20
0.0
450
        0
451
        0
460
0.0
461
0.0
452
        0
462
0.0
453
        0
470

  0
ENDBLK
  5
96
330
93
100
AcDbEntity
  8
0
100
AcDbBlockEnd
  0
BLOCK
  5
9E
330
9C
100
AcDbEntity
  8
0
100
AcDbBlockBegin
  2
Block_6
 70
     0
 10
0.0
 20
0.0
 30
0.0
  3
Block_6
  1

  0
SPLINE
  5
A0
330
9C
100
AcDbEntity
  8
Sichtbar (ISO)
100
AcDbSpline
210
0.0
220
0.0
230
1.0
 70
     8
 71
     3
 72
    38
 73
    34
 74
     0
 42
0.0000000001
 43
0.0000000001
 40
0.0
 40
0.0
 40
0.0
 40
0.0
 40
1.0
 40
1.0
 40
1.0
 40
2.0
 40
2.0
 40
2.0
 40
3.0
 40
3.0
 40
3.0
 40
4.0
 40
4.0
 40
4.0
 40
5.0
 40
5.0
 40
5.0
 40
6.0
 40
6.0
 40
6.0
 40
7.0
 40
7.0
 40
7.0
 40
8.0
 40
8.0
 40
8.0
 40
9.0
 40
9.0
 40
9.0
 40
10.0
 40
10.0
 40
10.0
 40
11.0
 40
11.0
 40
11.0
 40
11.0
 10
52.51353119642054
 20
81.74796452655145
 30
0.0
 10
52.51353119642054
 20
81.74796452655145
 30
0.0
 10
52.95021313659912
 20
81.74796452655145
 30
0.0
 10
52.95021313659912
 20
81.74796452655145
 30
0.0
 10
52.95021313659912
 20
81.74796452655145
 30
0.0
 10
52.95021313659912
 20
77.82343062016209
 30
0.0
 10
52.95021313659912
 20
77.82343062016209
 30
0.0
 10
52.95021313659912
 20
77.82343062016209
 30
0.0
 10
52.95021313659912
 20
77.42978270945011
 30
0.0
 10
52.95021313659912
 20
77.42978270945011
 30
0.0
 10
52.95021313659912
 20
77.0532249255683
 30
0.0
 10
52.65694939046308
 20
76.74796452780196
 30
0.0
 10
52.29519022633062
 20
76.74796452780196
 30
0.0
 10
52.29519022633062
 20
76.74796452780196
 30
0.0
 10
10.15538299912973
 20
76.74796452780196
 30
0.0
 10
10.15538299912973
 20
76.74796452780196
 30
0.0
 10
9.793623835000163
 20
76.74796452780196
 30
0.0
 10
9.500360088862201
 20
77.0532249255683
 30
0.0
 10
9.500360088862201
 20
77.42978270945011
 30
0.0
 10
9.500360088862201
 20
77.42978270945011
 30
0.0
 10
9.500360088862201
 20
77.82343062016209
 30
0.0
 10
9.500360088862201
 20
77.82343062016209
 30
0.0
 10
9.500360088862201
 20
77.82343062016209
 30
0.0
 10
9.500360088862201
 20
81.74796452655145
 30
0.0
 10
9.500360088862201
 20
81.74796452655145
 30
0.0
 10
9.500360088862201
 20
81.74796452655145
 30
0.0
 10
9.937042029041091
 20
81.74796452655145
 30
0.0
 10
9.937042029041091
 20
81.74796452655145
 30
0.0
 10
9.937042029041091
 20
81.74796452655145
 30
0.0
 10
9.95887612604957
 20
81.74796452655145
 30
0.0
 10
9.95887612604957
 20
81.74796452655145
 30
0.0
 10
9.95887612604957
 20
81.74796452655145
 30
0.0
 10
52.4916970994111
 20
81.74796452655145
 30
0.0
 10
52.4916970994111
 20
81.74796452655145
 30
0.0
  0
HATCH
  5
A1
330
9C
100
AcDbEntity
  8
Sichtbar (ISO)
 62
   254
420
 14606046
440
 33554687
100
AcDbHatch
 10
0.0
 20
0.0
 30
0.0
210
0.0
220
0.0
230
1.0
  2
SOLID
 70
     1
 71
     1
 91
        1
 92
        1
 93
        2
 72
     4
 94
        3
 73
     0
 74
     0
 95
       38
 96
       34
 40
0.0
 40
0.0
 40
0.0
 40
0.0
 40
1.0
 40
1.0
 40
1.0
 40
2.0
 40
2.0
 40
2.0
 40
3.0
 40
3.0
 40
3.0
 40
4.0
 40
4.0
 40
4.0
 40
5.0
 40
5.0
 40
5.0
 40
6.0
 40
6.0
 40
6.0
 40
7.0
 40
7.0
 40
7.0
 40
8.0
 40
8.0
 40
8.0
 40
9.0
 40
9.0
 40
9.0
 40
10.0
 40
10.0
 40
10.0
 40
11.0
 40
11.0
 40
11.0
 40
11.0
 10
52.51353119642054
 20
81.74796452655145
 10
52.51353119642054
 20
81.74796452655145
 10
52.95021313659912
 20
81.74796452655145
 10
52.95021313659912
 20
81.74796452655145
 10
52.95021313659912
 20
81.74796452655145
 10
52.95021313659912
 20
77.82343062016209
 10
52.95021313659912
 20
77.82343062016209
 10
52.95021313659912
 20
77.82343062016209
 10
52.95021313659912
 20
77.42978270945011
 10
52.95021313659912
 20
77.42978270945011
 10
52.95021313659912
 20
77.0532249255683
 10
52.65694939046308
 20
76.74796452780196
 10
52.29519022633062
 20
76.74796452780196
 10
52.29519022633062
 20
76.74796452780196
 10
10.15538299912973
 20
76.74796452780196
 10
10.15538299912973
 20
76.74796452780196
 10
9.793623835000163
 20
76.74796452780196
 10
9.500360088862201
 20
77.0532249255683
 10
9.500360088862201
 20
77.42978270945011
 10
9.500360088862201
 20
77.42978270945011
 10
9.500360088862201
 20
77.82343062016209
 10
9.500360088862201
 20
77.82343062016209
 10
9.500360088862201
 20
77.82343062016209
 10
9.500360088862201
 20
81.74796452655145
 10
9.500360088862201
 20
81.74796452655145
 10
9.500360088862201
 20
81.74796452655145
 10
9.937042029041091
 20
81.74796452655145
 10
9.937042029041091
 20
81.74796452655145
 10
9.937042029041091
 20
81.74796452655145
 10
9.95887612604957
 20
81.74796452655145
 10
9.95887612604957
 20
81.74796452655145
 10
9.95887612604957
 20
81.74796452655145
 10
52.4916970994111
 20
81.74796452655145
 10
52.4916970994111
 20
81.74796452655145
 97
        0
 72
     1
 10
52.49169709941111
 20
81.74796452655145
 11
52.51353119642054
 21
81.74796452655145
 97
        0
 75
     2
 76
     1
 98
        1
 10
0.0
 20
0.0
450
        0
451
        0
460
0.0
461
0.0
452
        0
462
0.0
453
        0
470

  0
ENDBLK
  5
9F
330
9C
100
AcDbEntity
  8
0
100
AcDbBlockEnd
  0
BLOCK
  5
CB
330
C9
100
AcDbEntity
  8
0
100
AcDbBlockBegin
  2
Block_7
 70
     0
 10
0.0
 20
0.0
 30
0.0
  3
Block_7
  1

  0
LINE
  5
CD
330
C9
100
AcDbEntity
  8
Sichtbar (ISO)
 62
    18
420
        0
370
     5
100
AcDbLine
 10
42.74800383497466
 20
15.06497383842886
 30
0.0
 11
52.93338312869618
 21
15.06102836928463
 31
0.0
  0
LINE
  5
CE
330
C9
100
AcDbEntity
  8
Sichtbar (ISO)
 62
    18
420
        0
370
     5
100
AcDbLine
 10
9.524232669690317
 20
15.07768084310654
 30
0.0
 11
19.45894972913379
 21
15.10196965244146
 31
0.0
  0
ENDBLK
  5
CC
330
C9
100
AcDbEntity
  8
0
100
AcDbBlockEnd
  0
BLOCK
  5
D8
330
D6
100
AcDbEntity
  8
0
100
AcDbBlockBegin
  2
Block_8
 70
     0
 10
0.0
 20
0.0
 30
0.0
  3
Block_8
  1

  0
INSERT
  5
DB
330
D6
100
AcDbEntity
  8
Sichtbar (ISO)
100
AcDbBlockReference
  2
Block_9
 10
0.0
 20
0.0
 30
0.0
  0
ENDBLK
  5
D9
330
D6
100
AcDbEntity
  8
0
100
AcDbBlockEnd
  0
BLOCK
  5
DC
330
DA
100
AcDbEntity
  8
0
100
AcDbBlockBegin
  2
Block_9
 70
     0
 10
0.0
 20
0.0
 30
0.0
  3
Block_9
  1

  0
LINE
  5
DE
330
DA
100
AcDbEntity
  8
Sichtbar (ISO)
 62
    18
420
        0
370
     5
100
AcDbLine
 10
70.78356164646155
 20
57.44005549372375
 30
0.0
 11
70.78628004211788
 21
16.14205545445719
 31
0.0
  0
INSERT
  5
E0
330
DA
100
AcDbEntity
  8
Sichtbar (ISO)
100
AcDbBlockReference
  2
Block_10
 10
0.0
 20
0.0
 30
0.0
  0
INSERT
  5
E6
330
DA
100
AcDbEntity
  8
Sichtbar (ISO)
100
AcDbBlockReference
  2
Block_11
 10
0.0
 20
0.0
 30
0.0
  0
ENDBLK
  5
DD
330
DA
100
AcDbEntity
  8
0
100
AcDbBlockEnd
  0
BLOCK
  5
E1
330
DF
100
AcDbEntity
  8
0
100
AcDbBlockBegin
  2
Block_10
 70
     0
 10
0.0
 20
0.0
 30
0.0
  3
Block_10
  1

  0
LWPOLYLINE
  5
E3
330
DF
100
AcDbEntity
  8
Sichtbar (ISO)
100
AcDbPolyline
 90
        3
 70
     1
 43
0.0
 10
70.56229500595968
 20
56.80758979224884
 10
70.78280803182416
 20
58.48878024016567
 10
71.00491441435055
 20
56.80761670705732
  0
HATCH
  5
E4
330
DF
100
AcDbEntity
  8
Sichtbar (ISO)
 62
    18
420
        0
440
 33554687
100
AcDbHatch
 10
0.0
 20
0.0
 30
0.0
210
0.0
220
0.0
230
1.0
  2
SOLID
 70
     1
 71
     1
 91
        1
 92
        1
 93
        3
 72
     1
 10
70.56229500595968
 20
56.80758979224884
 11
70.78280803182416
 21
58.48878024016567
 72
     1
 10
70.78280803182416
 20
58.48878024016567
 11
71.00491441435055
 21
56.80761670705732
 72
     1
 10
71.00491441435055
 20
56.80761670705732
 11
70.56229500595968
 21
56.80758979224884
 97
        1
330
E3
 75
     2
 76
     1
 98
        1
 10
0.0
 20
0.0
450
        0
451
        0
460
0.0
461
0.0
452
        0
462
0.0
453
        0
470

  0
ENDBLK
  5
E2
330
DF
100
AcDbEntity
  8
0
100
AcDbBlockEnd
  0
BLOCK
  5
E7
330
E5
100
AcDbEntity
  8
0
100
AcDbBlockBegin
  2
Block_11
 70
     0
 10
0.0
 20
0.0
 30
0.0
  3
Block_11
  1

  0
LWPOLYLINE
  5
E9
330
E5
100
AcDbEntity
  8
Sichtbar (ISO)
100
AcDbPolyline
 90
        3
 70
     1
 43
0.0
 10
70.56492727422889
 20
16.77449558686405
 10
70.78566100152288
 20
15.09333205375569
 10
71.00755206558145
 20
16.77452519315337
  0
HATCH
  5
EA
330
E5
100
AcDbEntity
  8
Sichtbar (ISO)
 62
    18
420
        0
440
 33554687
100
AcDbHatch
 10
0.0
 20
0.0
 30
0.0
210
0.0
220
0.0
230
1.0
  2
SOLID
 70
     1
 71
     1
 91
        1
 92
        1
 93
        3
 72
     1
 10
70.56492727422889
 20
16.77449558686405
 11
70.78566100152288
 21
15.09333205375569
 72
     1
 10
70.78566100152288
 20
15.09333205375569
 11
71.00755206558145
 21
16.77452519315337
 72
     1
 10
71.00755206558145
 20
16.77452519315337
 11
70.56492727422889
 21
16.77449558686405
 97
        1
330
E9
 75
     2
 76
     1
 98
        1
 10
0.0
 20
0.0
450
        0
451
        0
460
0.0
461
0.0
452
        0
462
0.0
453
        0
470

  0
ENDBLK
  5
E8
330
E5
100
AcDbEntity
  8
0
100
AcDbBlockEnd
  0
BLOCK
  5
F0
330
EE
100
AcDbEntity
  8
0
100
AcDbBlockBegin
  2
Block_12
 70
     0
 10
0.0
 20
0.0
 30
0.0
  3
Block_12
  1

  0
INSERT
  5
F3
330
EE
100
AcDbEntity
  8
Sichtbar (ISO)
100
AcDbBlockReference
  2
Block_13
 10
0.0
 20
0.0
 30
0.0
  0
ENDBLK
  5
F1
330
EE
100
AcDbEntity
  8
0
100
AcDbBlockEnd
  0
BLOCK
  5
F4
330
F2
100
AcDbEntity
  8
0
100
AcDbBlockBegin
  2
Block_13
 70
     0
 10
0.0
 20
0.0
 30
0.0
  3
Block_13
  1

  0
LINE
  5
F6
330
F2
100
AcDbEntity
  8
Sichtbar (ISO)
 62
    18
420
        0
370
     5
100
AcDbLine
 10
78.05040921273295
 20
58.62668095288618
 30
0.0
 11
78.00132736799153
 21
14.99786791956325
 31
0.0
  0
INSERT
  5
F8
330
F2
100
AcDbEntity
  8
Sichtbar (ISO)
100
AcDbBlockReference
  2
Block_14
 10
0.0
 20
0.0
 30
0.0
  0
INSERT
  5
FE
330
F2
100
AcDbEntity
  8
Sichtbar (ISO)
100
AcDbBlockReference
  2
Block_15
 10
0.0
 20
0.0
 30
0.0
  0
ENDBLK
  5
F5
330
F2
100
AcDbEntity
  8
0
100
AcDbBlockEnd
  0
BLOCK
  5
F9
330
F7
100
AcDbEntity
  8
0
100
AcDbBlockBegin
  2
Block_14
 70
     0
 10
0.0
 20
0.0
 30
0.0
  3
Block_14
  1

  0
LWPOLYLINE
  5
FB
330
F7
100
AcDbEntity
  8
Sichtbar (ISO)
100
AcDbPolyline
 90
        3
 70
     1
 43
0.0
 10
77.82838357463198
 20
57.99447363357267
 10
78.05089906224726
 20
59.67540031636642
 10
78.27100836598456
 20
57.99397840109667
  0
HATCH
  5
FC
330
F7
100
AcDbEntity
  8
Sichtbar (ISO)
 62
    18
420
        0
440
 33554687
100
AcDbHatch
 10
0.0
 20
0.0
 30
0.0
210
0.0
220
0.0
230
1.0
  2
SOLID
 70
     1
 71
     1
 91
        1
 92
        1
 93
        3
 72
     1
 10
77.82838357463198
 20
57.99447363357267
 11
78.05089906224726
 21
59.67540031636642
 72
     1
 10
78.05089906224726
 20
59.67540031636642
 11
78.27100836598456
 21
57.99397840109667
 72
     1
 10
78.27100836598456
 20
57.99397840109667
 11
77.82838357463198
 21
57.99447363357267
 97
        1
330
FB
 75
     2
 76
     1
 98
        1
 10
0.0
 20
0.0
450
        0
451
        0
460
0.0
461
0.0
452
        0
462
0.0
453
        0
470

  0
ENDBLK
  5
FA
330
F7
100
AcDbEntity
  8
0
100
AcDbBlockEnd
  0
BLOCK
  5
FF
330
FD
100
AcDbEntity
  8
0
100
AcDbBlockBegin
  2
Block_15
 70
     0
 10
0.0
 20
0.0
 30
0.0
  3
Block_15
  1

  0
LWPOLYLINE
  5
101
330
FD
100
AcDbEntity
  8
Sichtbar (ISO)
100
AcDbPolyline
 90
        3
 70
     1
 43
0.0
 10
77.78072821473994
 20
15.63057047135277
 10
77.99945948028312
 20
13.94914586460218
 10
78.2233530060925
 20
15.63007254739592
  0
HATCH
  5
102
330
FD
100
AcDbEntity
  8
Sichtbar (ISO)
 62
    18
420
        0
440
 33554687
100
AcDbHatch
 10
0.0
 20
0.0
 30
0.0
210
0.0
220
0.0
230
1.0
  2
SOLID
 70
     1
 71
     1
 91
        1
 92
        1
 93
        3
 72
     1
 10
77.78072821473994
 20
15.63057047135277
 11
77.99945948028312
 21
13.94914586460218
 72
     1
 10
77.99945948028312
 20
13.94914586460218
 11
78.2233530060925
 21
15.63007254739592
 72
     1
 10
78.2233530060925
 20
15.63007254739592
 11
77.78072821473994
 21
15.63057047135277
 97
        1
330
101
 75
     2
 76
     1
 98
        1
 10
0.0
 20
0.0
450
        0
451
        0
460
0.0
461
0.0
452
        0
462
0.0
453
        0
470

  0
ENDBLK
  5
100
330
FD
100
AcDbEntity
  8
0
100
AcDbBlockEnd
  0
BLOCK
  5
106
330
104
100
AcDbEntity
  8
0
100
AcDbBlockBegin
  2
Block_16
 70
     0
 10
0.0
 20
0.0
 30
0.0
  3
Block_16
  1

  0
SPLINE
  5
108
330
104
100
AcDbEntity
  8
Sichtbar (ISO)
100
AcDbSpline
210
0.0
220
0.0
230
1.0
 70
    11
 71
     3
 72
    17
 73
    13
 74
     0
 42
0.0000000001
 43
0.0000000001
 40
0.0
 40
0.0
 40
0.0
 40
0.0
 40
1.0
 40
1.0
 40
1.0
 40
2.0
 40
2.0
 40
2.0
 40
3.0
 40
3.0
 40
3.0
 40
4.0
 40
4.0
 40
4.0
 40
4.0
 10
73.55554468647223
 20
34.83818358504045
 30
0.0
 10
73.55554468647223
 20
34.83818358504045
 30
0.0
 10
71.89431964348476
 20
34.83818358504045
 30
0.0
 10
71.89431964348476
 20
34.83818358504045
 30
0.0
 10
71.89431964348476
 20
34.83818358504045
 30
0.0
 10
71.89431964348476
 20
33.17971461844118
 30
0.0
 10
71.89431964348476
 20
33.17971461844118
 30
0.0
 10
71.89431964348476
 20
33.17971461844118
 30
0.0
 10
73.55554468647223
 20
33.17971461844118
 30
0.0
 10
73.55554468647223
 20
33.17971461844118
 30
0.0
 10
73.55554468647223
 20
33.17971461844118
 30
0.0
 10
73.55554468647223
 20
34.83818358504045
 30
0.0
 10
73.55554468647223
 20
34.83818358504045
 30
0.0
  0
SPLINE
  5
109
330
104
100
AcDbEntity
  8
Sichtbar (ISO)
100
AcDbSpline
210
0.0
220
0.0
230
1.0
 70
    11
 71
     3
 72
    17
 73
    13
 74
     0
 42
0.0000000001
 43
0.0000000001
 40
0.0
 40
0.0
 40
0.0
 40
0.0
 40
1.0
 40
1.0
 40
1.0
 40
2.0
 40
2.0
 40
2.0
 40
3.0
 40
3.0
 40
3.0
 40
4.0
 40
4.0
 40
4.0
 40
4.0
 10
71.6686658892009
 20
32.95096027822059
 30
0.0
 10
71.6686658892009
 20
32.95096027822059
 30
0.0
 10
71.6686658892009
 20
35.06383733932433
 30
0.0
 10
71.6686658892009
 20
35.06383733932433
 30
0.0
 10
71.6686658892009
 20
35.06383733932433
 30
0.0
 10
73.78395451714429
 20
35.06383733932433
 30
0.0
 10
73.78395451714429
 20
35.06383733932433
 30
0.0
 10
73.78395451714429
 20
35.06383733932433
 30
0.0
 10
73.78395451714429
 20
32.95096027822059
 30
0.0
 10
73.78395451714429
 20
32.95096027822059
 30
0.0
 10
73.78395451714429
 20
32.95096027822059
 30
0.0
 10
71.6686658892009
 20
32.95096027822059
 30
0.0
 10
71.6686658892009
 20
32.95096027822059
 30
0.0
  0
HATCH
  5
10A
330
104
100
AcDbEntity
  8
Sichtbar (ISO)
 62
    18
420
        0
440
 33554687
100
AcDbHatch
 10
0.0
 20
0.0
 30
0.0
210
0.0
220
0.0
230
1.0
  2
SOLID
 70
     1
 71
     1
 91
        2
 92
        1
 93
        1
 72
     4
 94
        3
 73
     0
 74
     0
 95
       17
 96
       13
 40
0.0
 40
0.0
 40
0.0
 40
0.0
 40
1.0
 40
1.0
 40
1.0
 40
2.0
 40
2.0
 40
2.0
 40
3.0
 40
3.0
 40
3.0
 40
4.0
 40
4.0
 40
4.0
 40
4.0
 10
73.55554468647223
 20
34.83818358504045
 10
73.55554468647223
 20
34.83818358504045
 10
71.89431964348476
 20
34.83818358504045
 10
71.89431964348476
 20
34.83818358504045
 10
71.89431964348476
 20
34.83818358504045
 10
71.89431964348476
 20
33.17971461844118
 10
71.89431964348476
 20
33.17971461844118
 10
71.89431964348476
 20
33.17971461844118
 10
73.55554468647223
 20
33.17971461844118
 10
73.55554468647223
 20
33.17971461844118
 10
73.55554468647223
 20
33.17971461844118
 10
73.55554468647223
 20
34.83818358504045
 10
73.55554468647223
 20
34.83818358504045
 97
        0
 97
        1
330
108
 92
        1
 93
        1
 72
     4
 94
        3
 73
     0
 74
     0
 95
       17
 96
       13
 40
0.0
 40
0.0
 40
0.0
 40
0.0
 40
1.0
 40
1.0
 40
1.0
 40
2.0
 40
2.0
 40
2.0
 40
3.0
 40
3.0
 40
3.0
 40
4.0
 40
4.0
 40
4.0
 40
4.0
 10
71.6686658892009
 20
32.95096027822059
 10
71.6686658892009
 20
32.95096027822059
 10
71.6686658892009
 20
35.06383733932433
 10
71.6686658892009
 20
35.06383733932433
 10
71.6686658892009
 20
35.06383733932433
 10
73.78395451714429
 20
35.06383733932433
 10
73.78395451714429
 20
35.06383733932433
 10
73.78395451714429
 20
35.06383733932433
 10
73.78395451714429
 20
32.95096027822059
 10
73.78395451714429
 20
32.95096027822059
 10
73.78395451714429
 20
32.95096027822059
 10
71.6686658892009
 20
32.95096027822059
 10
71.6686658892009
 20
32.95096027822059
 97
        0
 97
        1
330
109
 75
     2
 76
     1
 98
        1
 10
0.0
 20
0.0
450
        0
451
        0
460
0.0
461
0.0
452
        0
462
0.0
453
        0
470

  0
SPLINE
  5
10B
330
104
100
AcDbEntity
  8
Sichtbar (ISO)
100
AcDbSpline
210
0.0
220
0.0
230
1.0
 70
     9
 71
     3
 72
    41
 73
    37
 74
     0
 42
0.0000000001
 43
0.0000000001
 40
0.0
 40
0.0
 40
0.0
 40
0.0
 40
1.0
 40
1.0
 40
1.0
 40
2.0
 40
2.0
 40
2.0
 40
3.0
 40
3.0
 40
3.0
 40
4.0
 40
4.0
 40
4.0
 40
5.0
 40
5.0
 40
5.0
 40
6.0
 40
6.0
 40
6.0
 40
7.0
 40
7.0
 40
7.0
 40
8.0
 40
8.0
 40
8.0
 40
9.0
 40
9.0
 40
9.0
 40
10.0
 40
10.0
 40
10.0
 40
11.0
 40
11.0
 40
11.0
 40
12.0
 40
12.0
 40
12.0
 40
12.0
 10
72.96608884894599
 20
36.48149413150463
 30
0.0
 10
72.75455998615164
 20
36.81980250815616
 30
0.0
 10
72.63604870145904
 20
36.99205728241866
 30
0.0
 10
72.35665145760528
 20
36.99205728241866
 30
0.0
 10
72.13961044203454
 20
36.99205728241866
 30
0.0
 10
71.9956054507511
 20
36.81704643176797
 30
0.0
 10
71.9956054507511
 20
36.60551756897362
 30
0.0
 10
71.9956054507511
 20
36.32646483466839
 30
0.0
 10
72.25226506440221
 20
36.20795354997579
 30
0.0
 10
72.49204371017561
 20
36.21622177914039
 30
0.0
 10
72.49204371017561
 20
36.21622177914039
 30
0.0
 10
72.49204371017561
 20
35.976443133367
 30
0.0
 10
72.49204371017561
 20
35.976443133367
 30
0.0
 10
72.08586695246464
 20
35.95405001271288
 30
0.0
 10
71.78407658795676
 20
36.19658473487446
 30
0.0
 10
71.78407658795676
 20
36.61964246046315
 30
0.0
 10
71.78407658795676
 20
36.96656357582781
 30
0.0
 10
71.9873372215865
 20
37.24561631013305
 30
0.0
 10
72.35975204354201
 20
37.24561631013305
 30
0.0
 10
72.71218531168307
 20
37.24561631013305
 30
0.0
 10
72.88719616233376
 20
37.00893825029638
 30
0.0
 10
73.04498153555821
 20
36.76054686580986
 30
0.0
 10
73.19449867961805
 20
36.51249999087188
 30
0.0
 10
73.32713485580017
 20
36.24447156211944
 30
0.0
 10
73.57242565434995
 20
36.19934081126267
 30
0.0
 10
73.57242565434995
 20
36.19934081126267
 30
0.0
 10
73.57242565434995
 20
37.22632377541565
 30
0.0
 10
73.57242565434995
 20
37.22632377541565
 30
0.0
 10
73.57242565434995
 20
37.22632377541565
 30
0.0
 10
73.78395451714429
 20
37.22632377541565
 30
0.0
 10
73.78395451714429
 20
37.22632377541565
 30
0.0
 10
73.78395451714429
 20
37.22632377541565
 30
0.0
 10
73.78395451714429
 20
35.91994356740891
 30
0.0
 10
73.78395451714429
 20
35.91994356740891
 30
0.0
 10
73.31300996431064
 20
35.95680608910108
 30
0.0
 10
73.13524118972011
 20
36.19934081126267
 30
0.0
 10
72.96608884894599
 20
36.48149413150463
 30
0.0
  0
HATCH
  5
10C
330
104
100
AcDbEntity
  8
Sichtbar (ISO)
 62
    18
420
        0
440
 33554687
100
AcDbHatch
 10
0.0
 20
0.0
 30
0.0
210
0.0
220
0.0
230
1.0
  2
SOLID
 70
     1
 71
     1
 91
        1
 92
        1
 93
        1
 72
     4
 94
        3
 73
     0
 74
     0
 95
       41
 96
       37
 40
0.0
 40
0.0
 40
0.0
 40
0.0
 40
1.0
 40
1.0
 40
1.0
 40
2.0
 40
2.0
 40
2.0
 40
3.0
 40
3.0
 40
3.0
 40
4.0
 40
4.0
 40
4.0
 40
5.0
 40
5.0
 40
5.0
 40
6.0
 40
6.0
 40
6.0
 40
7.0
 40
7.0
 40
7.0
 40
8.0
 40
8.0
 40
8.0
 40
9.0
 40
9.0
 40
9.0
 40
10.0
 40
10.0
 40
10.0
 40
11.0
 40
11.0
 40
11.0
 40
12.0
 40
12.0
 40
12.0
 40
12.0
 10
72.96608884894599
 20
36.48149413150463
 10
72.75455998615164
 20
36.81980250815616
 10
72.63604870145904
 20
36.99205728241866
 10
72.35665145760528
 20
36.99205728241866
 10
72.13961044203454
 20
36.99205728241866
 10
71.9956054507511
 20
36.81704643176797
 10
71.9956054507511
 20
36.60551756897362
 10
71.9956054507511
 20
36.32646483466839
 10
72.25226506440221
 20
36.20795354997579
 10
72.49204371017561
 20
36.21622177914039
 10
72.49204371017561
 20
36.21622177914039
 10
72.49204371017561
 20
35.976443133367
 10
72.49204371017561
 20
35.976443133367
 10
72.08586695246464
 20
35.95405001271288
 10
71.78407658795676
 20
36.19658473487446
 10
71.78407658795676
 20
36.61964246046315
 10
71.78407658795676
 20
36.96656357582781
 10
71.9873372215865
 20
37.24561631013305
 10
72.35975204354201
 20
37.24561631013305
 10
72.71218531168307
 20
37.24561631013305
 10
72.88719616233376
 20
37.00893825029638
 10
73.04498153555821
 20
36.76054686580986
 10
73.19449867961805
 20
36.51249999087188
 10
73.32713485580017
 20
36.24447156211944
 10
73.57242565434995
 20
36.19934081126267
 10
73.57242565434995
 20
36.19934081126267
 10
73.57242565434995
 20
37.22632377541565
 10
73.57242565434995
 20
37.22632377541565
 10
73.57242565434995
 20
37.22632377541565
 10
73.78395451714429
 20
37.22632377541565
 10
73.78395451714429
 20
37.22632377541565
 10
73.78395451714429
 20
37.22632377541565
 10
73.78395451714429
 20
35.91994356740891
 10
73.78395451714429
 20
35.91994356740891
 10
73.31300996431064
 20
35.95680608910108
 10
73.13524118972011
 20
36.19934081126267
 10
72.96608884894599
 20
36.48149413150463
 97
        0
 97
        1
330
10B
 75
     2
 76
     1
 98
        1
 10
0.0
 20
0.0
450
        0
451
        0
460
0.0
461
0.0
452
        0
462
0.0
453
        0
470

  0
SPLINE
  5
10D
330
104
100
AcDbEntity
  8
Sichtbar (ISO)
100
AcDbSpline
210
0.0
220
0.0
230
1.0
 70
     9
 71
     3
 72
    62
 73
    58
 74
     0
 42
0.0000000001
 43
0.0000000001
 40
0.0
 40
0.0
 40
0.0
 40
0.0
 40
1.0
 40
1.0
 40
1.0
 40
2.0
 40
2.0
 40
2.0
 40
3.0
 40
3.0
 40
3.0
 40
4.0
 40
4.0
 40
4.0
 40
5.0
 40
5.0
 40
5.0
 40
6.0
 40
6.0
 40
6.0
 40
7.0
 40
7.0
 40
7.0
 40
8.0
 40
8.0
 40
8.0
 40
9.0
 40
9.0
 40
9.0
 40
10.0
 40
10.0
 40
10.0
 40
11.0
 40
11.0
 40
11.0
 40
12.0
 40
12.0
 40
12.0
 40
13.0
 40
13.0
 40
13.0
 40
14.0
 40
14.0
 40
14.0
 40
15.0
 40
15.0
 40
15.0
 40
16.0
 40
16.0
 40
16.0
 40
17.0
 40
17.0
 40
17.0
 40
18.0
 40
18.0
 40
18.0
 40
19.0
 40
19.0
 40
19.0
 40
19.0
 10
73.16624889663899
 20
37.74584417459132
 30
0.0
 10
73.42566458667831
 20
37.75445691330445
 30
0.0
 10
73.60618759010541
 20
37.89811739503937
 30
0.0
 10
73.60618759010541
 20
38.17200248611673
 30
0.0
 10
73.60618759010541
 20
38.40592446956519
 30
0.0
 10
73.45977103198229
 20
38.60642902680673
 30
0.0
 10
73.2199923862089
 20
38.60642902680673
 30
0.0
 10
72.96884492533418
 20
38.60642902680673
 30
0.0
 10
72.83620874915206
 20
38.41729328466652
 30
0.0
 10
72.83620874915206
 20
38.18061522482985
 30
0.0
 10
72.83620874915206
 20
38.12962781164815
 30
0.0
 10
72.83896482554026
 20
38.08174098440318
 30
0.0
 10
72.84482148786519
 20
38.03661023354641
 30
0.0
 10
72.84482148786519
 20
38.03661023354641
 30
0.0
 10
72.64156085423545
 20
38.03661023354641
 30
0.0
 10
72.64156085423545
 20
38.03661023354641
 30
0.0
 10
72.64431693062364
 20
38.05624727781233
 30
0.0
 10
72.64431693062364
 20
38.07312824569005
 30
0.0
 10
72.64431693062364
 20
38.0903537231163
 30
0.0
 10
72.64431693062364
 20
38.0903537231163
 30
0.0
 10
72.64431693062364
 20
38.14099662674948
 30
0.0
 10
72.64431693062364
 20
38.14099662674948
 30
0.0
 10
72.64431693062364
 20
38.34391275083069
 30
0.0
 10
72.53166230825597
 20
38.52167967786959
 30
0.0
 10
72.31737736907344
 20
38.52167967786959
 30
0.0
 10
72.1058485062791
 20
38.52167967786959
 30
0.0
 10
71.9956054507511
 20
38.36940645742154
 30
0.0
 10
71.9956054507511
 20
38.16614485963386
 30
0.0
 10
71.9956054507511
 20
37.90673013375248
 30
0.0
 10
72.19611000799265
 20
37.78856335860842
 30
0.0
 10
72.43003199144111
 20
37.78856335860842
 30
0.0
 10
72.43003199144111
 20
37.78856335860842
 30
0.0
 10
72.43003199144111
 20
37.54878376427294
 30
0.0
 10
72.43003199144111
 20
37.54878376427294
 30
0.0
 10
72.04934894032099
 20
37.56256509477603
 30
0.0
 10
71.78407658795676
 20
37.76582572840577
 30
0.0
 10
71.78407658795676
 20
38.16614485963386
 30
0.0
 10
71.78407658795676
 20
38.51341144870499
 30
0.0
 10
71.95047469989432
 20
38.77558321513249
 30
0.0
 10
72.32013344546164
 20
38.77558321513249
 30
0.0
 10
72.49790037250052
 20
38.77558321513249
 30
0.0
 10
72.64741751656036
 20
38.6543158540517
 30
0.0
 10
72.71769746445946
 20
38.49894204766693
 30
0.0
 10
72.71769746445946
 20
38.49894204766693
 30
0.0
 10
72.72355412678439
 20
38.49894204766693
 30
0.0
 10
72.72355412678439
 20
38.49894204766693
 30
0.0
 10
72.77695310680576
 20
38.74457735576525
 30
0.0
 10
72.96884492533418
 20
38.85998805452112
 30
0.0
 10
73.20862357110756
 20
38.85998805452112
 30
0.0
 10
73.60618759010541
 20
38.85998805452112
 30
0.0
 10
73.81771645289974
 20
38.54717338446043
 30
0.0
 10
73.81771645289974
 20
38.17200248611673
 30
0.0
 10
73.81771645289974
 20
37.76582572840577
 30
0.0
 10
73.58103839306308
 20
37.49779729965333
 30
0.0
 10
73.16624889663899
 20
37.50606552881793
 30
0.0
 10
73.16624889663899
 20
37.50606552881793
 30
0.0
 10
73.16624889663899
 20
37.74584417459132
 30
0.0
 10
73.16624889663899
 20
37.74584417459132
 30
0.0
  0
HATCH
  5
10E
330
104
100
AcDbEntity
  8
Sichtbar (ISO)
 62
    18
420
        0
440
 33554687
100
AcDbHatch
 10
0.0
 20
0.0
 30
0.0
210
0.0
220
0.0
230
1.0
  2
SOLID
 70
     1
 71
     1
 91
        1
 92
        1
 93
        1
 72
     4
 94
        3
 73
     0
 74
     0
 95
       62
 96
       58
 40
0.0
 40
0.0
 40
0.0
 40
0.0
 40
1.0
 40
1.0
 40
1.0
 40
2.0
 40
2.0
 40
2.0
 40
3.0
 40
3.0
 40
3.0
 40
4.0
 40
4.0
 40
4.0
 40
5.0
 40
5.0
 40
5.0
 40
6.0
 40
6.0
 40
6.0
 40
7.0
 40
7.0
 40
7.0
 40
8.0
 40
8.0
 40
8.0
 40
9.0
 40
9.0
 40
9.0
 40
10.0
 40
10.0
 40
10.0
 40
11.0
 40
11.0
 40
11.0
 40
12.0
 40
12.0
 40
12.0
 40
13.0
 40
13.0
 40
13.0
 40
14.0
 40
14.0
 40
14.0
 40
15.0
 40
15.0
 40
15.0
 40
16.0
 40
16.0
 40
16.0
 40
17.0
 40
17.0
 40
17.0
 40
18.0
 40
18.0
 40
18.0
 40
19.0
 40
19.0
 40
19.0
 40
19.0
 10
73.16624889663899
 20
37.74584417459132
 10
73.42566458667831
 20
37.75445691330445
 10
73.60618759010541
 20
37.89811739503937
 10
73.60618759010541
 20
38.17200248611673
 10
73.60618759010541
 20
38.40592446956519
 10
73.45977103198229
 20
38.60642902680673
 10
73.2199923862089
 20
38.60642902680673
 10
72.96884492533418
 20
38.60642902680673
 10
72.83620874915206
 20
38.41729328466652
 10
72.83620874915206
 20
38.18061522482985
 10
72.83620874915206
 20
38.12962781164815
 10
72.83896482554026
 20
38.08174098440318
 10
72.84482148786519
 20
38.03661023354641
 10
72.84482148786519
 20
38.03661023354641
 10
72.64156085423545
 20
38.03661023354641
 10
72.64156085423545
 20
38.03661023354641
 10
72.64431693062364
 20
38.05624727781233
 10
72.64431693062364
 20
38.07312824569005
 10
72.64431693062364
 20
38.0903537231163
 10
72.64431693062364
 20
38.0903537231163
 10
72.64431693062364
 20
38.14099662674948
 10
72.64431693062364
 20
38.14099662674948
 10
72.64431693062364
 20
38.34391275083069
 10
72.53166230825597
 20
38.52167967786959
 10
72.31737736907344
 20
38.52167967786959
 10
72.1058485062791
 20
38.52167967786959
 10
71.9956054507511
 20
38.36940645742154
 10
71.9956054507511
 20
38.16614485963386
 10
71.9956054507511
 20
37.90673013375248
 10
72.19611000799265
 20
37.78856335860842
 10
72.43003199144111
 20
37.78856335860842
 10
72.43003199144111
 20
37.78856335860842
 10
72.43003199144111
 20
37.54878376427294
 10
72.43003199144111
 20
37.54878376427294
 10
72.04934894032099
 20
37.56256509477603
 10
71.78407658795676
 20
37.76582572840577
 10
71.78407658795676
 20
38.16614485963386
 10
71.78407658795676
 20
38.51341144870499
 10
71.95047469989432
 20
38.77558321513249
 10
72.32013344546164
 20
38.77558321513249
 10
72.49790037250052
 20
38.77558321513249
 10
72.64741751656036
 20
38.6543158540517
 10
72.71769746445946
 20
38.49894204766693
 10
72.71769746445946
 20
38.49894204766693
 10
72.72355412678439
 20
38.49894204766693
 10
72.72355412678439
 20
38.49894204766693
 10
72.77695310680576
 20
38.74457735576525
 10
72.96884492533418
 20
38.85998805452112
 10
73.20862357110756
 20
38.85998805452112
 10
73.60618759010541
 20
38.85998805452112
 10
73.81771645289974
 20
38.54717338446043
 10
73.81771645289974
 20
38.17200248611673
 10
73.81771645289974
 20
37.76582572840577
 10
73.58103839306308
 20
37.49779729965333
 10
73.16624889663899
 20
37.50606552881793
 10
73.16624889663899
 20
37.50606552881793
 10
73.16624889663899
 20
37.74584417459132
 10
73.16624889663899
 20
37.74584417459132
 97
        0
 97
        1
330
10D
 75
     2
 76
     1
 98
        1
 10
0.0
 20
0.0
450
        0
451
        0
460
0.0
461
0.0
452
        0
462
0.0
453
        0
470

  0
SPLINE
  5
10F
330
104
100
AcDbEntity
  8
Sichtbar (ISO)
100
AcDbSpline
210
0.0
220
0.0
230
1.0
 70
     9
 71
     3
 72
    62
 73
    58
 74
     0
 42
0.0000000001
 43
0.0000000001
 40
0.0
 40
0.0
 40
0.0
 40
0.0
 40
1.0
 40
1.0
 40
1.0
 40
2.0
 40
2.0
 40
2.0
 40
3.0
 40
3.0
 40
3.0
 40
4.0
 40
4.0
 40
4.0
 40
5.0
 40
5.0
 40
5.0
 40
6.0
 40
6.0
 40
6.0
 40
7.0
 40
7.0
 40
7.0
 40
8.0
 40
8.0
 40
8.0
 40
9.0
 40
9.0
 40
9.0
 40
10.0
 40
10.0
 40
10.0
 40
11.0
 40
11.0
 40
11.0
 40
12.0
 40
12.0
 40
12.0
 40
13.0
 40
13.0
 40
13.0
 40
14.0
 40
14.0
 40
14.0
 40
15.0
 40
15.0
 40
15.0
 40
16.0
 40
16.0
 40
16.0
 40
17.0
 40
17.0
 40
17.0
 40
18.0
 40
18.0
 40
18.0
 40
19.0
 40
19.0
 40
19.0
 40
19.0
 10
73.16624889663899
 20
39.31542967767115
 30
0.0
 10
73.42566458667831
 20
39.32369790683575
 30
0.0
 10
73.60618759010541
 20
39.46770289811919
 30
0.0
 10
73.60618759010541
 20
39.74124347964803
 30
0.0
 10
73.60618759010541
 20
39.97550997264502
 30
0.0
 10
73.45977103198229
 20
40.17567002033803
 30
0.0
 10
73.2199923862089
 20
40.17567002033803
 30
0.0
 10
72.96884492533418
 20
40.17567002033803
 30
0.0
 10
72.83620874915206
 20
39.98653427819782
 30
0.0
 10
72.83620874915206
 20
39.74951170881263
 30
0.0
 10
72.83620874915206
 20
39.69886880517945
 30
0.0
 10
72.83896482554026
 20
39.65098197793448
 30
0.0
 10
72.84482148786519
 20
39.60585122707771
 30
0.0
 10
72.84482148786519
 20
39.60585122707771
 30
0.0
 10
72.64156085423545
 20
39.60585122707771
 30
0.0
 10
72.64156085423545
 20
39.60585122707771
 30
0.0
 10
72.64431693062364
 20
39.62548827134363
 30
0.0
 10
72.64431693062364
 20
39.64271374876988
 30
0.0
 10
72.64431693062364
 20
39.65925020709908
 30
0.0
 10
72.64431693062364
 20
39.65925020709908
 30
0.0
 10
72.64431693062364
 20
39.71023762028078
 30
0.0
 10
72.64431693062364
 20
39.71023762028078
 30
0.0
 10
72.64431693062364
 20
39.91349825391052
 30
0.0
 10
72.53166230825597
 20
40.09092067140088
 30
0.0
 10
72.31737736907344
 20
40.09092067140088
 30
0.0
 10
72.1058485062791
 20
40.09092067140088
 30
0.0
 10
71.9956054507511
 20
39.93864745095284
 30
0.0
 10
71.9956054507511
 20
39.73573132687162
 30
0.0
 10
71.9956054507511
 20
39.47597112728379
 30
0.0
 10
72.19611000799265
 20
39.35745984259119
 30
0.0
 10
72.43003199144111
 20
39.35745984259119
 30
0.0
 10
72.43003199144111
 20
39.35745984259119
 30
0.0
 10
72.43003199144111
 20
39.11768119681781
 30
0.0
 10
72.43003199144111
 20
39.11768119681781
 30
0.0
 10
72.04934894032099
 20
39.13215059785585
 30
0.0
 10
71.78407658795676
 20
39.33506672193707
 30
0.0
 10
71.78407658795676
 20
39.73573132687162
 30
0.0
 10
71.78407658795676
 20
40.08230793268775
 30
0.0
 10
71.95047469989432
 20
40.34482420866379
 30
0.0
 10
72.32013344546164
 20
40.34482420866379
 30
0.0
 10
72.49790037250052
 20
40.34482420866379
 30
0.0
 10
72.64741751656036
 20
40.223556847583
 30
0.0
 10
72.71769746445946
 20
40.06852755074675
 30
0.0
 10
72.71769746445946
 20
40.06852755074675
 30
0.0
 10
72.72355412678439
 20
40.06852755074675
 30
0.0
 10
72.72355412678439
 20
40.06852755074675
 30
0.0
 10
72.77695310680576
 20
40.31381834929654
 30
0.0
 10
72.96884492533418
 20
40.42957355760093
 30
0.0
 10
73.20862357110756
 20
40.42957355760093
 30
0.0
 10
73.60618759010541
 20
40.42957355760093
 30
0.0
 10
73.81771645289974
 20
40.11641437799172
 30
0.0
 10
73.81771645289974
 20
39.74124347964803
 30
0.0
 10
73.81771645289974
 20
39.33506672193707
 30
0.0
 10
73.58103839306308
 20
39.06703829318463
 30
0.0
 10
73.16624889663899
 20
39.07565103189776
 30
0.0
 10
73.16624889663899
 20
39.07565103189776
 30
0.0
 10
73.16624889663899
 20
39.31542967767115
 30
0.0
 10
73.16624889663899
 20
39.31542967767115
 30
0.0
  0
HATCH
  5
110
330
104
100
AcDbEntity
  8
Sichtbar (ISO)
 62
    18
420
        0
440
 33554687
100
AcDbHatch
 10
0.0
 20
0.0
 30
0.0
210
0.0
220
0.0
230
1.0
  2
SOLID
 70
     1
 71
     1
 91
        1
 92
        1
 93
        1
 72
     4
 94
        3
 73
     0
 74
     0
 95
       62
 96
       58
 40
0.0
 40
0.0
 40
0.0
 40
0.0
 40
1.0
 40
1.0
 40
1.0
 40
2.0
 40
2.0
 40
2.0
 40
3.0
 40
3.0
 40
3.0
 40
4.0
 40
4.0
 40
4.0
 40
5.0
 40
5.0
 40
5.0
 40
6.0
 40
6.0
 40
6.0
 40
7.0
 40
7.0
 40
7.0
 40
8.0
 40
8.0
 40
8.0
 40
9.0
 40
9.0
 40
9.0
 40
10.0
 40
10.0
 40
10.0
 40
11.0
 40
11.0
 40
11.0
 40
12.0
 40
12.0
 40
12.0
 40
13.0
 40
13.0
 40
13.0
 40
14.0
 40
14.0
 40
14.0
 40
15.0
 40
15.0
 40
15.0
 40
16.0
 40
16.0
 40
16.0
 40
17.0
 40
17.0
 40
17.0
 40
18.0
 40
18.0
 40
18.0
 40
19.0
 40
19.0
 40
19.0
 40
19.0
 10
73.16624889663899
 20
39.31542967767115
 10
73.42566458667831
 20
39.32369790683575
 10
73.60618759010541
 20
39.46770289811919
 10
73.60618759010541
 20
39.74124347964803
 10
73.60618759010541
 20
39.97550997264502
 10
73.45977103198229
 20
40.17567002033803
 10
73.2199923862089
 20
40.17567002033803
 10
72.96884492533418
 20
40.17567002033803
 10
72.83620874915206
 20
39.98653427819782
 10
72.83620874915206
 20
39.74951170881263
 10
72.83620874915206
 20
39.69886880517945
 10
72.83896482554026
 20
39.65098197793448
 10
72.84482148786519
 20
39.60585122707771
 10
72.84482148786519
 20
39.60585122707771
 10
72.64156085423545
 20
39.60585122707771
 10
72.64156085423545
 20
39.60585122707771
 10
72.64431693062364
 20
39.62548827134363
 10
72.64431693062364
 20
39.64271374876988
 10
72.64431693062364
 20
39.65925020709908
 10
72.64431693062364
 20
39.65925020709908
 10
72.64431693062364
 20
39.71023762028078
 10
72.64431693062364
 20
39.71023762028078
 10
72.64431693062364
 20
39.91349825391052
 10
72.53166230825597
 20
40.09092067140088
 10
72.31737736907344
 20
40.09092067140088
 10
72.1058485062791
 20
40.09092067140088
 10
71.9956054507511
 20
39.93864745095284
 10
71.9956054507511
 20
39.73573132687162
 10
71.9956054507511
 20
39.47597112728379
 10
72.19611000799265
 20
39.35745984259119
 10
72.43003199144111
 20
39.35745984259119
 10
72.43003199144111
 20
39.35745984259119
 10
72.43003199144111
 20
39.11768119681781
 10
72.43003199144111
 20
39.11768119681781
 10
72.04934894032099
 20
39.13215059785585
 10
71.78407658795676
 20
39.33506672193707
 10
71.78407658795676
 20
39.73573132687162
 10
71.78407658795676
 20
40.08230793268775
 10
71.95047469989432
 20
40.34482420866379
 10
72.32013344546164
 20
40.34482420866379
 10
72.49790037250052
 20
40.34482420866379
 10
72.64741751656036
 20
40.223556847583
 10
72.71769746445946
 20
40.06852755074675
 10
72.71769746445946
 20
40.06852755074675
 10
72.72355412678439
 20
40.06852755074675
 10
72.72355412678439
 20
40.06852755074675
 10
72.77695310680576
 20
40.31381834929654
 10
72.96884492533418
 20
40.42957355760093
 10
73.20862357110756
 20
40.42957355760093
 10
73.60618759010541
 20
40.42957355760093
 10
73.81771645289974
 20
40.11641437799172
 10
73.81771645289974
 20
39.74124347964803
 10
73.81771645289974
 20
39.33506672193707
 10
73.58103839306308
 20
39.06703829318463
 10
73.16624889663899
 20
39.07565103189776
 10
73.16624889663899
 20
39.07565103189776
 10
73.16624889663899
 20
39.31542967767115
 10
73.16624889663899
 20
39.31542967767115
 97
        0
 97
        1
330
10F
 75
     2
 76
     1
 98
        1
 10
0.0
 20
0.0
450
        0
451
        0
460
0.0
461
0.0
452
        0
462
0.0
453
        0
470

  0
ENDBLK
  5
107
330
104
100
AcDbEntity
  8
0
100
AcDbBlockEnd
  0
BLOCK
  5
113
330
111
100
AcDbEntity
  8
0
100
AcDbBlockBegin
  2
Block_17
 70
     0
 10
0.0
 20
0.0
 30
0.0
  3
Block_17
  1

  0
SPLINE
  5
115
330
111
100
AcDbEntity
  8
Sichtbar (ISO)
100
AcDbSpline
210
0.0
220
0.0
230
1.0
 70
    11
 71
     3
 72
    17
 73
    13
 74
     0
 42
0.0000000001
 43
0.0000000001
 40
0.0
 40
0.0
 40
0.0
 40
0.0
 40
1.0
 40
1.0
 40
1.0
 40
2.0
 40
2.0
 40
2.0
 40
3.0
 40
3.0
 40
3.0
 40
4.0
 40
4.0
 40
4.0
 40
4.0
 10
80.7630289511634
 20
34.87435708763558
 30
0.0
 10
80.7630289511634
 20
34.87435708763558
 30
0.0
 10
79.10145939862741
 20
34.87435708763558
 30
0.0
 10
79.10145939862741
 20
34.87435708763558
 30
0.0
 10
79.10145939862741
 20
34.87435708763558
 30
0.0
 10
79.10145939862741
 20
33.21554361148778
 30
0.0
 10
79.10145939862741
 20
33.21554361148778
 30
0.0
 10
79.10145939862741
 20
33.21554361148778
 30
0.0
 10
80.7630289511634
 20
33.21554361148778
 30
0.0
 10
80.7630289511634
 20
33.21554361148778
 30
0.0
 10
80.7630289511634
 20
33.21554361148778
 30
0.0
 10
80.7630289511634
 20
34.87435708763558
 30
0.0
 10
80.7630289511634
 20
34.87435708763558
 30
0.0
  0
SPLINE
  5
116
330
111
100
AcDbEntity
  8
Sichtbar (ISO)
100
AcDbSpline
210
0.0
220
0.0
230
1.0
 70
    11
 71
     3
 72
    17
 73
    13
 74
     0
 42
0.0000000001
 43
0.0000000001
 40
0.0
 40
0.0
 40
0.0
 40
0.0
 40
1.0
 40
1.0
 40
1.0
 40
2.0
 40
2.0
 40
2.0
 40
3.0
 40
3.0
 40
3.0
 40
4.0
 40
4.0
 40
4.0
 40
4.0
 10
78.87580564434355
 20
32.98747829036424
 30
0.0
 10
78.87580564434355
 20
32.98747829036424
 30
0.0
 10
78.87580564434355
 20
35.10001084191944
 30
0.0
 10
78.87580564434355
 20
35.10001084191944
 30
0.0
 10
78.87580564434355
 20
35.10001084191944
 30
0.0
 10
80.99143878183548
 20
35.10001084191944
 30
0.0
 10
80.99143878183548
 20
35.10001084191944
 30
0.0
 10
80.99143878183548
 20
35.10001084191944
 30
0.0
 10
80.99143878183548
 20
32.98747829036424
 30
0.0
 10
80.99143878183548
 20
32.98747829036424
 30
0.0
 10
80.99143878183548
 20
32.98747829036424
 30
0.0
 10
78.87580564434355
 20
32.98747829036424
 30
0.0
 10
78.87580564434355
 20
32.98747829036424
 30
0.0
  0
HATCH
  5
117
330
111
100
AcDbEntity
  8
Sichtbar (ISO)
 62
    18
420
        0
440
 33554687
100
AcDbHatch
 10
0.0
 20
0.0
 30
0.0
210
0.0
220
0.0
230
1.0
  2
SOLID
 70
     1
 71
     1
 91
        2
 92
        1
 93
        1
 72
     4
 94
        3
 73
     0
 74
     0
 95
       17
 96
       13
 40
0.0
 40
0.0
 40
0.0
 40
0.0
 40
1.0
 40
1.0
 40
1.0
 40
2.0
 40
2.0
 40
2.0
 40
3.0
 40
3.0
 40
3.0
 40
4.0
 40
4.0
 40
4.0
 40
4.0
 10
80.7630289511634
 20
34.87435708763558
 10
80.7630289511634
 20
34.87435708763558
 10
79.10145939862741
 20
34.87435708763558
 10
79.10145939862741
 20
34.87435708763558
 10
79.10145939862741
 20
34.87435708763558
 10
79.10145939862741
 20
33.21554361148778
 10
79.10145939862741
 20
33.21554361148778
 10
79.10145939862741
 20
33.21554361148778
 10
80.7630289511634
 20
33.21554361148778
 10
80.7630289511634
 20
33.21554361148778
 10
80.7630289511634
 20
33.21554361148778
 10
80.7630289511634
 20
34.87435708763558
 10
80.7630289511634
 20
34.87435708763558
 97
        0
 97
        1
330
115
 92
        1
 93
        1
 72
     4
 94
        3
 73
     0
 74
     0
 95
       17
 96
       13
 40
0.0
 40
0.0
 40
0.0
 40
0.0
 40
1.0
 40
1.0
 40
1.0
 40
2.0
 40
2.0
 40
2.0
 40
3.0
 40
3.0
 40
3.0
 40
4.0
 40
4.0
 40
4.0
 40
4.0
 10
78.87580564434355
 20
32.98747829036424
 10
78.87580564434355
 20
32.98747829036424
 10
78.87580564434355
 20
35.10001084191944
 10
78.87580564434355
 20
35.10001084191944
 10
78.87580564434355
 20
35.10001084191944
 10
80.99143878183548
 20
35.10001084191944
 10
80.99143878183548
 20
35.10001084191944
 10
80.99143878183548
 20
35.10001084191944
 10
80.99143878183548
 20
32.98747829036424
 10
80.99143878183548
 20
32.98747829036424
 10
80.99143878183548
 20
32.98747829036424
 10
78.87580564434355
 20
32.98747829036424
 10
78.87580564434355
 20
32.98747829036424
 97
        0
 97
        1
330
116
 75
     2
 76
     1
 98
        1
 10
0.0
 20
0.0
450
        0
451
        0
460
0.0
461
0.0
452
        0
462
0.0
453
        0
470

  0
SPLINE
  5
118
330
111
100
AcDbEntity
  8
Sichtbar (ISO)
100
AcDbSpline
210
0.0
220
0.0
230
1.0
 70
     9
 71
     3
 72
    41
 73
    37
 74
     0
 42
0.0000000001
 43
0.0000000001
 40
0.0
 40
0.0
 40
0.0
 40
0.0
 40
1.0
 40
1.0
 40
1.0
 40
2.0
 40
2.0
 40
2.0
 40
3.0
 40
3.0
 40
3.0
 40
4.0
 40
4.0
 40
4.0
 40
5.0
 40
5.0
 40
5.0
 40
6.0
 40
6.0
 40
6.0
 40
7.0
 40
7.0
 40
7.0
 40
8.0
 40
8.0
 40
8.0
 40
9.0
 40
9.0
 40
9.0
 40
10.0
 40
10.0
 40
10.0
 40
11.0
 40
11.0
 40
11.0
 40
12.0
 40
12.0
 40
12.0
 40
12.0
 10
80.17322860408864
 20
36.51766763409975
 30
0.0
 10
79.96169974129429
 20
36.85632052029981
 30
0.0
 10
79.84318845660171
 20
37.02823078501378
 30
0.0
 10
79.56413572229647
 20
37.02823078501378
 30
0.0
 10
79.3467501971772
 20
37.02823078501378
 30
0.0
 10
79.20308971544229
 20
36.85321993436308
 30
0.0
 10
79.20308971544229
 20
36.64169107156875
 30
0.0
 10
79.20308971544229
 20
36.36229382771499
 30
0.0
 10
79.4597493290934
 20
36.24378254302239
 30
0.0
 10
79.69952797486678
 20
36.25239528173552
 30
0.0
 10
79.69952797486678
 20
36.25239528173552
 30
0.0
 10
79.69952797486678
 20
36.01261663596213
 30
0.0
 10
79.69952797486678
 20
36.01261663596213
 30
0.0
 10
79.29335121715583
 20
35.99022351530801
 30
0.0
 10
78.99156085264795
 20
36.23275823746959
 30
0.0
 10
78.99156085264795
 20
36.65581596305827
 30
0.0
 10
78.99156085264795
 20
37.00273707842293
 30
0.0
 10
79.19447697672916
 20
37.28213432227669
 30
0.0
 10
79.56689179868466
 20
37.28213432227669
 30
0.0
 10
79.91966957637425
 20
37.28213432227669
 30
0.0
 10
80.09433591747642
 20
37.0451117528915
 30
0.0
 10
80.25246580024939
 20
36.79706487795352
 30
0.0
 10
80.40198294430922
 20
36.548673493467
 30
0.0
 10
80.53427461094283
 20
36.28064506471456
 30
0.0
 10
80.77990991904114
 20
36.23551431385779
 30
0.0
 10
80.77990991904114
 20
36.23551431385779
 30
0.0
 10
80.77990991904114
 20
37.26215276846224
 30
0.0
 10
80.77990991904114
 20
37.26215276846224
 30
0.0
 10
80.77990991904114
 20
37.26215276846224
 30
0.0
 10
80.99143878183548
 20
37.26215276846224
 30
0.0
 10
80.99143878183548
 20
37.26215276846224
 30
0.0
 10
80.99143878183548
 20
37.26215276846224
 30
0.0
 10
80.99143878183548
 20
35.95646157955255
 30
0.0
 10
80.99143878183548
 20
35.95646157955255
 30
0.0
 10
80.52014971945331
 20
35.9929795916962
 30
0.0
 10
80.34272730196294
 20
36.23551431385779
 30
0.0
 10
80.17322860408864
 20
36.51766763409975
 30
0.0
  0
HATCH
  5
119
330
111
100
AcDbEntity
  8
Sichtbar (ISO)
 62
    18
420
        0
440
 33554687
100
AcDbHatch
 10
0.0
 20
0.0
 30
0.0
210
0.0
220
0.0
230
1.0
  2
SOLID
 70
     1
 71
     1
 91
        1
 92
        1
 93
        1
 72
     4
 94
        3
 73
     0
 74
     0
 95
       41
 96
       37
 40
0.0
 40
0.0
 40
0.0
 40
0.0
 40
1.0
 40
1.0
 40
1.0
 40
2.0
 40
2.0
 40
2.0
 40
3.0
 40
3.0
 40
3.0
 40
4.0
 40
4.0
 40
4.0
 40
5.0
 40
5.0
 40
5.0
 40
6.0
 40
6.0
 40
6.0
 40
7.0
 40
7.0
 40
7.0
 40
8.0
 40
8.0
 40
8.0
 40
9.0
 40
9.0
 40
9.0
 40
10.0
 40
10.0
 40
10.0
 40
11.0
 40
11.0
 40
11.0
 40
12.0
 40
12.0
 40
12.0
 40
12.0
 10
80.17322860408864
 20
36.51766763409975
 10
79.96169974129429
 20
36.85632052029981
 10
79.84318845660171
 20
37.02823078501378
 10
79.56413572229647
 20
37.02823078501378
 10
79.3467501971772
 20
37.02823078501378
 10
79.20308971544229
 20
36.85321993436308
 10
79.20308971544229
 20
36.64169107156875
 10
79.20308971544229
 20
36.36229382771499
 10
79.4597493290934
 20
36.24378254302239
 10
79.69952797486678
 20
36.25239528173552
 10
79.69952797486678
 20
36.25239528173552
 10
79.69952797486678
 20
36.01261663596213
 10
79.69952797486678
 20
36.01261663596213
 10
79.29335121715583
 20
35.99022351530801
 10
78.99156085264795
 20
36.23275823746959
 10
78.99156085264795
 20
36.65581596305827
 10
78.99156085264795
 20
37.00273707842293
 10
79.19447697672916
 20
37.28213432227669
 10
79.56689179868466
 20
37.28213432227669
 10
79.91966957637425
 20
37.28213432227669
 10
80.09433591747642
 20
37.0451117528915
 10
80.25246580024939
 20
36.79706487795352
 10
80.40198294430922
 20
36.548673493467
 10
80.53427461094283
 20
36.28064506471456
 10
80.77990991904114
 20
36.23551431385779
 10
80.77990991904114
 20
36.23551431385779
 10
80.77990991904114
 20
37.26215276846224
 10
80.77990991904114
 20
37.26215276846224
 10
80.77990991904114
 20
37.26215276846224
 10
80.99143878183548
 20
37.26215276846224
 10
80.99143878183548
 20
37.26215276846224
 10
80.99143878183548
 20
37.26215276846224
 10
80.99143878183548
 20
35.95646157955255
 10
80.99143878183548
 20
35.95646157955255
 10
80.52014971945331
 20
35.9929795916962
 10
80.34272730196294
 20
36.23551431385779
 10
80.17322860408864
 20
36.51766763409975
 97
        0
 97
        1
330
118
 75
     2
 76
     1
 98
        1
 10
0.0
 20
0.0
450
        0
451
        0
460
0.0
461
0.0
452
        0
462
0.0
453
        0
470

  0
SPLINE
  5
11A
330
111
100
AcDbEntity
  8
Sichtbar (ISO)
100
AcDbSpline
210
0.0
220
0.0
230
1.0
 70
    11
 71
     3
 72
    17
 73
    13
 74
     0
 42
0.0000000001
 43
0.0000000001
 40
0.0
 40
0.0
 40
0.0
 40
0.0
 40
1.0
 40
1.0
 40
1.0
 40
2.0
 40
2.0
 40
2.0
 40
3.0
 40
3.0
 40
3.0
 40
4.0
 40
4.0
 40
4.0
 40
4.0
 10
80.31172144259569
 20
38.41419269872979
 30
0.0
 10
80.31172144259569
 20
38.41419269872979
 30
0.0
 10
79.33296981523621
 20
38.41419269872979
 30
0.0
 10
79.33296981523621
 20
38.41419269872979
 30
0.0
 10
79.33296981523621
 20
38.41419269872979
 30
0.0
 10
79.33296981523621
 20
38.40833603640486
 30
0.0
 10
79.33296981523621
 20
38.40833603640486
 30
0.0
 10
79.33296981523621
 20
38.40833603640486
 30
0.0
 10
80.31172144259569
 20
37.74274358865459
 30
0.0
 10
80.31172144259569
 20
37.74274358865459
 30
0.0
 10
80.31172144259569
 20
37.74274358865459
 30
0.0
 10
80.31172144259569
 20
38.41419269872979
 30
0.0
 10
80.31172144259569
 20
38.41419269872979
 30
0.0
  0
SPLINE
  5
11B
330
111
100
AcDbEntity
  8
Sichtbar (ISO)
100
AcDbSpline
210
0.0
220
0.0
230
1.0
 70
    11
 71
     3
 72
    38
 73
    34
 74
     0
 42
0.0000000001
 43
0.0000000001
 40
0.0
 40
0.0
 40
0.0
 40
0.0
 40
1.0
 40
1.0
 40
1.0
 40
2.0
 40
2.0
 40
2.0
 40
3.0
 40
3.0
 40
3.0
 40
4.0
 40
4.0
 40
4.0
 40
5.0
 40
5.0
 40
5.0
 40
6.0
 40
6.0
 40
6.0
 40
7.0
 40
7.0
 40
7.0
 40
8.0
 40
8.0
 40
8.0
 40
9.0
 40
9.0
 40
9.0
 40
10.0
 40
10.0
 40
10.0
 40
11.0
 40
11.0
 40
11.0
 40
11.0
 10
80.29173988878124
 20
37.53672687863666
 30
0.0
 10
80.29173988878124
 20
37.53672687863666
 30
0.0
 10
78.99156085264795
 20
38.44795463448523
 30
0.0
 10
78.99156085264795
 20
38.44795463448523
 30
0.0
 10
78.99156085264795
 20
38.44795463448523
 30
0.0
 10
78.99156085264795
 20
38.63950194346513
 30
0.0
 10
78.99156085264795
 20
38.63950194346513
 30
0.0
 10
78.99156085264795
 20
38.63950194346513
 30
0.0
 10
80.31172144259569
 20
38.63950194346513
 30
0.0
 10
80.31172144259569
 20
38.63950194346513
 30
0.0
 10
80.31172144259569
 20
38.63950194346513
 30
0.0
 10
80.31172144259569
 20
38.91028644860577
 30
0.0
 10
80.31172144259569
 20
38.91028644860577
 30
0.0
 10
80.31172144259569
 20
38.91028644860577
 30
0.0
 10
80.52325030539002
 20
38.91028644860577
 30
0.0
 10
80.52325030539002
 20
38.91028644860577
 30
0.0
 10
80.52325030539002
 20
38.91028644860577
 30
0.0
 10
80.52325030539002
 20
38.63950194346513
 30
0.0
 10
80.52325030539002
 20
38.63950194346513
 30
0.0
 10
80.52325030539002
 20
38.63950194346513
 30
0.0
 10
80.99143878183548
 20
38.63950194346513
 30
0.0
 10
80.99143878183548
 20
38.63950194346513
 30
0.0
 10
80.99143878183548
 20
38.63950194346513
 30
0.0
 10
80.99143878183548
 20
38.41419269872979
 30
0.0
 10
80.99143878183548
 20
38.41419269872979
 30
0.0
 10
80.99143878183548
 20
38.41419269872979
 30
0.0
 10
80.52325030539002
 20
38.41419269872979
 30
0.0
 10
80.52325030539002
 20
38.41419269872979
 30
0.0
 10
80.52325030539002
 20
38.41419269872979
 30
0.0
 10
80.52325030539002
 20
37.53672687863666
 30
0.0
 10
80.52325030539002
 20
37.53672687863666
 30
0.0
 10
80.52325030539002
 20
37.53672687863666
 30
0.0
 10
80.29173988878124
 20
37.53672687863666
 30
0.0
 10
80.29173988878124
 20
37.53672687863666
 30
0.0
  0
HATCH
  5
11C
330
111
100
AcDbEntity
  8
Sichtbar (ISO)
 62
    18
420
        0
440
 33554687
100
AcDbHatch
 10
0.0
 20
0.0
 30
0.0
210
0.0
220
0.0
230
1.0
  2
SOLID
 70
     1
 71
     1
 91
        2
 92
        1
 93
        1
 72
     4
 94
        3
 73
     0
 74
     0
 95
       17
 96
       13
 40
0.0
 40
0.0
 40
0.0
 40
0.0
 40
1.0
 40
1.0
 40
1.0
 40
2.0
 40
2.0
 40
2.0
 40
3.0
 40
3.0
 40
3.0
 40
4.0
 40
4.0
 40
4.0
 40
4.0
 10
80.31172144259569
 20
38.41419269872979
 10
80.31172144259569
 20
38.41419269872979
 10
79.33296981523621
 20
38.41419269872979
 10
79.33296981523621
 20
38.41419269872979
 10
79.33296981523621
 20
38.41419269872979
 10
79.33296981523621
 20
38.40833603640486
 10
79.33296981523621
 20
38.40833603640486
 10
79.33296981523621
 20
38.40833603640486
 10
80.31172144259569
 20
37.74274358865459
 10
80.31172144259569
 20
37.74274358865459
 10
80.31172144259569
 20
37.74274358865459
 10
80.31172144259569
 20
38.41419269872979
 10
80.31172144259569
 20
38.41419269872979
 97
        0
 97
        1
330
11A
 92
        1
 93
        1
 72
     4
 94
        3
 73
     0
 74
     0
 95
       38
 96
       34
 40
0.0
 40
0.0
 40
0.0
 40
0.0
 40
1.0
 40
1.0
 40
1.0
 40
2.0
 40
2.0
 40
2.0
 40
3.0
 40
3.0
 40
3.0
 40
4.0
 40
4.0
 40
4.0
 40
5.0
 40
5.0
 40
5.0
 40
6.0
 40
6.0
 40
6.0
 40
7.0
 40
7.0
 40
7.0
 40
8.0
 40
8.0
 40
8.0
 40
9.0
 40
9.0
 40
9.0
 40
10.0
 40
10.0
 40
10.0
 40
11.0
 40
11.0
 40
11.0
 40
11.0
 10
80.29173988878124
 20
37.53672687863666
 10
80.29173988878124
 20
37.53672687863666
 10
78.99156085264795
 20
38.44795463448523
 10
78.99156085264795
 20
38.44795463448523
 10
78.99156085264795
 20
38.44795463448523
 10
78.99156085264795
 20
38.63950194346513
 10
78.99156085264795
 20
38.63950194346513
 10
78.99156085264795
 20
38.63950194346513
 10
80.31172144259569
 20
38.63950194346513
 10
80.31172144259569
 20
38.63950194346513
 10
80.31172144259569
 20
38.63950194346513
 10
80.31172144259569
 20
38.91028644860577
 10
80.31172144259569
 20
38.91028644860577
 10
80.31172144259569
 20
38.91028644860577
 10
80.52325030539002
 20
38.91028644860577
 10
80.52325030539002
 20
38.91028644860577
 10
80.52325030539002
 20
38.91028644860577
 10
80.52325030539002
 20
38.63950194346513
 10
80.52325030539002
 20
38.63950194346513
 10
80.52325030539002
 20
38.63950194346513
 10
80.99143878183548
 20
38.63950194346513
 10
80.99143878183548
 20
38.63950194346513
 10
80.99143878183548
 20
38.63950194346513
 10
80.99143878183548
 20
38.41419269872979
 10
80.99143878183548
 20
38.41419269872979
 10
80.99143878183548
 20
38.41419269872979
 10
80.52325030539002
 20
38.41419269872979
 10
80.52325030539002
 20
38.41419269872979
 10
80.52325030539002
 20
38.41419269872979
 10
80.52325030539002
 20
37.53672687863666
 10
80.52325030539002
 20
37.53672687863666
 10
80.52325030539002
 20
37.53672687863666
 10
80.29173988878124
 20
37.53672687863666
 10
80.29173988878124
 20
37.53672687863666
 97
        0
 97
        1
330
11B
 75
     2
 76
     1
 98
        1
 10
0.0
 20
0.0
450
        0
451
        0
460
0.0
461
0.0
452
        0
462
0.0
453
        0
470

  0
SPLINE
  5
11D
330
111
100
AcDbEntity
  8
Sichtbar (ISO)
100
AcDbSpline
210
0.0
220
0.0
230
1.0
 70
     9
 71
     3
 72
    62
 73
    58
 74
     0
 42
0.0000000001
 43
0.0000000001
 40
0.0
 40
0.0
 40
0.0
 40
0.0
 40
1.0
 40
1.0
 40
1.0
 40
2.0
 40
2.0
 40
2.0
 40
3.0
 40
3.0
 40
3.0
 40
4.0
 40
4.0
 40
4.0
 40
5.0
 40
5.0
 40
5.0
 40
6.0
 40
6.0
 40
6.0
 40
7.0
 40
7.0
 40
7.0
 40
8.0
 40
8.0
 40
8.0
 40
9.0
 40
9.0
 40
9.0
 40
10.0
 40
10.0
 40
10.0
 40
11.0
 40
11.0
 40
11.0
 40
12.0
 40
12.0
 40
12.0
 40
13.0
 40
13.0
 40
13.0
 40
14.0
 40
14.0
 40
14.0
 40
15.0
 40
15.0
 40
15.0
 40
16.0
 40
16.0
 40
16.0
 40
17.0
 40
17.0
 40
17.0
 40
18.0
 40
18.0
 40
18.0
 40
19.0
 40
19.0
 40
19.0
 40
19.0
 10
80.37373316133018
 20
39.35125867071774
 30
0.0
 10
80.6331488513695
 20
39.35987140943087
 30
0.0
 10
80.81367185479658
 20
39.50353189116579
 30
0.0
 10
80.81367185479658
 20
39.77741698224315
 30
0.0
 10
80.81367185479658
 20
40.01133896569161
 30
0.0
 10
80.66691078712494
 20
40.21184352293315
 30
0.0
 10
80.42713214135154
 20
40.21184352293315
 30
0.0
 10
80.17632919002537
 20
40.21184352293315
 30
0.0
 10
80.04369301384326
 20
40.02270778079293
 30
0.0
 10
80.04369301384326
 20
39.78602972095627
 30
0.0
 10
80.04369301384326
 20
39.73504230777458
 30
0.0
 10
80.04644909023145
 20
39.68715548052961
 30
0.0
 10
80.05196124300786
 20
39.64202472967283
 30
0.0
 10
80.05196124300786
 20
39.64202472967283
 30
0.0
 10
79.84904511892662
 20
39.64202472967283
 30
0.0
 10
79.84904511892662
 20
39.64202472967283
 30
0.0
 10
79.85180119531483
 20
39.66166177393875
 30
0.0
 10
79.85180119531483
 20
39.67854274181648
 30
0.0
 10
79.85180119531483
 20
39.69576821924273
 30
0.0
 10
79.85180119531483
 20
39.69576821924273
 30
0.0
 10
79.85180119531483
 20
39.7464111228759
 30
0.0
 10
79.85180119531483
 20
39.7464111228759
 30
0.0
 10
79.85180119531483
 20
39.94932724695711
 30
0.0
 10
79.73914657294717
 20
40.12709417399601
 30
0.0
 10
79.5245171242161
 20
40.12709417399601
 30
0.0
 10
79.31298826142175
 20
40.12709417399601
 30
0.0
 10
79.20308971544229
 20
39.97482095354796
 30
0.0
 10
79.20308971544229
 20
39.77156031991822
 30
0.0
 10
79.20308971544229
 20
39.51214462987891
 30
0.0
 10
79.4032497631353
 20
39.39397785473484
 30
0.0
 10
79.63751625613229
 20
39.39397785473484
 30
0.0
 10
79.63751625613229
 20
39.39397785473484
 30
0.0
 10
79.63751625613229
 20
39.15419920896145
 30
0.0
 10
79.63751625613229
 20
39.15419920896145
 30
0.0
 10
79.25648869546366
 20
39.16797959090246
 30
0.0
 10
78.99156085264795
 20
39.3712402245322
 30
0.0
 10
78.99156085264795
 20
39.77156031991822
 30
0.0
 10
78.99156085264795
 20
40.1188259448314
 30
0.0
 10
79.15795896458551
 20
40.38099771125891
 30
0.0
 10
79.5272732006043
 20
40.38099771125891
 30
0.0
 10
79.70504012764319
 20
40.38099771125891
 30
0.0
 10
79.85455727170303
 20
40.25973035017812
 30
0.0
 10
79.92518172915065
 20
40.10435654379335
 30
0.0
 10
79.92518172915065
 20
40.10435654379335
 30
0.0
 10
79.93069388192705
 20
40.10435654379335
 30
0.0
 10
79.93069388192705
 20
40.10435654379335
 30
0.0
 10
79.98443737149695
 20
40.34999185189167
 30
0.0
 10
80.17632919002537
 20
40.46540255064754
 30
0.0
 10
80.41610783579875
 20
40.46540255064754
 30
0.0
 10
80.81367185479658
 20
40.46540255064754
 30
0.0
 10
81.02520071759093
 20
40.15258788058686
 30
0.0
 10
81.02520071759093
 20
39.77741698224315
 30
0.0
 10
81.02520071759093
 20
39.3712402245322
 30
0.0
 10
80.78817814820572
 20
39.10321179577976
 30
0.0
 10
80.37373316133018
 20
39.11148002494435
 30
0.0
 10
80.37373316133018
 20
39.11148002494435
 30
0.0
 10
80.37373316133018
 20
39.35125867071774
 30
0.0
 10
80.37373316133018
 20
39.35125867071774
 30
0.0
  0
HATCH
  5
11E
330
111
100
AcDbEntity
  8
Sichtbar (ISO)
 62
    18
420
        0
440
 33554687
100
AcDbHatch
 10
0.0
 20
0.0
 30
0.0
210
0.0
220
0.0
230
1.0
  2
SOLID
 70
     1
 71
     1
 91
        1
 92
        1
 93
        1
 72
     4
 94
        3
 73
     0
 74
     0
 95
       62
 96
       58
 40
0.0
 40
0.0
 40
0.0
 40
0.0
 40
1.0
 40
1.0
 40
1.0
 40
2.0
 40
2.0
 40
2.0
 40
3.0
 40
3.0
 40
3.0
 40
4.0
 40
4.0
 40
4.0
 40
5.0
 40
5.0
 40
5.0
 40
6.0
 40
6.0
 40
6.0
 40
7.0
 40
7.0
 40
7.0
 40
8.0
 40
8.0
 40
8.0
 40
9.0
 40
9.0
 40
9.0
 40
10.0
 40
10.0
 40
10.0
 40
11.0
 40
11.0
 40
11.0
 40
12.0
 40
12.0
 40
12.0
 40
13.0
 40
13.0
 40
13.0
 40
14.0
 40
14.0
 40
14.0
 40
15.0
 40
15.0
 40
15.0
 40
16.0
 40
16.0
 40
16.0
 40
17.0
 40
17.0
 40
17.0
 40
18.0
 40
18.0
 40
18.0
 40
19.0
 40
19.0
 40
19.0
 40
19.0
 10
80.37373316133018
 20
39.35125867071774
 10
80.6331488513695
 20
39.35987140943087
 10
80.81367185479658
 20
39.50353189116579
 10
80.81367185479658
 20
39.77741698224315
 10
80.81367185479658
 20
40.01133896569161
 10
80.66691078712494
 20
40.21184352293315
 10
80.42713214135154
 20
40.21184352293315
 10
80.17632919002537
 20
40.21184352293315
 10
80.04369301384326
 20
40.02270778079293
 10
80.04369301384326
 20
39.78602972095627
 10
80.04369301384326
 20
39.73504230777458
 10
80.04644909023145
 20
39.68715548052961
 10
80.05196124300786
 20
39.64202472967283
 10
80.05196124300786
 20
39.64202472967283
 10
79.84904511892662
 20
39.64202472967283
 10
79.84904511892662
 20
39.64202472967283
 10
79.85180119531483
 20
39.66166177393875
 10
79.85180119531483
 20
39.67854274181648
 10
79.85180119531483
 20
39.69576821924273
 10
79.85180119531483
 20
39.69576821924273
 10
79.85180119531483
 20
39.7464111228759
 10
79.85180119531483
 20
39.7464111228759
 10
79.85180119531483
 20
39.94932724695711
 10
79.73914657294717
 20
40.12709417399601
 10
79.5245171242161
 20
40.12709417399601
 10
79.31298826142175
 20
40.12709417399601
 10
79.20308971544229
 20
39.97482095354796
 10
79.20308971544229
 20
39.77156031991822
 10
79.20308971544229
 20
39.51214462987891
 10
79.4032497631353
 20
39.39397785473484
 10
79.63751625613229
 20
39.39397785473484
 10
79.63751625613229
 20
39.39397785473484
 10
79.63751625613229
 20
39.15419920896145
 10
79.63751625613229
 20
39.15419920896145
 10
79.25648869546366
 20
39.16797959090246
 10
78.99156085264795
 20
39.3712402245322
 10
78.99156085264795
 20
39.77156031991822
 10
78.99156085264795
 20
40.1188259448314
 10
79.15795896458551
 20
40.38099771125891
 10
79.5272732006043
 20
40.38099771125891
 10
79.70504012764319
 20
40.38099771125891
 10
79.85455727170303
 20
40.25973035017812
 10
79.92518172915065
 20
40.10435654379335
 10
79.92518172915065
 20
40.10435654379335
 10
79.93069388192705
 20
40.10435654379335
 10
79.93069388192705
 20
40.10435654379335
 10
79.98443737149695
 20
40.34999185189167
 10
80.17632919002537
 20
40.46540255064754
 10
80.41610783579875
 20
40.46540255064754
 10
80.81367185479658
 20
40.46540255064754
 10
81.02520071759093
 20
40.15258788058686
 10
81.02520071759093
 20
39.77741698224315
 10
81.02520071759093
 20
39.3712402245322
 10
80.78817814820572
 20
39.10321179577976
 10
80.37373316133018
 20
39.11148002494435
 10
80.37373316133018
 20
39.11148002494435
 10
80.37373316133018
 20
39.35125867071774
 10
80.37373316133018
 20
39.35125867071774
 97
        0
 97
        1
330
11D
 75
     2
 76
     1
 98
        1
 10
0.0
 20
0.0
450
        0
451
        0
460
0.0
461
0.0
452
        0
462
0.0
453
        0
470

  0
ENDBLK
  5
114
330
111
100
AcDbEntity
  8
0
100
AcDbBlockEnd
  0
BLOCK
  5
13E
330
13C
100
AcDbEntity
  8
0
100
AcDbBlockBegin
  2
Block_18
 70
     0
 10
0.0
 20
0.0
 30
0.0
  3
Block_18
  1

  0
LINE
  5
140
330
13C
100
AcDbEntity
  8
Sichtbar (ISO)
 62
    18
420
        0
370
     5
100
AcDbLine
 10
19.45894972913379
 20
15.10196965244146
 30
0.0
 11
19.46125561159593
 21
21.05232334255681
 31
0.0
  0
LINE
  5
141
330
13C
100
AcDbEntity
  8
Sichtbar (ISO)
 62
    18
420
        0
370
     5
100
AcDbLine
 10
19.45874751114404
 20
14.58014402655461
 30
0.0
 11
19.45894972913379
 21
15.10196965244146
 31
0.0
  0
ENDBLK
  5
13F
330
13C
100
AcDbEntity
  8
0
100
AcDbBlockEnd
  0
BLOCK
  5
150
330
14E
100
AcDbEntity
  8
0
100
AcDbBlockBegin
  2
Block_19
 70
     0
 10
0.0
 20
0.0
 30
0.0
  3
Block_19
  1

  0
INSERT
  5
153
330
14E
100
AcDbEntity
  8
Sichtbar (ISO)
100
AcDbBlockReference
  2
Block_20
 10
0.0
 20
0.0
 30
0.0
  0
ENDBLK
  5
151
330
14E
100
AcDbEntity
  8
0
100
AcDbBlockEnd
  0
BLOCK
  5
154
330
152
100
AcDbEntity
  8
0
100
AcDbBlockBegin
  2
Block_20
 70
     0
 10
0.0
 20
0.0
 30
0.0
  3
Block_20
  1

  0
LINE
  5
156
330
152
100
AcDbEntity
  8
Sichtbar (ISO)
 62
    18
420
        0
370
     5
100
AcDbLine
 10
42.05740539770912
 20
3.889317670485597
 30
0.0
 11
20.16019143554223
 21
3.889317670485597
 31
0.0
  0
INSERT
  5
158
330
152
100
AcDbEntity
  8
Sichtbar (ISO)
100
AcDbBlockReference
  2
Block_21
 10
0.0
 20
0.0
 30
0.0
  0
INSERT
  5
15E
330
152
100
AcDbEntity
  8
Sichtbar (ISO)
100
AcDbBlockReference
  2
Block_22
 10
0.0
 20
0.0
 30
0.0
  0
ENDBLK
  5
155
330
152
100
AcDbEntity
  8
0
100
AcDbBlockEnd
  0
BLOCK
  5
159
330
157
100
AcDbEntity
  8
0
100
AcDbBlockBegin
  2
Block_21
 70
     0
 10
0.0
 20
0.0
 30
0.0
  3
Block_21
  1

  0
LWPOLYLINE
  5
15B
330
157
100
AcDbEntity
  8
Sichtbar (ISO)
100
AcDbPolyline
 90
        3
 70
     1
 43
0.0
 10
41.42495315363844
 20
4.110629056856558
 10
43.10613014415103
 20
3.890006016712435
 10
41.42495315363844
 20
3.668006284114635
  0
HATCH
  5
15C
330
157
100
AcDbEntity
  8
Sichtbar (ISO)
 62
    18
420
        0
440
 33554687
100
AcDbHatch
 10
0.0
 20
0.0
 30
0.0
210
0.0
220
0.0
230
1.0
  2
SOLID
 70
     1
 71
     1
 91
        1
 92
        1
 93
        3
 72
     1
 10
41.42495315363844
 20
4.110629056856558
 11
43.10613014415103
 21
3.890006016712435
 72
     1
 10
43.10613014415103
 20
3.890006016712435
 11
41.42495315363844
 21
3.668006284114635
 72
     1
 10
41.42495315363844
 20
3.668006284114635
 11
41.42495315363844
 21
4.110629056856558
 97
        1
330
15B
 75
     2
 76
     1
 98
        1
 10
0.0
 20
0.0
450
        0
451
        0
460
0.0
461
0.0
452
        0
462
0.0
453
        0
470

  0
ENDBLK
  5
15A
330
157
100
AcDbEntity
  8
0
100
AcDbBlockEnd
  0
BLOCK
  5
15F
330
15D
100
AcDbEntity
  8
0
100
AcDbBlockBegin
  2
Block_22
 70
     0
 10
0.0
 20
0.0
 30
0.0
  3
Block_22
  1

  0
LWPOLYLINE
  5
161
330
15D
100
AcDbEntity
  8
Sichtbar (ISO)
100
AcDbPolyline
 90
        3
 70
     1
 43
0.0
 10
20.79264502535333
 20
4.110629056856558
 10
19.11146803484073
 20
3.890006016712435
 10
20.79264502535333
 20
3.668006284114635
  0
HATCH
  5
162
330
15D
100
AcDbEntity
  8
Sichtbar (ISO)
 62
    18
420
        0
440
 33554687
100
AcDbHatch
 10
0.0
 20
0.0
 30
0.0
210
0.0
220
0.0
230
1.0
  2
SOLID
 70
     1
 71
     1
 91
        1
 92
        1
 93
        3
 72
     1
 10
20.79264502535333
 20
4.110629056856558
 11
19.11146803484073
 21
3.890006016712435
 72
     1
 10
19.11146803484073
 20
3.890006016712435
 11
20.79264502535333
 21
3.668006284114635
 72
     1
 10
20.79264502535333
 20
3.668006284114635
 11
20.79264502535333
 21
4.110629056856558
 97
        1
330
161
 75
     2
 76
     1
 98
        1
 10
0.0
 20
0.0
450
        0
451
        0
460
0.0
461
0.0
452
        0
462
0.0
453
        0
470

  0
ENDBLK
  5
160
330
15D
100
AcDbEntity
  8
0
100
AcDbBlockEnd
  0
BLOCK
  5
2EE
330
2EC
100
AcDbEntity
  8
0
100
AcDbBlockBegin
  2
Block_23
 70
     0
 10
0.0
 20
0.0
 30
0.0
  3
Block_23
  1

  0
INSERT
  5
2F1
330
2EC
100
AcDbEntity
  8
Sichtbar (ISO)
100
AcDbBlockReference
  2
Block_24
 10
0.0
 20
0.0
 30
0.0
  0
ENDBLK
  5
2EF
330
2EC
100
AcDbEntity
  8
0
100
AcDbBlockEnd
  0
BLOCK
  5
2F2
330
2F0
100
AcDbEntity
  8
0
100
AcDbBlockBegin
  2
Block_24
 70
     0
 10
0.0
 20
0.0
 30
0.0
  3
Block_24
  1

  0
LINE
  5
2F4
330
2F0
100
AcDbEntity
  8
Sichtbar (ISO)
 62
    18
420
        0
370
     5
100
AcDbLine
 10
78.05956563057733
 20
66.20872784124947
 30
0.0
 11
78.04192028213883
 21
80.72829269934103
 31
0.0
  0
INSERT
  5
2F6
330
2F0
100
AcDbEntity
  8
Sichtbar (ISO)
100
AcDbBlockReference
  2
Block_25
 10
0.0
 20
0.0
 30
0.0
  0
INSERT
  5
2FC
330
2F0
100
AcDbEntity
  8
Sichtbar (ISO)
100
AcDbBlockReference
  2
Block_26
 10
0.0
 20
0.0
 30
0.0
  0
ENDBLK
  5
2F3
330
2F0
100
AcDbEntity
  8
0
100
AcDbBlockEnd
  0
BLOCK
  5
2F7
330
2F5
100
AcDbEntity
  8
0
100
AcDbBlockBegin
  2
Block_25
 70
     0
 10
0.0
 20
0.0
 30
0.0
  3
Block_25
  1

  0
LWPOLYLINE
  5
2F9
330
2F5
100
AcDbEntity
  8
Sichtbar (ISO)
100
AcDbPolyline
 90
        3
 70
     1
 43
0.0
 10
78.28010557125029
 20
66.84144654192408
 10
78.06152502863458
 20
65.16000309480755
 10
77.83748616285942
 20
66.8409082457545
  0
HATCH
  5
2FA
330
2F5
100
AcDbEntity
  8
Sichtbar (ISO)
 62
    18
420
        0
440
 33554687
100
AcDbHatch
 10
0.0
 20
0.0
 30
0.0
210
0.0
220
0.0
230
1.0
  2
SOLID
 70
     1
 71
     1
 91
        1
 92
        1
 93
        3
 72
     1
 10
78.28010557125029
 20
66.84144654192408
 11
78.06152502863458
 21
65.16000309480755
 72
     1
 10
78.06152502863458
 20
65.16000309480755
 11
77.83748616285942
 21
66.8409082457545
 72
     1
 10
77.83748616285942
 20
66.8409082457545
 11
78.28010557125029
 21
66.84144654192408
 97
        1
330
2F9
 75
     2
 76
     1
 98
        1
 10
0.0
 20
0.0
450
        0
451
        0
460
0.0
461
0.0
452
        0
462
0.0
453
        0
470

  0
ENDBLK
  5
2F8
330
2F5
100
AcDbEntity
  8
0
100
AcDbBlockEnd
  0
BLOCK
  5
2FD
330
2FB
100
AcDbEntity
  8
0
100
AcDbBlockBegin
  2
Block_26
 70
     0
 10
0.0
 20
0.0
 30
0.0
  3
Block_26
  1

  0
LWPOLYLINE
  5
2FF
330
2FB
100
AcDbEntity
  8
Sichtbar (ISO)
100
AcDbPolyline
 90
        3
 70
     1
 43
0.0
 10
78.26399974985675
 20
80.09610691187431
 10
78.04133353931399
 20
81.77701744578296
 10
77.82137495850418
 20
80.09556861570473
  0
HATCH
  5
300
330
2FB
100
AcDbEntity
  8
Sichtbar (ISO)
 62
    18
420
        0
440
 33554687
100
AcDbHatch
 10
0.0
 20
0.0
 30
0.0
210
0.0
220
0.0
230
1.0
  2
SOLID
 70
     1
 71
     1
 91
        1
 92
        1
 93
        3
 72
     1
 10
78.26399974985675
 20
80.09610691187431
 11
78.04133353931399
 21
81.77701744578296
 72
     1
 10
78.04133353931399
 20
81.77701744578296
 11
77.82137495850418
 21
80.09556861570473
 72
     1
 10
77.82137495850418
 20
80.09556861570473
 11
78.26399974985675
 21
80.09610691187431
 97
        1
330
2FF
 75
     2
 76
     1
 98
        1
 10
0.0
 20
0.0
450
        0
451
        0
460
0.0
461
0.0
452
        0
462
0.0
453
        0
470

  0
ENDBLK
  5
2FE
330
2FB
100
AcDbEntity
  8
0
100
AcDbBlockEnd
  0
BLOCK
  5
305
330
303
100
AcDbEntity
  8
0
100
AcDbBlockBegin
  2
Block_27
 70
     0
 10
0.0
 20
0.0
 30
0.0
  3
Block_27
  1

  0
INSERT
  5
308
330
303
100
AcDbEntity
  8
Sichtbar (ISO)
100
AcDbBlockReference
  2
Block_28
 10
0.0
 20
0.0
 30
0.0
  0
ENDBLK
  5
306
330
303
100
AcDbEntity
  8
0
100
AcDbBlockEnd
  0
BLOCK
  5
309
330
307
100
AcDbEntity
  8
0
100
AcDbBlockBegin
  2
Block_28
 70
     0
 10
0.0
 20
0.0
 30
0.0
  3
Block_28
  1

  0
LINE
  5
30B
330
307
100
AcDbEntity
  8
Sichtbar (ISO)
 62
    18
420
        0
370
     5
100
AcDbLine
 10
63.88724486555217
 20
80.70702461768133
 30
0.0
 11
63.88748709882848
 21
77.79962779325355
 31
0.0
  0
INSERT
  5
30D
330
307
100
AcDbEntity
  8
Sichtbar (ISO)
100
AcDbBlockReference
  2
Block_29
 10
0.0
 20
0.0
 30
0.0
  0
INSERT
  5
313
330
307
100
AcDbEntity
  8
Sichtbar (ISO)
100
AcDbBlockReference
  2
Block_30
 10
0.0
 20
0.0
 30
0.0
  0
ENDBLK
  5
30A
330
307
100
AcDbEntity
  8
0
100
AcDbBlockEnd
  0
BLOCK
  5
30E
330
30C
100
AcDbEntity
  8
0
100
AcDbBlockBegin
  2
Block_29
 70
     0
 10
0.0
 20
0.0
 30
0.0
  3
Block_29
  1

  0
LWPOLYLINE
  5
310
330
30C
100
AcDbEntity
  8
Sichtbar (ISO)
100
AcDbPolyline
 90
        3
 70
     1
 43
0.0
 10
63.665983608012
 20
80.07455353324472
 10
63.88646433610629
 20
81.75574936412324
 10
64.10860839936455
 20
80.07459121397657
  0
HATCH
  5
311
330
30C
100
AcDbEntity
  8
Sichtbar (ISO)
 62
    18
420
        0
440
 33554687
100
AcDbHatch
 10
0.0
 20
0.0
 30
0.0
210
0.0
220
0.0
230
1.0
  2
SOLID
 70
     1
 71
     1
 91
        1
 92
        1
 93
        3
 72
     1
 10
63.665983608012
 20
80.07455353324472
 11
63.88646433610629
 21
81.75574936412324
 72
     1
 10
63.88646433610629
 20
81.75574936412324
 11
64.10860839936455
 21
80.07459121397657
 72
     1
 10
64.10860839936455
 20
80.07459121397657
 11
63.665983608012
 21
80.07455353324472
 97
        1
330
310
 75
     2
 76
     1
 98
        1
 10
0.0
 20
0.0
450
        0
451
        0
460
0.0
461
0.0
452
        0
462
0.0
453
        0
470

  0
ENDBLK
  5
30F
330
30C
100
AcDbEntity
  8
0
100
AcDbBlockEnd
  0
BLOCK
  5
314
330
312
100
AcDbEntity
  8
0
100
AcDbBlockBegin
  2
Block_30
 70
     0
 10
0.0
 20
0.0
 30
0.0
  3
Block_30
  1

  0
LWPOLYLINE
  5
316
330
312
100
AcDbEntity
  8
Sichtbar (ISO)
100
AcDbPolyline
 90
        3
 70
     1
 43
0.0
 10
63.66612356501608
 20
78.43206657991998
 10
63.88688420711856
 20
76.75090842977332
 10
64.10874297340694
 20
78.43210426065185
  0
HATCH
  5
317
330
312
100
AcDbEntity
  8
Sichtbar (ISO)
 62
    18
420
        0
440
 33554687
100
AcDbHatch
 10
0.0
 20
0.0
 30
0.0
210
0.0
220
0.0
230
1.0
  2
SOLID
 70
     1
 71
     1
 91
        1
 92
        1
 93
        3
 72
     1
 10
63.66612356501608
 20
78.43206657991998
 11
63.88688420711856
 21
76.75090842977332
 72
     1
 10
63.88688420711856
 20
76.75090842977332
 11
64.10874297340694
 21
78.43210426065185
 72
     1
 10
64.10874297340694
 20
78.43210426065185
 11
63.66612356501608
 21
78.43206657991998
 97
        1
330
316
 75
     2
 76
     1
 98
        1
 10
0.0
 20
0.0
450
        0
451
        0
460
0.0
461
0.0
452
        0
462
0.0
453
        0
470

  0
ENDBLK
  5
315
330
312
100
AcDbEntity
  8
0
100
AcDbBlockEnd
  0
BLOCK
  5
31A
330
318
100
AcDbEntity
  8
0
100
AcDbBlockBegin
  2
Block_31
 70
     0
 10
0.0
 20
0.0
 30
0.0
  3
Block_31
  1

  0
INSERT
  5
31D
330
318
100
AcDbEntity
  8
Sichtbar (ISO)
100
AcDbBlockReference
  2
Block_32
 10
0.0
 20
0.0
 30
0.0
  0
ENDBLK
  5
31B
330
318
100
AcDbEntity
  8
0
100
AcDbBlockEnd
  0
BLOCK
  5
31E
330
31C
100
AcDbEntity
  8
0
100
AcDbBlockBegin
  2
Block_32
 70
     0
 10
0.0
 20
0.0
 30
0.0
  3
Block_32
  1

  0
SPLINE
  5
320
330
31C
100
AcDbEntity
  8
Sichtbar (ISO)
100
AcDbSpline
210
0.0
220
0.0
230
1.0
 70
     9
 71
     3
 72
    41
 73
    37
 74
     0
 42
0.0000000001
 43
0.0000000001
 40
0.0
 40
0.0
 40
0.0
 40
0.0
 40
1.0
 40
1.0
 40
1.0
 40
2.0
 40
2.0
 40
2.0
 40
3.0
 40
3.0
 40
3.0
 40
4.0
 40
4.0
 40
4.0
 40
5.0
 40
5.0
 40
5.0
 40
6.0
 40
6.0
 40
6.0
 40
7.0
 40
7.0
 40
7.0
 40
8.0
 40
8.0
 40
8.0
 40
9.0
 40
9.0
 40
9.0
 40
10.0
 40
10.0
 40
10.0
 40
11.0
 40
11.0
 40
11.0
 40
12.0
 40
12.0
 40
12.0
 40
12.0
 10
65.90881074741169
 20
78.31201576818242
 30
0.0
 10
65.69728188461735
 20
78.65049639960822
 30
0.0
 10
65.57877059992475
 20
78.82240666432217
 30
0.0
 10
65.29971786561951
 20
78.82240666432217
 30
0.0
 10
65.08233234050026
 20
78.82240666432217
 30
0.0
 10
64.93867185876533
 20
78.64756806844575
 30
0.0
 10
64.93867185876533
 20
78.43603920565141
 30
0.0
 10
64.93867185876533
 20
78.15681421657192
 30
0.0
 10
65.19533147241644
 20
78.03830293187932
 30
0.0
 10
65.43511011818984
 20
78.04674341581819
 30
0.0
 10
65.43511011818984
 20
78.04674341581819
 30
0.0
 10
65.43511011818984
 20
77.80713702481905
 30
0.0
 10
65.43511011818984
 20
77.80713702481905
 30
0.0
 10
65.02893336047887
 20
77.7843993946164
 30
0.0
 10
64.72714299597099
 20
78.02710637155225
 30
0.0
 10
64.72714299597099
 20
78.45016409714094
 30
0.0
 10
64.72714299597099
 20
78.79708521250559
 30
0.0
 10
64.9300591200522
 20
79.07631020158508
 30
0.0
 10
65.30247394200772
 20
79.07631020158508
 30
0.0
 10
65.6552517196973
 20
79.07631020158508
 30
0.0
 10
65.82991806079947
 20
78.83945988697417
 30
0.0
 10
65.98804794357244
 20
78.59124075726191
 30
0.0
 10
66.13756508763228
 20
78.34302162754966
 30
0.0
 10
66.26985675426587
 20
78.07499319879723
 30
0.0
 10
66.51549206236419
 20
78.02986244794046
 30
0.0
 10
66.51549206236419
 20
78.02986244794046
 30
0.0
 10
66.51549206236419
 20
79.05667315731917
 30
0.0
 10
66.51549206236419
 20
79.05667315731917
 30
0.0
 10
66.51549206236419
 20
79.05667315731917
 30
0.0
 10
66.72702092515852
 20
79.05667315731917
 30
0.0
 10
66.72702092515852
 20
79.05667315731917
 30
0.0
 10
66.72702092515852
 20
79.05667315731917
 30
0.0
 10
66.72702092515852
 20
77.75063745886095
 30
0.0
 10
66.72702092515852
 20
77.75063745886095
 30
0.0
 10
66.25573186277634
 20
77.78732772577886
 30
0.0
 10
66.07830944528598
 20
78.02986244794046
 30
0.0
 10
65.90881074741169
 20
78.31201576818242
 30
0.0
  0
HATCH
  5
321
330
31C
100
AcDbEntity
  8
Sichtbar (ISO)
 62
    18
420
        0
440
 33554687
100
AcDbHatch
 10
0.0
 20
0.0
 30
0.0
210
0.0
220
0.0
230
1.0
  2
SOLID
 70
     1
 71
     1
 91
        1
 92
        1
 93
        1
 72
     4
 94
        3
 73
     0
 74
     0
 95
       41
 96
       37
 40
0.0
 40
0.0
 40
0.0
 40
0.0
 40
1.0
 40
1.0
 40
1.0
 40
2.0
 40
2.0
 40
2.0
 40
3.0
 40
3.0
 40
3.0
 40
4.0
 40
4.0
 40
4.0
 40
5.0
 40
5.0
 40
5.0
 40
6.0
 40
6.0
 40
6.0
 40
7.0
 40
7.0
 40
7.0
 40
8.0
 40
8.0
 40
8.0
 40
9.0
 40
9.0
 40
9.0
 40
10.0
 40
10.0
 40
10.0
 40
11.0
 40
11.0
 40
11.0
 40
12.0
 40
12.0
 40
12.0
 40
12.0
 10
65.90881074741169
 20
78.31201576818242
 10
65.69728188461735
 20
78.65049639960822
 10
65.57877059992475
 20
78.82240666432217
 10
65.29971786561951
 20
78.82240666432217
 10
65.08233234050026
 20
78.82240666432217
 10
64.93867185876533
 20
78.64756806844575
 10
64.93867185876533
 20
78.43603920565141
 10
64.93867185876533
 20
78.15681421657192
 10
65.19533147241644
 20
78.03830293187932
 10
65.43511011818984
 20
78.04674341581819
 10
65.43511011818984
 20
78.04674341581819
 10
65.43511011818984
 20
77.80713702481905
 10
65.43511011818984
 20
77.80713702481905
 10
65.02893336047887
 20
77.7843993946164
 10
64.72714299597099
 20
78.02710637155225
 10
64.72714299597099
 20
78.45016409714094
 10
64.72714299597099
 20
78.79708521250559
 10
64.9300591200522
 20
79.07631020158508
 10
65.30247394200772
 20
79.07631020158508
 10
65.6552517196973
 20
79.07631020158508
 10
65.82991806079947
 20
78.83945988697417
 10
65.98804794357244
 20
78.59124075726191
 10
66.13756508763228
 20
78.34302162754966
 10
66.26985675426587
 20
78.07499319879723
 10
66.51549206236419
 20
78.02986244794046
 10
66.51549206236419
 20
78.02986244794046
 10
66.51549206236419
 20
79.05667315731917
 10
66.51549206236419
 20
79.05667315731917
 10
66.51549206236419
 20
79.05667315731917
 10
66.72702092515852
 20
79.05667315731917
 10
66.72702092515852
 20
79.05667315731917
 10
66.72702092515852
 20
79.05667315731917
 10
66.72702092515852
 20
77.75063745886095
 10
66.72702092515852
 20
77.75063745886095
 10
66.25573186277634
 20
77.78732772577886
 10
66.07830944528598
 20
78.02986244794046
 10
65.90881074741169
 20
78.31201576818242
 97
        0
 97
        1
330
320
 75
     2
 76
     1
 98
        1
 10
0.0
 20
0.0
450
        0
451
        0
460
0.0
461
0.0
452
        0
462
0.0
453
        0
470

  0
SPLINE
  5
322
330
31C
100
AcDbEntity
  8
Sichtbar (ISO)
100
AcDbSpline
210
0.0
220
0.0
230
1.0
 70
     9
 71
     3
 72
    53
 73
    49
 74
     0
 42
0.0000000001
 43
0.0000000001
 40
0.0
 40
0.0
 40
0.0
 40
0.0
 40
1.0
 40
1.0
 40
1.0
 40
2.0
 40
2.0
 40
2.0
 40
3.0
 40
3.0
 40
3.0
 40
4.0
 40
4.0
 40
4.0
 40
5.0
 40
5.0
 40
5.0
 40
6.0
 40
6.0
 40
6.0
 40
7.0
 40
7.0
 40
7.0
 40
8.0
 40
8.0
 40
8.0
 40
9.0
 40
9.0
 40
9.0
 40
10.0
 40
10.0
 40
10.0
 40
11.0
 40
11.0
 40
11.0
 40
12.0
 40
12.0
 40
12.0
 40
13.0
 40
13.0
 40
13.0
 40
14.0
 40
14.0
 40
14.0
 40
15.0
 40
15.0
 40
15.0
 40
16.0
 40
16.0
 40
16.0
 40
16.0
 10
66.18820799126545
 20
79.59049070275863
 30
0.0
 10
66.39422470128339
 20
79.60461559424816
 30
0.0
 10
66.54925399811964
 20
79.77101370618573
 30
0.0
 10
66.54925399811964
 20
80.01079235195911
 30
0.0
 10
66.54925399811964
 20
80.23920218263118
 30
0.0
 10
66.39112411534667
 20
80.43385007754778
 30
0.0
 10
66.07520885934926
 20
80.43385007754778
 30
0.0
 10
65.81303709292175
 20
80.43385007754778
 30
0.0
 10
65.62114527439333
 20
80.2533270741207
 30
0.0
 10
65.62114527439333
 20
79.98254256898007
 30
0.0
 10
65.62114527439333
 20
79.82734101736956
 30
0.0
 10
65.69728188461735
 20
79.70331757990056
 30
0.0
 10
65.81028101653354
 20
79.61030000179881
 30
0.0
 10
65.81028101653354
 20
79.61030000179881
 30
0.0
 10
65.79891220143221
 20
79.40428329178087
 30
0.0
 10
65.79891220143221
 20
79.40428329178087
 30
0.0
 10
65.79891220143221
 20
79.40428329178087
 30
0.0
 10
64.76090493172645
 20
79.59049070275863
 30
0.0
 10
64.76090493172645
 20
79.59049070275863
 30
0.0
 10
64.76090493172645
 20
79.59049070275863
 30
0.0
 10
64.76090493172645
 20
80.57768281405698
 30
0.0
 10
64.76090493172645
 20
80.57768281405698
 30
0.0
 10
64.76090493172645
 20
80.57768281405698
 30
0.0
 10
64.97243379452078
 20
80.57768281405698
 30
0.0
 10
64.97243379452078
 20
80.57768281405698
 30
0.0
 10
64.97243379452078
 20
80.57768281405698
 30
0.0
 10
64.97243379452078
 20
79.77101370618573
 30
0.0
 10
64.97243379452078
 20
79.77101370618573
 30
0.0
 10
64.97243379452078
 20
79.77101370618573
 30
0.0
 10
65.54776474055751
 20
79.66387123659444
 30
0.0
 10
65.54776474055751
 20
79.66387123659444
 30
0.0
 10
65.54776474055751
 20
79.66387123659444
 30
0.0
 10
65.55362140288242
 20
79.66955564414512
 30
0.0
 10
65.55362140288242
 20
79.66955564414512
 30
0.0
 10
65.45474716245576
 20
79.75688881469619
 30
0.0
 10
65.40961641159899
 20
79.90640595875603
 30
0.0
 10
65.40961641159899
 20
80.04179821132636
 30
0.0
 10
65.40961641159899
 20
80.39715981062988
 30
0.0
 10
65.63527016588285
 20
80.68775361481071
 30
0.0
 10
66.09519041316371
 20
80.68775361481071
 30
0.0
 10
66.43349878981524
 20
80.68775361481071
 30
0.0
 10
66.76078286091398
 20
80.45365937658798
 30
0.0
 10
66.76078286091398
 20
79.98822697653072
 30
0.0
 10
66.76078286091398
 20
79.64130586116606
 30
0.0
 10
66.54925399811964
 20
79.3591525409241
 30
0.0
 10
66.18820799126545
 20
79.35071205698524
 30
0.0
 10
66.18820799126545
 20
79.35071205698524
 30
0.0
 10
66.18820799126545
 20
79.59049070275863
 30
0.0
 10
66.18820799126545
 20
79.59049070275863
 30
0.0
  0
HATCH
  5
323
330
31C
100
AcDbEntity
  8
Sichtbar (ISO)
 62
    18
420
        0
440
 33554687
100
AcDbHatch
 10
0.0
 20
0.0
 30
0.0
210
0.0
220
0.0
230
1.0
  2
SOLID
 70
     1
 71
     1
 91
        1
 92
        1
 93
        1
 72
     4
 94
        3
 73
     0
 74
     0
 95
       53
 96
       49
 40
0.0
 40
0.0
 40
0.0
 40
0.0
 40
1.0
 40
1.0
 40
1.0
 40
2.0
 40
2.0
 40
2.0
 40
3.0
 40
3.0
 40
3.0
 40
4.0
 40
4.0
 40
4.0
 40
5.0
 40
5.0
 40
5.0
 40
6.0
 40
6.0
 40
6.0
 40
7.0
 40
7.0
 40
7.0
 40
8.0
 40
8.0
 40
8.0
 40
9.0
 40
9.0
 40
9.0
 40
10.0
 40
10.0
 40
10.0
 40
11.0
 40
11.0
 40
11.0
 40
12.0
 40
12.0
 40
12.0
 40
13.0
 40
13.0
 40
13.0
 40
14.0
 40
14.0
 40
14.0
 40
15.0
 40
15.0
 40
15.0
 40
16.0
 40
16.0
 40
16.0
 40
16.0
 10
66.18820799126545
 20
79.59049070275863
 10
66.39422470128339
 20
79.60461559424816
 10
66.54925399811964
 20
79.77101370618573
 10
66.54925399811964
 20
80.01079235195911
 10
66.54925399811964
 20
80.23920218263118
 10
66.39112411534667
 20
80.43385007754778
 10
66.07520885934926
 20
80.43385007754778
 10
65.81303709292175
 20
80.43385007754778
 10
65.62114527439333
 20
80.2533270741207
 10
65.62114527439333
 20
79.98254256898007
 10
65.62114527439333
 20
79.82734101736956
 10
65.69728188461735
 20
79.70331757990056
 10
65.81028101653354
 20
79.61030000179881
 10
65.81028101653354
 20
79.61030000179881
 10
65.79891220143221
 20
79.40428329178087
 10
65.79891220143221
 20
79.40428329178087
 10
65.79891220143221
 20
79.40428329178087
 10
64.76090493172645
 20
79.59049070275863
 10
64.76090493172645
 20
79.59049070275863
 10
64.76090493172645
 20
79.59049070275863
 10
64.76090493172645
 20
80.57768281405698
 10
64.76090493172645
 20
80.57768281405698
 10
64.76090493172645
 20
80.57768281405698
 10
64.97243379452078
 20
80.57768281405698
 10
64.97243379452078
 20
80.57768281405698
 10
64.97243379452078
 20
80.57768281405698
 10
64.97243379452078
 20
79.77101370618573
 10
64.97243379452078
 20
79.77101370618573
 10
64.97243379452078
 20
79.77101370618573
 10
65.54776474055751
 20
79.66387123659444
 10
65.54776474055751
 20
79.66387123659444
 10
65.54776474055751
 20
79.66387123659444
 10
65.55362140288242
 20
79.66955564414512
 10
65.55362140288242
 20
79.66955564414512
 10
65.45474716245576
 20
79.75688881469619
 10
65.40961641159899
 20
79.90640595875603
 10
65.40961641159899
 20
80.04179821132636
 10
65.40961641159899
 20
80.39715981062988
 10
65.63527016588285
 20
80.68775361481071
 10
66.09519041316371
 20
80.68775361481071
 10
66.43349878981524
 20
80.68775361481071
 10
66.76078286091398
 20
80.45365937658798
 10
66.76078286091398
 20
79.98822697653072
 10
66.76078286091398
 20
79.64130586116606
 10
66.54925399811964
 20
79.3591525409241
 10
66.18820799126545
 20
79.35071205698524
 10
66.18820799126545
 20
79.35071205698524
 10
66.18820799126545
 20
79.59049070275863
 10
66.18820799126545
 20
79.59049070275863
 97
        0
 97
        1
330
322
 75
     2
 76
     1
 98
        1
 10
0.0
 20
0.0
450
        0
451
        0
460
0.0
461
0.0
452
        0
462
0.0
453
        0
470

  0
ENDBLK
  5
31F
330
31C
100
AcDbEntity
  8
0
100
AcDbBlockEnd
  0
BLOCK
  5
326
330
324
100
AcDbEntity
  8
0
100
AcDbBlockBegin
  2
Block_33
 70
     0
 10
0.0
 20
0.0
 30
0.0
  3
Block_33
  1

  0
INSERT
  5
329
330
324
100
AcDbEntity
  8
Sichtbar (ISO)
100
AcDbBlockReference
  2
Block_34
 10
0.0
 20
0.0
 30
0.0
  0
ENDBLK
  5
327
330
324
100
AcDbEntity
  8
0
100
AcDbBlockEnd
  0
BLOCK
  5
32A
330
328
100
AcDbEntity
  8
0
100
AcDbBlockBegin
  2
Block_34
 70
     0
 10
0.0
 20
0.0
 30
0.0
  3
Block_34
  1

  0
SPLINE
  5
32C
330
328
100
AcDbEntity
  8
Sichtbar (ISO)
100
AcDbSpline
210
0.0
220
0.0
230
1.0
 70
     9
 71
     3
 72
    17
 73
    13
 74
     0
 42
0.0000000001
 43
0.0000000001
 40
0.0
 40
0.0
 40
0.0
 40
0.0
 40
1.0
 40
1.0
 40
1.0
 40
2.0
 40
2.0
 40
2.0
 40
3.0
 40
3.0
 40
3.0
 40
4.0
 40
4.0
 40
4.0
 40
4.0
 10
80.74752602147979
 20
72.66223142714695
 30
0.0
 10
80.74752602147979
 20
72.90201007292033
 30
0.0
 10
80.58112790954222
 20
73.07133651602036
 30
0.0
 10
80.35823023164656
 20
73.07133651602036
 30
0.0
 10
80.143945292464
 20
73.07133651602036
 30
0.0
 10
79.97754718052646
 20
72.88512910504261
 30
0.0
 10
79.97754718052646
 20
72.65947535075873
 30
0.0
 10
79.97754718052646
 20
72.42245278137355
 30
0.0
 10
80.1270643245863
 20
72.23641762517006
 30
0.0
 10
80.36098630803476
 20
72.23641762517006
 30
0.0
 10
80.60076495380815
 20
72.23641762517006
 30
0.0
 10
80.74752602147979
 20
72.4140122974347
 30
0.0
 10
80.74752602147979
 20
72.66223142714695
 30
0.0
  0
SPLINE
  5
32D
330
328
100
AcDbEntity
  8
Sichtbar (ISO)
100
AcDbSpline
210
0.0
220
0.0
230
1.0
 70
     9
 71
     3
 72
    17
 73
    13
 74
     0
 42
0.0000000001
 43
0.0000000001
 40
0.0
 40
0.0
 40
0.0
 40
0.0
 40
1.0
 40
1.0
 40
1.0
 40
2.0
 40
2.0
 40
2.0
 40
3.0
 40
3.0
 40
3.0
 40
4.0
 40
4.0
 40
4.0
 40
4.0
 10
79.44424639940978
 20
72.99227157463388
 30
0.0
 10
79.24133027532857
 20
72.99227157463388
 30
0.0
 10
79.13694388212549
 20
72.85136716928716
 30
0.0
 10
79.13694388212549
 20
72.65671927437054
 30
0.0
 10
79.13694388212549
 20
72.46482745584213
 30
0.0
 10
79.24408635171676
 20
72.30686982784343
 30
0.0
 10
79.44424639940978
 20
72.30686982784343
 30
0.0
 10
79.66163192452905
 20
72.30686982784343
 30
0.0
 10
79.7660183177321
 20
72.46758353223033
 30
0.0
 10
79.7660183177321
 20
72.66223142714695
 30
0.0
 10
79.7660183177321
 20
72.85412324567537
 30
0.0
 10
79.64750703303952
 20
72.99227157463388
 30
0.0
 10
79.44424639940978
 20
72.99227157463388
 30
0.0
  0
SPLINE
  5
32E
330
328
100
AcDbEntity
  8
Sichtbar (ISO)
100
AcDbSpline
210
0.0
220
0.0
230
1.0
 70
     9
 71
     3
 72
    29
 73
    25
 74
     0
 42
0.0000000001
 43
0.0000000001
 40
0.0
 40
0.0
 40
0.0
 40
0.0
 40
1.0
 40
1.0
 40
1.0
 40
2.0
 40
2.0
 40
2.0
 40
3.0
 40
3.0
 40
3.0
 40
4.0
 40
4.0
 40
4.0
 40
5.0
 40
5.0
 40
5.0
 40
6.0
 40
6.0
 40
6.0
 40
7.0
 40
7.0
 40
7.0
 40
8.0
 40
8.0
 40
8.0
 40
8.0
 10
79.85042315712073
 20
72.33219127966001
 30
0.0
 10
79.78289928560982
 20
72.16303709133424
 30
0.0
 10
79.61650117367226
 20
72.05296629058051
 30
0.0
 10
79.43597817024517
 20
72.05296629058051
 30
0.0
 10
79.10869409914645
 20
72.05296629058051
 30
0.0
 10
78.92541501933115
 20
72.33219127966001
 30
0.0
 10
78.92541501933115
 20
72.63966605171856
 30
0.0
 10
78.92541501933115
 20
73.07702092357103
 30
0.0
 10
79.17931855659407
 20
73.24617511189678
 30
0.0
 10
79.43597817024517
 20
73.24617511189678
 30
0.0
 10
79.61650117367226
 20
73.24617511189678
 30
0.0
 10
79.77428654689671
 20
73.13610431114305
 30
0.0
 10
79.85042315712073
 20
72.96970619920549
 30
0.0
 10
79.92655976734475
 20
73.20948484497889
 30
0.0
 10
80.10157061799544
 20
73.32506779850901
 30
0.0
 10
80.34996200248196
 20
73.32506779850901
 30
0.0
 10
80.73615720637846
 20
73.32506779850901
 30
0.0
 10
80.95905488427412
 20
73.03189017271425
 30
0.0
 10
80.95905488427412
 20
72.66223142714695
 30
0.0
 10
80.95905488427412
 20
72.27862004486438
 30
0.0
 10
80.75613876019291
 20
71.98251408790715
 30
0.0
 10
80.34996200248196
 20
71.98251408790715
 30
0.0
 10
80.11293943309677
 20
71.98251408790715
 30
0.0
 10
79.92966035328148
 20
72.10653752537614
 30
0.0
 10
79.85042315712073
 20
72.33219127966001
 30
0.0
  0
HATCH
  5
32F
330
328
100
AcDbEntity
  8
Sichtbar (ISO)
 62
    18
420
        0
440
 33554687
100
AcDbHatch
 10
0.0
 20
0.0
 30
0.0
210
0.0
220
0.0
230
1.0
  2
SOLID
 70
     1
 71
     1
 91
        3
 92
        1
 93
        1
 72
     4
 94
        3
 73
     0
 74
     0
 95
       17
 96
       13
 40
0.0
 40
0.0
 40
0.0
 40
0.0
 40
1.0
 40
1.0
 40
1.0
 40
2.0
 40
2.0
 40
2.0
 40
3.0
 40
3.0
 40
3.0
 40
4.0
 40
4.0
 40
4.0
 40
4.0
 10
80.74752602147979
 20
72.66223142714695
 10
80.74752602147979
 20
72.90201007292033
 10
80.58112790954222
 20
73.07133651602036
 10
80.35823023164656
 20
73.07133651602036
 10
80.143945292464
 20
73.07133651602036
 10
79.97754718052646
 20
72.88512910504261
 10
79.97754718052646
 20
72.65947535075873
 10
79.97754718052646
 20
72.42245278137355
 10
80.1270643245863
 20
72.23641762517006
 10
80.36098630803476
 20
72.23641762517006
 10
80.60076495380815
 20
72.23641762517006
 10
80.74752602147979
 20
72.4140122974347
 10
80.74752602147979
 20
72.66223142714695
 97
        0
 97
        1
330
32C
 92
        1
 93
        1
 72
     4
 94
        3
 73
     0
 74
     0
 95
       17
 96
       13
 40
0.0
 40
0.0
 40
0.0
 40
0.0
 40
1.0
 40
1.0
 40
1.0
 40
2.0
 40
2.0
 40
2.0
 40
3.0
 40
3.0
 40
3.0
 40
4.0
 40
4.0
 40
4.0
 40
4.0
 10
79.44424639940978
 20
72.99227157463388
 10
79.24133027532857
 20
72.99227157463388
 10
79.13694388212549
 20
72.85136716928716
 10
79.13694388212549
 20
72.65671927437054
 10
79.13694388212549
 20
72.46482745584213
 10
79.24408635171676
 20
72.30686982784343
 10
79.44424639940978
 20
72.30686982784343
 10
79.66163192452905
 20
72.30686982784343
 10
79.7660183177321
 20
72.46758353223033
 10
79.7660183177321
 20
72.66223142714695
 10
79.7660183177321
 20
72.85412324567537
 10
79.64750703303952
 20
72.99227157463388
 10
79.44424639940978
 20
72.99227157463388
 97
        0
 97
        1
330
32D
 92
        1
 93
        1
 72
     4
 94
        3
 73
     0
 74
     0
 95
       29
 96
       25
 40
0.0
 40
0.0
 40
0.0
 40
0.0
 40
1.0
 40
1.0
 40
1.0
 40
2.0
 40
2.0
 40
2.0
 40
3.0
 40
3.0
 40
3.0
 40
4.0
 40
4.0
 40
4.0
 40
5.0
 40
5.0
 40
5.0
 40
6.0
 40
6.0
 40
6.0
 40
7.0
 40
7.0
 40
7.0
 40
8.0
 40
8.0
 40
8.0
 40
8.0
 10
79.85042315712073
 20
72.33219127966001
 10
79.78289928560982
 20
72.16303709133424
 10
79.61650117367226
 20
72.05296629058051
 10
79.43597817024517
 20
72.05296629058051
 10
79.10869409914645
 20
72.05296629058051
 10
78.92541501933115
 20
72.33219127966001
 10
78.92541501933115
 20
72.63966605171856
 10
78.92541501933115
 20
73.07702092357103
 10
79.17931855659407
 20
73.24617511189678
 10
79.43597817024517
 20
73.24617511189678
 10
79.61650117367226
 20
73.24617511189678
 10
79.77428654689671
 20
73.13610431114305
 10
79.85042315712073
 20
72.96970619920549
 10
79.92655976734475
 20
73.20948484497889
 10
80.10157061799544
 20
73.32506779850901
 10
80.34996200248196
 20
73.32506779850901
 10
80.73615720637846
 20
73.32506779850901
 10
80.95905488427412
 20
73.03189017271425
 10
80.95905488427412
 20
72.66223142714695
 10
80.95905488427412
 20
72.27862004486438
 10
80.75613876019291
 20
71.98251408790715
 10
80.34996200248196
 20
71.98251408790715
 10
80.11293943309677
 20
71.98251408790715
 10
79.92966035328148
 20
72.10653752537614
 10
79.85042315712073
 20
72.33219127966001
 97
        0
 97
        1
330
32E
 75
     2
 76
     1
 98
        1
 10
0.0
 20
0.0
450
        0
451
        0
460
0.0
461
0.0
452
        0
462
0.0
453
        0
470

  0
SPLINE
  5
330
330
328
100
AcDbEntity
  8
Sichtbar (ISO)
100
AcDbSpline
210
0.0
220
0.0
230
1.0
 70
     9
 71
     3
 72
    26
 73
    22
 74
     0
 42
0.0000000001
 43
0.0000000001
 40
0.0
 40
0.0
 40
0.0
 40
0.0
 40
1.0
 40
1.0
 40
1.0
 40
2.0
 40
2.0
 40
2.0
 40
3.0
 40
3.0
 40
3.0
 40
4.0
 40
4.0
 40
4.0
 40
5.0
 40
5.0
 40
5.0
 40
6.0
 40
6.0
 40
6.0
 40
7.0
 40
7.0
 40
7.0
 40
7.0
 10
79.18483070937046
 20
74.62903643967607
 30
0.0
 10
79.18483070937046
 20
74.62903643967607
 30
0.0
 10
79.18483070937046
 20
73.57983260964323
 30
0.0
 10
79.18483070937046
 20
73.57983260964323
 30
0.0
 10
79.18483070937046
 20
73.57983260964323
 30
0.0
 10
78.95917695508661
 20
73.57983260964323
 30
0.0
 10
78.95917695508661
 20
73.57983260964323
 30
0.0
 10
78.95917695508661
 20
73.57983260964323
 30
0.0
 10
78.95917695508661
 20
74.87449949300013
 30
0.0
 10
78.95917695508661
 20
74.87449949300013
 30
0.0
 10
78.95917695508661
 20
74.87449949300013
 30
0.0
 10
79.16519366510454
 20
74.87449949300013
 30
0.0
 10
79.16519366510454
 20
74.87449949300013
 30
0.0
 10
79.56275768410236
 20
74.47107881167737
 30
0.0
 10
80.30173066568845
 20
74.1439669953529
 30
0.0
 10
80.92529294851868
 20
74.10727672843499
 30
0.0
 10
80.92529294851868
 20
74.10727672843499
 30
0.0
 10
80.92529294851868
 20
73.83924829968255
 30
0.0
 10
80.92529294851868
 20
73.83924829968255
 30
0.0
 10
80.24833168566708
 20
73.88437905053932
 30
0.0
 10
79.62786998877359
 20
74.20873479047561
 30
0.0
 10
79.18483070937046
 20
74.62903643967607
 30
0.0
  0
HATCH
  5
331
330
328
100
AcDbEntity
  8
Sichtbar (ISO)
 62
    18
420
        0
440
 33554687
100
AcDbHatch
 10
0.0
 20
0.0
 30
0.0
210
0.0
220
0.0
230
1.0
  2
SOLID
 70
     1
 71
     1
 91
        1
 92
        1
 93
        1
 72
     4
 94
        3
 73
     0
 74
     0
 95
       26
 96
       22
 40
0.0
 40
0.0
 40
0.0
 40
0.0
 40
1.0
 40
1.0
 40
1.0
 40
2.0
 40
2.0
 40
2.0
 40
3.0
 40
3.0
 40
3.0
 40
4.0
 40
4.0
 40
4.0
 40
5.0
 40
5.0
 40
5.0
 40
6.0
 40
6.0
 40
6.0
 40
7.0
 40
7.0
 40
7.0
 40
7.0
 10
79.18483070937046
 20
74.62903643967607
 10
79.18483070937046
 20
74.62903643967607
 10
79.18483070937046
 20
73.57983260964323
 10
79.18483070937046
 20
73.57983260964323
 10
79.18483070937046
 20
73.57983260964323
 10
78.95917695508661
 20
73.57983260964323
 10
78.95917695508661
 20
73.57983260964323
 10
78.95917695508661
 20
73.57983260964323
 10
78.95917695508661
 20
74.87449949300013
 10
78.95917695508661
 20
74.87449949300013
 10
78.95917695508661
 20
74.87449949300013
 10
79.16519366510454
 20
74.87449949300013
 10
79.16519366510454
 20
74.87449949300013
 10
79.56275768410236
 20
74.47107881167737
 10
80.30173066568845
 20
74.1439669953529
 10
80.92529294851868
 20
74.10727672843499
 10
80.92529294851868
 20
74.10727672843499
 10
80.92529294851868
 20
73.83924829968255
 10
80.92529294851868
 20
73.83924829968255
 10
80.24833168566708
 20
73.88437905053932
 10
79.62786998877359
 20
74.20873479047561
 10
79.18483070937046
 20
74.62903643967607
 97
        0
 97
        1
330
330
 75
     2
 76
     1
 98
        1
 10
0.0
 20
0.0
450
        0
451
        0
460
0.0
461
0.0
452
        0
462
0.0
453
        0
470

  0
ENDBLK
  5
32B
330
328
100
AcDbEntity
  8
0
100
AcDbBlockEnd
  0
BLOCK
  5
334
330
332
100
AcDbEntity
  8
0
100
AcDbBlockBegin
  2
Block_35
 70
     0
 10
0.0
 20
0.0
 30
0.0
  3
Block_35
  1

  0
INSERT
  5
337
330
332
100
AcDbEntity
  8
Sichtbar (ISO)
100
AcDbBlockReference
  2
Block_36
 10
0.0
 20
0.0
 30
0.0
  0
ENDBLK
  5
335
330
332
100
AcDbEntity
  8
0
100
AcDbBlockEnd
  0
BLOCK
  5
338
330
336
100
AcDbEntity
  8
0
100
AcDbBlockBegin
  2
Block_36
 70
     0
 10
0.0
 20
0.0
 30
0.0
  3
Block_36
  1

  0
SPLINE
  5
33A
330
336
100
AcDbEntity
  8
Sichtbar (ISO)
100
AcDbSpline
210
0.0
220
0.0
230
1.0
 70
    11
 71
     3
 72
    26
 73
    22
 74
     0
 42
0.0000000001
 43
0.0000000001
 40
0.0
 40
0.0
 40
0.0
 40
0.0
 40
1.0
 40
1.0
 40
1.0
 40
2.0
 40
2.0
 40
2.0
 40
3.0
 40
3.0
 40
3.0
 40
4.0
 40
4.0
 40
4.0
 40
5.0
 40
5.0
 40
5.0
 40
6.0
 40
6.0
 40
6.0
 40
7.0
 40
7.0
 40
7.0
 40
7.0
 10
29.58182914842052
 20
2.204861110559896
 30
0.0
 10
29.58182914842052
 20
2.204861110559896
 30
0.0
 10
29.06282551356763
 20
2.204861110559896
 30
0.0
 10
29.06282551356763
 20
2.204861110559896
 30
0.0
 10
29.06282551356763
 20
2.204861110559896
 30
0.0
 10
29.06282551356763
 20
2.396752929088311
 30
0.0
 10
29.06282551356763
 20
2.396752929088311
 30
0.0
 10
29.33636609509647
 20
2.396752929088311
 30
0.0
 10
29.58458522480872
 20
2.467377386535933
 30
0.0
 10
29.63815645960435
 20
2.771923827432019
 30
0.0
 10
29.63815645960435
 20
2.771923827432019
 30
0.0
 10
29.82160779419391
 20
2.771923827432019
 30
0.0
 10
29.82160779419391
 20
2.771923827432019
 30
0.0
 10
29.82160779419391
 20
2.771923827432019
 30
0.0
 10
29.82160779419391
 20
0.7720458982444886
 30
0.0
 10
29.82160779419391
 20
0.7720458982444886
 30
0.0
 10
29.82160779419391
 20
0.7720458982444886
 30
0.0
 10
29.58182914842052
 20
0.7720458982444886
 30
0.0
 10
29.58182914842052
 20
0.7720458982444886
 30
0.0
 10
29.58182914842052
 20
0.7720458982444886
 30
0.0
 10
29.58182914842052
 20
2.204861110559896
 30
0.0
 10
29.58182914842052
 20
2.204861110559896
 30
0.0
  0
HATCH
  5
33B
330
336
100
AcDbEntity
  8
Sichtbar (ISO)
 62
    18
420
        0
440
 33554687
100
AcDbHatch
 10
0.0
 20
0.0
 30
0.0
210
0.0
220
0.0
230
1.0
  2
SOLID
 70
     1
 71
     1
 91
        1
 92
        1
 93
        1
 72
     4
 94
        3
 73
     0
 74
     0
 95
       26
 96
       22
 40
0.0
 40
0.0
 40
0.0
 40
0.0
 40
1.0
 40
1.0
 40
1.0
 40
2.0
 40
2.0
 40
2.0
 40
3.0
 40
3.0
 40
3.0
 40
4.0
 40
4.0
 40
4.0
 40
5.0
 40
5.0
 40
5.0
 40
6.0
 40
6.0
 40
6.0
 40
7.0
 40
7.0
 40
7.0
 40
7.0
 10
29.58182914842052
 20
2.204861110559896
 10
29.58182914842052
 20
2.204861110559896
 10
29.06282551356763
 20
2.204861110559896
 10
29.06282551356763
 20
2.204861110559896
 10
29.06282551356763
 20
2.204861110559896
 10
29.06282551356763
 20
2.396752929088311
 10
29.06282551356763
 20
2.396752929088311
 10
29.33636609509647
 20
2.396752929088311
 10
29.58458522480872
 20
2.467377386535933
 10
29.63815645960435
 20
2.771923827432019
 10
29.63815645960435
 20
2.771923827432019
 10
29.82160779419391
 20
2.771923827432019
 10
29.82160779419391
 20
2.771923827432019
 10
29.82160779419391
 20
2.771923827432019
 10
29.82160779419391
 20
0.7720458982444886
 10
29.82160779419391
 20
0.7720458982444886
 10
29.82160779419391
 20
0.7720458982444886
 10
29.58182914842052
 20
0.7720458982444886
 10
29.58182914842052
 20
0.7720458982444886
 10
29.58182914842052
 20
0.7720458982444886
 10
29.58182914842052
 20
2.204861110559896
 10
29.58182914842052
 20
2.204861110559896
 97
        0
 97
        1
330
33A
 75
     2
 76
     1
 98
        1
 10
0.0
 20
0.0
450
        0
451
        0
460
0.0
461
0.0
452
        0
462
0.0
453
        0
470

  0
SPLINE
  5
33C
330
336
100
AcDbEntity
  8
Sichtbar (ISO)
100
AcDbSpline
210
0.0
220
0.0
230
1.0
 70
     9
 71
     3
 72
    41
 73
    37
 74
     0
 42
0.0000000001
 43
0.0000000001
 40
0.0
 40
0.0
 40
0.0
 40
0.0
 40
1.0
 40
1.0
 40
1.0
 40
2.0
 40
2.0
 40
2.0
 40
3.0
 40
3.0
 40
3.0
 40
4.0
 40
4.0
 40
4.0
 40
5.0
 40
5.0
 40
5.0
 40
6.0
 40
6.0
 40
6.0
 40
7.0
 40
7.0
 40
7.0
 40
8.0
 40
8.0
 40
8.0
 40
9.0
 40
9.0
 40
9.0
 40
10.0
 40
10.0
 40
10.0
 40
11.0
 40
11.0
 40
11.0
 40
12.0
 40
12.0
 40
12.0
 40
12.0
 10
31.0156778893815
 20
1.590256075991324
 30
0.0
 10
31.3541585208073
 20
1.801784938785664
 30
0.0
 10
31.52624104029552
 20
1.920296223478259
 30
0.0
 10
31.52624104029552
 20
2.199348957783496
 30
0.0
 10
31.52624104029552
 20
2.416389973354235
 30
0.0
 10
31.35123018964483
 20
2.560394964637679
 30
0.0
 10
31.13970132685049
 20
2.560394964637679
 30
0.0
 10
30.86047633777099
 20
2.560394964637679
 30
0.0
 10
30.7419650530784
 20
2.303735350986566
 30
0.0
 10
30.75040553701726
 20
2.063956705213177
 30
0.0
 10
30.75040553701726
 20
2.063956705213177
 30
0.0
 10
30.51062689124388
 20
2.063956705213177
 30
0.0
 10
30.51062689124388
 20
2.063956705213177
 30
0.0
 10
30.48823377058975
 20
2.470133462924133
 30
0.0
 10
30.73076849275134
 20
2.771923827432019
 30
0.0
 10
31.15382621834002
 20
2.771923827432019
 30
0.0
 10
31.50074733370468
 20
2.771923827432019
 30
0.0
 10
31.77997232278418
 20
2.568663193802278
 30
0.0
 10
31.77997232278418
 20
2.196592881395296
 30
0.0
 10
31.77997232278418
 20
1.843815103705712
 30
0.0
 10
31.54312200817325
 20
1.668804253055021
 30
0.0
 10
31.294902878461
 20
1.511018879830578
 30
0.0
 10
31.04668374874875
 20
1.361501735770735
 30
0.0
 10
30.77865531999631
 20
1.229210069137141
 30
0.0
 10
30.73352456913954
 20
0.9835747610388285
 30
0.0
 10
30.73352456913954
 20
0.9835747610388285
 30
0.0
 10
31.76033527851825
 20
0.9835747610388285
 30
0.0
 10
31.76033527851825
 20
0.9835747610388285
 30
0.0
 10
31.76033527851825
 20
0.9835747610388285
 30
0.0
 10
31.76033527851825
 20
0.7720458982444886
 30
0.0
 10
31.76033527851825
 20
0.7720458982444886
 30
0.0
 10
31.76033527851825
 20
0.7720458982444886
 30
0.0
 10
30.45429958006004
 20
0.7720458982444886
 30
0.0
 10
30.45429958006004
 20
0.7720458982444886
 30
0.0
 10
30.49098984697795
 20
1.242990451078141
 30
0.0
 10
30.73352456913954
 20
1.420757378117032
 30
0.0
 10
31.0156778893815
 20
1.590256075991324
 30
0.0
  0
HATCH
  5
33D
330
336
100
AcDbEntity
  8
Sichtbar (ISO)
 62
    18
420
        0
440
 33554687
100
AcDbHatch
 10
0.0
 20
0.0
 30
0.0
210
0.0
220
0.0
230
1.0
  2
SOLID
 70
     1
 71
     1
 91
        1
 92
        1
 93
        1
 72
     4
 94
        3
 73
     0
 74
     0
 95
       41
 96
       37
 40
0.0
 40
0.0
 40
0.0
 40
0.0
 40
1.0
 40
1.0
 40
1.0
 40
2.0
 40
2.0
 40
2.0
 40
3.0
 40
3.0
 40
3.0
 40
4.0
 40
4.0
 40
4.0
 40
5.0
 40
5.0
 40
5.0
 40
6.0
 40
6.0
 40
6.0
 40
7.0
 40
7.0
 40
7.0
 40
8.0
 40
8.0
 40
8.0
 40
9.0
 40
9.0
 40
9.0
 40
10.0
 40
10.0
 40
10.0
 40
11.0
 40
11.0
 40
11.0
 40
12.0
 40
12.0
 40
12.0
 40
12.0
 10
31.0156778893815
 20
1.590256075991324
 10
31.3541585208073
 20
1.801784938785664
 10
31.52624104029552
 20
1.920296223478259
 10
31.52624104029552
 20
2.199348957783496
 10
31.52624104029552
 20
2.416389973354235
 10
31.35123018964483
 20
2.560394964637679
 10
31.13970132685049
 20
2.560394964637679
 10
30.86047633777099
 20
2.560394964637679
 10
30.7419650530784
 20
2.303735350986566
 10
30.75040553701726
 20
2.063956705213177
 10
30.75040553701726
 20
2.063956705213177
 10
30.51062689124388
 20
2.063956705213177
 10
30.51062689124388
 20
2.063956705213177
 10
30.48823377058975
 20
2.470133462924133
 10
30.73076849275134
 20
2.771923827432019
 10
31.15382621834002
 20
2.771923827432019
 10
31.50074733370468
 20
2.771923827432019
 10
31.77997232278418
 20
2.568663193802278
 10
31.77997232278418
 20
2.196592881395296
 10
31.77997232278418
 20
1.843815103705712
 10
31.54312200817325
 20
1.668804253055021
 10
31.294902878461
 20
1.511018879830578
 10
31.04668374874875
 20
1.361501735770735
 10
30.77865531999631
 20
1.229210069137141
 10
30.73352456913954
 20
0.9835747610388285
 10
30.73352456913954
 20
0.9835747610388285
 10
31.76033527851825
 20
0.9835747610388285
 10
31.76033527851825
 20
0.9835747610388285
 10
31.76033527851825
 20
0.9835747610388285
 10
31.76033527851825
 20
0.7720458982444886
 10
31.76033527851825
 20
0.7720458982444886
 10
31.76033527851825
 20
0.7720458982444886
 10
30.45429958006004
 20
0.7720458982444886
 10
30.45429958006004
 20
0.7720458982444886
 10
30.49098984697795
 20
1.242990451078141
 10
30.73352456913954
 20
1.420757378117032
 10
31.0156778893815
 20
1.590256075991324
 97
        0
 97
        1
330
33C
 75
     2
 76
     1
 98
        1
 10
0.0
 20
0.0
450
        0
451
        0
460
0.0
461
0.0
452
        0
462
0.0
453
        0
470

  0
SPLINE
  5
33E
330
336
100
AcDbEntity
  8
Sichtbar (ISO)
100
AcDbSpline
210
0.0
220
0.0
230
1.0
 70
     9
 71
     3
 72
    17
 73
    13
 74
     0
 42
0.0000000001
 43
0.0000000001
 40
0.0
 40
0.0
 40
0.0
 40
0.0
 40
1.0
 40
1.0
 40
1.0
 40
2.0
 40
2.0
 40
2.0
 40
3.0
 40
3.0
 40
3.0
 40
4.0
 40
4.0
 40
4.0
 40
4.0
 10
33.07842881117484
 20
2.253092447353393
 30
0.0
 10
33.07842881117484
 20
2.456008571434609
 30
0.0
 10
32.93735215105386
 20
2.560394964637679
 30
0.0
 10
32.74287651091151
 20
2.560394964637679
 30
0.0
 10
32.55098469238309
 20
2.560394964637679
 30
0.0
 10
32.39302706438439
 20
2.452907985497884
 30
0.0
 10
32.39302706438439
 20
2.253092447353393
 30
0.0
 10
32.39302706438439
 20
2.035706922234128
 30
0.0
 10
32.55391302354555
 20
1.931320529031058
 30
0.0
 10
32.74838866368791
 20
1.931320529031058
 30
0.0
 10
32.94028048221632
 20
1.931320529031058
 30
0.0
 10
33.07842881117484
 20
2.049831813723653
 30
0.0
 10
33.07842881117484
 20
2.253092447353393
 30
0.0
  0
SPLINE
  5
33F
330
336
100
AcDbEntity
  8
Sichtbar (ISO)
100
AcDbSpline
210
0.0
220
0.0
230
1.0
 70
     9
 71
     3
 72
    17
 73
    13
 74
     0
 42
0.0000000001
 43
0.0000000001
 40
0.0
 40
0.0
 40
0.0
 40
0.0
 40
1.0
 40
1.0
 40
1.0
 40
2.0
 40
2.0
 40
2.0
 40
3.0
 40
3.0
 40
3.0
 40
4.0
 40
4.0
 40
4.0
 40
4.0
 10
32.74838866368791
 20
0.9498128252833801
 30
0.0
 10
32.9881673094613
 20
0.9498128252833801
 30
0.0
 10
33.15749375256132
 20
1.116210937220947
 30
0.0
 10
33.15749375256132
 20
1.338764105568086
 30
0.0
 10
33.15749375256132
 20
1.553393554299151
 30
0.0
 10
32.97128634158357
 20
1.719791666236718
 30
0.0
 10
32.7456325872997
 20
1.719791666236718
 30
0.0
 10
32.50878227268878
 20
1.719791666236718
 30
0.0
 10
32.32257486171103
 20
1.570274522176875
 30
0.0
 10
32.32257486171103
 20
1.336008029179887
 30
0.0
 10
32.32257486171103
 20
1.096229383406498
 30
0.0
 10
32.50016953397565
 20
0.9498128252833801
 30
0.0
 10
32.74838866368791
 20
0.9498128252833801
 30
0.0
  0
SPLINE
  5
340
330
336
100
AcDbEntity
  8
Sichtbar (ISO)
100
AcDbSpline
210
0.0
220
0.0
230
1.0
 70
     9
 71
     3
 72
    29
 73
    25
 74
     0
 42
0.0000000001
 43
0.0000000001
 40
0.0
 40
0.0
 40
0.0
 40
0.0
 40
1.0
 40
1.0
 40
1.0
 40
2.0
 40
2.0
 40
2.0
 40
3.0
 40
3.0
 40
3.0
 40
4.0
 40
4.0
 40
4.0
 40
5.0
 40
5.0
 40
5.0
 40
6.0
 40
6.0
 40
6.0
 40
7.0
 40
7.0
 40
7.0
 40
8.0
 40
8.0
 40
8.0
 40
8.0
 10
32.41852077097524
 20
1.846571180093912
 30
0.0
 10
32.2491943278752
 20
1.914439561153334
 30
0.0
 10
32.13912352712147
 20
2.080837673090901
 30
0.0
 10
32.13912352712147
 20
2.261360676517993
 30
0.0
 10
32.13912352712147
 20
2.588644747616728
 30
0.0
 10
32.41852077097524
 20
2.771923827432019
 30
0.0
 10
32.72582328825952
 20
2.771923827432019
 30
0.0
 10
33.16300590533772
 20
2.771923827432019
 30
0.0
 10
33.33233234843775
 20
2.518020290169106
 30
0.0
 10
33.33233234843775
 20
2.261360676517993
 30
0.0
 10
33.33233234843775
 20
2.080837673090901
 30
0.0
 10
33.22226154768402
 20
1.923052299866459
 30
0.0
 10
33.05586343574645
 20
1.846571180093912
 30
0.0
 10
33.29564208151984
 20
1.770779079418416
 30
0.0
 10
33.41139728982424
 20
1.595768228767724
 30
0.0
 10
33.41139728982424
 20
1.347721353829736
 30
0.0
 10
33.41139728982424
 20
0.9611816403847047
 30
0.0
 10
33.11787515448095
 20
0.7379394529405153
 30
0.0
 10
32.74838866368791
 20
0.7379394529405153
 30
0.0
 10
32.36477728140534
 20
0.7379394529405153
 30
0.0
 10
32.06867132444811
 20
0.9412000865702555
 30
0.0
 10
32.06867132444811
 20
1.347721353829736
 30
0.0
 10
32.06867132444811
 20
1.5843994136664
 30
0.0
 10
32.19286701669137
 20
1.767678493481691
 30
0.0
 10
32.41852077097524
 20
1.846571180093912
 30
0.0
  0
HATCH
  5
341
330
336
100
AcDbEntity
  8
Sichtbar (ISO)
 62
    18
420
        0
440
 33554687
100
AcDbHatch
 10
0.0
 20
0.0
 30
0.0
210
0.0
220
0.0
230
1.0
  2
SOLID
 70
     1
 71
     1
 91
        3
 92
        1
 93
        1
 72
     4
 94
        3
 73
     0
 74
     0
 95
       17
 96
       13
 40
0.0
 40
0.0
 40
0.0
 40
0.0
 40
1.0
 40
1.0
 40
1.0
 40
2.0
 40
2.0
 40
2.0
 40
3.0
 40
3.0
 40
3.0
 40
4.0
 40
4.0
 40
4.0
 40
4.0
 10
33.07842881117484
 20
2.253092447353393
 10
33.07842881117484
 20
2.456008571434609
 10
32.93735215105386
 20
2.560394964637679
 10
32.74287651091151
 20
2.560394964637679
 10
32.55098469238309
 20
2.560394964637679
 10
32.39302706438439
 20
2.452907985497884
 10
32.39302706438439
 20
2.253092447353393
 10
32.39302706438439
 20
2.035706922234128
 10
32.55391302354555
 20
1.931320529031058
 10
32.74838866368791
 20
1.931320529031058
 10
32.94028048221632
 20
1.931320529031058
 10
33.07842881117484
 20
2.049831813723653
 10
33.07842881117484
 20
2.253092447353393
 97
        0
 97
        1
330
33E
 92
        1
 93
        1
 72
     4
 94
        3
 73
     0
 74
     0
 95
       17
 96
       13
 40
0.0
 40
0.0
 40
0.0
 40
0.0
 40
1.0
 40
1.0
 40
1.0
 40
2.0
 40
2.0
 40
2.0
 40
3.0
 40
3.0
 40
3.0
 40
4.0
 40
4.0
 40
4.0
 40
4.0
 10
32.74838866368791
 20
0.9498128252833801
 10
32.9881673094613
 20
0.9498128252833801
 10
33.15749375256132
 20
1.116210937220947
 10
33.15749375256132
 20
1.338764105568086
 10
33.15749375256132
 20
1.553393554299151
 10
32.97128634158357
 20
1.719791666236718
 10
32.7456325872997
 20
1.719791666236718
 10
32.50878227268878
 20
1.719791666236718
 10
32.32257486171103
 20
1.570274522176875
 10
32.32257486171103
 20
1.336008029179887
 10
32.32257486171103
 20
1.096229383406498
 10
32.50016953397565
 20
0.9498128252833801
 10
32.74838866368791
 20
0.9498128252833801
 97
        0
 97
        1
330
33F
 92
        1
 93
        1
 72
     4
 94
        3
 73
     0
 74
     0
 95
       29
 96
       25
 40
0.0
 40
0.0
 40
0.0
 40
0.0
 40
1.0
 40
1.0
 40
1.0
 40
2.0
 40
2.0
 40
2.0
 40
3.0
 40
3.0
 40
3.0
 40
4.0
 40
4.0
 40
4.0
 40
5.0
 40
5.0
 40
5.0
 40
6.0
 40
6.0
 40
6.0
 40
7.0
 40
7.0
 40
7.0
 40
8.0
 40
8.0
 40
8.0
 40
8.0
 10
32.41852077097524
 20
1.846571180093912
 10
32.2491943278752
 20
1.914439561153334
 10
32.13912352712147
 20
2.080837673090901
 10
32.13912352712147
 20
2.261360676517993
 10
32.13912352712147
 20
2.588644747616728
 10
32.41852077097524
 20
2.771923827432019
 10
32.72582328825952
 20
2.771923827432019
 10
33.16300590533772
 20
2.771923827432019
 10
33.33233234843775
 20
2.518020290169106
 10
33.33233234843775
 20
2.261360676517993
 10
33.33233234843775
 20
2.080837673090901
 10
33.22226154768402
 20
1.923052299866459
 10
33.05586343574645
 20
1.846571180093912
 10
33.29564208151984
 20
1.770779079418416
 10
33.41139728982424
 20
1.595768228767724
 10
33.41139728982424
 20
1.347721353829736
 10
33.41139728982424
 20
0.9611816403847047
 10
33.11787515448095
 20
0.7379394529405153
 10
32.74838866368791
 20
0.7379394529405153
 10
32.36477728140534
 20
0.7379394529405153
 10
32.06867132444811
 20
0.9412000865702555
 10
32.06867132444811
 20
1.347721353829736
 10
32.06867132444811
 20
1.5843994136664
 10
32.19286701669137
 20
1.767678493481691
 10
32.41852077097524
 20
1.846571180093912
 97
        0
 97
        1
330
340
 75
     2
 76
     1
 98
        1
 10
0.0
 20
0.0
450
        0
451
        0
460
0.0
461
0.0
452
        0
462
0.0
453
        0
470

  0
ENDBLK
  5
339
330
336
100
AcDbEntity
  8
0
100
AcDbBlockEnd
  0
ENDSEC
  0
SECTION
  2
ENTITIES
  0
LINE
  5
79
330
70
100
AcDbEntity
  8
Sichtbar schmal (ISO)
 62
    18
420
        0
370
     5
100
AcDbLine
 10
43.10612987542834
 20
21.47710468853105
 30
0.0
 11
65.76909361645182
 21
21.48170418530488
 31
0.0
  0
INSERT
  5
7B
330
70
100
AcDbEntity
  8
Sichtbar schmal (ISO)
100
AcDbBlockReference
  2
Block_0
 10
0.0
 20
0.0
 30
0.0
  0
INSERT
  5
90
330
70
100
AcDbEntity
  8
Sichtbar schmal (ISO)
100
AcDbBlockReference
  2
Block_4
 10
0.0
 20
0.0
 30
0.0
  0
INSERT
  5
9D
330
70
100
AcDbEntity
  8
Sichtbar (ISO)
100
AcDbBlockReference
  2
Block_6
 10
0.0
 20
0.0
 30
0.0
  0
LINE
  5
A2
330
70
100
AcDbEntity
  8
Sichtbar (ISO)
 62
    18
420
        0
370
     5
100
AcDbLine
 10
8.784333024945505
 20
59.6539466402421
 30
0.0
 11
53.68393524046754
 21
59.63655406309746
 31
0.0
  0
LINE
  5
A3
330
70
100
AcDbEntity
  8
Sichtbar (ISO)
 62
    18
420
        0
370
     5
100
AcDbLine
 10
53.74757769429334
 20
13.93221129620496
 30
0.0
 11
8.453129730645011
 21
13.94975682314922
 31
0.0
  0
LINE
  5
A4
330
70
100
AcDbEntity
  8
Sichtbar (ISO)
 62
    18
420
        0
370
     5
100
AcDbLine
 10
8.389487276819849
 20
59.65409959004108
 30
0.0
 11
8.371782982791836
 21
13.94978833410974
 31
0.0
  0
LINE
  5
A5
330
70
100
AcDbEntity
  8
Sichtbar (ISO)
 62
    18
420
        0
370
     5
100
AcDbLine
 10
8.389487276819849
 20
59.65409959004108
 30
0.0
 11
8.76553084646359
 21
59.65395392356599
 31
0.0
  0
LINE
  5
A6
330
70
100
AcDbEntity
  8
Sichtbar (ISO)
 62
    18
420
        0
370
     5
100
AcDbLine
 10
54.07878098859448
 20
59.63640111329849
 30
0.0
 11
54.06107669456647
 21
13.93208985736651
 31
0.0
  0
LINE
  5
A7
330
70
100
AcDbEntity
  8
Sichtbar (ISO)
 62
    18
420
        0
370
     5
100
AcDbLine
 10
54.06107669456647
 20
13.93208985736651
 30
0.0
 11
53.6850331249224
 21
13.9322355238416
 31
0.0
  0
LINE
  5
A8
330
70
100
AcDbEntity
  8
Sichtbar (ISO)
 62
    18
420
        0
370
     5
100
AcDbLine
 10
54.07878098859448
 20
59.63640111329849
 30
0.0
 11
53.70273741894977
 21
59.63654677977422
 31
0.0
  0
LINE
  5
A9
330
70
100
AcDbEntity
  8
Sichtbar (ISO)
 62
    18
420
        0
370
     5
100
AcDbLine
 10
54.23915017530446
 20
42.79296519018735
 30
0.0
 11
54.23915017530446
 21
43.9590835074035
 31
0.0
  0
LINE
  5
AA
330
70
100
AcDbEntity
  8
Sichtbar (ISO)
 62
    18
420
        0
370
     5
100
AcDbLine
 10
8.359574378833823
 20
30.97136009752202
 30
0.0
 11
8.3783765573167
 21
30.97135281419813
 31
0.0
  0
LINE
  5
AB
330
70
100
AcDbEntity
  8
Sichtbar (ISO)
 62
    18
420
        0
370
     5
100
AcDbLine
 10
8.358991521516889
 20
29.46669141419993
 30
0.0
 11
8.377793699899982
 21
29.46668413087604
 31
0.0
  0
SPLINE
  5
AC
330
70
100
AcDbEntity
  8
Sichtbar (ISO)
 62
    18
420
        0
370
     5
100
AcDbSpline
210
0.0
220
0.0
230
1.0
 70
     8
 71
     3
 72
     8
 73
     4
 74
     0
 42
0.0000000001
 43
0.0000000001
 40
0.0
 40
0.0
 40
0.0
 40
0.0
 40
1.0
 40
1.0
 40
1.0
 40
1.0
 10
54.23915017530446
 20
43.95908350722767
 30
0.0
 10
54.23915017530446
 20
44.0525716406432
 30
0.0
 10
54.16338797117288
 20
44.12835874693786
 30
0.0
 10
54.06993055613292
 20
44.12835874693786
 30
0.0
  0
SPLINE
  5
AD
330
70
100
AcDbEntity
  8
Sichtbar (ISO)
 62
    18
420
        0
370
     5
100
AcDbSpline
210
0.0
220
0.0
230
1.0
 70
     8
 71
     3
 72
     8
 73
     4
 74
     0
 42
0.0000000001
 43
0.0000000001
 40
0.0
 40
0.0
 40
0.0
 40
0.0
 40
1.0
 40
1.0
 40
1.0
 40
1.0
 10
54.06993055623239
 20
42.62368995065235
 30
0.0
 10
54.16338797123383
 20
42.6236899507069
 30
0.0
 10
54.23915017530446
 20
42.69947705698551
 30
0.0
 10
54.23915017530446
 20
42.79296519036253
 30
0.0
  0
SPLINE
  5
AE
330
70
100
AcDbEntity
  8
Sichtbar (ISO)
 62
    18
420
        0
370
     5
100
AcDbSpline
210
0.0
220
0.0
230
1.0
 70
     8
 71
     3
 72
     8
 73
     4
 74
     0
 42
0.0000000001
 43
0.0000000001
 40
0.0
 40
0.0
 40
0.0
 40
0.0
 40
1.0
 40
1.0
 40
1.0
 40
1.0
 10
51.45287217653581
 20
14.49735102790522
 30
0.0
 10
51.90588051713401
 20
14.246397396381
 30
0.0
 10
52.45608003281313
 20
14.24618426782216
 30
0.0
 10
52.90928265921646
 20
14.49678686407219
 30
0.0
  0
SPLINE
  5
AF
330
70
100
AcDbEntity
  8
Sichtbar (ISO)
 62
    18
420
        0
370
     5
100
AcDbSpline
210
0.0
220
0.0
230
1.0
 70
     8
 71
     3
 72
     8
 73
     4
 74
     0
 42
0.0000000001
 43
0.0000000001
 40
0.0
 40
0.0
 40
0.0
 40
0.0
 40
1.0
 40
1.0
 40
1.0
 40
1.0
 10
53.49745773723727
 20
15.08469961722426
 30
0.0
 10
53.74832902566097
 20
15.53785692029096
 30
0.0
 10
53.74854222427281
 20
16.08823728020877
 30
0.0
 10
53.49802208650398
 20
16.54158880524247
 30
0.0
  0
SPLINE
  5
B0
330
70
100
AcDbEntity
  8
Sichtbar (ISO)
 62
    18
420
        0
370
     5
100
AcDbSpline
210
0.0
220
0.0
230
1.0
 70
     8
 71
     3
 72
     8
 73
     4
 74
     0
 42
0.0000000001
 43
0.0000000001
 40
0.0
 40
0.0
 40
0.0
 40
0.0
 40
1.0
 40
1.0
 40
1.0
 40
1.0
 10
52.92654981018194
 20
59.07259660751196
 30
0.0
 10
52.47354146958375
 20
59.32355023903713
 30
0.0
 10
51.92334195390463
 20
59.3237633675963
 30
0.0
 10
51.4701393275013
 20
59.07316077134434
 30
0.0
  0
SPLINE
  5
B1
330
70
100
AcDbEntity
  8
Sichtbar (ISO)
 62
    18
420
        0
370
     5
100
AcDbSpline
210
0.0
220
0.0
230
1.0
 70
     8
 71
     3
 72
     8
 73
     4
 74
     0
 42
0.0000000001
 43
0.0000000001
 40
0.0
 40
0.0
 40
0.0
 40
0.0
 40
1.0
 40
1.0
 40
1.0
 40
1.0
 10
53.51370488772348
 20
57.02733916484875
 30
0.0
 10
53.76457617614718
 20
57.4804964679161
 30
0.0
 10
53.76478937475966
 20
58.03087682783295
 30
0.0
 10
53.51426923699021
 20
58.48422835286601
 30
0.0
  0
SPLINE
  5
B2
330
70
100
AcDbEntity
  8
Sichtbar (ISO)
 62
    18
420
        0
370
     5
100
AcDbSpline
210
0.0
220
0.0
230
1.0
 70
     8
 71
     3
 72
     8
 73
     4
 74
     0
 42
0.0000000001
 43
0.0000000001
 40
0.0
 40
0.0
 40
0.0
 40
0.0
 40
1.0
 40
1.0
 40
1.0
 40
1.0
 10
10.99769179485081
 20
59.08883841950173
 30
0.0
 10
10.54468345425166
 20
59.33979205102723
 30
0.0
 10
9.9944839385735
 20
59.34000517958607
 30
0.0
 10
9.541281312169527
 20
59.08940258333443
 30
0.0
  0
SPLINE
  5
B3
330
70
100
AcDbEntity
  8
Sichtbar (ISO)
 62
    18
420
        0
370
     5
100
AcDbSpline
210
0.0
220
0.0
230
1.0
 70
     8
 71
     3
 72
     8
 73
     4
 74
     0
 42
0.0000000001
 43
0.0000000001
 40
0.0
 40
0.0
 40
0.0
 40
0.0
 40
1.0
 40
1.0
 40
1.0
 40
1.0
 10
8.953106234149366
 20
58.50148983018269
 30
0.0
 10
8.702234945725994
 20
58.04833252711663
 30
0.0
 10
8.702021747114152
 20
57.49795216719914
 30
0.0
 10
8.952541884882327
 20
57.04460064216512
 30
0.0
  0
SPLINE
  5
B4
330
70
100
AcDbEntity
  8
Sichtbar (ISO)
 62
    18
420
        0
370
     5
100
AcDbSpline
210
0.0
220
0.0
230
1.0
 70
     8
 71
     3
 72
     8
 73
     4
 74
     0
 42
0.0000000001
 43
0.0000000001
 40
0.0
 40
0.0
 40
0.0
 40
0.0
 40
1.0
 40
1.0
 40
1.0
 40
1.0
 10
9.524014161204052
 20
14.51359283989563
 30
0.0
 10
9.97702250180256
 20
14.26263920837142
 30
0.0
 10
10.52722201748072
 20
14.26242607981258
 30
0.0
 10
10.98042464388437
 20
14.51302867606261
 30
0.0
  0
SPLINE
  5
B5
330
70
100
AcDbEntity
  8
Sichtbar (ISO)
 62
    18
420
        0
370
     5
100
AcDbSpline
210
0.0
220
0.0
230
1.0
 70
     8
 71
     3
 72
     8
 73
     4
 74
     0
 42
0.0000000001
 43
0.0000000001
 40
0.0
 40
0.0
 40
0.0
 40
0.0
 40
1.0
 40
1.0
 40
1.0
 40
1.0
 10
8.936859083662827
 20
16.55885028255915
 30
0.0
 10
8.685987795239777
 20
16.10569297949245
 30
0.0
 10
8.685774596627613
 20
15.55531261957464
 30
0.0
 10
8.936294734395788
 20
15.10196109454094
 30
0.0
  0
LINE
  5
B6
330
70
100
AcDbEntity
  8
Sichtbar (ISO)
 62
    18
420
        0
370
     5
100
AcDbLine
 10
8.953334059755315
 20
59.0896303340817
 30
0.0
 11
53.51449706259647
 21
59.0723688567647
 31
0.0
  0
LINE
  5
B7
330
70
100
AcDbEntity
  8
Sichtbar (ISO)
 62
    18
420
        0
370
     5
100
AcDbLine
 10
53.51449706259647
 20
59.0723688567647
 30
0.0
 11
53.51435134824229
 21
58.69620168593417
 31
0.0
  0
LINE
  5
B8
330
70
100
AcDbEntity
  8
Sichtbar (ISO)
 62
    18
420
        0
370
     5
100
AcDbLine
 10
8.953334059755315
 20
59.0896303340817
 30
0.0
 11
8.953188345401134
 21
58.71346316325118
 31
0.0
  0
LINE
  5
B9
330
70
100
AcDbEntity
  8
Sichtbar (ISO)
 62
    18
420
        0
370
     5
100
AcDbLine
 10
53.497229911631
 20
14.49655911332525
 30
0.0
 11
8.93606690878984
 21
14.51382059064257
 31
0.0
  0
LINE
  5
BA
330
70
100
AcDbEntity
  8
Sichtbar (ISO)
 62
    18
420
        0
370
     5
100
AcDbLine
 10
53.497229911631
 20
14.49655911332525
 30
0.0
 11
53.49737562598518
 21
14.87272628415642
 31
0.0
  0
LINE
  5
BB
330
70
100
AcDbEntity
  8
Sichtbar (ISO)
 62
    18
420
        0
370
     5
100
AcDbLine
 10
8.93606690878984
 20
14.51382059064257
 30
0.0
 11
8.936212623144019
 21
14.8899877614731
 31
0.0
  0
LINE
  5
BC
330
70
100
AcDbEntity
  8
Sichtbar (ISO)
 62
    18
420
        0
370
     5
100
AcDbLine
 10
8.953184702542424
 20
58.70405898398052
 30
0.0
 11
8.936216266002729
 21
14.89939194074311
 31
0.0
  0
LINE
  5
BD
330
70
100
AcDbEntity
  8
Sichtbar (ISO)
 62
    18
420
        0
370
     5
100
AcDbLine
 10
53.51434770538358
 20
58.68679750666384
 30
0.0
 11
53.49737926884389
 21
14.88213046342642
 31
0.0
  0
LWPOLYLINE
  5
BE
330
70
100
AcDbEntity
  8
Sichtbar (ISO)
 62
    18
420
        0
370
     5
100
AcDbPolyline
 90
        1
 70
     0
 43
0.0
 10
52.95021313659912
 20
58.50833660023218
  0
LWPOLYLINE
  5
BF
330
70
100
AcDbEntity
  8
Sichtbar (ISO)
 62
    18
420
        0
370
     5
100
AcDbPolyline
 90
        1
 70
     0
 43
0.0
 10
53.51434770538358
 20
58.68679750666384
  0
LINE
  5
C0
330
70
100
AcDbEntity
  8
Sichtbar (ISO)
 62
    18
420
        0
370
     5
100
AcDbLine
 10
8.909304928862868
 20
36.70769736657596
 30
0.0
 11
8.380598701217138
 21
36.70790216936698
 31
0.0
  0
LINE
  5
C1
330
70
100
AcDbEntity
  8
Sichtbar (ISO)
 62
    18
420
        0
370
     5
100
AcDbLine
 10
8.908977071566123
 20
35.86132123220648
 30
0.0
 11
8.380270843920394
 21
35.8615260349975
 31
0.0
  0
LINE
  5
C2
330
70
100
AcDbEntity
  8
Sichtbar (ISO)
 62
    18
420
        0
370
     5
100
AcDbLine
 10
8.909377786039957
 20
36.89578095199219
 30
0.0
 11
8.380671558394228
 21
36.89598575478321
 31
0.0
  0
LINE
  5
C3
330
70
100
AcDbEntity
  8
Sichtbar (ISO)
 62
    18
420
        0
370
     5
100
AcDbLine
 10
8.909705643336701
 20
37.74215708636102
 30
0.0
 11
8.380999415691292
 21
37.74236188915204
 31
0.0
  0
LINE
  5
C4
330
70
100
AcDbEntity
  8
Sichtbar (ISO)
 62
    18
420
        0
370
     5
100
AcDbLine
 10
53.49737562598518
 20
14.87272628415642
 30
0.0
 11
53.49737926884389
 21
14.88213046342642
 31
0.0
  0
LINE
  5
C5
330
70
100
AcDbEntity
  8
Sichtbar (ISO)
 62
    18
420
        0
370
     5
100
AcDbLine
 10
53.51434770538358
 20
58.68679750666384
 30
0.0
 11
53.51435134824229
 21
58.69620168593417
 31
0.0
  0
LINE
  5
C6
330
70
100
AcDbEntity
  8
Sichtbar (ISO)
 62
    18
420
        0
370
     5
100
AcDbLine
 10
8.936212623144019
 20
14.8899877614731
 30
0.0
 11
8.936216266002729
 21
14.89939194074311
 31
0.0
  0
LINE
  5
C7
330
70
100
AcDbEntity
  8
Sichtbar (ISO)
 62
    18
420
        0
370
     5
100
AcDbLine
 10
8.953184702542424
 20
58.70405898398052
 30
0.0
 11
8.953188345401134
 21
58.71346316325118
 31
0.0
  0
LINE
  5
C8
330
70
100
AcDbEntity
  8
Sichtbar (ISO)
 62
    18
420
        0
370
     5
100
AcDbLine
 10
52.95021313659912
 20
58.50833660023218
 30
0.0
 11
9.517180842690137
 21
58.52516107812328
 31
0.0
  0
INSERT
  5
CA
330
70
100
AcDbEntity
  8
Sichtbar (ISO)
100
AcDbBlockReference
  2
Block_7
 10
0.0
 20
0.0
 30
0.0
  0
LINE
  5
CF
330
70
100
AcDbEntity
  8
Sichtbar (ISO)
 62
    18
420
        0
370
     5
100
AcDbLine
 10
52.93338312869618
 20
15.06102836928463
 30
0.0
 11
52.94239920435856
 21
38.33637206443408
 31
0.0
  0
LINE
  5
D0
330
70
100
AcDbEntity
  8
Sichtbar (ISO)
 62
    18
420
        0
370
     5
100
AcDbLine
 10
52.94239920435856
 20
38.33637206443408
 30
0.0
 11
52.95021313659912
 21
58.50833660023218
 31
0.0
  0
LINE
  5
D1
330
70
100
AcDbEntity
  8
Sichtbar (ISO)
 62
    18
420
        0
370
     5
100
AcDbLine
 10
9.500360088862201
 20
15.10174259482831
 30
0.0
 11
9.517180842690137
 21
58.52516107812328
 31
0.0
  0
LINE
  5
D2
330
70
100
AcDbEntity
  8
Sichtbar (ISO)
 62
    18
420
        0
370
     5
100
AcDbLine
 10
53.47046793170499
 20
36.69043588925928
 30
0.0
 11
52.94176170405926
 21
36.6906406920503
 31
0.0
  0
LINE
  5
D3
330
70
100
AcDbEntity
  8
Sichtbar (ISO)
 62
    18
420
        0
370
     5
100
AcDbLine
 10
53.47014007440761
 20
35.8440597548898
 30
0.0
 11
52.94143384676252
 21
35.84426455768082
 31
0.0
  0
LINE
  5
D4
330
70
100
AcDbEntity
  8
Sichtbar (ISO)
 62
    18
420
        0
370
     5
100
AcDbLine
 10
53.47054078888176
 20
36.8785194746755
 30
0.0
 11
52.94183456123603
 21
36.87872427746653
 31
0.0
  0
LINE
  5
D5
330
70
100
AcDbEntity
  8
Sichtbar (ISO)
 62
    18
420
        0
370
     5
100
AcDbLine
 10
53.4708686461785
 20
37.72489560904434
 30
0.0
 11
52.94216241853277
 21
37.72510041183536
 31
0.0
  0
INSERT
  5
D7
330
70
100
AcDbEntity
  8
Sichtbar (ISO)
100
AcDbBlockReference
  2
Block_8
 10
0.0
 20
0.0
 30
0.0
  0
LINE
  5
EB
330
70
100
AcDbEntity
  8
Sichtbar (ISO)
 62
    18
420
        0
370
     5
100
AcDbLine
 10
52.93338312869618
 20
15.06944262013746
 30
0.0
 11
72.88853722995212
 21
15.06944261959587
 31
0.0
  0
LINE
  5
EC
330
70
100
AcDbEntity
  8
Sichtbar (ISO)
 62
    18
420
        0
370
     5
100
AcDbLine
 10
52.95021313659912
 20
58.49254179523564
 30
0.0
 11
72.8111482940688
 21
58.49711145961812
 31
0.0
  0
LINE
  5
ED
330
70
100
AcDbEntity
  8
Sichtbar (ISO)
 62
    18
420
        0
370
     5
100
AcDbLine
 10
54.00612477917174
 20
13.93933454788442
 30
0.0
 11
79.96775651386859
 21
13.92927789569902
 31
0.0
  0
INSERT
  5
EF
330
70
100
AcDbEntity
  8
Sichtbar (ISO)
100
AcDbBlockReference
  2
Block_12
 10
0.0
 20
0.0
 30
0.0
  0
LINE
  5
103
330
70
100
AcDbEntity
  8
Sichtbar (ISO)
 62
    18
420
        0
370
     5
100
AcDbLine
 10
53.99650619827231
 20
59.64180729980924
 30
0.0
 11
80.02914156181379
 21
59.62199926807011
 31
0.0
  0
INSERT
  5
105
330
70
100
AcDbEntity
  8
Sichtbar (ISO)
100
AcDbBlockReference
  2
Block_16
 10
0.0
 20
0.0
 30
0.0
  0
INSERT
  5
112
330
70
100
AcDbEntity
  8
Sichtbar (ISO)
100
AcDbBlockReference
  2
Block_17
 10
0.0
 20
0.0
 30
0.0
  0
LINE
  5
11F
330
70
100
AcDbEntity
  8
Sichtbar (ISO)
 62
    18
420
        0
370
     5
100
AcDbLine
 10
43.1036566674493
 20
15.09281049803494
 30
0.0
 11
43.10612987542834
 21
21.47710468853105
 31
0.0
  0
LINE
  5
120
330
70
100
AcDbEntity
  8
Sichtbar (ISO)
 62
    18
420
        0
370
     5
100
AcDbLine
 10
19.10899473655346
 20
15.10210521308971
 30
0.0
 11
19.1114679434599
 21
21.48639663543798
 31
0.0
  0
LINE
  5
121
330
70
100
AcDbEntity
  8
Sichtbar (ISO)
 62
    18
420
        0
370
     5
100
AcDbLine
 10
26.21299872772148
 20
21.48364600035796
 30
0.0
 11
19.1114679434599
 21
21.48639663543798
 31
0.0
  0
LINE
  5
122
330
70
100
AcDbEntity
  8
Sichtbar (ISO)
 62
    18
420
        0
370
     5
100
AcDbLine
 10
26.21315785670296
 20
21.89427999178985
 30
0.0
 11
26.21299872772148
 21
21.48364600035796
 31
0.0
  0
LINE
  5
123
330
70
100
AcDbEntity
  8
Sichtbar (ISO)
 62
    18
420
        0
370
     5
100
AcDbLine
 10
28.5276400921685
 20
21.89338397400189
 30
0.0
 11
26.21315785670296
 21
21.89427999178985
 31
0.0
  0
LINE
  5
124
330
70
100
AcDbEntity
  8
Sichtbar (ISO)
 62
    18
420
        0
370
     5
100
AcDbLine
 10
28.52748096318766
 20
21.48274998257001
 30
0.0
 11
28.5276400921685
 21
21.89338397400189
 31
0.0
  0
LINE
  5
125
330
70
100
AcDbEntity
  8
Sichtbar (ISO)
 62
    18
420
        0
370
     5
100
AcDbLine
 10
33.6790704550301
 20
21.48075562039839
 30
0.0
 11
33.3430972273013
 21
21.48088568749645
 31
0.0
  0
LINE
  5
126
330
70
100
AcDbEntity
  8
Sichtbar (ISO)
 62
    18
420
        0
370
     5
100
AcDbLine
 10
28.86345419091645
 20
21.4826199154713
 30
0.0
 11
28.52748096318766
 21
21.48274998257001
 31
0.0
  0
LINE
  5
127
330
70
100
AcDbEntity
  8
Sichtbar (ISO)
 62
    18
420
        0
370
     5
100
AcDbLine
 10
33.67922958401125
 20
21.89138961183091
 30
0.0
 11
33.6790704550301
 21
21.48075562039839
 31
0.0
  0
LINE
  5
128
330
70
100
AcDbEntity
  8
Sichtbar (ISO)
 62
    18
420
        0
370
     5
100
AcDbLine
 10
35.99371181947679
 20
21.89049359404295
 30
0.0
 11
33.67922958401125
 21
21.89138961183091
 31
0.0
  0
LINE
  5
129
330
70
100
AcDbEntity
  8
Sichtbar (ISO)
 62
    18
420
        0
370
     5
100
AcDbLine
 10
35.99355269049564
 20
21.47985960261107
 30
0.0
 11
35.99371181947679
 21
21.89049359404295
 31
0.0
  0
LINE
  5
12A
330
70
100
AcDbEntity
  8
Sichtbar (ISO)
 62
    18
420
        0
370
     5
100
AcDbLine
 10
43.10612987542834
 20
21.47710468853105
 30
0.0
 11
26.21299872859515
 21
21.48364825620538
 31
0.0
  0
LINE
  5
12B
330
70
100
AcDbEntity
  8
Sichtbar (ISO)
 62
    18
420
        0
370
     5
100
AcDbLine
 10
28.86356992108474
 20
21.7812628183319
 30
0.0
 11
28.86345419091645
 21
21.4826199154713
 31
0.0
  0
SPLINE
  5
12C
330
70
100
AcDbEntity
  8
Sichtbar (ISO)
 62
    18
420
        0
370
     5
100
AcDbSpline
210
0.0
220
0.0
230
1.0
 70
     8
 71
     3
 72
     8
 73
     4
 74
     0
 42
0.0000000001
 43
0.0000000001
 40
0.0
 40
0.0
 40
0.0
 40
0.0
 40
1.0
 40
1.0
 40
1.0
 40
1.0
 10
28.9009147459917
 20
21.81857872928921
 30
0.0
 10
28.88029775821078
 20
21.81858671085288
 30
0.0
 10
28.86357791058527
 20
21.80187980844315
 30
0.0
 10
28.86356992108474
 20
21.7812628183319
 30
0.0
  0
LINE
  5
12D
330
70
100
AcDbEntity
  8
Sichtbar (ISO)
 62
    18
420
        0
370
     5
100
AcDbLine
 10
28.9009147459917
 20
21.81857872928921
 30
0.0
 11
33.30589706510391
 21
21.81687340511329
 31
0.0
  0
SPLINE
  5
12E
330
70
100
AcDbEntity
  8
Sichtbar (ISO)
 62
    18
420
        0
370
     5
100
AcDbSpline
210
0.0
220
0.0
230
1.0
 70
     8
 71
     3
 72
     8
 73
     4
 74
     0
 42
0.0000000001
 43
0.0000000001
 40
0.0
 40
0.0
 40
0.0
 40
0.0
 40
1.0
 40
1.0
 40
1.0
 40
1.0
 10
33.34321295746927
 20
21.77952859035641
 30
0.0
 10
33.34322094697011
 20
21.80014558046766
 30
0.0
 10
33.3265140528845
 20
21.81686542354898
 30
0.0
 10
33.30589706510391
 20
21.81687340511329
 30
0.0
  0
LINE
  5
12F
330
70
100
AcDbEntity
  8
Sichtbar (ISO)
 62
    18
420
        0
370
     5
100
AcDbLine
 10
33.34321295746927
 20
21.77952859035641
 30
0.0
 11
33.3430972273013
 21
21.48088568749645
 31
0.0
  0
LINE
  5
130
330
70
100
AcDbEntity
  8
Sichtbar (ISO)
 62
    18
420
        0
370
     5
100
AcDbLine
 10
43.45104396674138
 20
20.46611779556524
 30
0.0
 11
43.45103673388167
 21
20.44745332484019
 31
0.0
  0
LINE
  5
131
330
70
100
AcDbEntity
  8
Sichtbar (ISO)
 62
    18
420
        0
370
     5
100
AcDbLine
 10
43.44895164229355
 20
15.06470231511433
 30
0.0
 11
43.45103673388167
 21
20.44745332484019
 31
0.0
  0
SPLINE
  5
132
330
70
100
AcDbEntity
  8
Sichtbar (ISO)
 62
    18
420
        0
370
     5
100
AcDbSpline
210
0.0
220
0.0
230
1.0
 70
     8
 71
     3
 72
     8
 73
     4
 74
     0
 42
0.0000000001
 43
0.0000000001
 40
0.0
 40
0.0
 40
0.0
 40
0.0
 40
1.0
 40
1.0
 40
1.0
 40
1.0
 10
43.4510439667417
 20
20.46611779555625
 30
0.0
 10
43.45105190698668
 20
20.48660767966976
 30
0.0
 10
43.43454287084071
 20
20.5032743250171
 30
0.0
 10
43.41405383852492
 20
20.50346106277248
 30
0.0
  0
LINE
  5
133
330
70
100
AcDbEntity
  8
Sichtbar (ISO)
 62
    18
420
        0
370
     5
100
AcDbLine
 10
43.41405383852492
 20
20.50346106277184
 30
0.0
 11
43.10575365769854
 21
20.50627092138174
 31
0.0
  0
LINE
  5
134
330
70
100
AcDbEntity
  8
Sichtbar (ISO)
 62
    18
420
        0
370
     5
100
AcDbLine
 10
19.45873304487308
 20
14.54281366369816
 30
0.0
 11
19.46720367546352
 21
14.54281039812254
 31
0.0
  0
LINE
  5
135
330
70
100
AcDbEntity
  8
Sichtbar (ISO)
 62
    18
420
        0
370
     5
100
AcDbLine
 10
18.76368808388945
 20
15.10223871747179
 30
0.0
 11
18.76576316713637
 21
20.45701263189283
 31
0.0
  0
LINE
  5
136
330
70
100
AcDbEntity
  8
Sichtbar (ISO)
 62
    18
420
        0
370
     5
100
AcDbLine
 10
18.76577039999736
 20
20.47567710261851
 30
0.0
 11
18.76576316713669
 21
20.45701263189283
 31
0.0
  0
LINE
  5
137
330
70
100
AcDbEntity
  8
Sichtbar (ISO)
 62
    18
420
        0
370
     5
100
AcDbLine
 10
18.8027894596536
 20
20.51299171825561
 30
0.0
 11
19.11109172573011
 21
20.51556286828867
 31
0.0
  0
SPLINE
  5
138
330
70
100
AcDbEntity
  8
Sichtbar (ISO)
 62
    18
420
        0
370
     5
100
AcDbSpline
210
0.0
220
0.0
230
1.0
 70
     8
 71
     3
 72
     8
 73
     4
 74
     0
 42
0.0000000001
 43
0.0000000001
 40
0.0
 40
0.0
 40
0.0
 40
0.0
 40
1.0
 40
1.0
 40
1.0
 40
1.0
 10
18.8027894596536
 20
20.51299171825625
 30
0.0
 10
18.78230028875746
 20
20.51282084460956
 30
0.0
 10
18.7657783402417
 20
20.49616698672367
 30
0.0
 10
18.76577039999736
 20
20.47567710260889
 30
0.0
  0
CIRCLE
  5
139
330
70
100
AcDbEntity
  8
Sichtbar (ISO)
 62
    18
420
        0
370
     5
100
AcDbCircle
 10
34.83665876326717
 20
22.37623632008332
 30
0.0
 40
0.2706451357174144
  0
CIRCLE
  5
13A
330
70
100
AcDbEntity
  8
Sichtbar (ISO)
 62
    18
420
        0
370
     5
100
AcDbCircle
 10
27.37058703595848
 20
22.37912670004274
 30
0.0
 40
0.2706451357174544
  0
SPLINE
  5
13B
330
70
100
AcDbEntity
  8
Sichtbar (ISO)
 62
    18
420
        0
370
     5
100
AcDbSpline
210
0.0
220
0.0
230
1.0
 70
     8
 71
     3
 72
    11
 73
     7
 74
     0
 42
0.0000000001
 43
0.0000000001
 40
0.0
 40
0.0
 40
0.0
 40
0.0
 40
1.0
 40
1.0
 40
1.0
 40
2.0
 40
2.0
 40
2.0
 40
2.0
 10
19.53593388581493
 20
21.12694379768159
 30
0.0
 10
19.49470940335426
 20
21.1269629688575
 30
0.0
 10
19.46127480314835
 20
21.09355946035195
 30
0.0
 10
19.46125561610323
 20
21.05233497322741
 30
0.0
 10
19.46125561429877
 20
21.0523310963385
 30
0.0
 10
19.46125561279591
 20
21.05232721944766
 30
0.0
 10
19.46125561159593
 20
21.05232334255681
 30
0.0
  0
INSERT
  5
13D
330
70
100
AcDbEntity
  8
Sichtbar (ISO)
100
AcDbBlockReference
  2
Block_18
 10
0.0
 20
0.0
 30
0.0
  0
LINE
  5
142
330
70
100
AcDbEntity
  8
Sichtbar (ISO)
 62
    18
420
        0
370
     5
100
AcDbLine
 10
19.53593388581493
 20
21.12694379768159
 30
0.0
 11
42.68138546997842
 21
21.11798061008208
 31
0.0
  0
SPLINE
  5
143
330
70
100
AcDbEntity
  8
Sichtbar (ISO)
 62
    18
420
        0
370
     5
100
AcDbSpline
210
0.0
220
0.0
230
1.0
 70
     8
 71
     3
 72
    11
 73
     7
 74
     0
 42
0.0000000001
 43
0.0000000001
 40
0.0
 40
0.0
 40
0.0
 40
0.0
 40
1.0
 40
1.0
 40
1.0
 40
2.0
 40
2.0
 40
2.0
 40
2.0
 10
42.75600588792637
 20
21.04330235616291
 30
0.0
 10
42.75602507497021
 20
21.08452684328617
 30
0.0
 10
42.72262158310969
 20
21.1179614344053
 30
0.0
 10
42.6813971006487
 20
21.11798060557928
 30
0.0
 10
42.68139322375883
 20
21.11798060738245
 30
0.0
 10
42.68138934686798
 20
21.11798060888403
 30
0.0
 10
42.68138546997842
 20
21.11798061008208
 30
0.0
  0
LINE
  5
144
330
70
100
AcDbEntity
  8
Sichtbar (ISO)
 62
    18
420
        0
370
     5
100
AcDbLine
 10
42.75349778747511
 20
14.57112304016006
 30
0.0
 11
42.75600588792637
 21
21.04330235616291
 31
0.0
  0
LINE
  5
145
330
70
100
AcDbEntity
  8
Sichtbar (ISO)
 62
    18
420
        0
370
     5
100
AcDbLine
 10
19.45873304487308
 20
14.54281366369816
 30
0.0
 11
19.45874751114404
 21
14.58014402655461
 31
0.0
  0
LINE
  5
146
330
70
100
AcDbEntity
  8
Sichtbar (ISO)
 62
    18
420
        0
370
     5
100
AcDbLine
 10
33.71806707906531
 20
15.2611605388403
 30
0.0
 11
28.48366391367663
 21
15.26318696110897
 31
0.0
  0
SPLINE
  5
147
330
70
100
AcDbEntity
  8
Sichtbar (ISO)
 62
    18
420
        0
370
     5
100
AcDbSpline
210
0.0
220
0.0
230
1.0
 70
     8
 71
     3
 72
    11
 73
     7
 74
     0
 42
0.0000000001
 43
0.0000000001
 40
0.0
 40
0.0
 40
0.0
 40
0.0
 40
1.0
 40
1.0
 40
1.0
 40
2.0
 40
2.0
 40
2.0
 40
2.0
 10
28.40903497069598
 20
15.33787374667162
 30
0.0
 10
28.40901834228525
 20
15.2966419870339
 30
0.0
 10
28.44242980386591
 20
15.26320357455914
 30
0.0
 10
28.483661558842
 20
15.26318696202082
 30
0.0
 10
28.483661558842
 20
15.26318696202082
 30
0.0
 10
28.48366391367663
 20
15.26318696110897
 30
0.0
 10
28.48366391367663
 20
15.26318696110897
 30
0.0
  0
LINE
  5
148
330
70
100
AcDbEntity
  8
Sichtbar (ISO)
 62
    18
420
        0
370
     5
100
AcDbLine
 10
28.41054353466243
 20
19.23073875910455
 30
0.0
 11
28.40903497069598
 21
15.33787374667162
 31
0.0
  0
LINE
  5
149
330
70
100
AcDbEntity
  8
Sichtbar (ISO)
 62
    18
420
        0
370
     5
100
AcDbLine
 10
28.41054353466243
 20
19.23073875910455
 30
0.0
 11
33.79426244889199
 21
19.22865453143714
 31
0.0
  0
LINE
  5
14A
330
70
100
AcDbEntity
  8
Sichtbar (ISO)
 62
    18
420
        0
370
     5
100
AcDbLine
 10
33.79426244889199
 20
19.22865453143714
 30
0.0
 11
33.79275388492618
 21
15.33578951900484
 31
0.0
  0
SPLINE
  5
14B
330
70
100
AcDbEntity
  8
Sichtbar (ISO)
 62
    18
420
        0
370
     5
100
AcDbSpline
210
0.0
220
0.0
230
1.0
 70
     8
 71
     3
 72
    11
 73
     7
 74
     0
 42
0.0000000001
 43
0.0000000001
 40
0.0
 40
0.0
 40
0.0
 40
0.0
 40
1.0
 40
1.0
 40
1.0
 40
2.0
 40
2.0
 40
2.0
 40
2.0
 10
33.71806707906531
 20
15.2611605388403
 30
0.0
 10
33.75929883404108
 20
15.26114392630199
 30
0.0
 10
33.79273725560391
 20
15.29455540453121
 30
0.0
 10
33.79275388401401
 20
15.33578716416958
 30
0.0
 10
33.79275388401401
 20
15.33578716416958
 30
0.0
 10
33.79275388463485
 20
15.33578873405932
 30
0.0
 10
33.79275388463485
 20
15.33578873405932
 30
0.0
  0
LINE
  5
14C
330
70
100
AcDbEntity
  8
Sichtbar (ISO)
 62
    18
420
        0
370
     5
100
AcDbLine
 10
19.10899473655346
 20
1.801932474820103
 30
0.0
 11
19.10899473655346
 21
15.10196965244146
 31
0.0
  0
LINE
  5
14D
330
70
100
AcDbEntity
  8
Sichtbar (ISO)
 62
    18
420
        0
370
     5
100
AcDbLine
 10
43.10612987542834
 20
1.87619398729258
 30
0.0
 11
43.10612987542834
 21
15.06470231511433
 31
0.0
  0
INSERT
  5
14F
330
70
100
AcDbEntity
  8
Sichtbar (ISO)
100
AcDbBlockReference
  2
Block_19
 10
0.0
 20
0.0
 30
0.0
  0
LINE
  5
163
330
70
100
AcDbEntity
  8
Sichtbar (ISO)
 62
    18
420
        0
370
     5
100
AcDbLine
 10
53.58269016370721
 20
81.74796452655145
 30
0.0
 11
8.683084579538585
 21
81.74796452655145
 31
0.0
  0
SPLINE
  5
164
330
70
100
AcDbEntity
  8
Sichtbar (ISO)
 62
    18
420
        0
370
     5
100
AcDbSpline
210
0.0
220
0.0
230
1.0
 70
     8
 71
     3
 72
     8
 73
     4
 74
     0
 42
0.0000000001
 43
0.0000000001
 40
0.0
 40
0.0
 40
0.0
 40
0.0
 40
1.0
 40
1.0
 40
1.0
 40
1.0
 10
53.41347054467108
 20
75.50903465540073
 30
0.0
 10
53.72499526122366
 20
75.50903465540073
 30
0.0
 10
53.9775359414569
 20
75.76165834284488
 30
0.0
 10
53.9775359414569
 20
76.07328545398101
 30
0.0
  0
LINE
  5
165
330
70
100
AcDbEntity
  8
Sichtbar (ISO)
 62
    18
420
        0
370
     5
100
AcDbLine
 10
53.9775359414569
 20
81.74796452655145
 30
0.0
 11
53.9775359414569
 21
76.39905580443041
 31
0.0
  0
LINE
  5
166
330
70
100
AcDbEntity
  8
Sichtbar (ISO)
 62
    18
420
        0
370
     5
100
AcDbLine
 10
53.9775359414569
 20
76.39905580443041
 30
0.0
 11
53.9775359414569
 21
76.0732854539807
 31
0.0
  0
LINE
  5
167
330
70
100
AcDbEntity
  8
Sichtbar (ISO)
 62
    18
420
        0
370
     5
100
AcDbLine
 10
53.9775359414569
 20
81.74796452655145
 30
0.0
 11
53.60149234359926
 21
81.74796452655145
 31
0.0
  0
SPLINE
  5
168
330
70
100
AcDbEntity
  8
Sichtbar (ISO)
 62
    18
420
        0
370
     5
100
AcDbSpline
210
0.0
220
0.0
230
1.0
 70
     8
 71
     3
 72
     8
 73
     4
 74
     0
 42
0.0000000001
 43
0.0000000001
 40
0.0
 40
0.0
 40
0.0
 40
0.0
 40
1.0
 40
1.0
 40
1.0
 40
1.0
 10
8.288238801788573
 20
76.0732854539807
 30
0.0
 10
8.288238801788573
 20
75.76165834284488
 30
0.0
 10
8.540779482022783
 20
75.50903465540073
 30
0.0
 10
8.852304198574396
 20
75.50903465540073
 30
0.0
  0
LINE
  5
169
330
70
100
AcDbEntity
  8
Sichtbar (ISO)
 62
    18
420
        0
370
     5
100
AcDbLine
 10
8.288238801788573
 20
76.39905580443041
 30
0.0
 11
8.288238801788573
 21
76.0732854539807
 31
0.0
  0
LINE
  5
16A
330
70
100
AcDbEntity
  8
Sichtbar (ISO)
 62
    18
420
        0
370
     5
100
AcDbLine
 10
8.288238801788573
 20
81.74796452655145
 30
0.0
 11
8.288238801788573
 21
76.39905580443041
 31
0.0
  0
LINE
  5
16B
330
70
100
AcDbEntity
  8
Sichtbar (ISO)
 62
    18
420
        0
370
     5
100
AcDbLine
 10
8.288238801788573
 20
81.74796452655145
 30
0.0
 11
8.664282399645895
 21
81.74796452655145
 31
0.0
  0
LINE
  5
16C
330
70
100
AcDbEntity
  8
Sichtbar (ISO)
 62
    18
420
        0
370
     5
100
AcDbLine
 10
53.03742694681344
 20
75.13286745634765
 30
0.0
 11
53.9775359414569
 21
75.13286745634765
 31
0.0
  0
LINE
  5
16D
330
70
100
AcDbEntity
  8
Sichtbar (ISO)
 62
    18
420
        0
370
     5
100
AcDbLine
 10
53.03742694681344
 20
75.13286745634765
 30
0.0
 11
9.228347796432359
 21
75.13286745634765
 31
0.0
  0
LINE
  5
16E
330
70
100
AcDbEntity
  8
Sichtbar (ISO)
 62
    18
420
        0
370
     5
100
AcDbLine
 10
9.228347796432359
 20
75.13286745634765
 30
0.0
 11
8.288238801788573
 21
75.13286745634765
 31
0.0
  0
LINE
  5
16F
330
70
100
AcDbEntity
  8
Sichtbar (ISO)
 62
    18
420
        0
370
     5
100
AcDbLine
 10
8.288238801788573
 20
75.50903465540073
 30
0.0
 11
9.228347796432359
 21
75.50903465540073
 31
0.0
  0
LINE
  5
170
330
70
100
AcDbEntity
  8
Sichtbar (ISO)
 62
    18
420
        0
370
     5
100
AcDbLine
 10
9.228347796432359
 20
75.50903465540073
 30
0.0
 11
53.03742694681344
 21
75.50903465540073
 31
0.0
  0
LINE
  5
171
330
70
100
AcDbEntity
  8
Sichtbar (ISO)
 62
    18
420
        0
370
     5
100
AcDbLine
 10
53.9775359414569
 20
75.50903465540073
 30
0.0
 11
53.03742694681344
 21
75.50903465540073
 31
0.0
  0
SPLINE
  5
172
330
70
100
AcDbEntity
  8
Sichtbar (ISO)
 62
    18
420
        0
370
     5
100
AcDbSpline
210
0.0
220
0.0
230
1.0
 70
     8
 71
     3
 72
     8
 73
     4
 74
     0
 42
0.0000000001
 43
0.0000000001
 40
0.0
 40
0.0
 40
0.0
 40
0.0
 40
1.0
 40
1.0
 40
1.0
 40
1.0
 10
53.9775359414569
 20
74.94478385682143
 30
0.0
 10
53.9775359414569
 20
75.00885583892683
 30
0.0
 10
53.96662681057215
 20
75.07245981230655
 30
0.0
 10
53.94527650080437
 20
75.13286745634765
 30
0.0
  0
LINE
  5
173
330
70
100
AcDbEntity
  8
Sichtbar (ISO)
 62
    18
420
        0
370
     5
100
AcDbLine
 10
53.9775359414569
 20
75.50903465540073
 30
0.0
 11
53.9775359414569
 21
75.13286745634765
 31
0.0
  0
LINE
  5
174
330
70
100
AcDbEntity
  8
Sichtbar (ISO)
 62
    18
420
        0
370
     5
100
AcDbLine
 10
8.288238801788573
 20
75.50903465540073
 30
0.0
 11
8.288238801788573
 21
75.13286745634765
 31
0.0
  0
LINE
  5
175
330
70
100
AcDbEntity
  8
Sichtbar (ISO)
 62
    18
420
        0
370
     5
100
AcDbLine
 10
53.9775359414569
 20
74.94478385682143
 30
0.0
 11
53.9775359414569
 21
73.25203146108221
 31
0.0
  0
LINE
  5
176
330
70
100
AcDbEntity
  8
Sichtbar (ISO)
 62
    18
420
        0
370
     5
100
AcDbLine
 10
53.9775359414569
 20
73.06394786155599
 30
0.0
 11
53.9775359414569
 21
73.25203146108221
 31
0.0
  0
LINE
  5
177
330
70
100
AcDbEntity
  8
Sichtbar (ISO)
 62
    18
420
        0
370
     5
100
AcDbLine
 10
53.22544874574162
 20
73.06394786155599
 30
0.0
 11
53.9775359414569
 21
73.06394786155599
 31
0.0
  0
LINE
  5
178
330
70
100
AcDbEntity
  8
Sichtbar (ISO)
 62
    18
420
        0
370
     5
100
AcDbLine
 10
50.96918715859833
 20
65.16443668144049
 30
0.0
 11
53.22544874574162
 21
65.16443668144049
 31
0.0
  0
LINE
  5
179
330
70
100
AcDbEntity
  8
Sichtbar (ISO)
 62
    18
420
        0
370
     5
100
AcDbLine
 10
53.22544874574162
 20
75.13286745634765
 30
0.0
 11
53.22544874574162
 21
65.16443668144049
 31
0.0
  0
LINE
  5
17A
330
70
100
AcDbEntity
  8
Sichtbar (ISO)
 62
    18
420
        0
370
     5
100
AcDbLine
 10
50.96918715859833
 20
75.13286745634765
 30
0.0
 11
50.96918715859833
 21
65.16443668144049
 31
0.0
  0
LINE
  5
17B
330
70
100
AcDbEntity
  8
Sichtbar (ISO)
 62
    18
420
        0
370
     5
100
AcDbLine
 10
9.040325997503217
 20
65.16443668144049
 30
0.0
 11
11.29658758464779
 21
65.16443668144049
 31
0.0
  0
LINE
  5
17C
330
70
100
AcDbEntity
  8
Sichtbar (ISO)
 62
    18
420
        0
370
     5
100
AcDbLine
 10
11.29658758464779
 20
75.13286745634765
 30
0.0
 11
11.29658758464779
 21
65.16443668144049
 31
0.0
  0
LINE
  5
17D
330
70
100
AcDbEntity
  8
Sichtbar (ISO)
 62
    18
420
        0
370
     5
100
AcDbLine
 10
9.040325997503217
 20
75.13286745634765
 30
0.0
 11
9.040325997503217
 21
65.16443668144049
 31
0.0
  0
LINE
  5
17E
330
70
100
AcDbEntity
  8
Sichtbar (ISO)
 62
    18
420
        0
370
     5
100
AcDbLine
 10
37.05557403787613
 20
67.42143987575933
 30
0.0
 11
25.21020070536903
 21
67.42143987575933
 31
0.0
  0
LINE
  5
17F
330
70
100
AcDbEntity
  8
Sichtbar (ISO)
 62
    18
420
        0
370
     5
100
AcDbLine
 10
25.21020070537064
 20
67.42143987575933
 30
0.0
 11
24.64613530858193
 21
67.42143987575933
 31
0.0
  0
LINE
  5
180
330
70
100
AcDbEntity
  8
Sichtbar (ISO)
 62
    18
420
        0
370
     5
100
AcDbLine
 10
24.64613530858353
 20
67.42143987575933
 30
0.0
 11
24.45811350965471
 21
67.42143987575933
 31
0.0
  0
LINE
  5
181
330
70
100
AcDbEntity
  8
Sichtbar (ISO)
 62
    18
420
        0
370
     5
100
AcDbLine
 10
23.70602631394007
 20
67.42143987575933
 30
0.0
 11
24.45811350965471
 21
67.42143987575933
 31
0.0
  0
LINE
  5
182
330
70
100
AcDbEntity
  8
Sichtbar (ISO)
 62
    18
420
        0
370
     5
100
AcDbLine
 10
23.70602631394007
 20
67.42143987575933
 30
0.0
 11
22.7659173192966
 21
67.42143987575933
 31
0.0
  0
LINE
  5
183
330
70
100
AcDbEntity
  8
Sichtbar (ISO)
 62
    18
420
        0
370
     5
100
AcDbLine
 10
22.01383012358196
 20
67.42143987575933
 30
0.0
 11
22.7659173192966
 21
67.42143987575933
 31
0.0
  0
LINE
  5
184
330
70
100
AcDbEntity
  8
Sichtbar (ISO)
 62
    18
420
        0
370
     5
100
AcDbLine
 10
22.01383012358196
 20
67.42143987575933
 30
0.0
 11
13.92889276964905
 21
67.42143987575933
 31
0.0
  0
LINE
  5
185
330
70
100
AcDbEntity
  8
Sichtbar (ISO)
 62
    18
420
        0
370
     5
100
AcDbLine
 10
13.92889276965033
 20
67.42143987575933
 30
0.0
 11
13.36482737286162
 21
67.42143987575933
 31
0.0
  0
LINE
  5
186
330
70
100
AcDbEntity
  8
Sichtbar (ISO)
 62
    18
420
        0
370
     5
100
AcDbLine
 10
13.3648273728629
 20
67.42143987575933
 30
0.0
 11
12.40984316971778
 21
67.42143987575933
 31
0.0
  0
LINE
  5
187
330
70
100
AcDbEntity
  8
Sichtbar (ISO)
 62
    18
420
        0
370
     5
100
AcDbLine
 10
11.35676022345217
 20
67.42143987575933
 30
0.0
 11
12.40984316971778
 21
67.42143987575933
 31
0.0
  0
LINE
  5
188
330
70
100
AcDbEntity
  8
Sichtbar (ISO)
 62
    18
420
        0
370
     5
100
AcDbLine
 10
11.29658758464779
 20
67.42143987575933
 30
0.0
 11
11.35676022344928
 21
67.42143987575933
 31
0.0
  0
LINE
  5
189
330
70
100
AcDbEntity
  8
Sichtbar (ISO)
 62
    18
420
        0
370
     5
100
AcDbLine
 10
50.96918715859833
 20
67.42143987575933
 30
0.0
 11
50.90901451979651
 21
67.42143987575933
 31
0.0
  0
LINE
  5
18A
330
70
100
AcDbEntity
  8
Sichtbar (ISO)
 62
    18
420
        0
370
     5
100
AcDbLine
 10
50.90901451979267
 20
67.42143987575933
 30
0.0
 11
49.85593157352769
 21
67.42143987575933
 31
0.0
  0
LINE
  5
18B
330
70
100
AcDbEntity
  8
Sichtbar (ISO)
 62
    18
420
        0
370
     5
100
AcDbLine
 10
48.90094737038193
 20
67.42143987575933
 30
0.0
 11
49.85593157352769
 21
67.42143987575933
 31
0.0
  0
LINE
  5
18C
330
70
100
AcDbEntity
  8
Sichtbar (ISO)
 62
    18
420
        0
370
     5
100
AcDbLine
 10
48.33688197359482
 20
67.42143987575933
 30
0.0
 11
48.90094737038321
 21
67.42143987575933
 31
0.0
  0
LINE
  5
18D
330
70
100
AcDbEntity
  8
Sichtbar (ISO)
 62
    18
420
        0
370
     5
100
AcDbLine
 10
40.25194461966353
 20
67.42143987575933
 30
0.0
 11
48.33688197359739
 21
67.42143987575933
 31
0.0
  0
LINE
  5
18E
330
70
100
AcDbEntity
  8
Sichtbar (ISO)
 62
    18
420
        0
370
     5
100
AcDbLine
 10
40.25194461966353
 20
67.42143987575933
 30
0.0
 11
39.49985742394856
 21
67.42143987575933
 31
0.0
  0
LINE
  5
18F
330
70
100
AcDbEntity
  8
Sichtbar (ISO)
 62
    18
420
        0
370
     5
100
AcDbLine
 10
38.55974842930542
 20
67.42143987575933
 30
0.0
 11
39.49985742394856
 21
67.42143987575933
 31
0.0
  0
LINE
  5
190
330
70
100
AcDbEntity
  8
Sichtbar (ISO)
 62
    18
420
        0
370
     5
100
AcDbLine
 10
38.55974842930542
 20
67.42143987575933
 30
0.0
 11
37.80766123359077
 21
67.42143987575933
 31
0.0
  0
LINE
  5
191
330
70
100
AcDbEntity
  8
Sichtbar (ISO)
 62
    18
420
        0
370
     5
100
AcDbLine
 10
37.61963943466195
 20
67.42143987575933
 30
0.0
 11
37.80766123359077
 21
67.42143987575933
 31
0.0
  0
LINE
  5
192
330
70
100
AcDbEntity
  8
Sichtbar (ISO)
 62
    18
420
        0
370
     5
100
AcDbLine
 10
37.05557403787484
 20
67.42143987575933
 30
0.0
 11
37.61963943466323
 21
67.42143987575933
 31
0.0
  0
LINE
  5
193
330
70
100
AcDbEntity
  8
Sichtbar (ISO)
 62
    18
420
        0
370
     5
100
AcDbLine
 10
25.21020070536903
 20
71.05145334662151
 30
0.0
 11
25.21020070536903
 21
67.42143987575933
 31
0.0
  0
LINE
  5
194
330
70
100
AcDbEntity
  8
Sichtbar (ISO)
 62
    18
420
        0
370
     5
100
AcDbLine
 10
37.05557403787613
 20
71.05145334662151
 30
0.0
 11
37.05557403787613
 21
67.42143987575933
 31
0.0
  0
LINE
  5
195
330
70
100
AcDbEntity
  8
Sichtbar (ISO)
 62
    18
420
        0
370
     5
100
AcDbLine
 10
31.70635385835523
 20
68.29602861355771
 30
0.0
 11
30.55942088489025
 21
68.29602861355771
 31
0.0
  0
LINE
  5
196
330
70
100
AcDbEntity
  8
Sichtbar (ISO)
 62
    18
420
        0
370
     5
100
AcDbLine
 10
30.55942088489025
 20
68.10794501403148
 30
0.0
 11
30.55942088489025
 21
68.29602861355771
 31
0.0
  0
LINE
  5
197
330
70
100
AcDbEntity
  8
Sichtbar (ISO)
 62
    18
420
        0
370
     5
100
AcDbLine
 10
28.50058218662148
 20
68.10794501403148
 30
0.0
 11
30.55942088489025
 21
68.10794501403148
 31
0.0
  0
SPLINE
  5
198
330
70
100
AcDbEntity
  8
Sichtbar (ISO)
 62
    18
420
        0
370
     5
100
AcDbSpline
210
0.0
220
0.0
230
1.0
 70
     8
 71
     3
 72
     8
 73
     4
 74
     0
 42
0.0000000001
 43
0.0000000001
 40
0.0
 40
0.0
 40
0.0
 40
0.0
 40
1.0
 40
1.0
 40
1.0
 40
1.0
 10
28.31256038769234
 20
68.29602861355771
 30
0.0
 10
28.31256038769234
 20
68.19215290984608
 30
0.0
 10
28.39674061443708
 20
68.10794501403148
 30
0.0
 10
28.50058218662148
 20
68.10794501403148
 30
0.0
  0
LINE
  5
199
330
70
100
AcDbEntity
  8
Sichtbar (ISO)
 62
    18
420
        0
370
     5
100
AcDbLine
 10
28.31256038769234
 20
68.45589967315501
 30
0.0
 11
28.31256038769234
 21
68.29602861355771
 31
0.0
  0
SPLINE
  5
19A
330
70
100
AcDbEntity
  8
Sichtbar (ISO)
 62
    18
420
        0
370
     5
100
AcDbSpline
210
0.0
220
0.0
230
1.0
 70
     8
 71
     3
 72
     8
 73
     4
 74
     0
 42
0.0000000001
 43
0.0000000001
 40
0.0
 40
0.0
 40
0.0
 40
0.0
 40
1.0
 40
1.0
 40
1.0
 40
1.0
 10
28.50058218662148
 20
68.64398327268155
 30
0.0
 10
28.39674061443708
 20
68.64398327268155
 30
0.0
 10
28.31256038769234
 20
68.55977537686662
 30
0.0
 10
28.31256038769234
 20
68.45589967315501
 30
0.0
  0
LINE
  5
19B
330
70
100
AcDbEntity
  8
Sichtbar (ISO)
 62
    18
420
        0
370
     5
100
AcDbLine
 10
30.56882197483627
 20
68.64398327268155
 30
0.0
 11
28.50058218662148
 21
68.64398327268155
 31
0.0
  0
LINE
  5
19C
330
70
100
AcDbEntity
  8
Sichtbar (ISO)
 62
    18
420
        0
370
     5
100
AcDbLine
 10
30.56882197483627
 20
68.8320668722081
 30
0.0
 11
30.56882197483627
 21
68.64398327268155
 31
0.0
  0
LINE
  5
19D
330
70
100
AcDbEntity
  8
Sichtbar (ISO)
 62
    18
420
        0
370
     5
100
AcDbLine
 10
30.56882197483627
 20
68.8320668722081
 30
0.0
 11
31.69695276840888
 21
68.8320668722081
 31
0.0
  0
LINE
  5
19E
330
70
100
AcDbEntity
  8
Sichtbar (ISO)
 62
    18
420
        0
370
     5
100
AcDbLine
 10
31.69695276840888
 20
68.8320668722081
 30
0.0
 11
31.69695276840888
 21
68.64398327268155
 31
0.0
  0
LINE
  5
19F
330
70
100
AcDbEntity
  8
Sichtbar (ISO)
 62
    18
420
        0
370
     5
100
AcDbLine
 10
31.69695276840888
 20
68.64398327268155
 30
0.0
 11
33.76519255662368
 21
68.64398327268155
 31
0.0
  0
SPLINE
  5
1A0
330
70
100
AcDbEntity
  8
Sichtbar (ISO)
 62
    18
420
        0
370
     5
100
AcDbSpline
210
0.0
220
0.0
230
1.0
 70
     8
 71
     3
 72
     8
 73
     4
 74
     0
 42
0.0000000001
 43
0.0000000001
 40
0.0
 40
0.0
 40
0.0
 40
0.0
 40
1.0
 40
1.0
 40
1.0
 40
1.0
 10
33.95321435555282
 20
68.45589967315501
 30
0.0
 10
33.95321435555282
 20
68.55977537686662
 30
0.0
 10
33.86903412880776
 20
68.64398327268155
 30
0.0
 10
33.76519255662368
 20
68.64398327268155
 30
0.0
  0
LINE
  5
1A1
330
70
100
AcDbEntity
  8
Sichtbar (ISO)
 62
    18
420
        0
370
     5
100
AcDbLine
 10
33.95321435555282
 20
68.45589967315501
 30
0.0
 11
33.95321435555282
 21
68.29602861355771
 31
0.0
  0
SPLINE
  5
1A2
330
70
100
AcDbEntity
  8
Sichtbar (ISO)
 62
    18
420
        0
370
     5
100
AcDbSpline
210
0.0
220
0.0
230
1.0
 70
     8
 71
     3
 72
     8
 73
     4
 74
     0
 42
0.0000000001
 43
0.0000000001
 40
0.0
 40
0.0
 40
0.0
 40
0.0
 40
1.0
 40
1.0
 40
1.0
 40
1.0
 10
33.76519255662368
 20
68.10794501403148
 30
0.0
 10
33.86903412880776
 20
68.10794501403148
 30
0.0
 10
33.95321435555282
 20
68.19215290984608
 30
0.0
 10
33.95321435555282
 20
68.29602861355771
 30
0.0
  0
LINE
  5
1A3
330
70
100
AcDbEntity
  8
Sichtbar (ISO)
 62
    18
420
        0
370
     5
100
AcDbLine
 10
33.76519255662368
 20
68.10794501403148
 30
0.0
 11
31.70635385835523
 21
68.10794501403148
 31
0.0
  0
LINE
  5
1A4
330
70
100
AcDbEntity
  8
Sichtbar (ISO)
 62
    18
420
        0
370
     5
100
AcDbLine
 10
31.70635385835523
 20
68.10794501403148
 30
0.0
 11
31.70635385835523
 21
68.29602861355771
 31
0.0
  0
LINE
  5
1A5
330
70
100
AcDbEntity
  8
Sichtbar (ISO)
 62
    18
420
        0
370
     5
100
AcDbLine
 10
31.70635385835523
 20
72.81003500219476
 30
0.0
 11
30.55942088489025
 21
72.81003500219476
 31
0.0
  0
LINE
  5
1A6
330
70
100
AcDbEntity
  8
Sichtbar (ISO)
 62
    18
420
        0
370
     5
100
AcDbLine
 10
30.55942088489025
 20
72.62195140266823
 30
0.0
 11
30.55942088489025
 21
72.81003500219476
 31
0.0
  0
LINE
  5
1A7
330
70
100
AcDbEntity
  8
Sichtbar (ISO)
 62
    18
420
        0
370
     5
100
AcDbLine
 10
28.50058218662148
 20
72.62195140266823
 30
0.0
 11
30.55942088489025
 21
72.62195140266823
 31
0.0
  0
SPLINE
  5
1A8
330
70
100
AcDbEntity
  8
Sichtbar (ISO)
 62
    18
420
        0
370
     5
100
AcDbSpline
210
0.0
220
0.0
230
1.0
 70
     8
 71
     3
 72
     8
 73
     4
 74
     0
 42
0.0000000001
 43
0.0000000001
 40
0.0
 40
0.0
 40
0.0
 40
0.0
 40
1.0
 40
1.0
 40
1.0
 40
1.0
 10
28.31256038769234
 20
72.81003500219476
 30
0.0
 10
28.31256038769234
 20
72.70615929848347
 30
0.0
 10
28.39674061443708
 20
72.62195140266823
 30
0.0
 10
28.50058218662148
 20
72.62195140266823
 30
0.0
  0
LINE
  5
1A9
330
70
100
AcDbEntity
  8
Sichtbar (ISO)
 62
    18
420
        0
370
     5
100
AcDbLine
 10
28.31256038769234
 20
72.96990606179207
 30
0.0
 11
28.31256038769234
 21
72.81003500219476
 31
0.0
  0
SPLINE
  5
1AA
330
70
100
AcDbEntity
  8
Sichtbar (ISO)
 62
    18
420
        0
370
     5
100
AcDbSpline
210
0.0
220
0.0
230
1.0
 70
     8
 71
     3
 72
     8
 73
     4
 74
     0
 42
0.0000000001
 43
0.0000000001
 40
0.0
 40
0.0
 40
0.0
 40
0.0
 40
1.0
 40
1.0
 40
1.0
 40
1.0
 10
28.50058218662148
 20
73.15798966131926
 30
0.0
 10
28.39674061443708
 20
73.15798966131926
 30
0.0
 10
28.31256038769234
 20
73.073781765504
 30
0.0
 10
28.31256038769234
 20
72.96990606179207
 30
0.0
  0
LINE
  5
1AB
330
70
100
AcDbEntity
  8
Sichtbar (ISO)
 62
    18
420
        0
370
     5
100
AcDbLine
 10
30.56882197483627
 20
73.15798966131926
 30
0.0
 11
28.50058218662148
 21
73.15798966131926
 31
0.0
  0
LINE
  5
1AC
330
70
100
AcDbEntity
  8
Sichtbar (ISO)
 62
    18
420
        0
370
     5
100
AcDbLine
 10
30.56882197483627
 20
73.34607326084548
 30
0.0
 11
30.56882197483627
 21
73.15798966131926
 31
0.0
  0
LINE
  5
1AD
330
70
100
AcDbEntity
  8
Sichtbar (ISO)
 62
    18
420
        0
370
     5
100
AcDbLine
 10
30.56882197483627
 20
73.34607326084548
 30
0.0
 11
31.69695276840888
 21
73.34607326084548
 31
0.0
  0
LINE
  5
1AE
330
70
100
AcDbEntity
  8
Sichtbar (ISO)
 62
    18
420
        0
370
     5
100
AcDbLine
 10
31.69695276840888
 20
73.34607326084548
 30
0.0
 11
31.69695276840888
 21
73.15798966131926
 31
0.0
  0
LINE
  5
1AF
330
70
100
AcDbEntity
  8
Sichtbar (ISO)
 62
    18
420
        0
370
     5
100
AcDbLine
 10
31.69695276840888
 20
73.15798966131926
 30
0.0
 11
33.76519255662368
 21
73.15798966131926
 31
0.0
  0
SPLINE
  5
1B0
330
70
100
AcDbEntity
  8
Sichtbar (ISO)
 62
    18
420
        0
370
     5
100
AcDbSpline
210
0.0
220
0.0
230
1.0
 70
     8
 71
     3
 72
     8
 73
     4
 74
     0
 42
0.0000000001
 43
0.0000000001
 40
0.0
 40
0.0
 40
0.0
 40
0.0
 40
1.0
 40
1.0
 40
1.0
 40
1.0
 10
33.95321435555282
 20
72.96990606179207
 30
0.0
 10
33.95321435555282
 20
73.073781765504
 30
0.0
 10
33.86903412880776
 20
73.15798966131926
 30
0.0
 10
33.76519255662368
 20
73.15798966131926
 30
0.0
  0
LINE
  5
1B1
330
70
100
AcDbEntity
  8
Sichtbar (ISO)
 62
    18
420
        0
370
     5
100
AcDbLine
 10
33.95321435555282
 20
72.96990606179207
 30
0.0
 11
33.95321435555282
 21
72.81003500219476
 31
0.0
  0
SPLINE
  5
1B2
330
70
100
AcDbEntity
  8
Sichtbar (ISO)
 62
    18
420
        0
370
     5
100
AcDbSpline
210
0.0
220
0.0
230
1.0
 70
     8
 71
     3
 72
     8
 73
     4
 74
     0
 42
0.0000000001
 43
0.0000000001
 40
0.0
 40
0.0
 40
0.0
 40
0.0
 40
1.0
 40
1.0
 40
1.0
 40
1.0
 10
33.76519255662368
 20
72.62195140266823
 30
0.0
 10
33.86903412880776
 20
72.62195140266823
 30
0.0
 10
33.95321435555282
 20
72.70615929848347
 30
0.0
 10
33.95321435555282
 20
72.81003500219476
 30
0.0
  0
LINE
  5
1B3
330
70
100
AcDbEntity
  8
Sichtbar (ISO)
 62
    18
420
        0
370
     5
100
AcDbLine
 10
33.76519255662368
 20
72.62195140266823
 30
0.0
 11
31.70635385835523
 21
72.62195140266823
 31
0.0
  0
LINE
  5
1B4
330
70
100
AcDbEntity
  8
Sichtbar (ISO)
 62
    18
420
        0
370
     5
100
AcDbLine
 10
31.70635385835523
 20
72.62195140266823
 30
0.0
 11
31.70635385835523
 21
72.81003500219476
 31
0.0
  0
LINE
  5
1B5
330
70
100
AcDbEntity
  8
Sichtbar (ISO)
 62
    18
420
        0
370
     5
100
AcDbLine
 10
31.70635385835523
 20
71.68153340503582
 30
0.0
 11
30.55942088489025
 21
71.68153340503582
 31
0.0
  0
LINE
  5
1B6
330
70
100
AcDbEntity
  8
Sichtbar (ISO)
 62
    18
420
        0
370
     5
100
AcDbLine
 10
30.55942088489025
 20
71.49344980550863
 30
0.0
 11
30.55942088489025
 21
71.68153340503582
 31
0.0
  0
LINE
  5
1B7
330
70
100
AcDbEntity
  8
Sichtbar (ISO)
 62
    18
420
        0
370
     5
100
AcDbLine
 10
28.50058218662148
 20
71.49344980550863
 30
0.0
 11
30.55942088489025
 21
71.49344980550863
 31
0.0
  0
SPLINE
  5
1B8
330
70
100
AcDbEntity
  8
Sichtbar (ISO)
 62
    18
420
        0
370
     5
100
AcDbSpline
210
0.0
220
0.0
230
1.0
 70
     8
 71
     3
 72
     8
 73
     4
 74
     0
 42
0.0000000001
 43
0.0000000001
 40
0.0
 40
0.0
 40
0.0
 40
0.0
 40
1.0
 40
1.0
 40
1.0
 40
1.0
 10
28.31256038769234
 20
71.68153340503582
 30
0.0
 10
28.31256038769234
 20
71.57765770132357
 30
0.0
 10
28.39674061443708
 20
71.49344980550863
 30
0.0
 10
28.50058218662148
 20
71.49344980550863
 30
0.0
  0
LINE
  5
1B9
330
70
100
AcDbEntity
  8
Sichtbar (ISO)
 62
    18
420
        0
370
     5
100
AcDbLine
 10
28.31256038769234
 20
71.84140446463249
 30
0.0
 11
28.31256038769234
 21
71.68153340503582
 31
0.0
  0
SPLINE
  5
1BA
330
70
100
AcDbEntity
  8
Sichtbar (ISO)
 62
    18
420
        0
370
     5
100
AcDbSpline
210
0.0
220
0.0
230
1.0
 70
     8
 71
     3
 72
     8
 73
     4
 74
     0
 42
0.0000000001
 43
0.0000000001
 40
0.0
 40
0.0
 40
0.0
 40
0.0
 40
1.0
 40
1.0
 40
1.0
 40
1.0
 10
28.50058218662148
 20
72.02948806415935
 30
0.0
 10
28.39674061443708
 20
72.02948806415935
 30
0.0
 10
28.31256038769234
 20
71.94528016834475
 30
0.0
 10
28.31256038769234
 20
71.84140446463249
 30
0.0
  0
LINE
  5
1BB
330
70
100
AcDbEntity
  8
Sichtbar (ISO)
 62
    18
420
        0
370
     5
100
AcDbLine
 10
30.56882197483627
 20
72.02948806415935
 30
0.0
 11
28.50058218662148
 21
72.02948806415935
 31
0.0
  0
LINE
  5
1BC
330
70
100
AcDbEntity
  8
Sichtbar (ISO)
 62
    18
420
        0
370
     5
100
AcDbLine
 10
30.56882197483627
 20
72.21757166368654
 30
0.0
 11
30.56882197483627
 21
72.02948806415935
 31
0.0
  0
LINE
  5
1BD
330
70
100
AcDbEntity
  8
Sichtbar (ISO)
 62
    18
420
        0
370
     5
100
AcDbLine
 10
30.56882197483627
 20
72.21757166368654
 30
0.0
 11
31.69695276840888
 21
72.21757166368654
 31
0.0
  0
LINE
  5
1BE
330
70
100
AcDbEntity
  8
Sichtbar (ISO)
 62
    18
420
        0
370
     5
100
AcDbLine
 10
31.69695276840888
 20
72.21757166368654
 30
0.0
 11
31.69695276840888
 21
72.02948806415935
 31
0.0
  0
LINE
  5
1BF
330
70
100
AcDbEntity
  8
Sichtbar (ISO)
 62
    18
420
        0
370
     5
100
AcDbLine
 10
31.69695276840888
 20
72.02948806415935
 30
0.0
 11
33.76519255662368
 21
72.02948806415935
 31
0.0
  0
SPLINE
  5
1C0
330
70
100
AcDbEntity
  8
Sichtbar (ISO)
 62
    18
420
        0
370
     5
100
AcDbSpline
210
0.0
220
0.0
230
1.0
 70
     8
 71
     3
 72
     8
 73
     4
 74
     0
 42
0.0000000001
 43
0.0000000001
 40
0.0
 40
0.0
 40
0.0
 40
0.0
 40
1.0
 40
1.0
 40
1.0
 40
1.0
 10
33.95321435555282
 20
71.84140446463249
 30
0.0
 10
33.95321435555282
 20
71.94528016834475
 30
0.0
 10
33.86903412880776
 20
72.02948806415935
 30
0.0
 10
33.76519255662368
 20
72.02948806415935
 30
0.0
  0
LINE
  5
1C1
330
70
100
AcDbEntity
  8
Sichtbar (ISO)
 62
    18
420
        0
370
     5
100
AcDbLine
 10
33.95321435555282
 20
71.84140446463249
 30
0.0
 11
33.95321435555282
 21
71.6815334050355
 31
0.0
  0
SPLINE
  5
1C2
330
70
100
AcDbEntity
  8
Sichtbar (ISO)
 62
    18
420
        0
370
     5
100
AcDbSpline
210
0.0
220
0.0
230
1.0
 70
     8
 71
     3
 72
     8
 73
     4
 74
     0
 42
0.0000000001
 43
0.0000000001
 40
0.0
 40
0.0
 40
0.0
 40
0.0
 40
1.0
 40
1.0
 40
1.0
 40
1.0
 10
33.76519255662368
 20
71.49344980550863
 30
0.0
 10
33.86903412880776
 20
71.49344980550863
 30
0.0
 10
33.95321435555282
 20
71.57765770132357
 30
0.0
 10
33.95321435555282
 20
71.6815334050355
 30
0.0
  0
LINE
  5
1C3
330
70
100
AcDbEntity
  8
Sichtbar (ISO)
 62
    18
420
        0
370
     5
100
AcDbLine
 10
33.76519255662368
 20
71.49344980550863
 30
0.0
 11
31.70635385835523
 21
71.49344980550863
 31
0.0
  0
LINE
  5
1C4
330
70
100
AcDbEntity
  8
Sichtbar (ISO)
 62
    18
420
        0
370
     5
100
AcDbLine
 10
31.70635385835523
 20
71.49344980550863
 30
0.0
 11
31.70635385835523
 21
71.68153340503582
 31
0.0
  0
LINE
  5
1C5
330
70
100
AcDbEntity
  8
Sichtbar (ISO)
 62
    18
420
        0
370
     5
100
AcDbLine
 10
31.70635385835523
 20
70.55303180787591
 30
0.0
 11
30.55942088489025
 21
70.55303180787591
 31
0.0
  0
LINE
  5
1C6
330
70
100
AcDbEntity
  8
Sichtbar (ISO)
 62
    18
420
        0
370
     5
100
AcDbLine
 10
30.55942088489025
 20
70.36494820834969
 30
0.0
 11
30.55942088489025
 21
70.55303180787591
 31
0.0
  0
LINE
  5
1C7
330
70
100
AcDbEntity
  8
Sichtbar (ISO)
 62
    18
420
        0
370
     5
100
AcDbLine
 10
28.50058218662148
 20
70.36494820834969
 30
0.0
 11
30.55942088489025
 21
70.36494820834969
 31
0.0
  0
SPLINE
  5
1C8
330
70
100
AcDbEntity
  8
Sichtbar (ISO)
 62
    18
420
        0
370
     5
100
AcDbSpline
210
0.0
220
0.0
230
1.0
 70
     8
 71
     3
 72
     8
 73
     4
 74
     0
 42
0.0000000001
 43
0.0000000001
 40
0.0
 40
0.0
 40
0.0
 40
0.0
 40
1.0
 40
1.0
 40
1.0
 40
1.0
 10
28.31256038769234
 20
70.55303180787591
 30
0.0
 10
28.31256038769234
 20
70.4491561041643
 30
0.0
 10
28.39674061443708
 20
70.36494820834969
 30
0.0
 10
28.50058218662148
 20
70.36494820834969
 30
0.0
  0
LINE
  5
1C9
330
70
100
AcDbEntity
  8
Sichtbar (ISO)
 62
    18
420
        0
370
     5
100
AcDbLine
 10
28.31256038769234
 20
70.71290286747322
 30
0.0
 11
28.31256038769234
 21
70.55303180787591
 31
0.0
  0
SPLINE
  5
1CA
330
70
100
AcDbEntity
  8
Sichtbar (ISO)
 62
    18
420
        0
370
     5
100
AcDbSpline
210
0.0
220
0.0
230
1.0
 70
     8
 71
     3
 72
     8
 73
     4
 74
     0
 42
0.0000000001
 43
0.0000000001
 40
0.0
 40
0.0
 40
0.0
 40
0.0
 40
1.0
 40
1.0
 40
1.0
 40
1.0
 10
28.50058218662148
 20
70.90098646700074
 30
0.0
 10
28.39674061443708
 20
70.90098646700074
 30
0.0
 10
28.31256038769234
 20
70.81677857118548
 30
0.0
 10
28.31256038769234
 20
70.71290286747322
 30
0.0
  0
LINE
  5
1CB
330
70
100
AcDbEntity
  8
Sichtbar (ISO)
 62
    18
420
        0
370
     5
100
AcDbLine
 10
30.56882197483627
 20
70.90098646700074
 30
0.0
 11
28.50058218662148
 21
70.90098646700074
 31
0.0
  0
LINE
  5
1CC
330
70
100
AcDbEntity
  8
Sichtbar (ISO)
 62
    18
420
        0
370
     5
100
AcDbLine
 10
30.56882197483627
 20
71.08907006652663
 30
0.0
 11
30.56882197483627
 21
70.90098646700074
 31
0.0
  0
LINE
  5
1CD
330
70
100
AcDbEntity
  8
Sichtbar (ISO)
 62
    18
420
        0
370
     5
100
AcDbLine
 10
30.56882197483627
 20
71.08907006652663
 30
0.0
 11
31.69695276840888
 21
71.08907006652663
 31
0.0
  0
LINE
  5
1CE
330
70
100
AcDbEntity
  8
Sichtbar (ISO)
 62
    18
420
        0
370
     5
100
AcDbLine
 10
31.69695276840888
 20
71.08907006652663
 30
0.0
 11
31.69695276840888
 21
70.90098646700074
 31
0.0
  0
LINE
  5
1CF
330
70
100
AcDbEntity
  8
Sichtbar (ISO)
 62
    18
420
        0
370
     5
100
AcDbLine
 10
31.69695276840888
 20
70.90098646700074
 30
0.0
 11
33.76519255662368
 21
70.90098646700074
 31
0.0
  0
SPLINE
  5
1D0
330
70
100
AcDbEntity
  8
Sichtbar (ISO)
 62
    18
420
        0
370
     5
100
AcDbSpline
210
0.0
220
0.0
230
1.0
 70
     8
 71
     3
 72
     8
 73
     4
 74
     0
 42
0.0000000001
 43
0.0000000001
 40
0.0
 40
0.0
 40
0.0
 40
0.0
 40
1.0
 40
1.0
 40
1.0
 40
1.0
 10
33.95321435555282
 20
70.71290286747322
 30
0.0
 10
33.95321435555282
 20
70.81677857118548
 30
0.0
 10
33.86903412880776
 20
70.90098646700074
 30
0.0
 10
33.76519255662368
 20
70.90098646700074
 30
0.0
  0
LINE
  5
1D1
330
70
100
AcDbEntity
  8
Sichtbar (ISO)
 62
    18
420
        0
370
     5
100
AcDbLine
 10
33.95321435555282
 20
70.71290286747322
 30
0.0
 11
33.95321435555282
 21
70.55303180787591
 31
0.0
  0
SPLINE
  5
1D2
330
70
100
AcDbEntity
  8
Sichtbar (ISO)
 62
    18
420
        0
370
     5
100
AcDbSpline
210
0.0
220
0.0
230
1.0
 70
     8
 71
     3
 72
     8
 73
     4
 74
     0
 42
0.0000000001
 43
0.0000000001
 40
0.0
 40
0.0
 40
0.0
 40
0.0
 40
1.0
 40
1.0
 40
1.0
 40
1.0
 10
33.76519255662368
 20
70.36494820834969
 30
0.0
 10
33.86903412880776
 20
70.36494820834969
 30
0.0
 10
33.95321435555282
 20
70.4491561041643
 30
0.0
 10
33.95321435555282
 20
70.55303180787591
 30
0.0
  0
LINE
  5
1D3
330
70
100
AcDbEntity
  8
Sichtbar (ISO)
 62
    18
420
        0
370
     5
100
AcDbLine
 10
33.76519255662368
 20
70.36494820834969
 30
0.0
 11
31.70635385835523
 21
70.36494820834969
 31
0.0
  0
LINE
  5
1D4
330
70
100
AcDbEntity
  8
Sichtbar (ISO)
 62
    18
420
        0
370
     5
100
AcDbLine
 10
31.70635385835523
 20
70.36494820834969
 30
0.0
 11
31.70635385835523
 21
70.55303180787591
 31
0.0
  0
LINE
  5
1D5
330
70
100
AcDbEntity
  8
Sichtbar (ISO)
 62
    18
420
        0
370
     5
100
AcDbLine
 10
31.70635385835523
 20
69.42453021071696
 30
0.0
 11
30.55942088489025
 21
69.42453021071696
 31
0.0
  0
LINE
  5
1D6
330
70
100
AcDbEntity
  8
Sichtbar (ISO)
 62
    18
420
        0
370
     5
100
AcDbLine
 10
30.55942088489025
 20
69.23644661119043
 30
0.0
 11
30.55942088489025
 21
69.42453021071696
 31
0.0
  0
LINE
  5
1D7
330
70
100
AcDbEntity
  8
Sichtbar (ISO)
 62
    18
420
        0
370
     5
100
AcDbLine
 10
28.50058218662148
 20
69.23644661119043
 30
0.0
 11
30.55942088489025
 21
69.23644661119043
 31
0.0
  0
SPLINE
  5
1D8
330
70
100
AcDbEntity
  8
Sichtbar (ISO)
 62
    18
420
        0
370
     5
100
AcDbSpline
210
0.0
220
0.0
230
1.0
 70
     8
 71
     3
 72
     8
 73
     4
 74
     0
 42
0.0000000001
 43
0.0000000001
 40
0.0
 40
0.0
 40
0.0
 40
0.0
 40
1.0
 40
1.0
 40
1.0
 40
1.0
 10
28.31256038769234
 20
69.42453021071696
 30
0.0
 10
28.31256038769234
 20
69.32065450700503
 30
0.0
 10
28.39674061443708
 20
69.23644661119043
 30
0.0
 10
28.50058218662148
 20
69.23644661119043
 30
0.0
  0
LINE
  5
1D9
330
70
100
AcDbEntity
  8
Sichtbar (ISO)
 62
    18
420
        0
370
     5
100
AcDbLine
 10
28.31256038769234
 20
69.58440127031427
 30
0.0
 11
28.31256038769234
 21
69.42453021071696
 31
0.0
  0
SPLINE
  5
1DA
330
70
100
AcDbEntity
  8
Sichtbar (ISO)
 62
    18
420
        0
370
     5
100
AcDbSpline
210
0.0
220
0.0
230
1.0
 70
     8
 71
     3
 72
     8
 73
     4
 74
     0
 42
0.0000000001
 43
0.0000000001
 40
0.0
 40
0.0
 40
0.0
 40
0.0
 40
1.0
 40
1.0
 40
1.0
 40
1.0
 10
28.50058218662148
 20
69.77248486984113
 30
0.0
 10
28.39674061443708
 20
69.77248486984113
 30
0.0
 10
28.31256038769234
 20
69.68827697402621
 30
0.0
 10
28.31256038769234
 20
69.58440127031427
 30
0.0
  0
LINE
  5
1DB
330
70
100
AcDbEntity
  8
Sichtbar (ISO)
 62
    18
420
        0
370
     5
100
AcDbLine
 10
30.56882197483627
 20
69.77248486984113
 30
0.0
 11
28.50058218662148
 21
69.77248486984113
 31
0.0
  0
LINE
  5
1DC
330
70
100
AcDbEntity
  8
Sichtbar (ISO)
 62
    18
420
        0
370
     5
100
AcDbLine
 10
30.56882197483627
 20
69.96056846936736
 30
0.0
 11
30.56882197483627
 21
69.77248486984113
 31
0.0
  0
LINE
  5
1DD
330
70
100
AcDbEntity
  8
Sichtbar (ISO)
 62
    18
420
        0
370
     5
100
AcDbLine
 10
30.56882197483627
 20
69.96056846936736
 30
0.0
 11
31.69695276840888
 21
69.96056846936736
 31
0.0
  0
LINE
  5
1DE
330
70
100
AcDbEntity
  8
Sichtbar (ISO)
 62
    18
420
        0
370
     5
100
AcDbLine
 10
31.69695276840888
 20
69.96056846936736
 30
0.0
 11
31.69695276840888
 21
69.77248486984113
 31
0.0
  0
LINE
  5
1DF
330
70
100
AcDbEntity
  8
Sichtbar (ISO)
 62
    18
420
        0
370
     5
100
AcDbLine
 10
31.69695276840888
 20
69.77248486984113
 30
0.0
 11
33.76519255662368
 21
69.77248486984113
 31
0.0
  0
SPLINE
  5
1E0
330
70
100
AcDbEntity
  8
Sichtbar (ISO)
 62
    18
420
        0
370
     5
100
AcDbSpline
210
0.0
220
0.0
230
1.0
 70
     8
 71
     3
 72
     8
 73
     4
 74
     0
 42
0.0000000001
 43
0.0000000001
 40
0.0
 40
0.0
 40
0.0
 40
0.0
 40
1.0
 40
1.0
 40
1.0
 40
1.0
 10
33.95321435555282
 20
69.58440127031427
 30
0.0
 10
33.95321435555282
 20
69.68827697402621
 30
0.0
 10
33.86903412880776
 20
69.77248486984113
 30
0.0
 10
33.76519255662368
 20
69.77248486984113
 30
0.0
  0
LINE
  5
1E1
330
70
100
AcDbEntity
  8
Sichtbar (ISO)
 62
    18
420
        0
370
     5
100
AcDbLine
 10
33.95321435555282
 20
69.58440127031427
 30
0.0
 11
33.95321435555282
 21
69.42453021071696
 31
0.0
  0
SPLINE
  5
1E2
330
70
100
AcDbEntity
  8
Sichtbar (ISO)
 62
    18
420
        0
370
     5
100
AcDbSpline
210
0.0
220
0.0
230
1.0
 70
     8
 71
     3
 72
     8
 73
     4
 74
     0
 42
0.0000000001
 43
0.0000000001
 40
0.0
 40
0.0
 40
0.0
 40
0.0
 40
1.0
 40
1.0
 40
1.0
 40
1.0
 10
33.76519255662368
 20
69.23644661119043
 30
0.0
 10
33.86903412880776
 20
69.23644661119043
 30
0.0
 10
33.95321435555282
 20
69.32065450700503
 30
0.0
 10
33.95321435555282
 20
69.42453021071696
 30
0.0
  0
LINE
  5
1E3
330
70
100
AcDbEntity
  8
Sichtbar (ISO)
 62
    18
420
        0
370
     5
100
AcDbLine
 10
33.76519255662368
 20
69.23644661119043
 30
0.0
 11
31.70635385835523
 21
69.23644661119043
 31
0.0
  0
LINE
  5
1E4
330
70
100
AcDbEntity
  8
Sichtbar (ISO)
 62
    18
420
        0
370
     5
100
AcDbLine
 10
31.70635385835523
 20
69.23644661119043
 30
0.0
 11
31.70635385835523
 21
69.42453021071696
 31
0.0
  0
LINE
  5
1E5
330
70
100
AcDbEntity
  8
Sichtbar (ISO)
 62
    18
420
        0
370
     5
100
AcDbLine
 10
49.02727470867906
 20
73.81628225966216
 30
0.0
 11
49.02727470867906
 21
74.19244945871493
 31
0.0
  0
LINE
  5
1E6
330
70
100
AcDbEntity
  8
Sichtbar (ISO)
 62
    18
420
        0
370
     5
100
AcDbLine
 10
48.90094737038193
 20
73.81628225966216
 30
0.0
 11
48.90094737038193
 21
67.42143987575933
 31
0.0
  0
LINE
  5
1E7
330
70
100
AcDbEntity
  8
Sichtbar (ISO)
 62
    18
420
        0
370
     5
100
AcDbLine
 10
49.85593157352769
 20
73.81628225966216
 30
0.0
 11
49.85593157352769
 21
67.42143987575933
 31
0.0
  0
LINE
  5
1E8
330
70
100
AcDbEntity
  8
Sichtbar (ISO)
 62
    18
420
        0
370
     5
100
AcDbLine
 10
49.85593157352769
 20
73.81628225966216
 30
0.0
 11
49.91346995799537
 21
73.81628225966216
 31
0.0
  0
LINE
  5
1E9
330
70
100
AcDbEntity
  8
Sichtbar (ISO)
 62
    18
420
        0
370
     5
100
AcDbLine
 10
49.91346995799537
 20
75.13286745634765
 30
0.0
 11
49.91346995799537
 21
73.81628225966216
 31
0.0
  0
LINE
  5
1EA
330
70
100
AcDbEntity
  8
Sichtbar (ISO)
 62
    18
420
        0
370
     5
100
AcDbLine
 10
48.33688197359739
 20
73.81628225966216
 30
0.0
 11
48.33688197359739
 21
67.42143987575933
 31
0.0
  0
LINE
  5
1EB
330
70
100
AcDbEntity
  8
Sichtbar (ISO)
 62
    18
420
        0
370
     5
100
AcDbLine
 10
44.66105580454096
 20
68.29602861355771
 30
0.0
 11
44.66105580454096
 21
68.10794501403148
 31
0.0
  0
LINE
  5
1EC
330
70
100
AcDbEntity
  8
Sichtbar (ISO)
 62
    18
420
        0
370
     5
100
AcDbLine
 10
44.66105580454096
 20
68.10794501403148
 30
0.0
 11
42.60221710627154
 21
68.10794501403148
 31
0.0
  0
SPLINE
  5
1ED
330
70
100
AcDbEntity
  8
Sichtbar (ISO)
 62
    18
420
        0
370
     5
100
AcDbSpline
210
0.0
220
0.0
230
1.0
 70
     8
 71
     3
 72
     8
 73
     4
 74
     0
 42
0.0000000001
 43
0.0000000001
 40
0.0
 40
0.0
 40
0.0
 40
0.0
 40
1.0
 40
1.0
 40
1.0
 40
1.0
 10
42.41419530734336
 20
68.29602861355771
 30
0.0
 10
42.41419530734336
 20
68.19215290984608
 30
0.0
 10
42.49837553408778
 20
68.10794501403148
 30
0.0
 10
42.60221710627154
 20
68.10794501403148
 30
0.0
  0
LINE
  5
1EE
330
70
100
AcDbEntity
  8
Sichtbar (ISO)
 62
    18
420
        0
370
     5
100
AcDbLine
 10
42.41419530734336
 20
68.29602861355771
 30
0.0
 11
42.41419530734336
 21
68.45589967315501
 31
0.0
  0
SPLINE
  5
1EF
330
70
100
AcDbEntity
  8
Sichtbar (ISO)
 62
    18
420
        0
370
     5
100
AcDbSpline
210
0.0
220
0.0
230
1.0
 70
     8
 71
     3
 72
     8
 73
     4
 74
     0
 42
0.0000000001
 43
0.0000000001
 40
0.0
 40
0.0
 40
0.0
 40
0.0
 40
1.0
 40
1.0
 40
1.0
 40
1.0
 10
42.60221710627154
 20
68.64398327268155
 30
0.0
 10
42.49837553408778
 20
68.64398327268155
 30
0.0
 10
42.41419530734336
 20
68.55977537686662
 30
0.0
 10
42.41419530734336
 20
68.45589967315501
 30
0.0
  0
LINE
  5
1F0
330
70
100
AcDbEntity
  8
Sichtbar (ISO)
 62
    18
420
        0
370
     5
100
AcDbLine
 10
42.60221710627154
 20
68.64398327268155
 30
0.0
 11
44.67045689448762
 21
68.64398327268155
 31
0.0
  0
LINE
  5
1F1
330
70
100
AcDbEntity
  8
Sichtbar (ISO)
 62
    18
420
        0
370
     5
100
AcDbLine
 10
44.67045689448762
 20
68.64398327268155
 30
0.0
 11
44.67045689448762
 21
68.8320668722081
 31
0.0
  0
LINE
  5
1F2
330
70
100
AcDbEntity
  8
Sichtbar (ISO)
 62
    18
420
        0
370
     5
100
AcDbLine
 10
44.67045689448762
 20
68.8320668722081
 30
0.0
 11
45.79858768805798
 21
68.8320668722081
 31
0.0
  0
LINE
  5
1F3
330
70
100
AcDbEntity
  8
Sichtbar (ISO)
 62
    18
420
        0
370
     5
100
AcDbLine
 10
45.79858768805798
 20
68.8320668722081
 30
0.0
 11
45.79858768805798
 21
68.64398327268155
 31
0.0
  0
LINE
  5
1F4
330
70
100
AcDbEntity
  8
Sichtbar (ISO)
 62
    18
420
        0
370
     5
100
AcDbLine
 10
45.79858768805798
 20
68.64398327268155
 30
0.0
 11
47.86682747627438
 21
68.64398327268155
 31
0.0
  0
SPLINE
  5
1F5
330
70
100
AcDbEntity
  8
Sichtbar (ISO)
 62
    18
420
        0
370
     5
100
AcDbSpline
210
0.0
220
0.0
230
1.0
 70
     8
 71
     3
 72
     8
 73
     4
 74
     0
 42
0.0000000001
 43
0.0000000001
 40
0.0
 40
0.0
 40
0.0
 40
0.0
 40
1.0
 40
1.0
 40
1.0
 40
1.0
 10
48.05484927520256
 20
68.45589967315501
 30
0.0
 10
48.05484927520256
 20
68.55977537686662
 30
0.0
 10
47.97066904845943
 20
68.64398327268155
 30
0.0
 10
47.86682747627438
 20
68.64398327268155
 30
0.0
  0
LINE
  5
1F6
330
70
100
AcDbEntity
  8
Sichtbar (ISO)
 62
    18
420
        0
370
     5
100
AcDbLine
 10
48.05484927520256
 20
68.45589967315501
 30
0.0
 11
48.05484927520256
 21
68.29602861355771
 31
0.0
  0
SPLINE
  5
1F7
330
70
100
AcDbEntity
  8
Sichtbar (ISO)
 62
    18
420
        0
370
     5
100
AcDbSpline
210
0.0
220
0.0
230
1.0
 70
     8
 71
     3
 72
     8
 73
     4
 74
     0
 42
0.0000000001
 43
0.0000000001
 40
0.0
 40
0.0
 40
0.0
 40
0.0
 40
1.0
 40
1.0
 40
1.0
 40
1.0
 10
47.86682747627438
 20
68.10794501403148
 30
0.0
 10
47.97066904845943
 20
68.10794501403148
 30
0.0
 10
48.05484927520256
 20
68.19215290984608
 30
0.0
 10
48.05484927520256
 20
68.29602861355771
 30
0.0
  0
LINE
  5
1F8
330
70
100
AcDbEntity
  8
Sichtbar (ISO)
 62
    18
420
        0
370
     5
100
AcDbLine
 10
47.86682747627438
 20
68.10794501403148
 30
0.0
 11
45.80798877800464
 21
68.10794501403148
 31
0.0
  0
LINE
  5
1F9
330
70
100
AcDbEntity
  8
Sichtbar (ISO)
 62
    18
420
        0
370
     5
100
AcDbLine
 10
45.80798877800464
 20
68.10794501403148
 30
0.0
 11
45.80798877800464
 21
68.29602861355771
 31
0.0
  0
LINE
  5
1FA
330
70
100
AcDbEntity
  8
Sichtbar (ISO)
 62
    18
420
        0
370
     5
100
AcDbLine
 10
45.80798877800464
 20
68.29602861355771
 30
0.0
 11
44.66105580454096
 21
68.29602861355771
 31
0.0
  0
LINE
  5
1FB
330
70
100
AcDbEntity
  8
Sichtbar (ISO)
 62
    18
420
        0
370
     5
100
AcDbLine
 10
44.66105580454096
 20
69.42453021071696
 30
0.0
 11
44.66105580454096
 21
69.23644661119043
 31
0.0
  0
LINE
  5
1FC
330
70
100
AcDbEntity
  8
Sichtbar (ISO)
 62
    18
420
        0
370
     5
100
AcDbLine
 10
44.66105580454096
 20
69.23644661119043
 30
0.0
 11
42.60221710627154
 21
69.23644661119043
 31
0.0
  0
SPLINE
  5
1FD
330
70
100
AcDbEntity
  8
Sichtbar (ISO)
 62
    18
420
        0
370
     5
100
AcDbSpline
210
0.0
220
0.0
230
1.0
 70
     8
 71
     3
 72
     8
 73
     4
 74
     0
 42
0.0000000001
 43
0.0000000001
 40
0.0
 40
0.0
 40
0.0
 40
0.0
 40
1.0
 40
1.0
 40
1.0
 40
1.0
 10
42.41419530734336
 20
69.42453021071696
 30
0.0
 10
42.41419530734336
 20
69.32065450700503
 30
0.0
 10
42.49837553408778
 20
69.23644661119043
 30
0.0
 10
42.60221710627154
 20
69.23644661119043
 30
0.0
  0
LINE
  5
1FE
330
70
100
AcDbEntity
  8
Sichtbar (ISO)
 62
    18
420
        0
370
     5
100
AcDbLine
 10
42.41419530734336
 20
69.42453021071696
 30
0.0
 11
42.41419530734336
 21
69.58440127031427
 31
0.0
  0
SPLINE
  5
1FF
330
70
100
AcDbEntity
  8
Sichtbar (ISO)
 62
    18
420
        0
370
     5
100
AcDbSpline
210
0.0
220
0.0
230
1.0
 70
     8
 71
     3
 72
     8
 73
     4
 74
     0
 42
0.0000000001
 43
0.0000000001
 40
0.0
 40
0.0
 40
0.0
 40
0.0
 40
1.0
 40
1.0
 40
1.0
 40
1.0
 10
42.60221710627154
 20
69.77248486984113
 30
0.0
 10
42.49837553408778
 20
69.77248486984113
 30
0.0
 10
42.41419530734336
 20
69.68827697402621
 30
0.0
 10
42.41419530734336
 20
69.58440127031427
 30
0.0
  0
LINE
  5
200
330
70
100
AcDbEntity
  8
Sichtbar (ISO)
 62
    18
420
        0
370
     5
100
AcDbLine
 10
42.60221710627154
 20
69.77248486984113
 30
0.0
 11
44.67045689448762
 21
69.77248486984113
 31
0.0
  0
LINE
  5
201
330
70
100
AcDbEntity
  8
Sichtbar (ISO)
 62
    18
420
        0
370
     5
100
AcDbLine
 10
44.67045689448762
 20
69.77248486984113
 30
0.0
 11
44.67045689448762
 21
69.96056846936736
 31
0.0
  0
LINE
  5
202
330
70
100
AcDbEntity
  8
Sichtbar (ISO)
 62
    18
420
        0
370
     5
100
AcDbLine
 10
44.67045689448762
 20
69.96056846936736
 30
0.0
 11
45.79858768805798
 21
69.96056846936736
 31
0.0
  0
LINE
  5
203
330
70
100
AcDbEntity
  8
Sichtbar (ISO)
 62
    18
420
        0
370
     5
100
AcDbLine
 10
45.79858768805798
 20
69.96056846936736
 30
0.0
 11
45.79858768805798
 21
69.77248486984113
 31
0.0
  0
LINE
  5
204
330
70
100
AcDbEntity
  8
Sichtbar (ISO)
 62
    18
420
        0
370
     5
100
AcDbLine
 10
45.79858768805798
 20
69.77248486984113
 30
0.0
 11
47.86682747627438
 21
69.77248486984113
 31
0.0
  0
SPLINE
  5
205
330
70
100
AcDbEntity
  8
Sichtbar (ISO)
 62
    18
420
        0
370
     5
100
AcDbSpline
210
0.0
220
0.0
230
1.0
 70
     8
 71
     3
 72
     8
 73
     4
 74
     0
 42
0.0000000001
 43
0.0000000001
 40
0.0
 40
0.0
 40
0.0
 40
0.0
 40
1.0
 40
1.0
 40
1.0
 40
1.0
 10
48.05484927520256
 20
69.58440127031427
 30
0.0
 10
48.05484927520256
 20
69.68827697402621
 30
0.0
 10
47.97066904845943
 20
69.77248486984113
 30
0.0
 10
47.86682747627438
 20
69.77248486984113
 30
0.0
  0
LINE
  5
206
330
70
100
AcDbEntity
  8
Sichtbar (ISO)
 62
    18
420
        0
370
     5
100
AcDbLine
 10
48.05484927520256
 20
69.58440127031427
 30
0.0
 11
48.05484927520256
 21
69.42453021071696
 31
0.0
  0
SPLINE
  5
207
330
70
100
AcDbEntity
  8
Sichtbar (ISO)
 62
    18
420
        0
370
     5
100
AcDbSpline
210
0.0
220
0.0
230
1.0
 70
     8
 71
     3
 72
     8
 73
     4
 74
     0
 42
0.0000000001
 43
0.0000000001
 40
0.0
 40
0.0
 40
0.0
 40
0.0
 40
1.0
 40
1.0
 40
1.0
 40
1.0
 10
47.86682747627438
 20
69.23644661119043
 30
0.0
 10
47.97066904845943
 20
69.23644661119043
 30
0.0
 10
48.05484927520256
 20
69.32065450700503
 30
0.0
 10
48.05484927520256
 20
69.42453021071696
 30
0.0
  0
LINE
  5
208
330
70
100
AcDbEntity
  8
Sichtbar (ISO)
 62
    18
420
        0
370
     5
100
AcDbLine
 10
47.86682747627438
 20
69.23644661119043
 30
0.0
 11
45.80798877800464
 21
69.23644661119043
 31
0.0
  0
LINE
  5
209
330
70
100
AcDbEntity
  8
Sichtbar (ISO)
 62
    18
420
        0
370
     5
100
AcDbLine
 10
45.80798877800464
 20
69.23644661119043
 30
0.0
 11
45.80798877800464
 21
69.42453021071696
 31
0.0
  0
LINE
  5
20A
330
70
100
AcDbEntity
  8
Sichtbar (ISO)
 62
    18
420
        0
370
     5
100
AcDbLine
 10
45.80798877800464
 20
69.42453021071696
 30
0.0
 11
44.66105580454096
 21
69.42453021071696
 31
0.0
  0
LINE
  5
20B
330
70
100
AcDbEntity
  8
Sichtbar (ISO)
 62
    18
420
        0
370
     5
100
AcDbLine
 10
44.66105580454096
 20
70.55303180787591
 30
0.0
 11
44.66105580454096
 21
70.36494820834969
 31
0.0
  0
LINE
  5
20C
330
70
100
AcDbEntity
  8
Sichtbar (ISO)
 62
    18
420
        0
370
     5
100
AcDbLine
 10
44.66105580454096
 20
70.36494820834969
 30
0.0
 11
42.60221710627154
 21
70.36494820834969
 31
0.0
  0
SPLINE
  5
20D
330
70
100
AcDbEntity
  8
Sichtbar (ISO)
 62
    18
420
        0
370
     5
100
AcDbSpline
210
0.0
220
0.0
230
1.0
 70
     8
 71
     3
 72
     8
 73
     4
 74
     0
 42
0.0000000001
 43
0.0000000001
 40
0.0
 40
0.0
 40
0.0
 40
0.0
 40
1.0
 40
1.0
 40
1.0
 40
1.0
 10
42.41419530734336
 20
70.55303180787591
 30
0.0
 10
42.41419530734336
 20
70.4491561041643
 30
0.0
 10
42.49837553408778
 20
70.36494820834969
 30
0.0
 10
42.60221710627154
 20
70.36494820834969
 30
0.0
  0
LINE
  5
20E
330
70
100
AcDbEntity
  8
Sichtbar (ISO)
 62
    18
420
        0
370
     5
100
AcDbLine
 10
42.41419530734336
 20
70.55303180787591
 30
0.0
 11
42.41419530734336
 21
70.71290286747322
 31
0.0
  0
SPLINE
  5
20F
330
70
100
AcDbEntity
  8
Sichtbar (ISO)
 62
    18
420
        0
370
     5
100
AcDbSpline
210
0.0
220
0.0
230
1.0
 70
     8
 71
     3
 72
     8
 73
     4
 74
     0
 42
0.0000000001
 43
0.0000000001
 40
0.0
 40
0.0
 40
0.0
 40
0.0
 40
1.0
 40
1.0
 40
1.0
 40
1.0
 10
42.60221710627154
 20
70.90098646700074
 30
0.0
 10
42.49837553408778
 20
70.90098646700074
 30
0.0
 10
42.41419530734336
 20
70.81677857118548
 30
0.0
 10
42.41419530734336
 20
70.71290286747322
 30
0.0
  0
LINE
  5
210
330
70
100
AcDbEntity
  8
Sichtbar (ISO)
 62
    18
420
        0
370
     5
100
AcDbLine
 10
42.60221710627154
 20
70.90098646700074
 30
0.0
 11
44.67045689448762
 21
70.90098646700074
 31
0.0
  0
LINE
  5
211
330
70
100
AcDbEntity
  8
Sichtbar (ISO)
 62
    18
420
        0
370
     5
100
AcDbLine
 10
44.67045689448762
 20
70.90098646700074
 30
0.0
 11
44.67045689448762
 21
71.08907006652663
 31
0.0
  0
LINE
  5
212
330
70
100
AcDbEntity
  8
Sichtbar (ISO)
 62
    18
420
        0
370
     5
100
AcDbLine
 10
44.67045689448762
 20
71.08907006652663
 30
0.0
 11
45.79858768805798
 21
71.08907006652663
 31
0.0
  0
LINE
  5
213
330
70
100
AcDbEntity
  8
Sichtbar (ISO)
 62
    18
420
        0
370
     5
100
AcDbLine
 10
45.79858768805798
 20
71.08907006652663
 30
0.0
 11
45.79858768805798
 21
70.90098646700074
 31
0.0
  0
LINE
  5
214
330
70
100
AcDbEntity
  8
Sichtbar (ISO)
 62
    18
420
        0
370
     5
100
AcDbLine
 10
45.79858768805798
 20
70.90098646700074
 30
0.0
 11
47.86682747627438
 21
70.90098646700074
 31
0.0
  0
SPLINE
  5
215
330
70
100
AcDbEntity
  8
Sichtbar (ISO)
 62
    18
420
        0
370
     5
100
AcDbSpline
210
0.0
220
0.0
230
1.0
 70
     8
 71
     3
 72
     8
 73
     4
 74
     0
 42
0.0000000001
 43
0.0000000001
 40
0.0
 40
0.0
 40
0.0
 40
0.0
 40
1.0
 40
1.0
 40
1.0
 40
1.0
 10
48.05484927520256
 20
70.71290286747322
 30
0.0
 10
48.05484927520256
 20
70.81677857118548
 30
0.0
 10
47.97066904845943
 20
70.90098646700074
 30
0.0
 10
47.86682747627438
 20
70.90098646700074
 30
0.0
  0
LINE
  5
216
330
70
100
AcDbEntity
  8
Sichtbar (ISO)
 62
    18
420
        0
370
     5
100
AcDbLine
 10
48.05484927520256
 20
70.71290286747322
 30
0.0
 11
48.05484927520256
 21
70.55303180787591
 31
0.0
  0
SPLINE
  5
217
330
70
100
AcDbEntity
  8
Sichtbar (ISO)
 62
    18
420
        0
370
     5
100
AcDbSpline
210
0.0
220
0.0
230
1.0
 70
     8
 71
     3
 72
     8
 73
     4
 74
     0
 42
0.0000000001
 43
0.0000000001
 40
0.0
 40
0.0
 40
0.0
 40
0.0
 40
1.0
 40
1.0
 40
1.0
 40
1.0
 10
47.86682747627438
 20
70.36494820834969
 30
0.0
 10
47.97066904845943
 20
70.36494820834969
 30
0.0
 10
48.05484927520256
 20
70.4491561041643
 30
0.0
 10
48.05484927520256
 20
70.55303180787591
 30
0.0
  0
LINE
  5
218
330
70
100
AcDbEntity
  8
Sichtbar (ISO)
 62
    18
420
        0
370
     5
100
AcDbLine
 10
47.86682747627438
 20
70.36494820834969
 30
0.0
 11
45.80798877800464
 21
70.36494820834969
 31
0.0
  0
LINE
  5
219
330
70
100
AcDbEntity
  8
Sichtbar (ISO)
 62
    18
420
        0
370
     5
100
AcDbLine
 10
45.80798877800464
 20
70.36494820834969
 30
0.0
 11
45.80798877800464
 21
70.55303180787591
 31
0.0
  0
LINE
  5
21A
330
70
100
AcDbEntity
  8
Sichtbar (ISO)
 62
    18
420
        0
370
     5
100
AcDbLine
 10
45.80798877800464
 20
70.55303180787591
 30
0.0
 11
44.66105580454096
 21
70.55303180787591
 31
0.0
  0
LINE
  5
21B
330
70
100
AcDbEntity
  8
Sichtbar (ISO)
 62
    18
420
        0
370
     5
100
AcDbLine
 10
44.66105580454096
 20
71.6815334050355
 30
0.0
 11
44.66105580454096
 21
71.49344980550863
 31
0.0
  0
LINE
  5
21C
330
70
100
AcDbEntity
  8
Sichtbar (ISO)
 62
    18
420
        0
370
     5
100
AcDbLine
 10
44.66105580454096
 20
71.49344980550863
 30
0.0
 11
42.60221710627154
 21
71.49344980550863
 31
0.0
  0
SPLINE
  5
21D
330
70
100
AcDbEntity
  8
Sichtbar (ISO)
 62
    18
420
        0
370
     5
100
AcDbSpline
210
0.0
220
0.0
230
1.0
 70
     8
 71
     3
 72
     8
 73
     4
 74
     0
 42
0.0000000001
 43
0.0000000001
 40
0.0
 40
0.0
 40
0.0
 40
0.0
 40
1.0
 40
1.0
 40
1.0
 40
1.0
 10
42.41419530734336
 20
71.6815334050355
 30
0.0
 10
42.41419530734336
 20
71.57765770132357
 30
0.0
 10
42.49837553408778
 20
71.49344980550863
 30
0.0
 10
42.60221710627154
 20
71.49344980550863
 30
0.0
  0
LINE
  5
21E
330
70
100
AcDbEntity
  8
Sichtbar (ISO)
 62
    18
420
        0
370
     5
100
AcDbLine
 10
42.41419530734336
 20
71.6815334050355
 30
0.0
 11
42.41419530734336
 21
71.84140446463249
 31
0.0
  0
SPLINE
  5
21F
330
70
100
AcDbEntity
  8
Sichtbar (ISO)
 62
    18
420
        0
370
     5
100
AcDbSpline
210
0.0
220
0.0
230
1.0
 70
     8
 71
     3
 72
     8
 73
     4
 74
     0
 42
0.0000000001
 43
0.0000000001
 40
0.0
 40
0.0
 40
0.0
 40
0.0
 40
1.0
 40
1.0
 40
1.0
 40
1.0
 10
42.60221710627154
 20
72.02948806415967
 30
0.0
 10
42.49837553408778
 20
72.02948806415967
 30
0.0
 10
42.41419530734336
 20
71.94528016834475
 30
0.0
 10
42.41419530734336
 20
71.84140446463249
 30
0.0
  0
LINE
  5
220
330
70
100
AcDbEntity
  8
Sichtbar (ISO)
 62
    18
420
        0
370
     5
100
AcDbLine
 10
42.60221710627154
 20
72.02948806415967
 30
0.0
 11
44.67045689448762
 21
72.02948806415967
 31
0.0
  0
LINE
  5
221
330
70
100
AcDbEntity
  8
Sichtbar (ISO)
 62
    18
420
        0
370
     5
100
AcDbLine
 10
44.67045689448762
 20
72.02948806415967
 30
0.0
 11
44.67045689448762
 21
72.21757166368654
 31
0.0
  0
LINE
  5
222
330
70
100
AcDbEntity
  8
Sichtbar (ISO)
 62
    18
420
        0
370
     5
100
AcDbLine
 10
44.67045689448762
 20
72.21757166368654
 30
0.0
 11
45.79858768805798
 21
72.21757166368654
 31
0.0
  0
LINE
  5
223
330
70
100
AcDbEntity
  8
Sichtbar (ISO)
 62
    18
420
        0
370
     5
100
AcDbLine
 10
45.79858768805798
 20
72.21757166368654
 30
0.0
 11
45.79858768805798
 21
72.02948806415967
 31
0.0
  0
LINE
  5
224
330
70
100
AcDbEntity
  8
Sichtbar (ISO)
 62
    18
420
        0
370
     5
100
AcDbLine
 10
45.79858768805798
 20
72.02948806415967
 30
0.0
 11
47.86682747627438
 21
72.02948806415967
 31
0.0
  0
SPLINE
  5
225
330
70
100
AcDbEntity
  8
Sichtbar (ISO)
 62
    18
420
        0
370
     5
100
AcDbSpline
210
0.0
220
0.0
230
1.0
 70
     8
 71
     3
 72
     8
 73
     4
 74
     0
 42
0.0000000001
 43
0.0000000001
 40
0.0
 40
0.0
 40
0.0
 40
0.0
 40
1.0
 40
1.0
 40
1.0
 40
1.0
 10
48.05484927520256
 20
71.84140446463249
 30
0.0
 10
48.05484927520256
 20
71.94528016834475
 30
0.0
 10
47.97066904845943
 20
72.02948806415967
 30
0.0
 10
47.86682747627438
 20
72.02948806415967
 30
0.0
  0
LINE
  5
226
330
70
100
AcDbEntity
  8
Sichtbar (ISO)
 62
    18
420
        0
370
     5
100
AcDbLine
 10
48.05484927520256
 20
71.84140446463249
 30
0.0
 11
48.05484927520256
 21
71.6815334050355
 31
0.0
  0
SPLINE
  5
227
330
70
100
AcDbEntity
  8
Sichtbar (ISO)
 62
    18
420
        0
370
     5
100
AcDbSpline
210
0.0
220
0.0
230
1.0
 70
     8
 71
     3
 72
     8
 73
     4
 74
     0
 42
0.0000000001
 43
0.0000000001
 40
0.0
 40
0.0
 40
0.0
 40
0.0
 40
1.0
 40
1.0
 40
1.0
 40
1.0
 10
47.86682747627438
 20
71.49344980550863
 30
0.0
 10
47.97066904845943
 20
71.49344980550863
 30
0.0
 10
48.05484927520256
 20
71.57765770132357
 30
0.0
 10
48.05484927520256
 20
71.6815334050355
 30
0.0
  0
LINE
  5
228
330
70
100
AcDbEntity
  8
Sichtbar (ISO)
 62
    18
420
        0
370
     5
100
AcDbLine
 10
47.86682747627438
 20
71.49344980550863
 30
0.0
 11
45.80798877800464
 21
71.49344980550863
 31
0.0
  0
LINE
  5
229
330
70
100
AcDbEntity
  8
Sichtbar (ISO)
 62
    18
420
        0
370
     5
100
AcDbLine
 10
45.80798877800464
 20
71.49344980550863
 30
0.0
 11
45.80798877800464
 21
71.6815334050355
 31
0.0
  0
LINE
  5
22A
330
70
100
AcDbEntity
  8
Sichtbar (ISO)
 62
    18
420
        0
370
     5
100
AcDbLine
 10
45.80798877800464
 20
71.6815334050355
 30
0.0
 11
44.66105580454096
 21
71.6815334050355
 31
0.0
  0
LINE
  5
22B
330
70
100
AcDbEntity
  8
Sichtbar (ISO)
 62
    18
420
        0
370
     5
100
AcDbLine
 10
44.66105580454096
 20
72.62195140266823
 30
0.0
 11
42.60221710627154
 21
72.62195140266823
 31
0.0
  0
SPLINE
  5
22C
330
70
100
AcDbEntity
  8
Sichtbar (ISO)
 62
    18
420
        0
370
     5
100
AcDbSpline
210
0.0
220
0.0
230
1.0
 70
     8
 71
     3
 72
     8
 73
     4
 74
     0
 42
0.0000000001
 43
0.0000000001
 40
0.0
 40
0.0
 40
0.0
 40
0.0
 40
1.0
 40
1.0
 40
1.0
 40
1.0
 10
42.41419530734336
 20
72.81003500219476
 30
0.0
 10
42.41419530734336
 20
72.70615929848347
 30
0.0
 10
42.49837553408778
 20
72.62195140266823
 30
0.0
 10
42.60221710627154
 20
72.62195140266823
 30
0.0
  0
LINE
  5
22D
330
70
100
AcDbEntity
  8
Sichtbar (ISO)
 62
    18
420
        0
370
     5
100
AcDbLine
 10
42.41419530734336
 20
72.81003500219476
 30
0.0
 11
42.41419530734336
 21
72.96990606179207
 31
0.0
  0
SPLINE
  5
22E
330
70
100
AcDbEntity
  8
Sichtbar (ISO)
 62
    18
420
        0
370
     5
100
AcDbSpline
210
0.0
220
0.0
230
1.0
 70
     8
 71
     3
 72
     8
 73
     4
 74
     0
 42
0.0000000001
 43
0.0000000001
 40
0.0
 40
0.0
 40
0.0
 40
0.0
 40
1.0
 40
1.0
 40
1.0
 40
1.0
 10
42.60221710627154
 20
73.15798966131926
 30
0.0
 10
42.49837553408778
 20
73.15798966131926
 30
0.0
 10
42.41419530734336
 20
73.073781765504
 30
0.0
 10
42.41419530734336
 20
72.96990606179207
 30
0.0
  0
LINE
  5
22F
330
70
100
AcDbEntity
  8
Sichtbar (ISO)
 62
    18
420
        0
370
     5
100
AcDbLine
 10
42.60221710627154
 20
73.15798966131926
 30
0.0
 11
44.67045689448762
 21
73.15798966131926
 31
0.0
  0
LINE
  5
230
330
70
100
AcDbEntity
  8
Sichtbar (ISO)
 62
    18
420
        0
370
     5
100
AcDbLine
 10
44.67045689448762
 20
73.15798966131926
 30
0.0
 11
44.67045689448762
 21
73.34607326084548
 31
0.0
  0
LINE
  5
231
330
70
100
AcDbEntity
  8
Sichtbar (ISO)
 62
    18
420
        0
370
     5
100
AcDbLine
 10
44.67045689448762
 20
73.34607326084548
 30
0.0
 11
45.79858768805798
 21
73.34607326084548
 31
0.0
  0
LINE
  5
232
330
70
100
AcDbEntity
  8
Sichtbar (ISO)
 62
    18
420
        0
370
     5
100
AcDbLine
 10
45.79858768805798
 20
73.34607326084548
 30
0.0
 11
45.79858768805798
 21
73.15798966131926
 31
0.0
  0
LINE
  5
233
330
70
100
AcDbEntity
  8
Sichtbar (ISO)
 62
    18
420
        0
370
     5
100
AcDbLine
 10
45.79858768805798
 20
73.15798966131926
 30
0.0
 11
47.86682747627438
 21
73.15798966131926
 31
0.0
  0
SPLINE
  5
234
330
70
100
AcDbEntity
  8
Sichtbar (ISO)
 62
    18
420
        0
370
     5
100
AcDbSpline
210
0.0
220
0.0
230
1.0
 70
     8
 71
     3
 72
     8
 73
     4
 74
     0
 42
0.0000000001
 43
0.0000000001
 40
0.0
 40
0.0
 40
0.0
 40
0.0
 40
1.0
 40
1.0
 40
1.0
 40
1.0
 10
48.05484927520256
 20
72.96990606179207
 30
0.0
 10
48.05484927520256
 20
73.073781765504
 30
0.0
 10
47.97066904845943
 20
73.15798966131926
 30
0.0
 10
47.86682747627438
 20
73.15798966131926
 30
0.0
  0
LINE
  5
235
330
70
100
AcDbEntity
  8
Sichtbar (ISO)
 62
    18
420
        0
370
     5
100
AcDbLine
 10
48.05484927520256
 20
72.96990606179207
 30
0.0
 11
48.05484927520256
 21
72.81003500219476
 31
0.0
  0
SPLINE
  5
236
330
70
100
AcDbEntity
  8
Sichtbar (ISO)
 62
    18
420
        0
370
     5
100
AcDbSpline
210
0.0
220
0.0
230
1.0
 70
     8
 71
     3
 72
     8
 73
     4
 74
     0
 42
0.0000000001
 43
0.0000000001
 40
0.0
 40
0.0
 40
0.0
 40
0.0
 40
1.0
 40
1.0
 40
1.0
 40
1.0
 10
47.86682747627438
 20
72.62195140266823
 30
0.0
 10
47.97066904845943
 20
72.62195140266823
 30
0.0
 10
48.05484927520256
 20
72.70615929848347
 30
0.0
 10
48.05484927520256
 20
72.81003500219476
 30
0.0
  0
LINE
  5
237
330
70
100
AcDbEntity
  8
Sichtbar (ISO)
 62
    18
420
        0
370
     5
100
AcDbLine
 10
47.86682747627438
 20
72.62195140266823
 30
0.0
 11
45.80798877800464
 21
72.62195140266823
 31
0.0
  0
LINE
  5
238
330
70
100
AcDbEntity
  8
Sichtbar (ISO)
 62
    18
420
        0
370
     5
100
AcDbLine
 10
45.80798877800464
 20
72.62195140266823
 30
0.0
 11
45.80798877800464
 21
72.81003500219476
 31
0.0
  0
LINE
  5
239
330
70
100
AcDbEntity
  8
Sichtbar (ISO)
 62
    18
420
        0
370
     5
100
AcDbLine
 10
45.80798877800464
 20
72.81003500219476
 30
0.0
 11
44.66105580454096
 21
72.81003500219476
 31
0.0
  0
LINE
  5
23A
330
70
100
AcDbEntity
  8
Sichtbar (ISO)
 62
    18
420
        0
370
     5
100
AcDbLine
 10
44.66105580454096
 20
72.81003500219476
 30
0.0
 11
44.66105580454096
 21
72.62195140266823
 31
0.0
  0
LINE
  5
23B
330
70
100
AcDbEntity
  8
Sichtbar (ISO)
 62
    18
420
        0
370
     5
100
AcDbLine
 10
38.55974842930542
 20
69.82890994969898
 30
0.0
 11
39.49985742394856
 21
69.82890994969898
 31
0.0
  0
LINE
  5
23C
330
70
100
AcDbEntity
  8
Sichtbar (ISO)
 62
    18
420
        0
370
     5
100
AcDbLine
 10
39.49985742394856
 20
68.32424115348629
 30
0.0
 11
38.55974842930542
 21
68.32424115348629
 31
0.0
  0
LINE
  5
23D
330
70
100
AcDbEntity
  8
Sichtbar (ISO)
 62
    18
420
        0
370
     5
100
AcDbLine
 10
22.7659173192966
 20
68.32424115348629
 30
0.0
 11
23.70602631394007
 21
68.32424115348629
 31
0.0
  0
LINE
  5
23E
330
70
100
AcDbEntity
  8
Sichtbar (ISO)
 62
    18
420
        0
370
     5
100
AcDbLine
 10
23.70602631394007
 20
69.82890994969898
 30
0.0
 11
22.7659173192966
 21
69.82890994969898
 31
0.0
  0
LINE
  5
23F
330
70
100
AcDbEntity
  8
Sichtbar (ISO)
 62
    18
420
        0
370
     5
100
AcDbLine
 10
13.92889276964905
 20
73.81628225966185
 30
0.0
 11
13.92889276964905
 21
67.42143987575933
 31
0.0
  0
LINE
  5
240
330
70
100
AcDbEntity
  8
Sichtbar (ISO)
 62
    18
420
        0
370
     5
100
AcDbLine
 10
17.6047189387042
 20
72.62195140266823
 30
0.0
 11
19.66355763697329
 21
72.62195140266823
 31
0.0
  0
LINE
  5
241
330
70
100
AcDbEntity
  8
Sichtbar (ISO)
 62
    18
420
        0
370
     5
100
AcDbLine
 10
17.6047189387042
 20
72.81003500219476
 30
0.0
 11
17.6047189387042
 21
72.62195140266823
 31
0.0
  0
LINE
  5
242
330
70
100
AcDbEntity
  8
Sichtbar (ISO)
 62
    18
420
        0
370
     5
100
AcDbLine
 10
16.45778596523955
 20
72.81003500219476
 30
0.0
 11
17.6047189387042
 21
72.81003500219476
 31
0.0
  0
LINE
  5
243
330
70
100
AcDbEntity
  8
Sichtbar (ISO)
 62
    18
420
        0
370
     5
100
AcDbLine
 10
16.45778596523955
 20
72.62195140266823
 30
0.0
 11
16.45778596523955
 21
72.81003500219476
 31
0.0
  0
LINE
  5
244
330
70
100
AcDbEntity
  8
Sichtbar (ISO)
 62
    18
420
        0
370
     5
100
AcDbLine
 10
14.39894726697078
 20
72.62195140266823
 30
0.0
 11
16.45778596523955
 21
72.62195140266823
 31
0.0
  0
SPLINE
  5
245
330
70
100
AcDbEntity
  8
Sichtbar (ISO)
 62
    18
420
        0
370
     5
100
AcDbSpline
210
0.0
220
0.0
230
1.0
 70
     8
 71
     3
 72
     8
 73
     4
 74
     0
 42
0.0000000001
 43
0.0000000001
 40
0.0
 40
0.0
 40
0.0
 40
0.0
 40
1.0
 40
1.0
 40
1.0
 40
1.0
 10
14.21092546804196
 20
72.81003500219476
 30
0.0
 10
14.21092546804196
 20
72.70615929848347
 30
0.0
 10
14.29510569478669
 20
72.62195140266823
 30
0.0
 10
14.39894726697078
 20
72.62195140266823
 30
0.0
  0
LINE
  5
246
330
70
100
AcDbEntity
  8
Sichtbar (ISO)
 62
    18
420
        0
370
     5
100
AcDbLine
 10
14.21092546804196
 20
72.96990606179207
 30
0.0
 11
14.21092546804196
 21
72.81003500219476
 31
0.0
  0
SPLINE
  5
247
330
70
100
AcDbEntity
  8
Sichtbar (ISO)
 62
    18
420
        0
370
     5
100
AcDbSpline
210
0.0
220
0.0
230
1.0
 70
     8
 71
     3
 72
     8
 73
     4
 74
     0
 42
0.0000000001
 43
0.0000000001
 40
0.0
 40
0.0
 40
0.0
 40
0.0
 40
1.0
 40
1.0
 40
1.0
 40
1.0
 10
14.39894726697078
 20
73.15798966131926
 30
0.0
 10
14.29510569478669
 20
73.15798966131926
 30
0.0
 10
14.21092546804196
 20
73.073781765504
 30
0.0
 10
14.21092546804196
 20
72.96990606179207
 30
0.0
  0
LINE
  5
248
330
70
100
AcDbEntity
  8
Sichtbar (ISO)
 62
    18
420
        0
370
     5
100
AcDbLine
 10
16.46718705518589
 20
73.15798966131926
 30
0.0
 11
14.39894726697078
 21
73.15798966131926
 31
0.0
  0
LINE
  5
249
330
70
100
AcDbEntity
  8
Sichtbar (ISO)
 62
    18
420
        0
370
     5
100
AcDbLine
 10
16.46718705518589
 20
73.34607326084548
 30
0.0
 11
16.46718705518589
 21
73.15798966131926
 31
0.0
  0
LINE
  5
24A
330
70
100
AcDbEntity
  8
Sichtbar (ISO)
 62
    18
420
        0
370
     5
100
AcDbLine
 10
17.59531784875786
 20
73.34607326084548
 30
0.0
 11
16.46718705518589
 21
73.34607326084548
 31
0.0
  0
LINE
  5
24B
330
70
100
AcDbEntity
  8
Sichtbar (ISO)
 62
    18
420
        0
370
     5
100
AcDbLine
 10
17.59531784875786
 20
73.15798966131926
 30
0.0
 11
17.59531784875786
 21
73.34607326084548
 31
0.0
  0
LINE
  5
24C
330
70
100
AcDbEntity
  8
Sichtbar (ISO)
 62
    18
420
        0
370
     5
100
AcDbLine
 10
19.66355763697329
 20
73.15798966131926
 30
0.0
 11
17.59531784875786
 21
73.15798966131926
 31
0.0
  0
SPLINE
  5
24D
330
70
100
AcDbEntity
  8
Sichtbar (ISO)
 62
    18
420
        0
370
     5
100
AcDbSpline
210
0.0
220
0.0
230
1.0
 70
     8
 71
     3
 72
     8
 73
     4
 74
     0
 42
0.0000000001
 43
0.0000000001
 40
0.0
 40
0.0
 40
0.0
 40
0.0
 40
1.0
 40
1.0
 40
1.0
 40
1.0
 10
19.85157943590211
 20
72.96990606179207
 30
0.0
 10
19.85157943590211
 20
73.073781765504
 30
0.0
 10
19.76739920915737
 20
73.15798966131926
 30
0.0
 10
19.66355763697329
 20
73.15798966131926
 30
0.0
  0
LINE
  5
24E
330
70
100
AcDbEntity
  8
Sichtbar (ISO)
 62
    18
420
        0
370
     5
100
AcDbLine
 10
19.85157943590211
 20
72.81003500219476
 30
0.0
 11
19.85157943590211
 21
72.96990606179207
 31
0.0
  0
SPLINE
  5
24F
330
70
100
AcDbEntity
  8
Sichtbar (ISO)
 62
    18
420
        0
370
     5
100
AcDbSpline
210
0.0
220
0.0
230
1.0
 70
     8
 71
     3
 72
     8
 73
     4
 74
     0
 42
0.0000000001
 43
0.0000000001
 40
0.0
 40
0.0
 40
0.0
 40
0.0
 40
1.0
 40
1.0
 40
1.0
 40
1.0
 10
19.66355763697329
 20
72.62195140266823
 30
0.0
 10
19.76739920915737
 20
72.62195140266823
 30
0.0
 10
19.85157943590211
 20
72.70615929848347
 30
0.0
 10
19.85157943590211
 20
72.81003500219476
 30
0.0
  0
LINE
  5
250
330
70
100
AcDbEntity
  8
Sichtbar (ISO)
 62
    18
420
        0
370
     5
100
AcDbLine
 10
17.6047189387042
 20
71.68153340503582
 30
0.0
 11
17.6047189387042
 21
71.49344980550863
 31
0.0
  0
LINE
  5
251
330
70
100
AcDbEntity
  8
Sichtbar (ISO)
 62
    18
420
        0
370
     5
100
AcDbLine
 10
16.45778596523955
 20
71.68153340503582
 30
0.0
 11
17.6047189387042
 21
71.68153340503582
 31
0.0
  0
LINE
  5
252
330
70
100
AcDbEntity
  8
Sichtbar (ISO)
 62
    18
420
        0
370
     5
100
AcDbLine
 10
16.45778596523955
 20
71.49344980550863
 30
0.0
 11
16.45778596523955
 21
71.68153340503582
 31
0.0
  0
LINE
  5
253
330
70
100
AcDbEntity
  8
Sichtbar (ISO)
 62
    18
420
        0
370
     5
100
AcDbLine
 10
14.39894726697078
 20
71.49344980550863
 30
0.0
 11
16.45778596523955
 21
71.49344980550863
 31
0.0
  0
SPLINE
  5
254
330
70
100
AcDbEntity
  8
Sichtbar (ISO)
 62
    18
420
        0
370
     5
100
AcDbSpline
210
0.0
220
0.0
230
1.0
 70
     8
 71
     3
 72
     8
 73
     4
 74
     0
 42
0.0000000001
 43
0.0000000001
 40
0.0
 40
0.0
 40
0.0
 40
0.0
 40
1.0
 40
1.0
 40
1.0
 40
1.0
 10
14.21092546804196
 20
71.68153340503582
 30
0.0
 10
14.21092546804196
 20
71.57765770132357
 30
0.0
 10
14.29510569478669
 20
71.49344980550863
 30
0.0
 10
14.39894726697078
 20
71.49344980550863
 30
0.0
  0
LINE
  5
255
330
70
100
AcDbEntity
  8
Sichtbar (ISO)
 62
    18
420
        0
370
     5
100
AcDbLine
 10
14.21092546804196
 20
71.84140446463249
 30
0.0
 11
14.21092546804196
 21
71.68153340503582
 31
0.0
  0
SPLINE
  5
256
330
70
100
AcDbEntity
  8
Sichtbar (ISO)
 62
    18
420
        0
370
     5
100
AcDbSpline
210
0.0
220
0.0
230
1.0
 70
     8
 71
     3
 72
     8
 73
     4
 74
     0
 42
0.0000000001
 43
0.0000000001
 40
0.0
 40
0.0
 40
0.0
 40
0.0
 40
1.0
 40
1.0
 40
1.0
 40
1.0
 10
14.39894726697078
 20
72.02948806415935
 30
0.0
 10
14.29510569478669
 20
72.02948806415935
 30
0.0
 10
14.21092546804196
 20
71.94528016834475
 30
0.0
 10
14.21092546804196
 20
71.84140446463249
 30
0.0
  0
LINE
  5
257
330
70
100
AcDbEntity
  8
Sichtbar (ISO)
 62
    18
420
        0
370
     5
100
AcDbLine
 10
16.46718705518589
 20
72.02948806415935
 30
0.0
 11
14.39894726697078
 21
72.02948806415935
 31
0.0
  0
LINE
  5
258
330
70
100
AcDbEntity
  8
Sichtbar (ISO)
 62
    18
420
        0
370
     5
100
AcDbLine
 10
16.46718705518589
 20
72.21757166368654
 30
0.0
 11
16.46718705518589
 21
72.02948806415935
 31
0.0
  0
LINE
  5
259
330
70
100
AcDbEntity
  8
Sichtbar (ISO)
 62
    18
420
        0
370
     5
100
AcDbLine
 10
17.59531784875786
 20
72.21757166368654
 30
0.0
 11
16.46718705518589
 21
72.21757166368654
 31
0.0
  0
LINE
  5
25A
330
70
100
AcDbEntity
  8
Sichtbar (ISO)
 62
    18
420
        0
370
     5
100
AcDbLine
 10
17.59531784875786
 20
72.02948806415935
 30
0.0
 11
17.59531784875786
 21
72.21757166368654
 31
0.0
  0
LINE
  5
25B
330
70
100
AcDbEntity
  8
Sichtbar (ISO)
 62
    18
420
        0
370
     5
100
AcDbLine
 10
19.66355763697329
 20
72.02948806415935
 30
0.0
 11
17.59531784875786
 21
72.02948806415935
 31
0.0
  0
SPLINE
  5
25C
330
70
100
AcDbEntity
  8
Sichtbar (ISO)
 62
    18
420
        0
370
     5
100
AcDbSpline
210
0.0
220
0.0
230
1.0
 70
     8
 71
     3
 72
     8
 73
     4
 74
     0
 42
0.0000000001
 43
0.0000000001
 40
0.0
 40
0.0
 40
0.0
 40
0.0
 40
1.0
 40
1.0
 40
1.0
 40
1.0
 10
19.85157943590211
 20
71.84140446463249
 30
0.0
 10
19.85157943590211
 20
71.94528016834475
 30
0.0
 10
19.76739920915737
 20
72.02948806415935
 30
0.0
 10
19.66355763697329
 20
72.02948806415935
 30
0.0
  0
LINE
  5
25D
330
70
100
AcDbEntity
  8
Sichtbar (ISO)
 62
    18
420
        0
370
     5
100
AcDbLine
 10
19.85157943590211
 20
71.68153340503582
 30
0.0
 11
19.85157943590211
 21
71.84140446463249
 31
0.0
  0
SPLINE
  5
25E
330
70
100
AcDbEntity
  8
Sichtbar (ISO)
 62
    18
420
        0
370
     5
100
AcDbSpline
210
0.0
220
0.0
230
1.0
 70
     8
 71
     3
 72
     8
 73
     4
 74
     0
 42
0.0000000001
 43
0.0000000001
 40
0.0
 40
0.0
 40
0.0
 40
0.0
 40
1.0
 40
1.0
 40
1.0
 40
1.0
 10
19.66355763697329
 20
71.49344980550863
 30
0.0
 10
19.76739920915737
 20
71.49344980550863
 30
0.0
 10
19.85157943590211
 20
71.57765770132357
 30
0.0
 10
19.85157943590211
 20
71.68153340503582
 30
0.0
  0
LINE
  5
25F
330
70
100
AcDbEntity
  8
Sichtbar (ISO)
 62
    18
420
        0
370
     5
100
AcDbLine
 10
17.6047189387042
 20
71.49344980550863
 30
0.0
 11
19.66355763697329
 21
71.49344980550863
 31
0.0
  0
LINE
  5
260
330
70
100
AcDbEntity
  8
Sichtbar (ISO)
 62
    18
420
        0
370
     5
100
AcDbLine
 10
17.6047189387042
 20
70.55303180787591
 30
0.0
 11
17.6047189387042
 21
70.36494820834969
 31
0.0
  0
LINE
  5
261
330
70
100
AcDbEntity
  8
Sichtbar (ISO)
 62
    18
420
        0
370
     5
100
AcDbLine
 10
16.45778596523955
 20
70.55303180787591
 30
0.0
 11
17.6047189387042
 21
70.55303180787591
 31
0.0
  0
LINE
  5
262
330
70
100
AcDbEntity
  8
Sichtbar (ISO)
 62
    18
420
        0
370
     5
100
AcDbLine
 10
16.45778596523955
 20
70.36494820834969
 30
0.0
 11
16.45778596523955
 21
70.55303180787591
 31
0.0
  0
LINE
  5
263
330
70
100
AcDbEntity
  8
Sichtbar (ISO)
 62
    18
420
        0
370
     5
100
AcDbLine
 10
14.39894726697078
 20
70.36494820834969
 30
0.0
 11
16.45778596523955
 21
70.36494820834969
 31
0.0
  0
SPLINE
  5
264
330
70
100
AcDbEntity
  8
Sichtbar (ISO)
 62
    18
420
        0
370
     5
100
AcDbSpline
210
0.0
220
0.0
230
1.0
 70
     8
 71
     3
 72
     8
 73
     4
 74
     0
 42
0.0000000001
 43
0.0000000001
 40
0.0
 40
0.0
 40
0.0
 40
0.0
 40
1.0
 40
1.0
 40
1.0
 40
1.0
 10
14.21092546804196
 20
70.55303180787591
 30
0.0
 10
14.21092546804196
 20
70.4491561041643
 30
0.0
 10
14.29510569478669
 20
70.36494820834969
 30
0.0
 10
14.39894726697078
 20
70.36494820834969
 30
0.0
  0
LINE
  5
265
330
70
100
AcDbEntity
  8
Sichtbar (ISO)
 62
    18
420
        0
370
     5
100
AcDbLine
 10
14.21092546804196
 20
70.71290286747322
 30
0.0
 11
14.21092546804196
 21
70.55303180787591
 31
0.0
  0
SPLINE
  5
266
330
70
100
AcDbEntity
  8
Sichtbar (ISO)
 62
    18
420
        0
370
     5
100
AcDbSpline
210
0.0
220
0.0
230
1.0
 70
     8
 71
     3
 72
     8
 73
     4
 74
     0
 42
0.0000000001
 43
0.0000000001
 40
0.0
 40
0.0
 40
0.0
 40
0.0
 40
1.0
 40
1.0
 40
1.0
 40
1.0
 10
14.39894726697078
 20
70.90098646700074
 30
0.0
 10
14.29510569478669
 20
70.90098646700074
 30
0.0
 10
14.21092546804196
 20
70.81677857118548
 30
0.0
 10
14.21092546804196
 20
70.71290286747322
 30
0.0
  0
LINE
  5
267
330
70
100
AcDbEntity
  8
Sichtbar (ISO)
 62
    18
420
        0
370
     5
100
AcDbLine
 10
16.46718705518589
 20
70.90098646700074
 30
0.0
 11
14.39894726697078
 21
70.90098646700074
 31
0.0
  0
LINE
  5
268
330
70
100
AcDbEntity
  8
Sichtbar (ISO)
 62
    18
420
        0
370
     5
100
AcDbLine
 10
16.46718705518589
 20
71.08907006652663
 30
0.0
 11
16.46718705518589
 21
70.90098646700074
 31
0.0
  0
LINE
  5
269
330
70
100
AcDbEntity
  8
Sichtbar (ISO)
 62
    18
420
        0
370
     5
100
AcDbLine
 10
17.59531784875786
 20
71.08907006652663
 30
0.0
 11
16.46718705518589
 21
71.08907006652663
 31
0.0
  0
LINE
  5
26A
330
70
100
AcDbEntity
  8
Sichtbar (ISO)
 62
    18
420
        0
370
     5
100
AcDbLine
 10
17.59531784875786
 20
70.90098646700074
 30
0.0
 11
17.59531784875786
 21
71.08907006652663
 31
0.0
  0
LINE
  5
26B
330
70
100
AcDbEntity
  8
Sichtbar (ISO)
 62
    18
420
        0
370
     5
100
AcDbLine
 10
19.66355763697329
 20
70.90098646700074
 30
0.0
 11
17.59531784875786
 21
70.90098646700074
 31
0.0
  0
SPLINE
  5
26C
330
70
100
AcDbEntity
  8
Sichtbar (ISO)
 62
    18
420
        0
370
     5
100
AcDbSpline
210
0.0
220
0.0
230
1.0
 70
     8
 71
     3
 72
     8
 73
     4
 74
     0
 42
0.0000000001
 43
0.0000000001
 40
0.0
 40
0.0
 40
0.0
 40
0.0
 40
1.0
 40
1.0
 40
1.0
 40
1.0
 10
19.85157943590211
 20
70.71290286747322
 30
0.0
 10
19.85157943590211
 20
70.81677857118548
 30
0.0
 10
19.76739920915737
 20
70.90098646700074
 30
0.0
 10
19.66355763697329
 20
70.90098646700074
 30
0.0
  0
LINE
  5
26D
330
70
100
AcDbEntity
  8
Sichtbar (ISO)
 62
    18
420
        0
370
     5
100
AcDbLine
 10
19.85157943590211
 20
70.55303180787591
 30
0.0
 11
19.85157943590211
 21
70.71290286747322
 31
0.0
  0
SPLINE
  5
26E
330
70
100
AcDbEntity
  8
Sichtbar (ISO)
 62
    18
420
        0
370
     5
100
AcDbSpline
210
0.0
220
0.0
230
1.0
 70
     8
 71
     3
 72
     8
 73
     4
 74
     0
 42
0.0000000001
 43
0.0000000001
 40
0.0
 40
0.0
 40
0.0
 40
0.0
 40
1.0
 40
1.0
 40
1.0
 40
1.0
 10
19.66355763697329
 20
70.36494820834969
 30
0.0
 10
19.76739920915737
 20
70.36494820834969
 30
0.0
 10
19.85157943590211
 20
70.4491561041643
 30
0.0
 10
19.85157943590211
 20
70.55303180787591
 30
0.0
  0
LINE
  5
26F
330
70
100
AcDbEntity
  8
Sichtbar (ISO)
 62
    18
420
        0
370
     5
100
AcDbLine
 10
17.6047189387042
 20
70.36494820834969
 30
0.0
 11
19.66355763697329
 21
70.36494820834969
 31
0.0
  0
LINE
  5
270
330
70
100
AcDbEntity
  8
Sichtbar (ISO)
 62
    18
420
        0
370
     5
100
AcDbLine
 10
17.6047189387042
 20
69.42453021071696
 30
0.0
 11
17.6047189387042
 21
69.23644661119043
 31
0.0
  0
LINE
  5
271
330
70
100
AcDbEntity
  8
Sichtbar (ISO)
 62
    18
420
        0
370
     5
100
AcDbLine
 10
16.45778596523955
 20
69.42453021071696
 30
0.0
 11
17.6047189387042
 21
69.42453021071696
 31
0.0
  0
LINE
  5
272
330
70
100
AcDbEntity
  8
Sichtbar (ISO)
 62
    18
420
        0
370
     5
100
AcDbLine
 10
16.45778596523955
 20
69.23644661119043
 30
0.0
 11
16.45778596523955
 21
69.42453021071696
 31
0.0
  0
LINE
  5
273
330
70
100
AcDbEntity
  8
Sichtbar (ISO)
 62
    18
420
        0
370
     5
100
AcDbLine
 10
14.39894726697078
 20
69.23644661119043
 30
0.0
 11
16.45778596523955
 21
69.23644661119043
 31
0.0
  0
SPLINE
  5
274
330
70
100
AcDbEntity
  8
Sichtbar (ISO)
 62
    18
420
        0
370
     5
100
AcDbSpline
210
0.0
220
0.0
230
1.0
 70
     8
 71
     3
 72
     8
 73
     4
 74
     0
 42
0.0000000001
 43
0.0000000001
 40
0.0
 40
0.0
 40
0.0
 40
0.0
 40
1.0
 40
1.0
 40
1.0
 40
1.0
 10
14.21092546804196
 20
69.42453021071696
 30
0.0
 10
14.21092546804196
 20
69.32065450700503
 30
0.0
 10
14.29510569478669
 20
69.23644661119043
 30
0.0
 10
14.39894726697078
 20
69.23644661119043
 30
0.0
  0
LINE
  5
275
330
70
100
AcDbEntity
  8
Sichtbar (ISO)
 62
    18
420
        0
370
     5
100
AcDbLine
 10
14.21092546804196
 20
69.58440127031427
 30
0.0
 11
14.21092546804196
 21
69.42453021071696
 31
0.0
  0
SPLINE
  5
276
330
70
100
AcDbEntity
  8
Sichtbar (ISO)
 62
    18
420
        0
370
     5
100
AcDbSpline
210
0.0
220
0.0
230
1.0
 70
     8
 71
     3
 72
     8
 73
     4
 74
     0
 42
0.0000000001
 43
0.0000000001
 40
0.0
 40
0.0
 40
0.0
 40
0.0
 40
1.0
 40
1.0
 40
1.0
 40
1.0
 10
14.39894726697078
 20
69.77248486984113
 30
0.0
 10
14.29510569478669
 20
69.77248486984113
 30
0.0
 10
14.21092546804196
 20
69.68827697402621
 30
0.0
 10
14.21092546804196
 20
69.58440127031427
 30
0.0
  0
LINE
  5
277
330
70
100
AcDbEntity
  8
Sichtbar (ISO)
 62
    18
420
        0
370
     5
100
AcDbLine
 10
16.46718705518589
 20
69.77248486984113
 30
0.0
 11
14.39894726697078
 21
69.77248486984113
 31
0.0
  0
LINE
  5
278
330
70
100
AcDbEntity
  8
Sichtbar (ISO)
 62
    18
420
        0
370
     5
100
AcDbLine
 10
16.46718705518589
 20
69.96056846936736
 30
0.0
 11
16.46718705518589
 21
69.77248486984113
 31
0.0
  0
LINE
  5
279
330
70
100
AcDbEntity
  8
Sichtbar (ISO)
 62
    18
420
        0
370
     5
100
AcDbLine
 10
17.59531784875786
 20
69.96056846936736
 30
0.0
 11
16.46718705518589
 21
69.96056846936736
 31
0.0
  0
LINE
  5
27A
330
70
100
AcDbEntity
  8
Sichtbar (ISO)
 62
    18
420
        0
370
     5
100
AcDbLine
 10
17.59531784875786
 20
69.77248486984113
 30
0.0
 11
17.59531784875786
 21
69.96056846936736
 31
0.0
  0
LINE
  5
27B
330
70
100
AcDbEntity
  8
Sichtbar (ISO)
 62
    18
420
        0
370
     5
100
AcDbLine
 10
19.66355763697329
 20
69.77248486984113
 30
0.0
 11
17.59531784875786
 21
69.77248486984113
 31
0.0
  0
SPLINE
  5
27C
330
70
100
AcDbEntity
  8
Sichtbar (ISO)
 62
    18
420
        0
370
     5
100
AcDbSpline
210
0.0
220
0.0
230
1.0
 70
     8
 71
     3
 72
     8
 73
     4
 74
     0
 42
0.0000000001
 43
0.0000000001
 40
0.0
 40
0.0
 40
0.0
 40
0.0
 40
1.0
 40
1.0
 40
1.0
 40
1.0
 10
19.85157943590211
 20
69.58440127031427
 30
0.0
 10
19.85157943590211
 20
69.68827697402621
 30
0.0
 10
19.76739920915737
 20
69.77248486984113
 30
0.0
 10
19.66355763697329
 20
69.77248486984113
 30
0.0
  0
LINE
  5
27D
330
70
100
AcDbEntity
  8
Sichtbar (ISO)
 62
    18
420
        0
370
     5
100
AcDbLine
 10
19.85157943590211
 20
69.42453021071696
 30
0.0
 11
19.85157943590211
 21
69.58440127031427
 31
0.0
  0
SPLINE
  5
27E
330
70
100
AcDbEntity
  8
Sichtbar (ISO)
 62
    18
420
        0
370
     5
100
AcDbSpline
210
0.0
220
0.0
230
1.0
 70
     8
 71
     3
 72
     8
 73
     4
 74
     0
 42
0.0000000001
 43
0.0000000001
 40
0.0
 40
0.0
 40
0.0
 40
0.0
 40
1.0
 40
1.0
 40
1.0
 40
1.0
 10
19.66355763697329
 20
69.23644661119043
 30
0.0
 10
19.76739920915737
 20
69.23644661119043
 30
0.0
 10
19.85157943590211
 20
69.32065450700503
 30
0.0
 10
19.85157943590211
 20
69.42453021071696
 30
0.0
  0
LINE
  5
27F
330
70
100
AcDbEntity
  8
Sichtbar (ISO)
 62
    18
420
        0
370
     5
100
AcDbLine
 10
17.6047189387042
 20
69.23644661119043
 30
0.0
 11
19.66355763697329
 21
69.23644661119043
 31
0.0
  0
LINE
  5
280
330
70
100
AcDbEntity
  8
Sichtbar (ISO)
 62
    18
420
        0
370
     5
100
AcDbLine
 10
17.6047189387042
 20
68.29602861355771
 30
0.0
 11
17.6047189387042
 21
68.10794501403148
 31
0.0
  0
LINE
  5
281
330
70
100
AcDbEntity
  8
Sichtbar (ISO)
 62
    18
420
        0
370
     5
100
AcDbLine
 10
16.45778596523955
 20
68.29602861355771
 30
0.0
 11
17.6047189387042
 21
68.29602861355771
 31
0.0
  0
LINE
  5
282
330
70
100
AcDbEntity
  8
Sichtbar (ISO)
 62
    18
420
        0
370
     5
100
AcDbLine
 10
16.45778596523955
 20
68.10794501403148
 30
0.0
 11
16.45778596523955
 21
68.29602861355771
 31
0.0
  0
LINE
  5
283
330
70
100
AcDbEntity
  8
Sichtbar (ISO)
 62
    18
420
        0
370
     5
100
AcDbLine
 10
14.39894726697078
 20
68.10794501403148
 30
0.0
 11
16.45778596523955
 21
68.10794501403148
 31
0.0
  0
SPLINE
  5
284
330
70
100
AcDbEntity
  8
Sichtbar (ISO)
 62
    18
420
        0
370
     5
100
AcDbSpline
210
0.0
220
0.0
230
1.0
 70
     8
 71
     3
 72
     8
 73
     4
 74
     0
 42
0.0000000001
 43
0.0000000001
 40
0.0
 40
0.0
 40
0.0
 40
0.0
 40
1.0
 40
1.0
 40
1.0
 40
1.0
 10
14.21092546804196
 20
68.29602861355771
 30
0.0
 10
14.21092546804196
 20
68.19215290984608
 30
0.0
 10
14.29510569478669
 20
68.10794501403148
 30
0.0
 10
14.39894726697078
 20
68.10794501403148
 30
0.0
  0
LINE
  5
285
330
70
100
AcDbEntity
  8
Sichtbar (ISO)
 62
    18
420
        0
370
     5
100
AcDbLine
 10
14.21092546804196
 20
68.45589967315501
 30
0.0
 11
14.21092546804196
 21
68.29602861355771
 31
0.0
  0
SPLINE
  5
286
330
70
100
AcDbEntity
  8
Sichtbar (ISO)
 62
    18
420
        0
370
     5
100
AcDbSpline
210
0.0
220
0.0
230
1.0
 70
     8
 71
     3
 72
     8
 73
     4
 74
     0
 42
0.0000000001
 43
0.0000000001
 40
0.0
 40
0.0
 40
0.0
 40
0.0
 40
1.0
 40
1.0
 40
1.0
 40
1.0
 10
14.39894726697078
 20
68.64398327268155
 30
0.0
 10
14.29510569478669
 20
68.64398327268155
 30
0.0
 10
14.21092546804196
 20
68.55977537686662
 30
0.0
 10
14.21092546804196
 20
68.45589967315501
 30
0.0
  0
LINE
  5
287
330
70
100
AcDbEntity
  8
Sichtbar (ISO)
 62
    18
420
        0
370
     5
100
AcDbLine
 10
16.46718705518589
 20
68.64398327268155
 30
0.0
 11
14.39894726697078
 21
68.64398327268155
 31
0.0
  0
LINE
  5
288
330
70
100
AcDbEntity
  8
Sichtbar (ISO)
 62
    18
420
        0
370
     5
100
AcDbLine
 10
16.46718705518589
 20
68.8320668722081
 30
0.0
 11
16.46718705518589
 21
68.64398327268155
 31
0.0
  0
LINE
  5
289
330
70
100
AcDbEntity
  8
Sichtbar (ISO)
 62
    18
420
        0
370
     5
100
AcDbLine
 10
17.59531784875786
 20
68.8320668722081
 30
0.0
 11
16.46718705518589
 21
68.8320668722081
 31
0.0
  0
LINE
  5
28A
330
70
100
AcDbEntity
  8
Sichtbar (ISO)
 62
    18
420
        0
370
     5
100
AcDbLine
 10
17.59531784875786
 20
68.64398327268155
 30
0.0
 11
17.59531784875786
 21
68.8320668722081
 31
0.0
  0
LINE
  5
28B
330
70
100
AcDbEntity
  8
Sichtbar (ISO)
 62
    18
420
        0
370
     5
100
AcDbLine
 10
19.66355763697329
 20
68.64398327268155
 30
0.0
 11
17.59531784875786
 21
68.64398327268155
 31
0.0
  0
SPLINE
  5
28C
330
70
100
AcDbEntity
  8
Sichtbar (ISO)
 62
    18
420
        0
370
     5
100
AcDbSpline
210
0.0
220
0.0
230
1.0
 70
     8
 71
     3
 72
     8
 73
     4
 74
     0
 42
0.0000000001
 43
0.0000000001
 40
0.0
 40
0.0
 40
0.0
 40
0.0
 40
1.0
 40
1.0
 40
1.0
 40
1.0
 10
19.85157943590211
 20
68.45589967315501
 30
0.0
 10
19.85157943590211
 20
68.55977537686662
 30
0.0
 10
19.76739920915737
 20
68.64398327268155
 30
0.0
 10
19.66355763697329
 20
68.64398327268155
 30
0.0
  0
LINE
  5
28D
330
70
100
AcDbEntity
  8
Sichtbar (ISO)
 62
    18
420
        0
370
     5
100
AcDbLine
 10
19.85157943590211
 20
68.29602861355771
 30
0.0
 11
19.85157943590211
 21
68.45589967315501
 31
0.0
  0
SPLINE
  5
28E
330
70
100
AcDbEntity
  8
Sichtbar (ISO)
 62
    18
420
        0
370
     5
100
AcDbSpline
210
0.0
220
0.0
230
1.0
 70
     8
 71
     3
 72
     8
 73
     4
 74
     0
 42
0.0000000001
 43
0.0000000001
 40
0.0
 40
0.0
 40
0.0
 40
0.0
 40
1.0
 40
1.0
 40
1.0
 40
1.0
 10
19.66355763697329
 20
68.10794501403148
 30
0.0
 10
19.76739920915737
 20
68.10794501403148
 30
0.0
 10
19.85157943590211
 20
68.19215290984608
 30
0.0
 10
19.85157943590211
 20
68.29602861355771
 30
0.0
  0
LINE
  5
28F
330
70
100
AcDbEntity
  8
Sichtbar (ISO)
 62
    18
420
        0
370
     5
100
AcDbLine
 10
17.6047189387042
 20
68.10794501403148
 30
0.0
 11
19.66355763697329
 21
68.10794501403148
 31
0.0
  0
LINE
  5
290
330
70
100
AcDbEntity
  8
Sichtbar (ISO)
 62
    18
420
        0
370
     5
100
AcDbLine
 10
12.35230478525043
 20
75.13286745634765
 30
0.0
 11
12.35230478525043
 21
73.81628225966185
 31
0.0
  0
LINE
  5
291
330
70
100
AcDbEntity
  8
Sichtbar (ISO)
 62
    18
420
        0
370
     5
100
AcDbLine
 10
12.40984316971778
 20
73.81628225966185
 30
0.0
 11
12.35230478525043
 21
73.81628225966185
 31
0.0
  0
LINE
  5
292
330
70
100
AcDbEntity
  8
Sichtbar (ISO)
 62
    18
420
        0
370
     5
100
AcDbLine
 10
12.40984316971778
 20
73.81628225966185
 30
0.0
 11
12.40984316971778
 21
67.42143987575933
 31
0.0
  0
LINE
  5
293
330
70
100
AcDbEntity
  8
Sichtbar (ISO)
 62
    18
420
        0
370
     5
100
AcDbLine
 10
13.3648273728629
 20
73.81628225966185
 30
0.0
 11
13.3648273728629
 21
67.42143987575933
 31
0.0
  0
LINE
  5
294
330
70
100
AcDbEntity
  8
Sichtbar (ISO)
 62
    18
420
        0
370
     5
100
AcDbLine
 10
13.23850003456641
 20
73.81628225966185
 30
0.0
 11
13.23850003456641
 21
74.19244945871493
 31
0.0
  0
SPLINE
  5
295
330
70
100
AcDbEntity
  8
Sichtbar (ISO)
 62
    18
420
        0
370
     5
100
AcDbSpline
210
0.0
220
0.0
230
1.0
 70
     8
 71
     3
 72
     8
 73
     4
 74
     0
 42
0.0000000001
 43
0.0000000001
 40
0.0
 40
0.0
 40
0.0
 40
0.0
 40
1.0
 40
1.0
 40
1.0
 40
1.0
 10
36.74295055450043
 20
72.85469051727448
 30
0.0
 10
36.7429505545001
 20
72.87546040497926
 30
0.0
 10
36.7261321654005
 20
72.89228432208989
 30
0.0
 10
36.70536910227505
 20
72.89228432209021
 30
0.0
  0
LINE
  5
296
330
70
100
AcDbEntity
  8
Sichtbar (ISO)
 62
    18
420
        0
370
     5
100
AcDbLine
 10
36.26347205967137
 20
72.89228432209021
 30
0.0
 11
36.70536910227505
 21
72.89228432209021
 31
0.0
  0
SPLINE
  5
297
330
70
100
AcDbEntity
  8
Sichtbar (ISO)
 62
    18
420
        0
370
     5
100
AcDbSpline
210
0.0
220
0.0
230
1.0
 70
     8
 71
     3
 72
     8
 73
     4
 74
     0
 42
0.0000000001
 43
0.0000000001
 40
0.0
 40
0.0
 40
0.0
 40
0.0
 40
1.0
 40
1.0
 40
1.0
 40
1.0
 10
36.22589060744632
 20
72.92987812690467
 30
0.0
 10
36.22589060744632
 20
72.90910823920019
 30
0.0
 10
36.24270899654656
 20
72.89228432208989
 30
0.0
 10
36.26347205967137
 20
72.89228432208989
 30
0.0
  0
LINE
  5
298
330
70
100
AcDbEntity
  8
Sichtbar (ISO)
 62
    18
420
        0
370
     5
100
AcDbLine
 10
36.22589060744664
 20
73.66822659502208
 30
0.0
 11
36.22589060744664
 21
72.92987812690467
 31
0.0
  0
SPLINE
  5
299
330
70
100
AcDbEntity
  8
Sichtbar (ISO)
 62
    18
420
        0
370
     5
100
AcDbSpline
210
0.0
220
0.0
230
1.0
 70
     8
 71
     3
 72
     8
 73
     4
 74
     0
 42
0.0000000001
 43
0.0000000001
 40
0.0
 40
0.0
 40
0.0
 40
0.0
 40
1.0
 40
1.0
 40
1.0
 40
1.0
 10
36.26347205967137
 20
73.70582039983877
 30
0.0
 10
36.24270899654592
 20
73.70582039983941
 30
0.0
 10
36.22589060744568
 20
73.68899648272781
 30
0.0
 10
36.22589060744632
 20
73.66822659502208
 30
0.0
  0
LINE
  5
29A
330
70
100
AcDbEntity
  8
Sichtbar (ISO)
 62
    18
420
        0
370
     5
100
AcDbLine
 10
38.41174141286606
 20
73.70582039983813
 30
0.0
 11
36.26347205967137
 21
73.70582039983813
 31
0.0
  0
SPLINE
  5
29B
330
70
100
AcDbEntity
  8
Sichtbar (ISO)
 62
    18
420
        0
370
     5
100
AcDbSpline
210
0.0
220
0.0
230
1.0
 70
     8
 71
     3
 72
     8
 73
     4
 74
     0
 42
0.0000000001
 43
0.0000000001
 40
0.0
 40
0.0
 40
0.0
 40
0.0
 40
1.0
 40
1.0
 40
1.0
 40
1.0
 10
38.44932286509175
 20
73.66822659502208
 30
0.0
 10
38.44932286509239
 20
73.68899648272781
 30
0.0
 10
38.43250447599183
 20
73.70582039983877
 30
0.0
 10
38.41174141286606
 20
73.70582039983877
 30
0.0
  0
LINE
  5
29C
330
70
100
AcDbEntity
  8
Sichtbar (ISO)
 62
    18
420
        0
370
     5
100
AcDbLine
 10
38.44932286509143
 20
72.92987812690467
 30
0.0
 11
38.44932286509143
 21
73.66822659502208
 31
0.0
  0
SPLINE
  5
29D
330
70
100
AcDbEntity
  8
Sichtbar (ISO)
 62
    18
420
        0
370
     5
100
AcDbSpline
210
0.0
220
0.0
230
1.0
 70
     8
 71
     3
 72
     8
 73
     4
 74
     0
 42
0.0000000001
 43
0.0000000001
 40
0.0
 40
0.0
 40
0.0
 40
0.0
 40
1.0
 40
1.0
 40
1.0
 40
1.0
 10
38.41174141286606
 20
72.89228432208989
 30
0.0
 10
38.43250447599119
 20
72.89228432208989
 30
0.0
 10
38.44932286509143
 20
72.90910823920019
 30
0.0
 10
38.44932286509175
 20
72.92987812690467
 30
0.0
  0
LINE
  5
29E
330
70
100
AcDbEntity
  8
Sichtbar (ISO)
 62
    18
420
        0
370
     5
100
AcDbLine
 10
37.9698443702627
 20
72.89228432209021
 30
0.0
 11
38.41174141286606
 21
72.89228432209021
 31
0.0
  0
SPLINE
  5
29F
330
70
100
AcDbEntity
  8
Sichtbar (ISO)
 62
    18
420
        0
370
     5
100
AcDbSpline
210
0.0
220
0.0
230
1.0
 70
     8
 71
     3
 72
     8
 73
     4
 74
     0
 42
0.0000000001
 43
0.0000000001
 40
0.0
 40
0.0
 40
0.0
 40
0.0
 40
1.0
 40
1.0
 40
1.0
 40
1.0
 10
37.9698443702627
 20
72.89228432209053
 30
0.0
 10
37.94908130713757
 20
72.89228432209021
 30
0.0
 10
37.93226291803701
 20
72.87546040497959
 30
0.0
 10
37.93226291803701
 20
72.85469051727448
 30
0.0
  0
LINE
  5
2A0
330
70
100
AcDbEntity
  8
Sichtbar (ISO)
 62
    18
420
        0
370
     5
100
AcDbLine
 10
37.93226291803733
 20
72.08350192903553
 30
0.0
 11
37.93226291803733
 21
72.85469051727448
 31
0.0
  0
SPLINE
  5
2A1
330
70
100
AcDbEntity
  8
Sichtbar (ISO)
 62
    18
420
        0
370
     5
100
AcDbSpline
210
0.0
220
0.0
230
1.0
 70
     8
 71
     3
 72
     8
 73
     4
 74
     0
 42
0.0000000001
 43
0.0000000001
 40
0.0
 40
0.0
 40
0.0
 40
0.0
 40
1.0
 40
1.0
 40
1.0
 40
1.0
 10
37.89468146581228
 20
72.04590812421947
 30
0.0
 10
37.91544452893838
 20
72.04590812421947
 30
0.0
 10
37.93226291803861
 20
72.06273204133011
 30
0.0
 10
37.93226291803829
 20
72.08350192903553
 30
0.0
  0
LINE
  5
2A2
330
70
100
AcDbEntity
  8
Sichtbar (ISO)
 62
    18
420
        0
370
     5
100
AcDbLine
 10
36.78053200672547
 20
72.04590812422075
 30
0.0
 11
37.89468146581228
 21
72.04590812422075
 31
0.0
  0
SPLINE
  5
2A3
330
70
100
AcDbEntity
  8
Sichtbar (ISO)
 62
    18
420
        0
370
     5
100
AcDbSpline
210
0.0
220
0.0
230
1.0
 70
     8
 71
     3
 72
     8
 73
     4
 74
     0
 42
0.0000000001
 43
0.0000000001
 40
0.0
 40
0.0
 40
0.0
 40
0.0
 40
1.0
 40
1.0
 40
1.0
 40
1.0
 10
36.74295055449946
 20
72.08350192903553
 30
0.0
 10
36.74295055449946
 20
72.06273204133011
 30
0.0
 10
36.75976894359969
 20
72.04590812421947
 30
0.0
 10
36.78053200672547
 20
72.04590812421947
 30
0.0
  0
LINE
  5
2A4
330
70
100
AcDbEntity
  8
Sichtbar (ISO)
 62
    18
420
        0
370
     5
100
AcDbLine
 10
36.7429505545001
 20
72.85469051727448
 30
0.0
 11
36.7429505545001
 21
72.08350192903553
 31
0.0
  0
SPLINE
  5
2A5
330
70
100
AcDbEntity
  8
Sichtbar (ISO)
 62
    18
420
        0
370
     5
100
AcDbSpline
210
0.0
220
0.0
230
1.0
 70
     8
 71
     3
 72
     8
 73
     4
 74
     0
 42
0.0000000001
 43
0.0000000001
 40
0.0
 40
0.0
 40
0.0
 40
0.0
 40
1.0
 40
1.0
 40
1.0
 40
1.0
 10
25.56040564097011
 20
72.89228432209021
 30
0.0
 10
25.53964257784465
 20
72.89228432208989
 30
0.0
 10
25.52282418874474
 20
72.87546040497926
 30
0.0
 10
25.52282418874474
 20
72.85469051727448
 30
0.0
  0
LINE
  5
2A6
330
70
100
AcDbEntity
  8
Sichtbar (ISO)
 62
    18
420
        0
370
     5
100
AcDbLine
 10
25.52282418874474
 20
72.85469051727448
 30
0.0
 11
25.52282418874474
 21
72.08350192903553
 31
0.0
  0
SPLINE
  5
2A7
330
70
100
AcDbEntity
  8
Sichtbar (ISO)
 62
    18
420
        0
370
     5
100
AcDbSpline
210
0.0
220
0.0
230
1.0
 70
     8
 71
     3
 72
     8
 73
     4
 74
     0
 42
0.0000000001
 43
0.0000000001
 40
0.0
 40
0.0
 40
0.0
 40
0.0
 40
1.0
 40
1.0
 40
1.0
 40
1.0
 10
25.48524273652001
 20
72.04590812421947
 30
0.0
 10
25.50600579964546
 20
72.04590812421947
 30
0.0
 10
25.5228241887457
 20
72.06273204133011
 30
0.0
 10
25.5228241887457
 20
72.08350192903553
 30
0.0
  0
LINE
  5
2A8
330
70
100
AcDbEntity
  8
Sichtbar (ISO)
 62
    18
420
        0
370
     5
100
AcDbLine
 10
25.48524273652001
 20
72.04590812422075
 30
0.0
 11
24.37109327743288
 21
72.04590812422075
 31
0.0
  0
SPLINE
  5
2A9
330
70
100
AcDbEntity
  8
Sichtbar (ISO)
 62
    18
420
        0
370
     5
100
AcDbSpline
210
0.0
220
0.0
230
1.0
 70
     8
 71
     3
 72
     8
 73
     4
 74
     0
 42
0.0000000001
 43
0.0000000001
 40
0.0
 40
0.0
 40
0.0
 40
0.0
 40
1.0
 40
1.0
 40
1.0
 40
1.0
 10
24.33351182520719
 20
72.08350192903553
 30
0.0
 10
24.33351182520719
 20
72.06273204133011
 30
0.0
 10
24.3503302143071
 20
72.04590812421947
 30
0.0
 10
24.37109327743288
 20
72.04590812421947
 30
0.0
  0
LINE
  5
2AA
330
70
100
AcDbEntity
  8
Sichtbar (ISO)
 62
    18
420
        0
370
     5
100
AcDbLine
 10
24.33351182520815
 20
72.08350192903553
 30
0.0
 11
24.33351182520815
 21
72.85469051727448
 31
0.0
  0
SPLINE
  5
2AB
330
70
100
AcDbEntity
  8
Sichtbar (ISO)
 62
    18
420
        0
370
     5
100
AcDbSpline
210
0.0
220
0.0
230
1.0
 70
     8
 71
     3
 72
     8
 73
     4
 74
     0
 42
0.0000000001
 43
0.0000000001
 40
0.0
 40
0.0
 40
0.0
 40
0.0
 40
1.0
 40
1.0
 40
1.0
 40
1.0
 10
24.33351182520847
 20
72.85469051727448
 30
0.0
 10
24.33351182520847
 20
72.87546040497959
 30
0.0
 10
24.31669343610823
 20
72.89228432209021
 30
0.0
 10
24.29593037298245
 20
72.89228432209021
 30
0.0
  0
LINE
  5
2AC
330
70
100
AcDbEntity
  8
Sichtbar (ISO)
 62
    18
420
        0
370
     5
100
AcDbLine
 10
24.29593037298245
 20
72.89228432209021
 30
0.0
 11
23.85403333037878
 21
72.89228432209021
 31
0.0
  0
SPLINE
  5
2AD
330
70
100
AcDbEntity
  8
Sichtbar (ISO)
 62
    18
420
        0
370
     5
100
AcDbSpline
210
0.0
220
0.0
230
1.0
 70
     8
 71
     3
 72
     8
 73
     4
 74
     0
 42
0.0000000001
 43
0.0000000001
 40
0.0
 40
0.0
 40
0.0
 40
0.0
 40
1.0
 40
1.0
 40
1.0
 40
1.0
 10
23.81645187815309
 20
72.92987812690467
 30
0.0
 10
23.81645187815341
 20
72.90910823920019
 30
0.0
 10
23.83327026725397
 20
72.89228432208989
 30
0.0
 10
23.85403333037878
 20
72.89228432208989
 30
0.0
  0
LINE
  5
2AE
330
70
100
AcDbEntity
  8
Sichtbar (ISO)
 62
    18
420
        0
370
     5
100
AcDbLine
 10
23.81645187815373
 20
72.92987812690467
 30
0.0
 11
23.81645187815373
 21
73.66822659502208
 31
0.0
  0
SPLINE
  5
2AF
330
70
100
AcDbEntity
  8
Sichtbar (ISO)
 62
    18
420
        0
370
     5
100
AcDbSpline
210
0.0
220
0.0
230
1.0
 70
     8
 71
     3
 72
     8
 73
     4
 74
     0
 42
0.0000000001
 43
0.0000000001
 40
0.0
 40
0.0
 40
0.0
 40
0.0
 40
1.0
 40
1.0
 40
1.0
 40
1.0
 10
23.85403333037878
 20
73.70582039983877
 30
0.0
 10
23.83327026725333
 20
73.70582039983877
 30
0.0
 10
23.81645187815276
 20
73.68899648272781
 30
0.0
 10
23.81645187815309
 20
73.66822659502208
 30
0.0
  0
LINE
  5
2B0
330
70
100
AcDbEntity
  8
Sichtbar (ISO)
 62
    18
420
        0
370
     5
100
AcDbLine
 10
23.85403333037878
 20
73.70582039983813
 30
0.0
 11
26.00230268357346
 21
73.70582039983813
 31
0.0
  0
SPLINE
  5
2B1
330
70
100
AcDbEntity
  8
Sichtbar (ISO)
 62
    18
420
        0
370
     5
100
AcDbSpline
210
0.0
220
0.0
230
1.0
 70
     8
 71
     3
 72
     8
 73
     4
 74
     0
 42
0.0000000001
 43
0.0000000001
 40
0.0
 40
0.0
 40
0.0
 40
0.0
 40
1.0
 40
1.0
 40
1.0
 40
1.0
 10
26.03988413579916
 20
73.66822659502208
 30
0.0
 10
26.03988413579948
 20
73.68899648272781
 30
0.0
 10
26.02306574669956
 20
73.70582039983941
 30
0.0
 10
26.00230268357346
 20
73.70582039983877
 30
0.0
  0
LINE
  5
2B2
330
70
100
AcDbEntity
  8
Sichtbar (ISO)
 62
    18
420
        0
370
     5
100
AcDbLine
 10
26.03988413579851
 20
73.66822659502208
 30
0.0
 11
26.03988413579851
 21
72.92987812690467
 31
0.0
  0
SPLINE
  5
2B3
330
70
100
AcDbEntity
  8
Sichtbar (ISO)
 62
    18
420
        0
370
     5
100
AcDbSpline
210
0.0
220
0.0
230
1.0
 70
     8
 71
     3
 72
     8
 73
     4
 74
     0
 42
0.0000000001
 43
0.0000000001
 40
0.0
 40
0.0
 40
0.0
 40
0.0
 40
1.0
 40
1.0
 40
1.0
 40
1.0
 10
26.00230268357346
 20
72.89228432208989
 30
0.0
 10
26.02306574669924
 20
72.89228432208989
 30
0.0
 10
26.03988413579916
 20
72.90910823920019
 30
0.0
 10
26.03988413579916
 20
72.92987812690467
 30
0.0
  0
LINE
  5
2B4
330
70
100
AcDbEntity
  8
Sichtbar (ISO)
 62
    18
420
        0
370
     5
100
AcDbLine
 10
26.00230268357346
 20
72.89228432209021
 30
0.0
 11
25.56040564097011
 21
72.89228432209021
 31
0.0
  0
LINE
  5
2B5
330
70
100
AcDbEntity
  8
Sichtbar (ISO)
 62
    18
420
        0
370
     5
100
AcDbLine
 10
50.89580722615514
 20
73.81628225966216
 30
0.0
 11
49.91346995799537
 21
73.81628225966216
 31
0.0
  0
LINE
  5
2B6
330
70
100
AcDbEntity
  8
Sichtbar (ISO)
 62
    18
420
        0
370
     5
100
AcDbLine
 10
11.36996751708937
 20
73.81628225966185
 30
0.0
 11
12.35230478525043
 21
73.81628225966185
 31
0.0
  0
LINE
  5
2B7
330
70
100
AcDbEntity
  8
Sichtbar (ISO)
 62
    18
420
        0
370
     5
100
AcDbLine
 10
38.55974842930542
 20
67.42143987575933
 30
0.0
 11
38.55974842930542
 21
70.99502826676368
 31
0.0
  0
LINE
  5
2B8
330
70
100
AcDbEntity
  8
Sichtbar (ISO)
 62
    18
420
        0
370
     5
100
AcDbLine
 10
36.02145414376825
 20
74.19244945871493
 30
0.0
 11
26.24432059947691
 21
74.19244945871493
 31
0.0
  0
LINE
  5
2B9
330
70
100
AcDbEntity
  8
Sichtbar (ISO)
 62
    18
420
        0
370
     5
100
AcDbLine
 10
26.24432059947691
 20
74.19244945871493
 30
0.0
 11
26.22984861361994
 21
71.4276205456746
 31
0.0
  0
LINE
  5
2BA
330
70
100
AcDbEntity
  8
Sichtbar (ISO)
 62
    18
420
        0
370
     5
100
AcDbLine
 10
26.22984861361994
 20
71.4276205456746
 30
0.0
 11
22.40434570729592
 21
71.4276205456746
 31
0.0
  0
LINE
  5
2BB
330
70
100
AcDbEntity
  8
Sichtbar (ISO)
 62
    18
420
        0
370
     5
100
AcDbLine
 10
22.38987372143927
 20
74.19244945871493
 30
0.0
 11
22.40434570729592
 21
71.4276205456746
 31
0.0
  0
LINE
  5
2BC
330
70
100
AcDbEntity
  8
Sichtbar (ISO)
 62
    18
420
        0
370
     5
100
AcDbLine
 10
22.38987372143927
 20
74.19244945871493
 30
0.0
 11
13.23850003456641
 21
74.19244945871493
 31
0.0
  0
LINE
  5
2BD
330
70
100
AcDbEntity
  8
Sichtbar (ISO)
 62
    18
420
        0
370
     5
100
AcDbLine
 10
22.01383012358196
 20
73.81628225966185
 30
0.0
 11
14.39894726697078
 21
73.81628225966185
 31
0.0
  0
LINE
  5
2BE
330
70
100
AcDbEntity
  8
Sichtbar (ISO)
 62
    18
420
        0
370
     5
100
AcDbLine
 10
22.01383012358196
 20
73.81628225966185
 30
0.0
 11
22.01383012358196
 21
67.42143987575933
 31
0.0
  0
LINE
  5
2BF
330
70
100
AcDbEntity
  8
Sichtbar (ISO)
 62
    18
420
        0
370
     5
100
AcDbLine
 10
22.7659173192966
 20
67.42143987575933
 30
0.0
 11
22.7659173192966
 21
70.99502826676368
 31
0.0
  0
LINE
  5
2C0
330
70
100
AcDbEntity
  8
Sichtbar (ISO)
 62
    18
420
        0
370
     5
100
AcDbLine
 10
23.70602631394007
 20
70.99502826676368
 30
0.0
 11
22.7659173192966
 21
70.99502826676368
 31
0.0
  0
LINE
  5
2C1
330
70
100
AcDbEntity
  8
Sichtbar (ISO)
 62
    18
420
        0
370
     5
100
AcDbLine
 10
23.70602631394007
 20
67.42143987575933
 30
0.0
 11
23.70602631394007
 21
70.99502826676368
 31
0.0
  0
LINE
  5
2C2
330
70
100
AcDbEntity
  8
Sichtbar (ISO)
 62
    18
420
        0
370
     5
100
AcDbLine
 10
24.45811350965471
 20
71.05145334662151
 30
0.0
 11
24.45811350965471
 21
67.42143987575933
 31
0.0
  0
LINE
  5
2C3
330
70
100
AcDbEntity
  8
Sichtbar (ISO)
 62
    18
420
        0
370
     5
100
AcDbLine
 10
26.62036419733391
 20
71.05145334662151
 30
0.0
 11
24.45811350965471
 21
71.05145334662151
 31
0.0
  0
LINE
  5
2C4
330
70
100
AcDbEntity
  8
Sichtbar (ISO)
 62
    18
420
        0
370
     5
100
AcDbLine
 10
26.62036419733391
 20
73.81628225966216
 30
0.0
 11
26.62036419733391
 21
71.05145334662151
 31
0.0
  0
LINE
  5
2C5
330
70
100
AcDbEntity
  8
Sichtbar (ISO)
 62
    18
420
        0
370
     5
100
AcDbLine
 10
26.62036419733391
 20
73.81628225966216
 30
0.0
 11
35.64541054591093
 21
73.81628225966216
 31
0.0
  0
LINE
  5
2C6
330
70
100
AcDbEntity
  8
Sichtbar (ISO)
 62
    18
420
        0
370
     5
100
AcDbLine
 10
35.64541054591093
 20
73.81628225966216
 30
0.0
 11
35.64541054591093
 21
71.05145334662151
 31
0.0
  0
LINE
  5
2C7
330
70
100
AcDbEntity
  8
Sichtbar (ISO)
 62
    18
420
        0
370
     5
100
AcDbLine
 10
35.64541054591093
 20
71.05145334662151
 30
0.0
 11
37.80766123359077
 21
71.05145334662151
 31
0.0
  0
LINE
  5
2C8
330
70
100
AcDbEntity
  8
Sichtbar (ISO)
 62
    18
420
        0
370
     5
100
AcDbLine
 10
37.80766123359077
 20
71.05145334662151
 30
0.0
 11
37.80766123359077
 21
67.42143987575933
 31
0.0
  0
LINE
  5
2C9
330
70
100
AcDbEntity
  8
Sichtbar (ISO)
 62
    18
420
        0
370
     5
100
AcDbLine
 10
38.55974842930542
 20
70.99502826676368
 30
0.0
 11
39.49985742394856
 21
70.99502826676368
 31
0.0
  0
LINE
  5
2CA
330
70
100
AcDbEntity
  8
Sichtbar (ISO)
 62
    18
420
        0
370
     5
100
AcDbLine
 10
39.49985742394856
 20
67.42143987575933
 30
0.0
 11
39.49985742394856
 21
70.99502826676368
 31
0.0
  0
LINE
  5
2CB
330
70
100
AcDbEntity
  8
Sichtbar (ISO)
 62
    18
420
        0
370
     5
100
AcDbLine
 10
40.25194461966353
 20
73.81628225966216
 30
0.0
 11
40.25194461966353
 21
67.42143987575933
 31
0.0
  0
LINE
  5
2CC
330
70
100
AcDbEntity
  8
Sichtbar (ISO)
 62
    18
420
        0
370
     5
100
AcDbLine
 10
40.25194461966353
 20
73.81628225966216
 30
0.0
 11
47.86682747627438
 21
73.81628225966216
 31
0.0
  0
LINE
  5
2CD
330
70
100
AcDbEntity
  8
Sichtbar (ISO)
 62
    18
420
        0
370
     5
100
AcDbLine
 10
39.87590102180652
 20
74.19244945871493
 30
0.0
 11
49.02727470867906
 21
74.19244945871493
 31
0.0
  0
LINE
  5
2CE
330
70
100
AcDbEntity
  8
Sichtbar (ISO)
 62
    18
420
        0
370
     5
100
AcDbLine
 10
39.87590102180652
 20
74.19244945871493
 30
0.0
 11
39.86142903594988
 21
71.4276205456746
 31
0.0
  0
LINE
  5
2CF
330
70
100
AcDbEntity
  8
Sichtbar (ISO)
 62
    18
420
        0
370
     5
100
AcDbLine
 10
36.03592612962489
 20
71.4276205456746
 30
0.0
 11
39.86142903594988
 21
71.4276205456746
 31
0.0
  0
LINE
  5
2D0
330
70
100
AcDbEntity
  8
Sichtbar (ISO)
 62
    18
420
        0
370
     5
100
AcDbLine
 10
36.02145414376825
 20
74.19244945871493
 30
0.0
 11
36.03592612962489
 21
71.4276205456746
 31
0.0
  0
LINE
  5
2D1
330
70
100
AcDbEntity
  8
Sichtbar (ISO)
 62
    18
420
        0
370
     5
100
AcDbLine
 10
49.02727470867906
 20
73.81628225966216
 30
0.0
 11
48.54618389350524
 21
73.81628225966216
 31
0.0
  0
LINE
  5
2D2
330
70
100
AcDbEntity
  8
Sichtbar (ISO)
 62
    18
420
        0
370
     5
100
AcDbLine
 10
48.54618389350524
 20
73.81628225966216
 30
0.0
 11
47.86682747627438
 21
73.81628225966216
 31
0.0
  0
LINE
  5
2D3
330
70
100
AcDbEntity
  8
Sichtbar (ISO)
 62
    18
420
        0
370
     5
100
AcDbLine
 10
13.71959084973991
 20
73.81628225966185
 30
0.0
 11
14.39894726697078
 21
73.81628225966185
 31
0.0
  0
LINE
  5
2D4
330
70
100
AcDbEntity
  8
Sichtbar (ISO)
 62
    18
420
        0
370
     5
100
AcDbLine
 10
13.23850003456513
 20
73.81628225966185
 30
0.0
 11
13.71959084974087
 21
73.81628225966185
 31
0.0
  0
LINE
  5
2D5
330
70
100
AcDbEntity
  8
Sichtbar (ISO)
 62
    18
420
        0
370
     5
100
AcDbLine
 10
41.8501299105569
 20
75.13286745634765
 30
0.0
 11
41.8501299105569
 21
74.19244945871493
 31
0.0
  0
LINE
  5
2D6
330
70
100
AcDbEntity
  8
Sichtbar (ISO)
 62
    18
420
        0
370
     5
100
AcDbLine
 10
41.8501299105569
 20
73.81628225966216
 30
0.0
 11
41.8501299105569
 21
71.37119546581709
 31
0.0
  0
LINE
  5
2D7
330
70
100
AcDbEntity
  8
Sichtbar (ISO)
 62
    18
420
        0
370
     5
100
AcDbLine
 10
40.72199911698461
 20
75.13286745634765
 30
0.0
 11
40.72199911698461
 21
74.19244945871493
 31
0.0
  0
LINE
  5
2D8
330
70
100
AcDbEntity
  8
Sichtbar (ISO)
 62
    18
420
        0
370
     5
100
AcDbLine
 10
40.72199911698461
 20
73.81628225966216
 30
0.0
 11
40.72199911698461
 21
71.37119546581709
 31
0.0
  0
LINE
  5
2D9
330
70
100
AcDbEntity
  8
Sichtbar (ISO)
 62
    18
420
        0
370
     5
100
AcDbLine
 10
40.72199911698461
 20
71.37119546581709
 30
0.0
 11
41.8501299105569
 21
71.37119546581709
 31
0.0
  0
LINE
  5
2DA
330
70
100
AcDbEntity
  8
Sichtbar (ISO)
 62
    18
420
        0
370
     5
100
AcDbLine
 10
21.54377562626022
 20
75.13286745634765
 30
0.0
 11
21.54377562626022
 21
74.19244945871493
 31
0.0
  0
LINE
  5
2DB
330
70
100
AcDbEntity
  8
Sichtbar (ISO)
 62
    18
420
        0
370
     5
100
AcDbLine
 10
21.54377562626022
 20
73.81628225966185
 30
0.0
 11
21.54377562626022
 21
71.37119546581709
 31
0.0
  0
LINE
  5
2DC
330
70
100
AcDbEntity
  8
Sichtbar (ISO)
 62
    18
420
        0
370
     5
100
AcDbLine
 10
20.41564483268794
 20
75.13286745634765
 30
0.0
 11
20.41564483268794
 21
74.19244945871493
 31
0.0
  0
LINE
  5
2DD
330
70
100
AcDbEntity
  8
Sichtbar (ISO)
 62
    18
420
        0
370
     5
100
AcDbLine
 10
20.41564483268794
 20
73.81628225966185
 30
0.0
 11
20.41564483268794
 21
71.37119546581709
 31
0.0
  0
LINE
  5
2DE
330
70
100
AcDbEntity
  8
Sichtbar (ISO)
 62
    18
420
        0
370
     5
100
AcDbLine
 10
21.54377562626022
 20
71.37119546581709
 30
0.0
 11
20.41564483268794
 21
71.37119546581709
 31
0.0
  0
LINE
  5
2DF
330
70
100
AcDbEntity
  8
Sichtbar (ISO)
 62
    18
420
        0
370
     5
100
AcDbLine
 10
54.1655577404223
 20
73.42130670058032
 30
0.0
 11
54.1655577404223
 21
74.58742501779743
 31
0.0
  0
LINE
  5
2E0
330
70
100
AcDbEntity
  8
Sichtbar (ISO)
 62
    18
420
        0
370
     5
100
AcDbLine
 10
53.99633812135023
 20
73.25203146108221
 30
0.0
 11
53.9775359414569
 21
73.25203146108221
 31
0.0
  0
LINE
  5
2E1
330
70
100
AcDbEntity
  8
Sichtbar (ISO)
 62
    18
420
        0
370
     5
100
AcDbLine
 10
53.99633812135023
 20
74.75670025729456
 30
0.0
 11
53.9775359414569
 21
74.75670025729456
 31
0.0
  0
SPLINE
  5
2E2
330
70
100
AcDbEntity
  8
Sichtbar (ISO)
 62
    18
420
        0
370
     5
100
AcDbSpline
210
0.0
220
0.0
230
1.0
 70
     8
 71
     3
 72
     8
 73
     4
 74
     0
 42
0.0000000001
 43
0.0000000001
 40
0.0
 40
0.0
 40
0.0
 40
0.0
 40
1.0
 40
1.0
 40
1.0
 40
1.0
 10
54.1655577404223
 20
74.58742501762127
 30
0.0
 10
54.1655577404223
 20
74.6809131509983
 30
0.0
 10
54.08979553635105
 20
74.75670025727595
 30
0.0
 10
53.99633812135023
 20
74.75670025733179
 30
0.0
  0
SPLINE
  5
2E3
330
70
100
AcDbEntity
  8
Sichtbar (ISO)
 62
    18
420
        0
370
     5
100
AcDbSpline
210
0.0
220
0.0
230
1.0
 70
     8
 71
     3
 72
     8
 73
     4
 74
     0
 42
0.0000000001
 43
0.0000000001
 40
0.0
 40
0.0
 40
0.0
 40
0.0
 40
1.0
 40
1.0
 40
1.0
 40
1.0
 10
53.99633812135023
 20
73.25203146104563
 30
0.0
 10
54.08979553635105
 20
73.2520314611005
 30
0.0
 10
54.1655577404223
 20
73.32781856737847
 30
0.0
 10
54.1655577404223
 20
73.42130670075582
 30
0.0
  0
LINE
  5
2E4
330
70
100
AcDbEntity
  8
Sichtbar (ISO)
 62
    18
420
        0
370
     5
100
AcDbLine
 10
53.03742694681344
 20
75.50903465540073
 30
0.0
 11
53.03742694681344
 21
75.13286745634765
 31
0.0
  0
LINE
  5
2E5
330
70
100
AcDbEntity
  8
Sichtbar (ISO)
 62
    18
420
        0
370
     5
100
AcDbLine
 10
9.228347796432359
 20
75.50903465540073
 30
0.0
 11
9.228347796432359
 21
75.13286745634765
 31
0.0
  0
LWPOLYLINE
  5
2E6
330
70
100
AcDbEntity
  8
Sichtbar (ISO)
 62
    18
420
        0
370
     5
100
AcDbPolyline
 90
        1
 70
     0
 43
0.0
 10
83.84708558127689
 20
69.68986008008084
  0
LINE
  5
2E7
330
70
100
AcDbEntity
  8
Sichtbar (ISO)
 62
    18
420
        0
370
     5
100
AcDbLine
 10
53.22544874574162
 20
65.16443668144049
 30
0.0
 11
79.8934164509583
 21
65.1933951359209
 31
0.0
  0
LWPOLYLINE
  5
2E8
330
70
100
AcDbEntity
  8
Sichtbar (ISO)
 62
    18
420
        0
370
     5
100
AcDbPolyline
 90
        1
 70
     0
 43
0.0
 10
74.12856146369342
 20
69.48925226280427
  0
LINE
  5
2E9
330
70
100
AcDbEntity
  8
Sichtbar (ISO)
  6
AI-Linetype-0
 62
    18
420
        0
370
     5
100
AcDbLine
 10
65.89525163495145
 20
76.75162362682257
 30
0.0
 11
52.29519022633062
 21
76.74613853113154
 31
0.0
  0
LWPOLYLINE
  5
2EB
330
70
100
AcDbEntity
  8
Sichtbar (ISO)
 62
    18
420
        0
370
     5
100
AcDbPolyline
 90
        1
 70
     0
 43
0.0
 10
63.33889061691065
 20
77.17941555058003
  0
INSERT
  5
2ED
330
70
100
AcDbEntity
  8
Sichtbar (ISO)
100
AcDbBlockReference
  2
Block_23
 10
0.0
 20
0.0
 30
0.0
  0
LINE
  5
301
330
70
100
AcDbEntity
  8
Sichtbar (ISO)
 62
    18
420
        0
370
     5
100
AcDbLine
 10
54.01674158345461
 20
81.74320231796647
 30
0.0
 11
79.85855929828897
 21
81.77605045281467
 31
0.0
  0
LWPOLYLINE
  5
302
330
70
100
AcDbEntity
  8
Sichtbar (ISO)
 62
    18
420
        0
370
     5
100
AcDbPolyline
 90
        1
 70
     0
 43
0.0
 10
70.83558216621385
 20
76.81376947936602
  0
INSERT
  5
304
330
70
100
AcDbEntity
  8
Sichtbar (ISO)
100
AcDbBlockReference
  2
Block_27
 10
0.0
 20
0.0
 30
0.0
  0
INSERT
  5
319
330
70
100
AcDbEntity
  8
Sichtbar (ISO)
100
AcDbBlockReference
  2
Block_31
 10
0.0
 20
0.0
 30
0.0
  0
INSERT
  5
325
330
70
100
AcDbEntity
  8
Sichtbar (ISO)
100
AcDbBlockReference
  2
Block_33
 10
0.0
 20
0.0
 30
0.0
  0
INSERT
  5
333
330
70
100
AcDbEntity
  8
Sichtbar (ISO)
100
AcDbBlockReference
  2
Block_35
 10
0.0
 20
0.0
 30
0.0
  0
ENDSEC
  0
SECTION
  2
OBJECTS
  0
DICTIONARY
  5
C
330
0
100
AcDbDictionary
281
     1
  3
ACAD_COLOR
350
63
  3
ACAD_DETAILVIEWSTYLE
350
6A
  3
ACAD_GROUP
350
D
  3
ACAD_LAYOUT
350
62
  3
ACAD_MATERIAL
350
10
  3
ACAD_MLEADERSTYLE
350
66
  3
ACAD_MLINESTYLE
350
5F
  3
ACAD_PLOTSETTINGS
350
61
  3
ACAD_PLOTSTYLENAME
350
E
  3
ACAD_SCALELIST
350
42
  3
ACAD_SECTIONVIEWSTYLE
350
68
  3
ACAD_TABLESTYLE
350
64
  3
ACAD_VISUALSTYLE
350
29
  3
ACDB_RECOMPOSE_DATA
350
34A
  3
AcDbVariableDictionary
350
342
  0
DICTIONARY
  5
63
102
{ACAD_REACTORS
330
C
102
}
330
C
100
AcDbDictionary
281
     1
  0
DICTIONARY
  5
6A
102
{ACAD_REACTORS
330
C
102
}
330
C
100
AcDbDictionary
281
     1
  3
Imperial24
350
6B
  0
DICTIONARY
  5
D
102
{ACAD_REACTORS
330
C
102
}
330
C
100
AcDbDictionary
281
     1
  0
DICTIONARY
  5
62
102
{ACAD_REACTORS
330
C
102
}
330
C
100
AcDbDictionary
281
     1
  3
Layout1
350
6F
  3
Layout2
350
77
  3
Model
350
73
  0
DICTIONARY
  5
10
102
{ACAD_REACTORS
330
C
102
}
330
C
100
AcDbDictionary
281
     1
  3
ByBlock
350
19
  3
ByLayer
350
11
  3
Global
350
21
  0
DICTIONARY
  5
66
102
{ACAD_REACTORS
330
C
102
}
330
C
100
AcDbDictionary
281
     1
  3
Standard
350
67
  0
DICTIONARY
  5
5F
102
{ACAD_REACTORS
330
C
102
}
330
C
100
AcDbDictionary
281
     1
  3
Standard
350
60
  0
DICTIONARY
  5
61
102
{ACAD_REACTORS
330
C
102
}
330
C
100
AcDbDictionary
281
     1
  0
ACDBDICTIONARYWDFLT
  5
E
102
{ACAD_REACTORS
330
C
102
}
330
C
100
AcDbDictionary
281
     1
  3
Normal
350
F
100
AcDbDictionaryWithDefault
340
F
  0
DICTIONARY
  5
42
102
{ACAD_REACTORS
330
C
102
}
330
C
100
AcDbDictionary
281
     1
  3
A0
350
43
  3
A1
350
44
  3
A2
350
45
  3
A3
350
46
  3
A4
350
47
  3
A5
350
48
  3
A6
350
49
  3
A7
350
4A
  3
A8
350
4B
  3
A9
350
4C
  3
B0
350
4D
  3
B1
350
4E
  3
B2
350
4F
  3
B3
350
50
  3
B4
350
51
  3
B5
350
52
  3
B6
350
53
  0
DICTIONARY
  5
68
102
{ACAD_REACTORS
330
C
102
}
330
C
100
AcDbDictionary
281
     1
  3
Imperial24
350
69
  0
DICTIONARY
  5
64
102
{ACAD_REACTORS
330
C
102
}
330
C
100
AcDbDictionary
281
     1
  3
Standard
350
65
  0
DICTIONARY
  5
29
102
{ACAD_REACTORS
330
C
102
}
330
C
100
AcDbDictionary
281
     1
  3
2dWireframe
350
2F
  3
Basic
350
2E
  3
Brighten
350
35
  3
ColorChange
350
39
  3
Conceptual
350
32
  3
Dim
350
34
  3
EdgeColorOff
350
41
  3
Facepattern
350
38
  3
Flat
350
2A
  3
FlatWithEdges
350
2B
  3
Gouraud
350
2C
  3
GouraudWithEdges
350
2D
  3
Hidden
350
31
  3
JitterOff
350
3F
  3
Linepattern
350
37
  3
OverhangOff
350
40
  3
Realistic
350
33
  3
Shaded
350
3E
  3
Shaded with edges
350
3D
  3
Shades of Gray
350
3A
  3
Sketchy
350
3B
  3
Thicken
350
36
  3
Wireframe
350
30
  3
X-Ray
350
3C
  0
XRECORD
  5
34A
102
{ACAD_REACTORS
330
C
102
}
330
C
100
AcDbXrecord
280
     1
 90
        1
330
65
  0
DICTIONARY
  5
342
102
{ACAD_REACTORS
330
C
102
}
330
C
100
AcDbDictionary
281
     1
  3
CANNOSCALE
350
347
  3
CMLEADERSTYLE
350
344
  3
CTABLESTYLE
350
343
  3
CVIEWDETAILSTYLE
350
345
  3
CVIEWSECTIONSTYLE
350
346
  0
ACDBDETAILVIEWSTYLE
  5
6B
102
{ACAD_REACTORS
330
6A
102
}
330
6A
100
AcDbModelDocViewStyle
 70
     0
  3
Imperial24
290
     1
300
Imperial24
 90
        0
100
AcDbDetailViewStyle
 70
     0
 71
     0
 90
        3
 71
     1
340
55
 62
   256
 40
0.24
340
0
 62
   256
 40
0.24
300

 40
0.36
280
     3
 71
     2
340
5D
 90
       25
 62
   256
 71
     3
340
55
 62
   256
 40
0.24
 90
        1
 40
0.75
 90
        1
300
%<\AcVar ViewType \f "%tc1">% %<\AcVar ViewDetailId>%\PSCALE %<\AcVar ViewScale \f "%sn">%
 71
     4
340
5D
 90
       25
 62
   256
340
5D
 90
       25
 62
   256
280
     0
  0
LAYOUT
  5
6F
102
{ACAD_REACTORS
330
62
102
}
330
62
100
AcDbPlotSettings
  1

  2

  4

  6

 40
0.0
 41
0.0
 42
0.0
 43
0.0
 44
0.0
 45
0.0
 46
0.0
 47
0.0
 48
0.0
 49
0.0
140
0.0
141
0.0
142
1.0
143
1.0
 70
   688
 72
     0
 73
     0
 74
     5
  7

 75
    16
147
1.0
 76
     0
 77
     2
 78
   300
148
0.0
149
0.0
100
AcDbLayout
  1
Layout1
 70
     1
 71
     1
 10
0.0
 20
0.0
 11
12.0
 21
9.0
 12
0.0
 22
0.0
 32
0.0
 14
0.0
 24
0.0
 34
0.0
 15
0.0
 25
0.0
 35
0.0
146
0.0
 13
0.0
 23
0.0
 33
0.0
 16
1.0
 26
0.0
 36
0.0
 17
0.0
 27
1.0
 37
0.0
 76
     0
330
6C
  0
LAYOUT
  5
77
102
{ACAD_REACTORS
330
62
102
}
330
62
100
AcDbPlotSettings
  1

  2

  4

  6

 40
0.0
 41
0.0
 42
0.0
 43
0.0
 44
0.0
 45
0.0
 46
0.0
 47
0.0
 48
0.0
 49
0.0
140
0.0
141
0.0
142
1.0
143
1.0
 70
   688
 72
     0
 73
     0
 74
     5
  7

 75
    16
147
1.0
 76
     0
 77
     2
 78
   300
148
0.0
149
0.0
100
AcDbLayout
  1
Layout2
 70
     1
 71
     2
 10
0.0
 20
0.0
 11
12.0
 21
9.0
 12
0.0
 22
0.0
 32
0.0
 14
0.0
 24
0.0
 34
0.0
 15
0.0
 25
0.0
 35
0.0
146
0.0
 13
0.0
 23
0.0
 33
0.0
 16
1.0
 26
0.0
 36
0.0
 17
0.0
 27
1.0
 37
0.0
 76
     0
330
74
  0
LAYOUT
  5
73
102
{ACAD_REACTORS
330
62
102
}
330
62
100
AcDbPlotSettings
  1

  2

  4

  6

 40
0.0
 41
0.0
 42
0.0
 43
0.0
 44
0.0
 45
0.0
 46
0.0
 47
0.0
 48
0.0
 49
0.0
140
0.0
141
0.0
142
1.0
143
1.0
 70
  1712
 72
     0
 73
     0
 74
     0
  7

 75
     0
147
1.0
 76
     0
 77
     2
 78
   300
148
0.0
149
0.0
100
AcDbLayout
  1
Model
 70
     1
 71
     0
 10
0.0
 20
0.0
 11
12.0
 21
9.0
 12
0.0
 22
0.0
 32
0.0
 14
0.0
 24
0.0
 34
0.0
 15
0.0
 25
0.0
 35
0.0
146
0.0
 13
0.0
 23
0.0
 33
0.0
 16
1.0
 26
0.0
 36
0.0
 17
0.0
 27
1.0
 37
0.0
 76
     0
330
70
  0
MATERIAL
  5
19
102
{ACAD_XDICTIONARY
360
1A
102
}
102
{ACAD_REACTORS
330
10
102
}
330
10
100
AcDbMaterial
  1
ByBlock
 72
     0
 43
0.0208333333333333
 43
0.0
 43
0.0
 43
0.0
 43
0.0
 43
0.0208333333333333
 43
0.0
 43
0.0
 43
0.0
 43
0.0
 43
1.0
 43
0.0
 43
0.0
 43
0.0
 43
0.0
 43
1.0
 77
     0
 47
0.0208333333333333
 47
0.0
 47
0.0
 47
0.0
 47
0.0
 47
0.0208333333333333
 47
0.0
 47
0.0
 47
0.0
 47
0.0
 47
1.0
 47
0.0
 47
0.0
 47
0.0
 47
0.0
 47
1.0
171
     0
 49
0.0208333333333333
 49
0.0
 49
0.0
 49
0.0
 49
0.0
 49
0.0208333333333333
 49
0.0
 49
0.0
 49
0.0
 49
0.0
 49
1.0
 49
0.0
 49
0.0
 49
0.0
 49
0.0
 49
1.0
175
     0
142
0.0208333333333333
142
0.0
142
0.0
142
0.0
142
0.0
142
0.0208333333333333
142
0.0
142
0.0
142
0.0
142
0.0
142
1.0
142
0.0
142
0.0
142
0.0
142
0.0
142
1.0
179
     0
144
0.0208333333333333
144
0.0
144
0.0
144
0.0
144
0.0
144
0.0208333333333333
144
0.0
144
0.0
144
0.0
144
0.0
144
1.0
144
0.0
144
0.0
144
0.0
144
0.0
144
1.0
147
0.0208333333333333
147
0.0
147
0.0
147
0.0
147
0.0
147
0.0208333333333333
147
0.0
147
0.0
147
0.0
147
0.0
147
1.0
147
0.0
147
0.0
147
0.0
147
0.0
147
1.0
  0
MATERIAL
  5
11
102
{ACAD_XDICTIONARY
360
12
102
}
102
{ACAD_REACTORS
330
10
102
}
330
10
100
AcDbMaterial
  1
ByLayer
 72
     0
 43
0.0208333333333333
 43
0.0
 43
0.0
 43
0.0
 43
0.0
 43
0.0208333333333333
 43
0.0
 43
0.0
 43
0.0
 43
0.0
 43
1.0
 43
0.0
 43
0.0
 43
0.0
 43
0.0
 43
1.0
 77
     0
 47
0.0208333333333333
 47
0.0
 47
0.0
 47
0.0
 47
0.0
 47
0.0208333333333333
 47
0.0
 47
0.0
 47
0.0
 47
0.0
 47
1.0
 47
0.0
 47
0.0
 47
0.0
 47
0.0
 47
1.0
171
     0
 49
0.0208333333333333
 49
0.0
 49
0.0
 49
0.0
 49
0.0
 49
0.0208333333333333
 49
0.0
 49
0.0
 49
0.0
 49
0.0
 49
1.0
 49
0.0
 49
0.0
 49
0.0
 49
0.0
 49
1.0
175
     0
142
0.0208333333333333
142
0.0
142
0.0
142
0.0
142
0.0
142
0.0208333333333333
142
0.0
142
0.0
142
0.0
142
0.0
142
1.0
142
0.0
142
0.0
142
0.0
142
0.0
142
1.0
179
     0
144
0.0208333333333333
144
0.0
144
0.0
144
0.0
144
0.0
144
0.0208333333333333
144
0.0
144
0.0
144
0.0
144
0.0
144
1.0
144
0.0
144
0.0
144
0.0
144
0.0
144
1.0
147
0.0208333333333333
147
0.0
147
0.0
147
0.0
147
0.0
147
0.0208333333333333
147
0.0
147
0.0
147
0.0
147
0.0
147
1.0
147
0.0
147
0.0
147
0.0
147
0.0
147
1.0
  0
MATERIAL
  5
21
102
{ACAD_XDICTIONARY
360
22
102
}
102
{ACAD_REACTORS
330
10
102
}
330
10
100
AcDbMaterial
  1
Global
 72
     0
 43
0.0208333333333333
 43
0.0
 43
0.0
 43
0.0
 43
0.0
 43
0.0208333333333333
 43
0.0
 43
0.0
 43
0.0
 43
0.0
 43
1.0
 43
0.0
 43
0.0
 43
0.0
 43
0.0
 43
1.0
 77
     0
 47
0.0208333333333333
 47
0.0
 47
0.0
 47
0.0
 47
0.0
 47
0.0208333333333333
 47
0.0
 47
0.0
 47
0.0
 47
0.0
 47
1.0
 47
0.0
 47
0.0
 47
0.0
 47
0.0
 47
1.0
171
     0
 49
0.0208333333333333
 49
0.0
 49
0.0
 49
0.0
 49
0.0
 49
0.0208333333333333
 49
0.0
 49
0.0
 49
0.0
 49
0.0
 49
1.0
 49
0.0
 49
0.0
 49
0.0
 49
0.0
 49
1.0
175
     0
142
0.0208333333333333
142
0.0
142
0.0
142
0.0
142
0.0
142
0.0208333333333333
142
0.0
142
0.0
142
0.0
142
0.0
142
1.0
142
0.0
142
0.0
142
0.0
142
0.0
142
1.0
179
     0
144
0.0208333333333333
144
0.0
144
0.0
144
0.0
144
0.0
144
0.0208333333333333
144
0.0
144
0.0
144
0.0
144
0.0
144
1.0
144
0.0
144
0.0
144
0.0
144
0.0
144
1.0
147
0.0208333333333333
147
0.0
147
0.0
147
0.0
147
0.0
147
0.0208333333333333
147
0.0
147
0.0
147
0.0
147
0.0
147
1.0
147
0.0
147
0.0
147
0.0
147
0.0
147
1.0
  0
MLEADERSTYLE
  5
67
102
{ACAD_REACTORS
330
66
102
}
330
66
100
AcDbMLeaderStyle
179
     2
170
     2
171
     1
172
     0
 90
        2
 40
0.0
 41
0.0
173
     1
 91
-1056964608
340
5B
 92
       -2
290
     1
 42
0.09
291
     1
 43
0.36
  3
Standard
 44
0.18
300

342
55
174
     1
178
     6
175
     1
176
     0
 93
-1056964608
 45
0.18
292
     0
297
     0
 46
0.18
 94
-1056964608
 47
1.0
 49
1.0
140
1.0
293
     1
141
0.0
294
     1
177
     0
142
1.0
295
     1
296
     0
143
0.125
271
     0
272
     9
273
     9
298
     1
  0
MLINESTYLE
  5
60
102
{ACAD_REACTORS
330
5F
102
}
330
5F
100
AcDbMlineStyle
  2
STANDARD
 70
     0
  3

 62
   256
 51
90.0
 52
90.0
 71
     2
 49
0.5
 62
   256
  6
BYLAYER
 49
-0.5
 62
   256
  6
BYLAYER
  0
ACDBPLACEHOLDER
  5
F
102
{ACAD_REACTORS
330
E
102
}
330
E
  0
SCALE
  5
43
102
{ACAD_REACTORS
330
42
102
}
330
42
100
AcDbScale
 70
     0
300
1:1
140
1.0
141
1.0
290
     1
  0
SCALE
  5
44
102
{ACAD_REACTORS
330
42
102
}
330
42
100
AcDbScale
 70
     0
300
1/128" = 1'-0"
140
0.0078125
141
12.0
290
     0
  0
SCALE
  5
45
102
{ACAD_REACTORS
330
42
102
}
330
42
100
AcDbScale
 70
     0
300
1/64" = 1'-0"
140
0.015625
141
12.0
290
     0
  0
SCALE
  5
46
102
{ACAD_REACTORS
330
42
102
}
330
42
100
AcDbScale
 70
     0
300
1/32" = 1'-0"
140
0.03125
141
12.0
290
     0
  0
SCALE
  5
47
102
{ACAD_REACTORS
330
42
102
}
330
42
100
AcDbScale
 70
     0
300
1/16" = 1'-0"
140
0.0625
141
12.0
290
     0
  0
SCALE
  5
48
102
{ACAD_REACTORS
330
42
102
}
330
42
100
AcDbScale
 70
     0
300
3/32" = 1'-0"
140
0.09375
141
12.0
290
     0
  0
SCALE
  5
49
102
{ACAD_REACTORS
330
42
102
}
330
42
100
AcDbScale
 70
     0
300
1/8" = 1'-0"
140
0.125
141
12.0
290
     0
  0
SCALE
  5
4A
102
{ACAD_REACTORS
330
42
102
}
330
42
100
AcDbScale
 70
     0
300
3/16" = 1'-0"
140
0.1875
141
12.0
290
     0
  0
SCALE
  5
4B
102
{ACAD_REACTORS
330
42
102
}
330
42
100
AcDbScale
 70
     0
300
1/4" = 1'-0"
140
0.25
141
12.0
290
     0
  0
SCALE
  5
4C
102
{ACAD_REACTORS
330
42
102
}
330
42
100
AcDbScale
 70
     0
300
3/8" = 1'-0"
140
0.375
141
12.0
290
     0
  0
SCALE
  5
4D
102
{ACAD_REACTORS
330
42
102
}
330
42
100
AcDbScale
 70
     0
300
1/2" = 1'-0"
140
0.5
141
12.0
290
     0
  0
SCALE
  5
4E
102
{ACAD_REACTORS
330
42
102
}
330
42
100
AcDbScale
 70
     0
300
3/4" = 1'-0"
140
0.75
141
12.0
290
     0
  0
SCALE
  5
4F
102
{ACAD_REACTORS
330
42
102
}
330
42
100
AcDbScale
 70
     0
300
1" = 1'-0"
140
1.0
141
12.0
290
     0
  0
SCALE
  5
50
102
{ACAD_REACTORS
330
42
102
}
330
42
100
AcDbScale
 70
     0
300
1-1/2" = 1'-0"
140
1.5
141
12.0
290
     0
  0
SCALE
  5
51
102
{ACAD_REACTORS
330
42
102
}
330
42
100
AcDbScale
 70
     0
300
3" = 1'-0"
140
3.0
141
12.0
290
     0
  0
SCALE
  5
52
102
{ACAD_REACTORS
330
42
102
}
330
42
100
AcDbScale
 70
     0
300
6" = 1'-0"
140
6.0
141
12.0
290
     0
  0
SCALE
  5
53
102
{ACAD_REACTORS
330
42
102
}
330
42
100
AcDbScale
 70
     0
300
1'-0" = 1'-0"
140
12.0
141
12.0
290
     0
  0
ACDBSECTIONVIEWSTYLE
  5
69
102
{ACAD_REACTORS
330
68
102
}
330
68
100
AcDbModelDocViewStyle
 70
     0
  3
Imperial24
290
     1
300
Imperial24
 90
        0
100
AcDbSectionViewStyle
 70
     0
 71
     0
 90
       78
 71
     1
340
55
 62
   256
 40
0.24
340
0
340
0
 62
   256
 40
0.24
300
I, O, Q, S, X, Z
 40
0.48
 90
        3
 40
0.18
 90
        1
 71
     2
340
5D
 90
       25
 62
   256
340
5D
 90
       50
 62
   256
 40
0.24
 40
0.0
 40
0.24
 71
     3
340
55
 62
   256
 40
0.24
 90
        1
 40
0.75
 90
        1
300
%<\AcVar ViewType \f "%tc1">% %<\AcVar ViewSectionStartId>%-%<\AcVar ViewSectionEndId>%\PSCALE %<\AcVar ViewScale \f "%sn">%
 71
     4
 62
   256
 62
   257
300
ANSI31
 40
1.0
 90
        0
290
     0
290
     0
 90
        6
 40
0.0
 40
1.570796326794896
 40
0.2617993877991494
 40
1.308996938995747
 40
-0.2617993877991494
 40
1.832595714594046
  0
TABLESTYLE
  5
65
102
{ACAD_XDICTIONARY
360
348
102
}
102
{ACAD_REACTORS
330
64
102
}
330
64
100
AcDbTableStyle
280
     0
  3
Standard
 70
     0
 71
     0
 40
0.06
 41
0.06
280
     0
281
     0
  7
Standard
140
0.18
170
     2
 62
     0
 63
     7
283
     0
 90
      512
 91
        0
  1

274
    -2
284
     1
 64
     0
275
    -2
285
     1
 65
     0
276
    -2
286
     1
 66
     0
277
    -2
287
     1
 67
     0
278
    -2
288
     1
 68
     0
279
    -2
289
     1
 69
     0
  7
Standard
140
0.25
170
     5
 62
     0
 63
     7
283
     0
 90
      512
 91
        0
  1

274
    -2
284
     1
 64
     0
275
    -2
285
     1
 65
     0
276
    -2
286
     1
 66
     0
277
    -2
287
     1
 67
     0
278
    -2
288
     1
 68
     0
279
    -2
289
     1
 69
     0
  7
Standard
140
0.18
170
     5
 62
     0
 63
     7
283
     0
 90
      512
 91
        0
  1

274
    -2
284
     1
 64
     0
275
    -2
285
     1
 65
     0
276
    -2
286
     1
 66
     0
277
    -2
287
     1
 67
     0
278
    -2
288
     1
 68
     0
279
    -2
289
     1
 69
     0
  0
VISUALSTYLE
  5
2F
102
{ACAD_REACTORS
330
29
102
}
330
29
100
AcDbVisualStyle
  2
2dWireframe
 70
     4
177
     3
291
     0
 70
    58
 90
        0
176
     1
 90
        2
176
     1
 90
        0
176
     1
 90
        0
176
     1
 40
0.6
176
     1
 40
30.0
176
     1
 62
     7
420
 16777215
176
     1
 90
        1
176
     1
 90
        4
176
     1
 62
     7
176
     1
 62
   257
176
     1
 90
        1
176
     1
 90
        1
176
     1
 40
1.0
176
     1
 90
        0
176
     1
 62
   257
176
     1
 40
1.0
176
     1
 90
        1
176
     1
 90
        6
176
     1
 90
        2
176
     1
 62
     7
176
     1
 90
        5
176
     1
 90
        0
176
     1
 90
        0
176
     1
290
     0
176
     1
 90
        1
176
     1
 40
0.0
176
     1
 90
        0
176
     1
290
     1
176
     1
290
     1
176
     1
290
     0
176
     1
290
     0
176
     1
290
     0
176
     1
290
     0
176
     1
290
     0
176
     1
290
     0
176
     1
290
     0
176
     1
 90
       50
176
     1
 40
0.0
176
     1
 40
1.0
176
     1
 90
        0
176
     1
 62
    18
420
        0
176
     1
 90
       50
176
     1
 90
        3
176
     1
 62
     5
420
      255
176
     1
290
     0
176
     1
 90
       50
176
     1
 90
       50
176
     1
 90
       50
176
     1
290
     0
176
     1
 90
       50
176
     1
 62
   256
176
     0
 40
1.0
176
     0
 90
        2
176
     1
  1
strokes_ogs.tif
176
     1
290
     0
176
     1
 40
1.0
176
     1
 40
1.0
176
     1
  0
VISUALSTYLE
  5
2E
102
{ACAD_REACTORS
330
29
102
}
330
29
100
AcDbVisualStyle
  2
Basic
 70
     7
177
     3
291
     1
 70
    58
 90
        1
176
     1
 90
        0
176
     1
 90
        1
176
     1
 90
        0
176
     1
 40
0.6
176
     1
 40
30.0
176
     1
 62
     7
420
 16777215
176
     1
 90
        0
176
     1
 90
        4
176
     1
 62
     7
176
     1
 62
   257
176
     1
 90
        1
176
     1
 90
        1
176
     1
 40
1.0
176
     1
 90
        8
176
     1
 62
     7
176
     1
 40
1.0
176
     1
 90
        1
176
     1
 90
        6
176
     1
 90
        2
176
     1
 62
     7
176
     1
 90
        5
176
     1
 90
        0
176
     1
 90
        0
176
     1
290
     0
176
     1
 90
        1
176
     1
 40
0.0
176
     1
 90
        0
176
     1
290
     0
176
     1
290
     1
176
     1
290
     1
176
     1
290
     0
176
     1
290
     0
176
     1
290
     0
176
     1
290
     0
176
     1
290
     0
176
     1
290
     0
176
     1
 90
       50
176
     1
 40
0.0
176
     1
 40
1.0
176
     1
 90
        0
176
     1
 62
    18
420
        0
176
     1
 90
       50
176
     1
 90
        3
176
     1
 62
     5
420
      255
176
     1
290
     0
176
     1
 90
       50
176
     1
 90
       50
176
     1
 90
       50
176
     1
290
     0
176
     1
 90
       50
176
     1
 62
   256
176
     0
 40
1.0
176
     0
 90
        2
176
     1
  1
strokes_ogs.tif
176
     1
290
     0
176
     1
 40
1.0
176
     1
 40
1.0
176
     1
  0
VISUALSTYLE
  5
35
102
{ACAD_REACTORS
330
29
102
}
330
29
100
AcDbVisualStyle
  2
Brighten
 70
    12
177
     3
291
     1
 70
    58
 90
        2
176
     1
 90
        2
176
     1
 90
        0
176
     1
 90
        0
176
     1
 40
0.6
176
     1
 40
30.0
176
     1
 62
     7
420
 16777215
176
     1
 90
        1
176
     1
 90
        4
176
     1
 62
     7
176
     1
 62
   257
176
     1
 90
        1
176
     1
 90
        1
176
     1
 40
1.0
176
     1
 90
        8
176
     1
 62
     7
176
     1
 40
1.0
176
     1
 90
        1
176
     1
 90
        6
176
     1
 90
        2
176
     1
 62
     7
176
     1
 90
        5
176
     1
 90
        0
176
     1
 90
        0
176
     1
290
     0
176
     1
 90
        1
176
     1
 40
50.0
176
     1
 90
        0
176
     1
290
     0
176
     1
290
     1
176
     1
290
     1
176
     1
290
     0
176
     1
290
     0
176
     1
290
     0
176
     1
290
     0
176
     1
290
     0
176
     1
290
     0
176
     1
 90
       50
176
     1
 40
0.0
176
     1
 40
1.0
176
     1
 90
        0
176
     1
 62
    18
420
        0
176
     1
 90
       50
176
     1
 90
        3
176
     1
 62
     5
420
      255
176
     1
290
     0
176
     1
 90
       50
176
     1
 90
       50
176
     1
 90
       50
176
     1
290
     0
176
     1
 90
       50
176
     1
 62
   256
176
     0
 40
1.0
176
     0
 90
        2
176
     1
  1
strokes_ogs.tif
176
     1
290
     0
176
     1
 40
1.0
176
     1
 40
1.0
176
     1
  0
VISUALSTYLE
  5
39
102
{ACAD_REACTORS
330
29
102
}
330
29
100
AcDbVisualStyle
  2
ColorChange
 70
    16
177
     3
291
     1
 70
    58
 90
        2
176
     1
 90
        2
176
     1
 90
        3
176
     1
 90
        0
176
     1
 40
0.6
176
     1
 40
30.0
176
     1
 62
     8
420
  8421504
176
     1
 90
        1
176
     1
 90
        4
176
     1
 62
     7
176
     1
 62
   257
176
     1
 90
        1
176
     1
 90
        1
176
     1
 40
1.0
176
     1
 90
        8
176
     1
 62
     8
420
  8421504
176
     1
 40
1.0
176
     1
 90
        1
176
     1
 90
        6
176
     1
 90
        2
176
     1
 62
     7
176
     1
 90
        5
176
     1
 90
        0
176
     1
 90
        0
176
     1
290
     0
176
     1
 90
        1
176
     1
 40
0.0
176
     1
 90
        0
176
     1
290
     0
176
     1
290
     1
176
     1
290
     1
176
     1
290
     0
176
     1
290
     0
176
     1
290
     0
176
     1
290
     0
176
     1
290
     0
176
     1
290
     0
176
     1
 90
       50
176
     1
 40
0.0
176
     1
 40
1.0
176
     1
 90
        0
176
     1
 62
    18
420
        0
176
     1
 90
       50
176
     1
 90
        3
176
     1
 62
     5
420
      255
176
     1
290
     0
176
     1
 90
       50
176
     1
 90
       50
176
     1
 90
       50
176
     1
290
     0
176
     1
 90
       50
176
     1
 62
   256
176
     0
 40
1.0
176
     0
 90
        2
176
     1
  1
strokes_ogs.tif
176
     1
290
     0
176
     1
 40
1.0
176
     1
 40
1.0
176
     1
  0
VISUALSTYLE
  5
32
102
{ACAD_REACTORS
330
29
102
}
330
29
100
AcDbVisualStyle
  2
Conceptual
 70
     9
177
     3
291
     0
 70
    58
 90
        3
176
     1
 90
        2
176
     1
 90
        0
176
     1
 90
        0
176
     1
 40
0.6
176
     1
 40
30.0
176
     1
 62
     7
420
 16777215
176
     1
 90
        2
176
     1
 90
        2
176
     1
 62
     7
176
     1
 62
   257
176
     1
 90
        1
176
     1
 90
        1
176
     1
 40
179.0
176
     1
 90
        8
176
     1
 62
     7
176
     1
 40
1.0
176
     1
 90
        1
176
     1
 90
        6
176
     1
 90
        2
176
     1
 62
     7
176
     1
 90
        3
176
     1
 90
        0
176
     1
 90
        0
176
     1
290
     0
176
     1
 90
        1
176
     1
 40
0.0
176
     1
 90
        0
176
     1
290
     0
176
     1
290
     1
176
     1
290
     1
176
     1
290
     0
176
     1
290
     0
176
     1
290
     0
176
     1
290
     0
176
     1
290
     0
176
     1
290
     0
176
     1
 90
       50
176
     1
 40
0.0
176
     1
 40
1.0
176
     1
 90
        0
176
     1
 62
    18
420
        0
176
     1
 90
       50
176
     1
 90
        3
176
     1
 62
     5
420
      255
176
     1
290
     0
176
     1
 90
       50
176
     1
 90
       50
176
     1
 90
       50
176
     1
290
     0
176
     1
 90
       50
176
     1
 62
   256
176
     0
 40
1.0
176
     0
 90
        2
176
     1
  1
strokes_ogs.tif
176
     1
290
     0
176
     1
 40
1.0
176
     1
 40
1.0
176
     1
  0
VISUALSTYLE
  5
34
102
{ACAD_REACTORS
330
29
102
}
330
29
100
AcDbVisualStyle
  2
Dim
 70
    11
177
     3
291
     1
 70
    58
 90
        2
176
     1
 90
        2
176
     1
 90
        0
176
     1
 90
        0
176
     1
 40
0.6
176
     1
 40
30.0
176
     1
 62
     7
420
 16777215
176
     1
 90
        1
176
     1
 90
        4
176
     1
 62
     7
176
     1
 62
   257
176
     1
 90
        1
176
     1
 90
        1
176
     1
 40
1.0
176
     1
 90
        8
176
     1
 62
     7
176
     1
 40
1.0
176
     1
 90
        1
176
     1
 90
        6
176
     1
 90
        2
176
     1
 62
     7
176
     1
 90
        5
176
     1
 90
        0
176
     1
 90
        0
176
     1
290
     0
176
     1
 90
        1
176
     1
 40
-50.0
176
     1
 90
        0
176
     1
290
     0
176
     1
290
     1
176
     1
290
     1
176
     1
290
     0
176
     1
290
     0
176
     1
290
     0
176
     1
290
     0
176
     1
290
     0
176
     1
290
     0
176
     1
 90
       50
176
     1
 40
0.0
176
     1
 40
1.0
176
     1
 90
        0
176
     1
 62
    18
420
        0
176
     1
 90
       50
176
     1
 90
        3
176
     1
 62
     5
420
      255
176
     1
290
     0
176
     1
 90
       50
176
     1
 90
       50
176
     1
 90
       50
176
     1
290
     0
176
     1
 90
       50
176
     1
 62
   256
176
     0
 40
1.0
176
     0
 90
        2
176
     1
  1
strokes_ogs.tif
176
     1
290
     0
176
     1
 40
1.0
176
     1
 40
1.0
176
     1
  0
VISUALSTYLE
  5
41
102
{ACAD_REACTORS
330
29
102
}
330
29
100
AcDbVisualStyle
  2
EdgeColorOff
 70
    22
177
     3
291
     1
 70
    58
 90
        2
176
     0
 90
        2
176
     0
 90
        0
176
     0
 90
        0
176
     0
 40
0.6
176
     0
 40
30.0
176
     0
 62
     7
420
 16777215
176
     0
 90
        1
176
     0
 90
        4
176
     0
 62
     7
176
     0
 62
   257
176
     0
 90
        1
176
     0
 90
        1
176
     0
 40
1.0
176
     0
 90
        8
176
     2
 62
     7
176
     0
 40
1.0
176
     0
 90
        1
176
     0
 90
        6
176
     0
 90
        2
176
     0
 62
     7
176
     0
 90
        5
176
     0
 90
        0
176
     0
 90
        0
176
     0
290
     0
176
     0
 90
        1
176
     0
 40
0.0
176
     0
 90
        0
176
     0
290
     0
176
     0
290
     1
176
     0
290
     1
176
     0
290
     0
176
     0
290
     0
176
     0
290
     0
176
     0
290
     0
176
     0
290
     0
176
     0
290
     0
176
     0
 90
       50
176
     0
 40
0.0
176
     0
 40
1.0
176
     0
 90
        0
176
     0
 62
    18
420
        0
176
     0
 90
       50
176
     0
 90
        3
176
     0
 62
     5
420
      255
176
     0
290
     0
176
     0
 90
       50
176
     0
 90
       50
176
     0
 90
       50
176
     0
290
     0
176
     0
 90
       50
176
     0
 62
   256
176
     0
 40
1.0
176
     0
 90
        2
176
     0
  1
strokes_ogs.tif
176
     0
290
     0
176
     0
 40
1.0
176
     0
 40
1.0
176
     0
  0
VISUALSTYLE
  5
38
102
{ACAD_REACTORS
330
29
102
}
330
29
100
AcDbVisualStyle
  2
Facepattern
 70
    15
177
     3
291
     1
 70
    58
 90
        2
176
     1
 90
        2
176
     1
 90
        0
176
     1
 90
        0
176
     1
 40
0.6
176
     1
 40
30.0
176
     1
 62
     7
420
 16777215
176
     1
 90
        1
176
     1
 90
        4
176
     1
 62
     7
176
     1
 62
   257
176
     1
 90
        1
176
     1
 90
        1
176
     1
 40
1.0
176
     1
 90
        8
176
     1
 62
     7
176
     1
 40
1.0
176
     1
 90
        1
176
     1
 90
        6
176
     1
 90
        2
176
     1
 62
     7
176
     1
 90
        5
176
     1
 90
        0
176
     1
 90
        0
176
     1
290
     0
176
     1
 90
        1
176
     1
 40
0.0
176
     1
 90
        0
176
     1
290
     0
176
     1
290
     1
176
     1
290
     1
176
     1
290
     0
176
     1
290
     0
176
     1
290
     0
176
     1
290
     0
176
     1
290
     0
176
     1
290
     0
176
     1
 90
       50
176
     1
 40
0.0
176
     1
 40
1.0
176
     1
 90
        0
176
     1
 62
    18
420
        0
176
     1
 90
       50
176
     1
 90
        3
176
     1
 62
     5
420
      255
176
     1
290
     0
176
     1
 90
       50
176
     1
 90
       50
176
     1
 90
       50
176
     1
290
     0
176
     1
 90
       50
176
     1
 62
   256
176
     0
 40
1.0
176
     0
 90
        2
176
     1
  1
strokes_ogs.tif
176
     1
290
     0
176
     1
 40
1.0
176
     1
 40
1.0
176
     1
  0
VISUALSTYLE
  5
2A
102
{ACAD_REACTORS
330
29
102
}
330
29
100
AcDbVisualStyle
  2
Flat
 70
     0
177
     3
291
     1
 70
    58
 90
        2
176
     1
 90
        1
176
     1
 90
        1
176
     1
 90
        2
176
     1
 40
0.6
176
     1
 40
30.0
176
     1
 62
     7
420
 16777215
176
     1
 90
        0
176
     1
 90
        0
176
     1
 62
     7
176
     1
 62
   257
176
     1
 90
        1
176
     1
 90
        1
176
     1
 40
1.0
176
     1
 90
        8
176
     1
 62
     7
176
     1
 40
1.0
176
     1
 90
        1
176
     1
 90
        6
176
     1
 90
        2
176
     1
 62
     7
176
     1
 90
        5
176
     1
 90
        0
176
     1
 90
        0
176
     1
290
     0
176
     1
 90
       13
176
     1
 40
0.0
176
     1
 90
        0
176
     1
290
     0
176
     1
290
     1
176
     1
290
     1
176
     1
290
     0
176
     1
290
     0
176
     1
290
     0
176
     1
290
     0
176
     1
290
     0
176
     1
290
     0
176
     1
 90
       50
176
     1
 40
0.0
176
     1
 40
1.0
176
     1
 90
        0
176
     1
 62
    18
420
        0
176
     1
 90
       50
176
     1
 90
        3
176
     1
 62
     5
420
      255
176
     1
290
     0
176
     1
 90
       50
176
     1
 90
       50
176
     1
 90
       50
176
     1
290
     0
176
     1
 90
       50
176
     1
 62
   256
176
     0
 40
1.0
176
     0
 90
        2
176
     1
  1
strokes_ogs.tif
176
     1
290
     0
176
     1
 40
1.0
176
     1
 40
1.0
176
     1
  0
VISUALSTYLE
  5
2B
102
{ACAD_REACTORS
330
29
102
}
330
29
100
AcDbVisualStyle
  2
FlatWithEdges
 70
     1
177
     3
291
     1
 70
    58
 90
        2
176
     1
 90
        1
176
     1
 90
        1
176
     1
 90
        2
176
     1
 40
0.6
176
     1
 40
30.0
176
     1
 62
     7
420
 16777215
176
     1
 90
        1
176
     1
 90
        0
176
     1
 62
     7
176
     1
 62
   257
176
     1
 90
        1
176
     1
 90
        1
176
     1
 40
1.0
176
     1
 90
        0
176
     1
 62
   257
176
     1
 40
1.0
176
     1
 90
        1
176
     1
 90
        6
176
     1
 90
        2
176
     1
 62
     7
176
     1
 90
        5
176
     1
 90
        0
176
     1
 90
        0
176
     1
290
     0
176
     1
 90
       13
176
     1
 40
0.0
176
     1
 90
        0
176
     1
290
     0
176
     1
290
     1
176
     1
290
     1
176
     1
290
     0
176
     1
290
     0
176
     1
290
     0
176
     1
290
     0
176
     1
290
     0
176
     1
290
     0
176
     1
 90
       50
176
     1
 40
0.0
176
     1
 40
1.0
176
     1
 90
        0
176
     1
 62
    18
420
        0
176
     1
 90
       50
176
     1
 90
        3
176
     1
 62
     5
420
      255
176
     1
290
     0
176
     1
 90
       50
176
     1
 90
       50
176
     1
 90
       50
176
     1
290
     0
176
     1
 90
       50
176
     1
 62
   256
176
     0
 40
1.0
176
     0
 90
        2
176
     1
  1
strokes_ogs.tif
176
     1
290
     0
176
     1
 40
1.0
176
     1
 40
1.0
176
     1
  0
VISUALSTYLE
  5
2C
102
{ACAD_REACTORS
330
29
102
}
330
29
100
AcDbVisualStyle
  2
Gouraud
 70
     2
177
     3
291
     1
 70
    58
 90
        2
176
     1
 90
        2
176
     1
 90
        1
176
     1
 90
        2
176
     1
 40
0.6
176
     1
 40
30.0
176
     1
 62
     7
420
 16777215
176
     1
 90
        0
176
     1
 90
        0
176
     1
 62
     7
176
     1
 62
   257
176
     1
 90
        1
176
     1
 90
        1
176
     1
 40
1.0
176
     1
 90
        0
176
     1
 62
     7
176
     1
 40
1.0
176
     1
 90
        1
176
     1
 90
        6
176
     1
 90
        2
176
     1
 62
     7
176
     1
 90
        5
176
     1
 90
        0
176
     1
 90
        0
176
     1
290
     0
176
     1
 90
       13
176
     1
 40
0.0
176
     1
 90
        0
176
     1
290
     0
176
     1
290
     1
176
     1
290
     1
176
     1
290
     0
176
     1
290
     0
176
     1
290
     0
176
     1
290
     0
176
     1
290
     0
176
     1
290
     0
176
     1
 90
       50
176
     1
 40
0.0
176
     1
 40
1.0
176
     1
 90
        0
176
     1
 62
    18
420
        0
176
     1
 90
       50
176
     1
 90
        3
176
     1
 62
     5
420
      255
176
     1
290
     0
176
     1
 90
       50
176
     1
 90
       50
176
     1
 90
       50
176
     1
290
     0
176
     1
 90
       50
176
     1
 62
   256
176
     0
 40
1.0
176
     0
 90
        2
176
     1
  1
strokes_ogs.tif
176
     1
290
     0
176
     1
 40
1.0
176
     1
 40
1.0
176
     1
  0
VISUALSTYLE
  5
2D
102
{ACAD_REACTORS
330
29
102
}
330
29
100
AcDbVisualStyle
  2
GouraudWithEdges
 70
     3
177
     3
291
     1
 70
    58
 90
        2
176
     1
 90
        2
176
     1
 90
        1
176
     1
 90
        2
176
     1
 40
0.6
176
     1
 40
30.0
176
     1
 62
     7
420
 16777215
176
     1
 90
        1
176
     1
 90
        0
176
     1
 62
     7
176
     1
 62
   257
176
     1
 90
        1
176
     1
 90
        1
176
     1
 40
1.0
176
     1
 90
        0
176
     1
 62
   257
176
     1
 40
1.0
176
     1
 90
        1
176
     1
 90
        6
176
     1
 90
        2
176
     1
 62
     7
176
     1
 90
        5
176
     1
 90
        0
176
     1
 90
        0
176
     1
290
     0
176
     1
 90
       13
176
     1
 40
0.0
176
     1
 90
        0
176
     1
290
     0
176
     1
290
     1
176
     1
290
     1
176
     1
290
     0
176
     1
290
     0
176
     1
290
     0
176
     1
290
     0
176
     1
290
     0
176
     1
290
     0
176
     1
 90
       50
176
     1
 40
0.0
176
     1
 40
1.0
176
     1
 90
        0
176
     1
 62
    18
420
        0
176
     1
 90
       50
176
     1
 90
        3
176
     1
 62
     5
420
      255
176
     1
290
     0
176
     1
 90
       50
176
     1
 90
       50
176
     1
 90
       50
176
     1
290
     0
176
     1
 90
       50
176
     1
 62
   256
176
     0
 40
1.0
176
     0
 90
        2
176
     1
  1
strokes_ogs.tif
176
     1
290
     0
176
     1
 40
1.0
176
     1
 40
1.0
176
     1
  0
VISUALSTYLE
  5
31
102
{ACAD_REACTORS
330
29
102
}
330
29
100
AcDbVisualStyle
  2
Hidden
 70
     6
177
     3
291
     0
 70
    58
 90
        1
176
     1
 90
        2
176
     1
 90
        2
176
     1
 90
        0
176
     1
 40
0.6
176
     1
 40
30.0
176
     1
 62
     7
420
 16777215
176
     1
 90
        2
176
     1
 90
        2
176
     1
 62
     7
176
     1
 62
   257
176
     1
 90
        2
176
     1
 90
        1
176
     1
 40
40.0
176
     1
 90
        0
176
     1
 62
   257
176
     1
 40
1.0
176
     1
 90
        1
176
     1
 90
        6
176
     1
 90
        2
176
     1
 62
     7
176
     1
 90
        3
176
     1
 90
        0
176
     1
 90
        0
176
     1
290
     0
176
     1
 90
        1
176
     1
 40
0.0
176
     1
 90
        0
176
     1
290
     0
176
     1
290
     1
176
     1
290
     1
176
     1
290
     0
176
     1
290
     0
176
     1
290
     0
176
     1
290
     0
176
     1
290
     0
176
     1
290
     0
176
     1
 90
       50
176
     1
 40
0.0
176
     1
 40
1.0
176
     1
 90
        0
176
     1
 62
    18
420
        0
176
     1
 90
       50
176
     1
 90
        3
176
     1
 62
     5
420
      255
176
     1
290
     0
176
     1
 90
       50
176
     1
 90
       50
176
     1
 90
       50
176
     1
290
     0
176
     1
 90
       50
176
     1
 62
   256
176
     0
 40
1.0
176
     0
 90
        2
176
     1
  1
strokes_ogs.tif
176
     1
290
     0
176
     1
 40
1.0
176
     1
 40
1.0
176
     1
  0
VISUALSTYLE
  5
3F
102
{ACAD_REACTORS
330
29
102
}
330
29
100
AcDbVisualStyle
  2
JitterOff
 70
    20
177
     3
291
     1
 70
    58
 90
        2
176
     0
 90
        2
176
     0
 90
        0
176
     0
 90
        0
176
     0
 40
0.6
176
     0
 40
30.0
176
     0
 62
     7
420
 16777215
176
     0
 90
        1
176
     0
 90
        4
176
     0
 62
     7
176
     0
 62
   257
176
     0
 90
        1
176
     0
 90
        1
176
     0
 40
1.0
176
     0
 90
       10
176
     2
 62
     7
176
     0
 40
1.0
176
     0
 90
        1
176
     0
 90
        6
176
     0
 90
        2
176
     0
 62
     7
176
     0
 90
        5
176
     0
 90
        0
176
     0
 90
        0
176
     0
290
     0
176
     0
 90
        1
176
     0
 40
0.0
176
     0
 90
        0
176
     0
290
     0
176
     0
290
     1
176
     0
290
     1
176
     0
290
     0
176
     0
290
     0
176
     0
290
     0
176
     0
290
     0
176
     0
290
     0
176
     0
290
     0
176
     0
 90
       50
176
     0
 40
0.0
176
     0
 40
1.0
176
     0
 90
        0
176
     0
 62
    18
420
        0
176
     0
 90
       50
176
     0
 90
        3
176
     0
 62
     5
420
      255
176
     0
290
     0
176
     0
 90
       50
176
     0
 90
       50
176
     0
 90
       50
176
     0
290
     0
176
     0
 90
       50
176
     0
 62
   256
176
     0
 40
1.0
176
     0
 90
        2
176
     0
  1
strokes_ogs.tif
176
     0
290
     0
176
     0
 40
1.0
176
     0
 40
1.0
176
     0
  0
VISUALSTYLE
  5
37
102
{ACAD_REACTORS
330
29
102
}
330
29
100
AcDbVisualStyle
  2
Linepattern
 70
    14
177
     3
291
     1
 70
    58
 90
        2
176
     1
 90
        2
176
     1
 90
        0
176
     1
 90
        0
176
     1
 40
0.6
176
     1
 40
30.0
176
     1
 62
     7
420
 16777215
176
     1
 90
        1
176
     1
 90
        4
176
     1
 62
     7
176
     1
 62
   257
176
     1
 90
        7
176
     1
 90
        7
176
     1
 40
1.0
176
     1
 90
        8
176
     1
 62
     7
176
     1
 40
1.0
176
     1
 90
        1
176
     1
 90
        6
176
     1
 90
        2
176
     1
 62
     7
176
     1
 90
        5
176
     1
 90
        0
176
     1
 90
        0
176
     1
290
     0
176
     1
 90
        1
176
     1
 40
0.0
176
     1
 90
        0
176
     1
290
     0
176
     1
290
     1
176
     1
290
     1
176
     1
290
     0
176
     1
290
     0
176
     1
290
     0
176
     1
290
     0
176
     1
290
     0
176
     1
290
     0
176
     1
 90
       50
176
     1
 40
0.0
176
     1
 40
1.0
176
     1
 90
        0
176
     1
 62
    18
420
        0
176
     1
 90
       50
176
     1
 90
        3
176
     1
 62
     5
420
      255
176
     1
290
     0
176
     1
 90
       50
176
     1
 90
       50
176
     1
 90
       50
176
     1
290
     0
176
     1
 90
       50
176
     1
 62
   256
176
     0
 40
1.0
176
     0
 90
        2
176
     1
  1
strokes_ogs.tif
176
     1
290
     0
176
     1
 40
1.0
176
     1
 40
1.0
176
     1
  0
VISUALSTYLE
  5
40
102
{ACAD_REACTORS
330
29
102
}
330
29
100
AcDbVisualStyle
  2
OverhangOff
 70
    21
177
     3
291
     1
 70
    58
 90
        2
176
     0
 90
        2
176
     0
 90
        0
176
     0
 90
        0
176
     0
 40
0.6
176
     0
 40
30.0
176
     0
 62
     7
420
 16777215
176
     0
 90
        1
176
     0
 90
        4
176
     0
 62
     7
176
     0
 62
   257
176
     0
 90
        1
176
     0
 90
        1
176
     0
 40
1.0
176
     0
 90
        9
176
     2
 62
     7
176
     0
 40
1.0
176
     0
 90
        1
176
     0
 90
        6
176
     0
 90
        2
176
     0
 62
     7
176
     0
 90
        5
176
     0
 90
        0
176
     0
 90
        0
176
     0
290
     0
176
     0
 90
        1
176
     0
 40
0.0
176
     0
 90
        0
176
     0
290
     0
176
     0
290
     1
176
     0
290
     1
176
     0
290
     0
176
     0
290
     0
176
     0
290
     0
176
     0
290
     0
176
     0
290
     0
176
     0
290
     0
176
     0
 90
       50
176
     0
 40
0.0
176
     0
 40
1.0
176
     0
 90
        0
176
     0
 62
    18
420
        0
176
     0
 90
       50
176
     0
 90
        3
176
     0
 62
     5
420
      255
176
     0
290
     0
176
     0
 90
       50
176
     0
 90
       50
176
     0
 90
       50
176
     0
290
     0
176
     0
 90
       50
176
     0
 62
   256
176
     0
 40
1.0
176
     0
 90
        2
176
     0
  1
strokes_ogs.tif
176
     0
290
     0
176
     0
 40
1.0
176
     0
 40
1.0
176
     0
  0
VISUALSTYLE
  5
33
102
{ACAD_REACTORS
330
29
102
}
330
29
100
AcDbVisualStyle
  2
Realistic
 70
     8
177
     3
291
     0
 70
    58
 90
        2
176
     1
 90
        3
176
     1
 90
        0
176
     1
 90
        2
176
     1
 40
0.6
176
     1
 40
30.0
176
     1
 62
     7
420
 16777215
176
     1
 90
        0
176
     1
 90
        0
176
     1
 62
     7
176
     1
 62
   257
176
     1
 90
        1
176
     1
 90
        1
176
     1
 40
1.0
176
     1
 90
        8
176
     1
 62
   257
176
     1
 40
1.0
176
     1
 90
        1
176
     1
 90
        6
176
     1
 90
        2
176
     1
 62
     7
176
     1
 90
        3
176
     1
 90
        0
176
     1
 90
        0
176
     1
290
     0
176
     1
 90
       13
176
     1
 40
0.0
176
     1
 90
        0
176
     1
290
     0
176
     1
290
     1
176
     1
290
     1
176
     1
290
     0
176
     1
290
     0
176
     1
290
     0
176
     1
290
     0
176
     1
290
     0
176
     1
290
     0
176
     1
 90
       50
176
     1
 40
0.0
176
     1
 40
1.0
176
     1
 90
        0
176
     1
 62
    18
420
        0
176
     1
 90
       50
176
     1
 90
        3
176
     1
 62
     5
420
      255
176
     1
290
     0
176
     1
 90
       50
176
     1
 90
       50
176
     1
 90
       50
176
     1
290
     0
176
     1
 90
       50
176
     1
 62
   256
176
     0
 40
1.0
176
     0
 90
        2
176
     1
  1
strokes_ogs.tif
176
     1
290
     0
176
     1
 40
1.0
176
     1
 40
1.0
176
     1
  0
VISUALSTYLE
  5
3E
102
{ACAD_REACTORS
330
29
102
}
330
29
100
AcDbVisualStyle
  2
Shaded
 70
    27
177
     3
291
     0
 70
    58
 90
        2
176
     1
 90
        2
176
     1
 90
        1
176
     1
 90
        2
176
     1
 40
0.6
176
     1
 40
30.0
176
     1
 62
     7
420
 16777215
176
     1
 90
        0
176
     1
 90
        4
176
     1
 62
     7
176
     1
 62
   257
176
     1
 90
        1
176
     1
 90
        1
176
     1
 40
1.0
176
     1
 90
        8
176
     1
 62
   257
176
     1
 40
1.0
176
     1
 90
        1
176
     1
 90
        6
176
     1
 90
        2
176
     1
 62
     8
420
  7895160
176
     1
 90
        3
176
     1
 90
        0
176
     1
 90
        0
176
     1
290
     0
176
     1
 90
        5
176
     1
 40
0.0
176
     1
 90
        0
176
     1
290
     0
176
     1
290
     1
176
     1
290
     1
176
     1
290
     0
176
     1
290
     0
176
     1
290
     0
176
     1
290
     0
176
     1
290
     0
176
     1
290
     0
176
     1
 90
       50
176
     1
 40
0.0
176
     1
 40
1.0
176
     1
 90
        0
176
     1
 62
    18
420
        0
176
     1
 90
       50
176
     1
 90
        3
176
     1
 62
     5
420
      255
176
     1
290
     0
176
     1
 90
       50
176
     1
 90
       50
176
     1
 90
       50
176
     1
290
     0
176
     1
 90
       50
176
     1
 62
   256
176
     0
 40
1.0
176
     0
 90
        2
176
     1
  1
strokes_ogs.tif
176
     1
290
     0
176
     1
 40
1.0
176
     1
 40
1.0
176
     1
  0
VISUALSTYLE
  5
3D
102
{ACAD_REACTORS
330
29
102
}
330
29
100
AcDbVisualStyle
  2
Shaded with edges
 70
    26
177
     3
291
     0
 70
    58
 90
        2
176
     1
 90
        2
176
     1
 90
        1
176
     1
 90
        2
176
     1
 40
0.6
176
     1
 40
30.0
176
     1
 62
     7
420
 16777215
176
     1
 90
        1
176
     1
 90
        2
176
     1
 62
     7
176
     1
 62
   257
176
     1
 90
        2
176
     1
 90
        1
176
     1
 40
1.0
176
     1
 90
        8
176
     1
 62
   257
176
     1
 40
1.0
176
     1
 90
        1
176
     1
 90
        6
176
     1
 90
        2
176
     1
 62
     7
176
     1
 90
        3
176
     1
 90
        0
176
     1
 90
        0
176
     1
290
     0
176
     1
 90
        5
176
     1
 40
0.0
176
     1
 90
        0
176
     1
290
     0
176
     1
290
     1
176
     1
290
     1
176
     1
290
     0
176
     1
290
     0
176
     1
290
     0
176
     1
290
     0
176
     1
290
     0
176
     1
290
     0
176
     1
 90
       50
176
     1
 40
0.0
176
     1
 40
1.0
176
     1
 90
        0
176
     1
 62
    18
420
        0
176
     1
 90
       50
176
     1
 90
        3
176
     1
 62
     5
420
      255
176
     1
290
     0
176
     1
 90
       50
176
     1
 90
       50
176
     1
 90
       50
176
     1
290
     0
176
     1
 90
       50
176
     1
 62
   256
176
     0
 40
1.0
176
     0
 90
        2
176
     1
  1
strokes_ogs.tif
176
     1
290
     0
176
     1
 40
1.0
176
     1
 40
1.0
176
     1
  0
VISUALSTYLE
  5
3A
102
{ACAD_REACTORS
330
29
102
}
330
29
100
AcDbVisualStyle
  2
Shades of Gray
 70
    23
177
     3
291
     0
 70
    58
 90
        2
176
     1
 90
        2
176
     1
 90
        3
176
     1
 90
        0
176
     1
 40
0.6
176
     1
 40
30.0
176
     1
 62
     7
420
 16777215
176
     1
 90
        2
176
     1
 90
        2
176
     1
 62
     7
176
     1
 62
     7
176
     1
 90
        1
176
     1
 90
        1
176
     1
 40
40.0
176
     1
 90
        8
176
     1
 62
     7
176
     1
 40
1.0
176
     1
 90
        1
176
     1
 90
        6
176
     1
 90
        2
176
     1
 62
     7
176
     1
 90
        3
176
     1
 90
        0
176
     1
 90
        0
176
     1
290
     0
176
     1
 90
        1
176
     1
 40
0.0
176
     1
 90
        0
176
     1
290
     0
176
     1
290
     1
176
     1
290
     1
176
     1
290
     0
176
     1
290
     0
176
     1
290
     0
176
     1
290
     0
176
     1
290
     0
176
     1
290
     0
176
     1
 90
       50
176
     1
 40
0.0
176
     1
 40
1.0
176
     1
 90
        0
176
     1
 62
    18
420
        0
176
     1
 90
       50
176
     1
 90
        3
176
     1
 62
     5
420
      255
176
     1
290
     0
176
     1
 90
       50
176
     1
 90
       50
176
     1
 90
       50
176
     1
290
     0
176
     1
 90
       50
176
     1
 62
   256
176
     0
 40
1.0
176
     0
 90
        2
176
     1
  1
strokes_ogs.tif
176
     1
290
     0
176
     1
 40
1.0
176
     1
 40
1.0
176
     1
  0
VISUALSTYLE
  5
3B
102
{ACAD_REACTORS
330
29
102
}
330
29
100
AcDbVisualStyle
  2
Sketchy
 70
    24
177
     3
291
     0
 70
    58
 90
        1
176
     1
 90
        2
176
     1
 90
        2
176
     1
 90
        0
176
     1
 40
0.6
176
     1
 40
30.0
176
     1
 62
     7
420
 16777215
176
     1
 90
        2
176
     1
 90
        2
176
     1
 62
     7
176
     1
 62
     7
176
     1
 90
        1
176
     1
 90
        1
176
     1
 40
40.0
176
     1
 90
       11
176
     1
 62
     7
176
     1
 40
1.0
176
     1
 90
        1
176
     1
 90
        6
176
     1
 90
        2
176
     1
 62
     7
176
     1
 90
        6
176
     1
 90
        0
176
     1
 90
        0
176
     1
290
     0
176
     1
 90
        1
176
     1
 40
0.0
176
     1
 90
        0
176
     1
290
     0
176
     1
290
     1
176
     1
290
     1
176
     1
290
     0
176
     1
290
     0
176
     1
290
     0
176
     1
290
     0
176
     1
290
     0
176
     1
290
     0
176
     1
 90
       50
176
     1
 40
0.0
176
     1
 40
1.0
176
     1
 90
        0
176
     1
 62
    18
420
        0
176
     1
 90
       50
176
     1
 90
        3
176
     1
 62
     5
420
      255
176
     1
290
     0
176
     1
 90
       50
176
     1
 90
       50
176
     1
 90
       50
176
     1
290
     0
176
     1
 90
       50
176
     1
 62
   256
176
     0
 40
1.0
176
     0
 90
        2
176
     1
  1
strokes_ogs.tif
176
     1
290
     0
176
     1
 40
1.0
176
     1
 40
1.0
176
     1
  0
VISUALSTYLE
  5
36
102
{ACAD_REACTORS
330
29
102
}
330
29
100
AcDbVisualStyle
  2
Thicken
 70
    13
177
     3
291
     1
 70
    58
 90
        2
176
     1
 90
        2
176
     1
 90
        0
176
     1
 90
        0
176
     1
 40
0.6
176
     1
 40
30.0
176
     1
 62
     7
420
 16777215
176
     1
 90
        1
176
     1
 90
        4
176
     1
 62
     7
176
     1
 62
   257
176
     1
 90
        1
176
     1
 90
        1
176
     1
 40
1.0
176
     1
 90
       12
176
     1
 62
     7
176
     1
 40
1.0
176
     1
 90
        1
176
     1
 90
        6
176
     1
 90
        2
176
     1
 62
     7
176
     1
 90
        5
176
     1
 90
        0
176
     1
 90
        0
176
     1
290
     0
176
     1
 90
        1
176
     1
 40
0.0
176
     1
 90
        0
176
     1
290
     0
176
     1
290
     1
176
     1
290
     1
176
     1
290
     0
176
     1
290
     0
176
     1
290
     0
176
     1
290
     0
176
     1
290
     0
176
     1
290
     0
176
     1
 90
       50
176
     1
 40
0.0
176
     1
 40
1.0
176
     1
 90
        0
176
     1
 62
    18
420
        0
176
     1
 90
       50
176
     1
 90
        3
176
     1
 62
     5
420
      255
176
     1
290
     0
176
     1
 90
       50
176
     1
 90
       50
176
     1
 90
       50
176
     1
290
     0
176
     1
 90
       50
176
     1
 62
   256
176
     0
 40
1.0
176
     0
 90
        2
176
     1
  1
strokes_ogs.tif
176
     1
290
     0
176
     1
 40
1.0
176
     1
 40
1.0
176
     1
  0
VISUALSTYLE
  5
30
102
{ACAD_REACTORS
330
29
102
}
330
29
100
AcDbVisualStyle
  2
Wireframe
 70
     5
177
     3
291
     0
 70
    58
 90
        0
176
     1
 90
        2
176
     1
 90
        0
176
     1
 90
        0
176
     1
 40
0.6
176
     1
 40
30.0
176
     1
 62
     7
420
 16777215
176
     1
 90
        1
176
     1
 90
        4
176
     1
 62
     7
176
     1
 62
   257
176
     1
 90
        1
176
     1
 90
        1
176
     1
 40
1.0
176
     1
 90
        0
176
     1
 62
   257
176
     1
 40
1.0
176
     1
 90
        1
176
     1
 90
        6
176
     1
 90
        2
176
     1
 62
     7
176
     1
 90
        3
176
     1
 90
        0
176
     1
 90
        0
176
     1
290
     0
176
     1
 90
        1
176
     1
 40
0.0
176
     1
 90
        0
176
     1
290
     0
176
     1
290
     1
176
     1
290
     1
176
     1
290
     0
176
     1
290
     0
176
     1
290
     0
176
     1
290
     0
176
     1
290
     0
176
     1
290
     0
176
     1
 90
       50
176
     1
 40
0.0
176
     1
 40
1.0
176
     1
 90
        0
176
     1
 62
    18
420
        0
176
     1
 90
       50
176
     1
 90
        3
176
     1
 62
     5
420
      255
176
     1
290
     0
176
     1
 90
       50
176
     1
 90
       50
176
     1
 90
       50
176
     1
290
     0
176
     1
 90
       50
176
     1
 62
   256
176
     0
 40
1.0
176
     0
 90
        2
176
     1
  1
strokes_ogs.tif
176
     1
290
     0
176
     1
 40
1.0
176
     1
 40
1.0
176
     1
  0
VISUALSTYLE
  5
3C
102
{ACAD_REACTORS
330
29
102
}
330
29
100
AcDbVisualStyle
  2
X-Ray
 70
    25
177
     3
291
     0
 70
    58
 90
        2
176
     1
 90
        2
176
     1
 90
        1
176
     1
 90
        1
176
     1
 40
0.5
176
     1
 40
30.0
176
     1
 62
     7
420
 16777215
176
     1
 90
        1
176
     1
 90
        0
176
     1
 62
     7
176
     1
 62
   257
176
     1
 90
        1
176
     1
 90
        1
176
     1
 40
1.0
176
     1
 90
        8
176
     1
 62
     7
176
     1
 40
1.0
176
     1
 90
        1
176
     1
 90
        6
176
     1
 90
        2
176
     1
 62
     7
176
     1
 90
        3
176
     1
 90
        0
176
     1
 90
        0
176
     1
290
     0
176
     1
 90
       13
176
     1
 40
0.0
176
     1
 90
        0
176
     1
290
     0
176
     1
290
     1
176
     1
290
     1
176
     1
290
     0
176
     1
290
     0
176
     1
290
     0
176
     1
290
     0
176
     1
290
     0
176
     1
290
     0
176
     1
 90
       50
176
     1
 40
0.0
176
     1
 40
1.0
176
     1
 90
        0
176
     1
 62
    18
420
        0
176
     1
 90
       50
176
     1
 90
        3
176
     1
 62
     5
420
      255
176
     1
290
     0
176
     1
 90
       50
176
     1
 90
       50
176
     1
 90
       50
176
     1
290
     0
176
     1
 90
       50
176
     1
 62
   256
176
     0
 40
1.0
176
     0
 90
        2
176
     1
  1
strokes_ogs.tif
176
     1
290
     0
176
     1
 40
1.0
176
     1
 40
1.0
176
     1
  0
DICTIONARYVAR
  5
347
102
{ACAD_REACTORS
330
342
102
}
330
342
100
DictionaryVariables
280
     0
  1
1:1
  0
DICTIONARYVAR
  5
344
102
{ACAD_REACTORS
330
342
102
}
330
342
100
DictionaryVariables
280
     0
  1
STANDARD
  0
DICTIONARYVAR
  5
343
102
{ACAD_REACTORS
330
342
102
}
330
342
100
DictionaryVariables
280
     0
  1
STANDARD
  0
DICTIONARYVAR
  5
345
102
{ACAD_REACTORS
330
342
102
}
330
342
100
DictionaryVariables
280
     0
  1
Imperial24
  0
DICTIONARYVAR
  5
346
102
{ACAD_REACTORS
330
342
102
}
330
342
100
DictionaryVariables
280
     0
  1
Imperial24
  0
DICTIONARY
  5
1A
330
19
100
AcDbDictionary
280
     1
281
     1
  3
BUMPTILE
360
1C
  3
DIFFUSETILE
360
1B
  3
OPACITYTILE
360
1F
  3
REFLECTIONTILE
360
1E
  3
REFRACTIONTILE
360
20
  3
SPECULARTILE
360
1D
  0
DICTIONARY
  5
12
330
11
100
AcDbDictionary
280
     1
281
     1
  3
BUMPTILE
360
14
  3
DIFFUSETILE
360
13
  3
OPACITYTILE
360
17
  3
REFLECTIONTILE
360
16
  3
REFRACTIONTILE
360
18
  3
SPECULARTILE
360
15
  0
DICTIONARY
  5
22
330
21
100
AcDbDictionary
280
     1
281
     1
  3
BUMPTILE
360
24
  3
DIFFUSETILE
360
23
  3
OPACITYTILE
360
27
  3
REFLECTIONTILE
360
26
  3
REFRACTIONTILE
360
28
  3
SPECULARTILE
360
25
  0
DICTIONARY
  5
348
330
65
100
AcDbDictionary
280
     1
281
     1
  3
ACAD_ROUNDTRIP_2008_TABLESTYLE_CELLSTYLEMAP
360
349
  0
XRECORD
  5
1C
102
{ACAD_REACTORS
330
1A
102
}
330
1A
100
AcDbXrecord
280
     1
270
     1
271
     1
  0
XRECORD
  5
1B
102
{ACAD_REACTORS
330
1A
102
}
330
1A
100
AcDbXrecord
280
     1
270
     1
271
     1
  0
XRECORD
  5
1F
102
{ACAD_REACTORS
330
1A
102
}
330
1A
100
AcDbXrecord
280
     1
270
     1
271
     1
  0
XRECORD
  5
1E
102
{ACAD_REACTORS
330
1A
102
}
330
1A
100
AcDbXrecord
280
     1
270
     1
271
     1
  0
XRECORD
  5
20
102
{ACAD_REACTORS
330
1A
102
}
330
1A
100
AcDbXrecord
280
     1
270
     1
271
     1
  0
XRECORD
  5
1D
102
{ACAD_REACTORS
330
1A
102
}
330
1A
100
AcDbXrecord
280
     1
270
     1
271
     1
  0
XRECORD
  5
14
102
{ACAD_REACTORS
330
12
102
}
330
12
100
AcDbXrecord
280
     1
270
     1
271
     1
  0
XRECORD
  5
13
102
{ACAD_REACTORS
330
12
102
}
330
12
100
AcDbXrecord
280
     1
270
     1
271
     1
  0
XRECORD
  5
17
102
{ACAD_REACTORS
330
12
102
}
330
12
100
AcDbXrecord
280
     1
270
     1
271
     1
  0
XRECORD
  5
16
102
{ACAD_REACTORS
330
12
102
}
330
12
100
AcDbXrecord
280
     1
270
     1
271
     1
  0
XRECORD
  5
18
102
{ACAD_REACTORS
330
12
102
}
330
12
100
AcDbXrecord
280
     1
270
     1
271
     1
  0
XRECORD
  5
15
102
{ACAD_REACTORS
330
12
102
}
330
12
100
AcDbXrecord
280
     1
270
     1
271
     1
  0
XRECORD
  5
24
102
{ACAD_REACTORS
330
22
102
}
330
22
100
AcDbXrecord
280
     1
270
     1
271
     1
  0
XRECORD
  5
23
102
{ACAD_REACTORS
330
22
102
}
330
22
100
AcDbXrecord
280
     1
270
     1
271
     1
  0
XRECORD
  5
27
102
{ACAD_REACTORS
330
22
102
}
330
22
100
AcDbXrecord
280
     1
270
     1
271
     1
  0
XRECORD
  5
26
102
{ACAD_REACTORS
330
22
102
}
330
22
100
AcDbXrecord
280
     1
270
     1
271
     1
  0
XRECORD
  5
28
102
{ACAD_REACTORS
330
22
102
}
330
22
100
AcDbXrecord
280
     1
270
     1
271
     1
  0
XRECORD
  5
25
102
{ACAD_REACTORS
330
22
102
}
330
22
100
AcDbXrecord
280
     1
270
     1
271
     1
  0
CELLSTYLEMAP
  5
349
102
{ACAD_REACTORS
330
348
102
}
330
348
100
AcDbCellStyleMap
 90
        3
300
CELLSTYLE
  1
TABLEFORMAT_BEGIN
 90
        5
170
     1
 91
        0
 92
    32768
 62
   257
 93
        1
300
CONTENTFORMAT
  1
CONTENTFORMAT_BEGIN
 90
        0
 91
        0
 92
      512
 93
        0
300

 40
0.0
140
1.0
 94
        5
 62
     0
340
55
144
0.25
309
CONTENTFORMAT_END
171
     0
 94
        0
309
TABLEFORMAT_END
  1
CELLSTYLE_BEGIN
 90
        1
 91
        1
300
_TITLE
309
CELLSTYLE_END
300
CELLSTYLE
  1
TABLEFORMAT_BEGIN
 90
        5
170
     1
 91
        0
 92
        0
 62
   257
 93
        1
300
CONTENTFORMAT
  1
CONTENTFORMAT_BEGIN
 90
        0
 91
        0
 92
      512
 93
        0
300

 40
0.0
140
1.0
 94
        5
 62
     0
340
55
144
0.18
309
CONTENTFORMAT_END
171
     0
 94
        0
309
TABLEFORMAT_END
  1
CELLSTYLE_BEGIN
 90
        2
 91
        1
300
_HEADER
309
CELLSTYLE_END
300
CELLSTYLE
  1
TABLEFORMAT_BEGIN
 90
        5
170
     1
 91
        0
 92
        0
 62
   257
 93
        1
300
CONTENTFORMAT
  1
CONTENTFORMAT_BEGIN
 90
        0
 91
        0
 92
      512
 93
        0
300

 40
0.0
140
1.0
 94
        2
 62
     0
340
55
144
0.18
309
CONTENTFORMAT_END
171
     0
 94
        0
309
TABLEFORMAT_END
  1
CELLSTYLE_BEGIN
 90
        3
 91
        2
300
_DATA
309
CELLSTYLE_END
  0
ENDSEC
  0
EOF
