  0
SECTION
  2
HEADER
  9
$ACADVER
  1
AC1032
  9
$ACADMAINTVER
 90
      251
  9
$DWGCODEPAGE
  3
ANSI_1252
  9
$REQUIREDVERSIONS
160
                 0
  9
$INSBASE
 10
0.0
 20
0.0
 30
0.0
  9
$EXTMIN
 10
1.000000000000000E+20
 20
1.000000000000000E+20
 30
1.000000000000000E+20
  9
$EXTMAX
 10
-1.000000000000000E+20
 20
-1.000000000000000E+20
 30
-1.000000000000000E+20
  9
$LIMMIN
 10
0.0
 20
0.0
  9
$LIMMAX
 10
12.0
 20
9.0
  9
$ORTHOMODE
 70
     0
  9
$REGENMODE
 70
     1
  9
$FILLMODE
 70
     1
  9
$QTEXTMODE
 70
     0
  9
$MIRRTEXT
 70
     0
  9
$LTSCALE
 40
1.0
  9
$ATTMODE
 70
     1
  9
$TEXTSIZE
 40
0.2
  9
$TRACEWID
 40
0.05
  9
$TEXTSTYLE
  7
Standard
  9
$CLAYER
  8
0
  9
$CELTYPE
  6
ByLayer
  9
$CECOLOR
 62
   256
  9
$CELTSCALE
 40
1.0
  9
$DISPSILH
 70
     0
  9
$DIMSCALE
 40
1.0
  9
$DIMASZ
 40
0.18
  9
$DIMEXO
 40
0.0625
  9
$DIMDLI
 40
0.38
  9
$DIMRND
 40
0.0
  9
$DIMDLE
 40
0.0
  9
$DIMEXE
 40
0.18
  9
$DIMTP
 40
0.0
  9
$DIMTM
 40
0.0
  9
$DIMTXT
 40
0.18
  9
$DIMCEN
 40
0.09
  9
$DIMTSZ
 40
0.0
  9
$DIMTOL
 70
     0
  9
$DIMLIM
 70
     0
  9
$DIMTIH
 70
     1
  9
$DIMTOH
 70
     1
  9
$DIMSE1
 70
     0
  9
$DIMSE2
 70
     0
  9
$DIMTAD
 70
     0
  9
$DIMZIN
 70
     0
  9
$DIMBLK
  1

  9
$DIMASO
 70
     1
  9
$DIMSHO
 70
     1
  9
$DIMPOST
  1

  9
$DIMAPOST
  1

  9
$DIMALT
 70
     0
  9
$DIMALTD
 70
     2
  9
$DIMALTF
 40
25.4
  9
$DIMLFAC
 40
1.0
  9
$DIMTOFL
 70
     0
  9
$DIMTVP
 40
0.0
  9
$DIMTIX
 70
     0
  9
$DIMSOXD
 70
     0
  9
$DIMSAH
 70
     0
  9
$DIMBLK1
  1

  9
$DIMBLK2
  1

  9
$DIMSTYLE
  2
Standard
  9
$DIMCLRD
 70
     0
  9
$DIMCLRE
 70
     0
  9
$DIMCLRT
 70
     0
  9
$DIMTFAC
 40
1.0
  9
$DIMGAP
 40
0.09
  9
$DIMJUST
 70
     0
  9
$DIMSD1
 70
     0
  9
$DIMSD2
 70
     0
  9
$DIMTOLJ
 70
     1
  9
$DIMTZIN
 70
     0
  9
$DIMALTZ
 70
     0
  9
$DIMALTTZ
 70
     0
  9
$DIMUPT
 70
     0
  9
$DIMDEC
 70
     4
  9
$DIMTDEC
 70
     4
  9
$DIMALTU
 70
     2
  9
$DIMALTTD
 70
     2
  9
$DIMTXSTY
  7
Standard
  9
$DIMAUNIT
 70
     0
  9
$DIMADEC
 70
     0
  9
$DIMALTRND
 40
0.0
  9
$DIMAZIN
 70
     0
  9
$DIMDSEP
 70
    46
  9
$DIMATFIT
 70
     3
  9
$DIMFRAC
 70
     0
  9
$DIMLDRBLK
  1

  9
$DIMLUNIT
 70
     2
  9
$DIMLWD
 70
    -2
  9
$DIMLWE
 70
    -2
  9
$DIMTMOVE
 70
     0
  9
$DIMFXL
 40
1.0
  9
$DIMFXLON
 70
     0
  9
$DIMJOGANG
 40
0.7853981633974483
  9
$DIMTFILL
 70
     0
  9
$DIMTFILLCLR
 70
     0
  9
$DIMARCSYM
 70
     0
  9
$DIMLTYPE
  6

  9
$DIMLTEX1
  6

  9
$DIMLTEX2
  6

  9
$DIMTXTDIRECTION
 70
     0
  9
$LUNITS
 70
     2
  9
$LUPREC
 70
     4
  9
$SKETCHINC
 40
0.1
  9
$FILLETRAD
 40
0.0
  9
$AUNITS
 70
     0
  9
$AUPREC
 70
     0
  9
$MENU
  1
.
  9
$ELEVATION
 40
0.0
  9
$PELEVATION
 40
0.0
  9
$THICKNESS
 40
0.0
  9
$LIMCHECK
 70
     0
  9
$CHAMFERA
 40
0.0
  9
$CHAMFERB
 40
0.0
  9
$CHAMFERC
 40
0.0
  9
$CHAMFERD
 40
0.0
  9
$SKPOLY
 70
     0
  9
$TDCREATE
 40
2459963.388576389
  9
$TDUCREATE
 40
2459963.346909722
  9
$TDUPDATE
 40
2459963.388576389
  9
$TDUUPDATE
 40
2459963.346909722
  9
$TDINDWG
 40
0.0000000000
  9
$TDUSRTIMER
 40
0.0000000000
  9
$USRTIMER
 70
     1
  9
$ANGBASE
 50
0.0
  9
$ANGDIR
 70
     0
  9
$PDMODE
 70
     0
  9
$PDSIZE
 40
0.0
  9
$PLINEWID
 40
0.0
  9
$SPLFRAME
 70
     0
  9
$SPLINETYPE
 70
     6
  9
$SPLINESEGS
 70
     8
  9
$HANDSEED
  5
313
  9
$SURFTAB1
 70
     6
  9
$SURFTAB2
 70
     6
  9
$SURFTYPE
 70
     6
  9
$SURFU
 70
     6
  9
$SURFV
 70
     6
  9
$UCSBASE
  2

  9
$UCSNAME
  2

  9
$UCSORG
 10
0.0
 20
0.0
 30
0.0
  9
$UCSXDIR
 10
1.0
 20
0.0
 30
0.0
  9
$UCSYDIR
 10
0.0
 20
1.0
 30
0.0
  9
$UCSORTHOREF
  2

  9
$UCSORTHOVIEW
 70
     0
  9
$UCSORGTOP
 10
0.0
 20
0.0
 30
0.0
  9
$UCSORGBOTTOM
 10
0.0
 20
0.0
 30
0.0
  9
$UCSORGLEFT
 10
0.0
 20
0.0
 30
0.0
  9
$UCSORGRIGHT
 10
0.0
 20
0.0
 30
0.0
  9
$UCSORGFRONT
 10
0.0
 20
0.0
 30
0.0
  9
$UCSORGBACK
 10
0.0
 20
0.0
 30
0.0
  9
$PUCSBASE
  2

  9
$PUCSNAME
  2

  9
$PUCSORG
 10
0.0
 20
0.0
 30
0.0
  9
$PUCSXDIR
 10
1.0
 20
0.0
 30
0.0
  9
$PUCSYDIR
 10
0.0
 20
1.0
 30
0.0
  9
$PUCSORTHOREF
  2

  9
$PUCSORTHOVIEW
 70
     0
  9
$PUCSORGTOP
 10
0.0
 20
0.0
 30
0.0
  9
$PUCSORGBOTTOM
 10
0.0
 20
0.0
 30
0.0
  9
$PUCSORGLEFT
 10
0.0
 20
0.0
 30
0.0
  9
$PUCSORGRIGHT
 10
0.0
 20
0.0
 30
0.0
  9
$PUCSORGFRONT
 10
0.0
 20
0.0
 30
0.0
  9
$PUCSORGBACK
 10
0.0
 20
0.0
 30
0.0
  9
$USERI1
 70
     0
  9
$USERI2
 70
     0
  9
$USERI3
 70
     0
  9
$USERI4
 70
     0
  9
$USERI5
 70
     0
  9
$USERR1
 40
0.0
  9
$USERR2
 40
0.0
  9
$USERR3
 40
0.0
  9
$USERR4
 40
0.0
  9
$USERR5
 40
0.0
  9
$WORLDVIEW
 70
     1
  9
$SHADEDGE
 70
     3
  9
$SHADEDIF
 70
    70
  9
$TILEMODE
 70
     1
  9
$MAXACTVP
 70
    64
  9
$PINSBASE
 10
0.0
 20
0.0
 30
0.0
  9
$PLIMCHECK
 70
     0
  9
$PEXTMIN
 10
1.000000000000000E+20
 20
1.000000000000000E+20
 30
1.000000000000000E+20
  9
$PEXTMAX
 10
-1.000000000000000E+20
 20
-1.000000000000000E+20
 30
-1.000000000000000E+20
  9
$PLIMMIN
 10
0.0
 20
0.0
  9
$PLIMMAX
 10
12.0
 20
9.0
  9
$UNITMODE
 70
     0
  9
$VISRETAIN
 70
     1
  9
$PLINEGEN
 70
     0
  9
$PSLTSCALE
 70
     1
  9
$TREEDEPTH
 70
  3020
  9
$CMLSTYLE
  2
Standard
  9
$CMLJUST
 70
     0
  9
$CMLSCALE
 40
1.0
  9
$PROXYGRAPHICS
 70
     1
  9
$MEASUREMENT
 70
     0
  9
$CELWEIGHT
370
    -1
  9
$ENDCAPS
280
     0
  9
$JOINSTYLE
280
     0
  9
$LWDISPLAY
290
     1
  9
$INSUNITS
 70
     4
  9
$HYPERLINKBASE
  1

  9
$STYLESHEET
  1

  9
$XEDIT
290
     1
  9
$CEPSNTYPE
380
     0
  9
$PSTYLEMODE
290
     1
  9
$FINGERPRINTGUID
  2
{E1E99C48-79AA-C744-AFBC-1E1F4505461F}
  9
$VERSIONGUID
  2
{0B3733DF-3B75-CC4B-9B0A-430266C914CF}
  9
$EXTNAMES
290
     1
  9
$PSVPSCALE
 40
0.0
  9
$OLESTARTUP
290
     0
  9
$SORTENTS
280
   127
  9
$INDEXCTL
280
     0
  9
$HIDETEXT
280
     1
  9
$XCLIPFRAME
280
     2
  9
$HALOGAP
280
     0
  9
$OBSCOLOR
 70
   257
  9
$OBSLTYPE
280
     0
  9
$INTERSECTIONDISPLAY
280
     0
  9
$INTERSECTIONCOLOR
 70
   257
  9
$DIMASSOC
280
     2
  9
$PROJECTNAME
  1

  9
$CAMERADISPLAY
290
     0
  9
$LENSLENGTH
 40
50.0
  9
$CAMERAHEIGHT
 40
0.0
  9
$STEPSPERSEC
 40
2.0
  9
$STEPSIZE
 40
6.0
  9
$3DDWFPREC
 40
2.0
  9
$PSOLWIDTH
 40
0.25
  9
$PSOLHEIGHT
 40
4.0
  9
$LOFTANG1
 40
1.570796326794896
  9
$LOFTANG2
 40
1.570796326794896
  9
$LOFTMAG1
 40
0.0
  9
$LOFTMAG2
 40
0.0
  9
$LOFTPARAM
 70
     7
  9
$LOFTNORMALS
280
     1
  9
$LATITUDE
 40
37.795
  9
$LONGITUDE
 40
-122.394
  9
$NORTHDIRECTION
 40
0.0
  9
$TIMEZONE
 70
 -8000
  9
$LIGHTGLYPHDISPLAY
280
     1
  9
$TILEMODELIGHTSYNCH
280
     1
  9
$CMATERIAL
347
11
  9
$SOLIDHIST
280
     0
  9
$SHOWHIST
280
     1
  9
$DWFFRAME
280
     2
  9
$DGNFRAME
280
     0
  9
$REALWORLDSCALE
290
     1
  9
$INTERFERECOLOR
 62
     1
  9
$INTERFEREOBJVS
345
33
  9
$INTERFEREVPVS
346
30
  9
$CSHADOW
280
     0
  9
$SHADOWPLANELOCATION
 40
0.0
  0
ENDSEC
  0
SECTION
  2
CLASSES
  0
CLASS
  1
ACDBDICTIONARYWDFLT
  2
AcDbDictionaryWithDefault
  3
ObjectDBX Classes
 90
        0
 91
        1
280
     0
281
     0
  0
CLASS
  1
MATERIAL
  2
AcDbMaterial
  3
ObjectDBX Classes
 90
     1153
 91
        3
280
     0
281
     0
  0
CLASS
  1
VISUALSTYLE
  2
AcDbVisualStyle
  3
ObjectDBX Classes
 90
     4095
 91
       24
280
     0
281
     0
  0
CLASS
  1
SCALE
  2
AcDbScale
  3
ObjectDBX Classes
 90
     1153
 91
       17
280
     0
281
     0
  0
CLASS
  1
TABLESTYLE
  2
AcDbTableStyle
  3
ObjectDBX Classes
 90
     4095
 91
        1
280
     0
281
     0
  0
CLASS
  1
MLEADERSTYLE
  2
AcDbMLeaderStyle
  3
ACDB_MLEADERSTYLE_CLASS
 90
     4095
 91
        1
280
     0
281
     0
  0
CLASS
  1
ACDBSECTIONVIEWSTYLE
  2
AcDbSectionViewStyle
  3
ObjectDBX Classes
 90
     1025
 91
        1
280
     0
281
     0
  0
CLASS
  1
ACDBDETAILVIEWSTYLE
  2
AcDbDetailViewStyle
  3
ObjectDBX Classes
 90
     1025
 91
        1
280
     0
281
     0
  0
CLASS
  1
DICTIONARYVAR
  2
AcDbDictionaryVar
  3
ObjectDBX Classes
 90
        0
 91
        5
280
     0
281
     0
  0
CLASS
  1
CELLSTYLEMAP
  2
AcDbCellStyleMap
  3
ObjectDBX Classes
 90
     1152
 91
        1
280
     0
281
     0
  0
ENDSEC
  0
SECTION
  2
TABLES
  0
TABLE
  2
VPORT
  5
8
330
0
100
AcDbSymbolTable
 70
     1
  0
VPORT
  5
57
330
8
100
AcDbSymbolTableRecord
100
AcDbViewportTableRecord
  2
*Active
 70
     0
 10
0.0
 20
0.0
 11
1.0
 21
1.0
 12
0.0
 22
0.0
 13
0.0
 23
0.0
 14
1.0
 24
1.0
 15
0.0
 25
0.0
 16
0.0
 26
0.0
 36
1.0
 17
105.0000721959721
 27
148.5000416295418
 37
0.0
 40
89.75999997755987
 41
1.0
 42
50.0
 43
0.0
 44
0.0
 50
0.0
 51
0.0
 71
     0
 72
   100
 73
     1
 74
     1
 75
     0
 76
     0
 77
     0
 78
     0
281
     0
 65
     1
110
0.0
120
0.0
130
0.0
111
1.0
121
0.0
131
0.0
112
0.0
122
1.0
132
0.0
 79
     0
146
0.0
 60
     3
 61
     5
292
     1
282
     1
141
0.0
142
0.0
 63
   250
421
  3355443
  0
ENDTAB
  0
TABLE
  2
LTYPE
  5
5
330
0
100
AcDbSymbolTable
 70
     2
  0
LTYPE
  5
5B
330
5
100
AcDbSymbolTableRecord
100
AcDbLinetypeTableRecord
  2
ByBlock
 70
     0
  3

 72
    65
 73
     0
 40
0.0
  0
LTYPE
  5
5C
330
5
100
AcDbSymbolTableRecord
100
AcDbLinetypeTableRecord
  2
ByLayer
 70
     0
  3

 72
    65
 73
     0
 40
0.0
  0
LTYPE
  5
5D
330
5
100
AcDbSymbolTableRecord
100
AcDbLinetypeTableRecord
  2
Continuous
 70
     0
  3
Solid line
 72
    65
 73
     0
 40
0.0
  0
LTYPE
  5
29C
330
5
100
AcDbSymbolTableRecord
100
AcDbLinetypeTableRecord
  2
AI-Linetype-0
 70
     0
  3
Adobe Illustrator Linetype No. 0
 72
    65
 73
     2
 40
1.411111110758333
 49
0.7055555553791667
 74
     0
 49
-0.7055555553791667
 74
     0
  0
ENDTAB
  0
TABLE
  2
LAYER
  5
2
330
0
100
AcDbSymbolTable
 70
     5
  0
LAYER
  5
54
330
2
100
AcDbSymbolTableRecord
100
AcDbLayerTableRecord
  2
0
 70
     0
 62
     7
  6
Continuous
370
     0
390
F
347
21
348
0
  0
LAYER
  5
8C
330
2
100
AcDbSymbolTableRecord
100
AcDbLayerTableRecord
  2
Rahmen (ISO)
 70
     0
 62
     7
  6
Continuous
370
     0
390
F
347
21
348
0
  0
LAYER
  5
8D
330
2
100
AcDbSymbolTableRecord
100
AcDbLayerTableRecord
  2
Titel (ISO)
 70
     0
 62
     7
  6
Continuous
370
     0
390
F
347
21
348
0
  0
LAYER
  5
B2
330
2
100
AcDbSymbolTableRecord
100
AcDbLayerTableRecord
  2
Sichtbar (ISO)
 70
     0
 62
     7
  6
Continuous
370
     0
390
F
347
21
348
0
  0
LAYER
  5
B3
330
2
100
AcDbSymbolTableRecord
100
AcDbLayerTableRecord
  2
Sichtbar schmal (ISO)
 70
     0
 62
     7
  6
Continuous
370
     0
390
F
347
21
348
0
  0
ENDTAB
  0
TABLE
  2
STYLE
  5
3
330
0
100
AcDbSymbolTable
 70
     2
  0
STYLE
  5
55
330
3
100
AcDbSymbolTableRecord
100
AcDbTextStyleTableRecord
  2
Standard
 70
     0
 40
0.0
 41
1.0
 50
0.0
 71
     0
 42
0.2
  3
txt
  4

  0
STYLE
  5
5A
330
3
100
AcDbSymbolTableRecord
100
AcDbTextStyleTableRecord
  2
Annotative
 70
     0
 40
0.0
 41
1.0
 50
0.0
 71
     0
 42
0.2
  3
txt
  4

1001
AcadAnnotative
1000
AnnotativeData
1002
{
1070
     1
1070
     1
1002
}
  0
ENDTAB
  0
TABLE
  2
VIEW
  5
6
330
0
100
AcDbSymbolTable
 70
     0
  0
ENDTAB
  0
TABLE
  2
UCS
  5
7
330
0
100
AcDbSymbolTable
 70
     0
  0
ENDTAB
  0
TABLE
  2
APPID
  5
9
330
0
100
AcDbSymbolTable
 70
     2
  0
APPID
  5
56
330
9
100
AcDbSymbolTableRecord
100
AcDbRegAppTableRecord
  2
ACAD
 70
     0
  0
APPID
  5
5E
330
9
100
AcDbSymbolTableRecord
100
AcDbRegAppTableRecord
  2
AcadAnnotative
 70
     0
  0
ENDTAB
  0
TABLE
  2
DIMSTYLE
  5
A
330
0
100
AcDbSymbolTable
 70
     2
100
AcDbDimStyleTable
 71
     0
  0
DIMSTYLE
105
58
330
A
100
AcDbSymbolTableRecord
100
AcDbDimStyleTableRecord
  2
Standard
 70
     0
340
55
  0
DIMSTYLE
105
59
330
A
100
AcDbSymbolTableRecord
100
AcDbDimStyleTableRecord
  2
Annotative
 70
     0
340
55
1001
AcadAnnotative
1000
AnnotativeData
1002
{
1070
     1
1070
     1
1002
}
  0
ENDTAB
  0
TABLE
  2
BLOCK_RECORD
  5
1
330
0
100
AcDbSymbolTable
 70
    42
  0
BLOCK_RECORD
  5
70
330
1
100
AcDbSymbolTableRecord
100
AcDbBlockTableRecord
  2
*Model_Space
340
73
 70
     0
280
     1
281
     0
  0
BLOCK_RECORD
  5
6C
330
1
100
AcDbSymbolTableRecord
100
AcDbBlockTableRecord
  2
*Paper_Space
340
6F
 70
     0
280
     1
281
     0
  0
BLOCK_RECORD
  5
74
330
1
100
AcDbSymbolTableRecord
100
AcDbBlockTableRecord
  2
*Paper_Space0
340
77
 70
     0
280
     1
281
     0
  0
BLOCK_RECORD
  5
78
330
1
100
AcDbSymbolTableRecord
100
AcDbBlockTableRecord
  2
Block_0
340
0
102
{BLKREFS
331
79
102
}
 70
     0
280
     1
281
     0
  0
BLOCK_RECORD
  5
7C
330
1
100
AcDbSymbolTableRecord
100
AcDbBlockTableRecord
  2
Block_1
340
0
102
{BLKREFS
331
7D
102
}
 70
     0
280
     1
281
     0
  0
BLOCK_RECORD
  5
80
330
1
100
AcDbSymbolTableRecord
100
AcDbBlockTableRecord
  2
Block_2
340
0
102
{BLKREFS
331
81
102
}
 70
     0
280
     1
281
     0
  0
BLOCK_RECORD
  5
84
330
1
100
AcDbSymbolTableRecord
100
AcDbBlockTableRecord
  2
Block_3
340
0
102
{BLKREFS
331
85
102
}
 70
     0
280
     1
281
     0
  0
BLOCK_RECORD
  5
88
330
1
100
AcDbSymbolTableRecord
100
AcDbBlockTableRecord
  2
Block_4
340
0
102
{BLKREFS
331
89
102
}
 70
     0
280
     1
281
     0
  0
BLOCK_RECORD
  5
8E
330
1
100
AcDbSymbolTableRecord
100
AcDbBlockTableRecord
  2
Block_5
340
0
102
{BLKREFS
331
8F
102
}
 70
     0
280
     1
281
     0
  0
BLOCK_RECORD
  5
92
330
1
100
AcDbSymbolTableRecord
100
AcDbBlockTableRecord
  2
Block_6
340
0
102
{BLKREFS
331
93
102
}
 70
     0
280
     1
281
     0
  0
BLOCK_RECORD
  5
96
330
1
100
AcDbSymbolTableRecord
100
AcDbBlockTableRecord
  2
Block_7
340
0
102
{BLKREFS
331
97
102
}
 70
     0
280
     1
281
     0
  0
BLOCK_RECORD
  5
9A
330
1
100
AcDbSymbolTableRecord
100
AcDbBlockTableRecord
  2
Block_8
340
0
102
{BLKREFS
331
9B
102
}
 70
     0
280
     1
281
     0
  0
BLOCK_RECORD
  5
9E
330
1
100
AcDbSymbolTableRecord
100
AcDbBlockTableRecord
  2
Block_9
340
0
102
{BLKREFS
331
9F
102
}
 70
     0
280
     1
281
     0
  0
BLOCK_RECORD
  5
A2
330
1
100
AcDbSymbolTableRecord
100
AcDbBlockTableRecord
  2
Block_10
340
0
102
{BLKREFS
331
A3
102
}
 70
     0
280
     1
281
     0
  0
BLOCK_RECORD
  5
A6
330
1
100
AcDbSymbolTableRecord
100
AcDbBlockTableRecord
  2
Block_11
340
0
102
{BLKREFS
331
A7
102
}
 70
     0
280
     1
281
     0
  0
BLOCK_RECORD
  5
AA
330
1
100
AcDbSymbolTableRecord
100
AcDbBlockTableRecord
  2
Block_12
340
0
102
{BLKREFS
331
AB
102
}
 70
     0
280
     1
281
     0
  0
BLOCK_RECORD
  5
AE
330
1
100
AcDbSymbolTableRecord
100
AcDbBlockTableRecord
  2
Block_13
340
0
102
{BLKREFS
331
AF
102
}
 70
     0
280
     1
281
     0
  0
BLOCK_RECORD
  5
B4
330
1
100
AcDbSymbolTableRecord
100
AcDbBlockTableRecord
  2
Block_14
340
0
102
{BLKREFS
331
B5
102
}
 70
     0
280
     1
281
     0
  0
BLOCK_RECORD
  5
BA
330
1
100
AcDbSymbolTableRecord
100
AcDbBlockTableRecord
  2
Block_15
340
0
102
{BLKREFS
331
BB
102
}
 70
     0
280
     1
281
     0
  0
BLOCK_RECORD
  5
250
330
1
100
AcDbSymbolTableRecord
100
AcDbBlockTableRecord
  2
Block_16
340
0
102
{BLKREFS
331
251
102
}
 70
     0
280
     1
281
     0
  0
BLOCK_RECORD
  5
26A
330
1
100
AcDbSymbolTableRecord
100
AcDbBlockTableRecord
  2
Block_17
340
0
102
{BLKREFS
331
26B
102
}
 70
     0
280
     1
281
     0
  0
BLOCK_RECORD
  5
26E
330
1
100
AcDbSymbolTableRecord
100
AcDbBlockTableRecord
  2
Block_18
340
0
102
{BLKREFS
331
26F
102
}
 70
     0
280
     1
281
     0
  0
BLOCK_RECORD
  5
273
330
1
100
AcDbSymbolTableRecord
100
AcDbBlockTableRecord
  2
Block_19
340
0
102
{BLKREFS
331
274
102
}
 70
     0
280
     1
281
     0
  0
BLOCK_RECORD
  5
279
330
1
100
AcDbSymbolTableRecord
100
AcDbBlockTableRecord
  2
Block_20
340
0
102
{BLKREFS
331
27A
102
}
 70
     0
280
     1
281
     0
  0
BLOCK_RECORD
  5
282
330
1
100
AcDbSymbolTableRecord
100
AcDbBlockTableRecord
  2
Block_21
340
0
102
{BLKREFS
331
283
102
}
 70
     0
280
     1
281
     0
  0
BLOCK_RECORD
  5
286
330
1
100
AcDbSymbolTableRecord
100
AcDbBlockTableRecord
  2
Block_22
340
0
102
{BLKREFS
331
287
102
}
 70
     0
280
     1
281
     0
  0
BLOCK_RECORD
  5
28B
330
1
100
AcDbSymbolTableRecord
100
AcDbBlockTableRecord
  2
Block_23
340
0
102
{BLKREFS
331
28C
102
}
 70
     0
280
     1
281
     0
  0
BLOCK_RECORD
  5
291
330
1
100
AcDbSymbolTableRecord
100
AcDbBlockTableRecord
  2
Block_24
340
0
102
{BLKREFS
331
292
102
}
 70
     0
280
     1
281
     0
  0
BLOCK_RECORD
  5
29D
330
1
100
AcDbSymbolTableRecord
100
AcDbBlockTableRecord
  2
Block_25
340
0
102
{BLKREFS
331
29E
102
}
 70
     0
280
     1
281
     0
  0
BLOCK_RECORD
  5
2A1
330
1
100
AcDbSymbolTableRecord
100
AcDbBlockTableRecord
  2
Block_26
340
0
102
{BLKREFS
331
2A2
102
}
 70
     0
280
     1
281
     0
  0
BLOCK_RECORD
  5
2A6
330
1
100
AcDbSymbolTableRecord
100
AcDbBlockTableRecord
  2
Block_27
340
0
102
{BLKREFS
331
2A7
102
}
 70
     0
280
     1
281
     0
  0
BLOCK_RECORD
  5
2AC
330
1
100
AcDbSymbolTableRecord
100
AcDbBlockTableRecord
  2
Block_28
340
0
102
{BLKREFS
331
2AD
102
}
 70
     0
280
     1
281
     0
  0
BLOCK_RECORD
  5
2B3
330
1
100
AcDbSymbolTableRecord
100
AcDbBlockTableRecord
  2
Block_29
340
0
102
{BLKREFS
331
2B4
102
}
 70
     0
280
     1
281
     0
  0
BLOCK_RECORD
  5
2B7
330
1
100
AcDbSymbolTableRecord
100
AcDbBlockTableRecord
  2
Block_30
340
0
102
{BLKREFS
331
2B8
102
}
 70
     0
280
     1
281
     0
  0
BLOCK_RECORD
  5
2BC
330
1
100
AcDbSymbolTableRecord
100
AcDbBlockTableRecord
  2
Block_31
340
0
102
{BLKREFS
331
2BD
102
}
 70
     0
280
     1
281
     0
  0
BLOCK_RECORD
  5
2C2
330
1
100
AcDbSymbolTableRecord
100
AcDbBlockTableRecord
  2
Block_32
340
0
102
{BLKREFS
331
2C3
102
}
 70
     0
280
     1
281
     0
  0
BLOCK_RECORD
  5
2C8
330
1
100
AcDbSymbolTableRecord
100
AcDbBlockTableRecord
  2
Block_33
340
0
102
{BLKREFS
331
2C9
102
}
 70
     0
280
     1
281
     0
  0
BLOCK_RECORD
  5
2CC
330
1
100
AcDbSymbolTableRecord
100
AcDbBlockTableRecord
  2
Block_34
340
0
102
{BLKREFS
331
2CD
102
}
 70
     0
280
     1
281
     0
  0
BLOCK_RECORD
  5
2D6
330
1
100
AcDbSymbolTableRecord
100
AcDbBlockTableRecord
  2
Block_35
340
0
102
{BLKREFS
331
2D7
102
}
 70
     0
280
     1
281
     0
  0
BLOCK_RECORD
  5
2DA
330
1
100
AcDbSymbolTableRecord
100
AcDbBlockTableRecord
  2
Block_36
340
0
102
{BLKREFS
331
2DB
102
}
 70
     0
280
     1
281
     0
  0
BLOCK_RECORD
  5
2E4
330
1
100
AcDbSymbolTableRecord
100
AcDbBlockTableRecord
  2
Block_37
340
0
102
{BLKREFS
331
2E5
102
}
 70
     0
280
     1
281
     0
  0
BLOCK_RECORD
  5
2E8
330
1
100
AcDbSymbolTableRecord
100
AcDbBlockTableRecord
  2
Block_38
340
0
102
{BLKREFS
331
2E9
102
}
 70
     0
280
     1
281
     0
  0
BLOCK_RECORD
  5
2F7
330
1
100
AcDbSymbolTableRecord
100
AcDbBlockTableRecord
  2
Block_39
340
0
102
{BLKREFS
331
2F8
102
}
 70
     0
280
     1
281
     0
  0
BLOCK_RECORD
  5
2FB
330
1
100
AcDbSymbolTableRecord
100
AcDbBlockTableRecord
  2
Block_40
340
0
102
{BLKREFS
331
2FC
102
}
 70
     0
280
     1
281
     0
  0
ENDTAB
  0
ENDSEC
  0
SECTION
  2
BLOCKS
  0
BLOCK
  5
71
330
70
100
AcDbEntity
  8
0
100
AcDbBlockBegin
  2
*Model_Space
 70
     0
 10
0.0
 20
0.0
 30
0.0
  3
*Model_Space
  1

  0
ENDBLK
  5
72
330
70
100
AcDbEntity
  8
0
100
AcDbBlockEnd
  0
BLOCK
  5
6D
330
6C
100
AcDbEntity
 67
     1
  8
0
100
AcDbBlockBegin
  2
*Paper_Space
 70
     0
 10
0.0
 20
0.0
 30
0.0
  3
*Paper_Space
  1

  0
ENDBLK
  5
6E
330
6C
100
AcDbEntity
 67
     1
  8
0
100
AcDbBlockEnd
  0
BLOCK
  5
75
330
74
100
AcDbEntity
 67
     1
  8
0
100
AcDbBlockBegin
  2
*Paper_Space0
 70
     0
 10
0.0
 20
0.0
 30
0.0
  3
*Paper_Space0
  1

  0
ENDBLK
  5
76
330
74
100
AcDbEntity
 67
     1
  8
0
100
AcDbBlockEnd
  0
BLOCK
  5
7A
330
78
100
AcDbEntity
  8
0
100
AcDbBlockBegin
  2
Block_0
 70
     0
 10
0.0
 20
0.0
 30
0.0
  3
Block_0
  1

  0
ENDBLK
  5
7B
330
78
100
AcDbEntity
  8
0
100
AcDbBlockEnd
  0
BLOCK
  5
7E
330
7C
100
AcDbEntity
  8
0
100
AcDbBlockBegin
  2
Block_1
 70
     0
 10
0.0
 20
0.0
 30
0.0
  3
Block_1
  1

  0
ENDBLK
  5
7F
330
7C
100
AcDbEntity
  8
0
100
AcDbBlockEnd
  0
BLOCK
  5
82
330
80
100
AcDbEntity
  8
0
100
AcDbBlockBegin
  2
Block_2
 70
     0
 10
0.0
 20
0.0
 30
0.0
  3
Block_2
  1

  0
ENDBLK
  5
83
330
80
100
AcDbEntity
  8
0
100
AcDbBlockEnd
  0
BLOCK
  5
86
330
84
100
AcDbEntity
  8
0
100
AcDbBlockBegin
  2
Block_3
 70
     0
 10
0.0
 20
0.0
 30
0.0
  3
Block_3
  1

  0
ENDBLK
  5
87
330
84
100
AcDbEntity
  8
0
100
AcDbBlockEnd
  0
BLOCK
  5
8A
330
88
100
AcDbEntity
  8
0
100
AcDbBlockBegin
  2
Block_4
 70
     0
 10
0.0
 20
0.0
 30
0.0
  3
Block_4
  1

  0
ENDBLK
  5
8B
330
88
100
AcDbEntity
  8
0
100
AcDbBlockEnd
  0
BLOCK
  5
90
330
8E
100
AcDbEntity
  8
0
100
AcDbBlockBegin
  2
Block_5
 70
     0
 10
0.0
 20
0.0
 30
0.0
  3
Block_5
  1

  0
ENDBLK
  5
91
330
8E
100
AcDbEntity
  8
0
100
AcDbBlockEnd
  0
BLOCK
  5
94
330
92
100
AcDbEntity
  8
0
100
AcDbBlockBegin
  2
Block_6
 70
     0
 10
0.0
 20
0.0
 30
0.0
  3
Block_6
  1

  0
ENDBLK
  5
95
330
92
100
AcDbEntity
  8
0
100
AcDbBlockEnd
  0
BLOCK
  5
98
330
96
100
AcDbEntity
  8
0
100
AcDbBlockBegin
  2
Block_7
 70
     0
 10
0.0
 20
0.0
 30
0.0
  3
Block_7
  1

  0
ENDBLK
  5
99
330
96
100
AcDbEntity
  8
0
100
AcDbBlockEnd
  0
BLOCK
  5
9C
330
9A
100
AcDbEntity
  8
0
100
AcDbBlockBegin
  2
Block_8
 70
     0
 10
0.0
 20
0.0
 30
0.0
  3
Block_8
  1

  0
ENDBLK
  5
9D
330
9A
100
AcDbEntity
  8
0
100
AcDbBlockEnd
  0
BLOCK
  5
A0
330
9E
100
AcDbEntity
  8
0
100
AcDbBlockBegin
  2
Block_9
 70
     0
 10
0.0
 20
0.0
 30
0.0
  3
Block_9
  1

  0
ENDBLK
  5
A1
330
9E
100
AcDbEntity
  8
0
100
AcDbBlockEnd
  0
BLOCK
  5
A4
330
A2
100
AcDbEntity
  8
0
100
AcDbBlockBegin
  2
Block_10
 70
     0
 10
0.0
 20
0.0
 30
0.0
  3
Block_10
  1

  0
ENDBLK
  5
A5
330
A2
100
AcDbEntity
  8
0
100
AcDbBlockEnd
  0
BLOCK
  5
A8
330
A6
100
AcDbEntity
  8
0
100
AcDbBlockBegin
  2
Block_11
 70
     0
 10
0.0
 20
0.0
 30
0.0
  3
Block_11
  1

  0
ENDBLK
  5
A9
330
A6
100
AcDbEntity
  8
0
100
AcDbBlockEnd
  0
BLOCK
  5
AC
330
AA
100
AcDbEntity
  8
0
100
AcDbBlockBegin
  2
Block_12
 70
     0
 10
0.0
 20
0.0
 30
0.0
  3
Block_12
  1

  0
ENDBLK
  5
AD
330
AA
100
AcDbEntity
  8
0
100
AcDbBlockEnd
  0
BLOCK
  5
B0
330
AE
100
AcDbEntity
  8
0
100
AcDbBlockBegin
  2
Block_13
 70
     0
 10
0.0
 20
0.0
 30
0.0
  3
Block_13
  1

  0
ENDBLK
  5
B1
330
AE
100
AcDbEntity
  8
0
100
AcDbBlockEnd
  0
BLOCK
  5
B6
330
B4
100
AcDbEntity
  8
0
100
AcDbBlockBegin
  2
Block_14
 70
     0
 10
0.0
 20
0.0
 30
0.0
  3
Block_14
  1

  0
SPLINE
  5
B8
330
B4
100
AcDbEntity
  8
Sichtbar schmal (ISO)
100
AcDbSpline
210
0.0
220
0.0
230
1.0
 70
     8
 71
     3
 72
    38
 73
    34
 74
     0
 42
0.0000000001
 43
0.0000000001
 40
0.0
 40
0.0
 40
0.0
 40
0.0
 40
1.0
 40
1.0
 40
1.0
 40
2.0
 40
2.0
 40
2.0
 40
3.0
 40
3.0
 40
3.0
 40
4.0
 40
4.0
 40
4.0
 40
5.0
 40
5.0
 40
5.0
 40
6.0
 40
6.0
 40
6.0
 40
7.0
 40
7.0
 40
7.0
 40
8.0
 40
8.0
 40
8.0
 40
9.0
 40
9.0
 40
9.0
 40
10.0
 40
10.0
 40
10.0
 40
11.0
 40
11.0
 40
11.0
 40
11.0
 10
114.8450001372732
 20
185.561020517707
 30
0.0
 10
114.8450001372732
 20
185.561020517707
 30
0.0
 10
115.3217635233391
 20
185.561020517707
 30
0.0
 10
115.3217635233391
 20
185.561020517707
 30
0.0
 10
115.3217635233391
 20
185.561020517707
 30
0.0
 10
115.3217635233391
 20
181.6364866113176
 30
0.0
 10
115.3217635233391
 20
181.6364866113176
 30
0.0
 10
115.3217635233391
 20
181.6364866113176
 30
0.0
 10
115.3217635233391
 20
181.2428387006056
 30
0.0
 10
115.3217635233391
 20
181.2428387006056
 30
0.0
 10
115.3217635233391
 20
180.8662809167238
 30
0.0
 10
115.0015821653449
 20
180.5610205189571
 30
0.0
 10
114.6066184442416
 20
180.5610205189571
 30
0.0
 10
114.6066184442416
 20
180.5610205189571
 30
0.0
 10
68.59895168899168
 20
180.5610205189571
 30
0.0
 10
68.59895168899168
 20
180.5610205189571
 30
0.0
 10
68.20398796788997
 20
180.5610205189571
 30
0.0
 10
67.88380660989414
 20
180.8662809167238
 30
0.0
 10
67.88380660989414
 20
181.2428387006056
 30
0.0
 10
67.88380660989414
 20
181.2428387006056
 30
0.0
 10
67.88380660989414
 20
181.6364866113176
 30
0.0
 10
67.88380660989414
 20
181.6364866113176
 30
0.0
 10
67.88380660989414
 20
181.6364866113176
 30
0.0
 10
67.88380660989414
 20
185.561020517707
 30
0.0
 10
67.88380660989414
 20
185.561020517707
 30
0.0
 10
67.88380660989414
 20
185.561020517707
 30
0.0
 10
68.36056999595969
 20
185.561020517707
 30
0.0
 10
68.36056999595969
 20
185.561020517707
 30
0.0
 10
68.36056999595969
 20
185.561020517707
 30
0.0
 10
68.38440816526262
 20
185.561020517707
 30
0.0
 10
68.38440816526262
 20
185.561020517707
 30
0.0
 10
68.38440816526262
 20
185.561020517707
 30
0.0
 10
114.8211619679703
 20
185.561020517707
 30
0.0
 10
114.8211619679703
 20
185.561020517707
 30
0.0
  0
HATCH
  5
B9
330
B4
100
AcDbEntity
  8
Sichtbar schmal (ISO)
 62
   254
420
 14606046
440
 33554687
100
AcDbHatch
 10
0.0
 20
0.0
 30
0.0
210
0.0
220
0.0
230
1.0
  2
SOLID
 70
     1
 71
     1
 91
        1
 92
        1
 93
        2
 72
     4
 94
        3
 73
     0
 74
     0
 95
       38
 96
       34
 40
0.0
 40
0.0
 40
0.0
 40
0.0
 40
1.0
 40
1.0
 40
1.0
 40
2.0
 40
2.0
 40
2.0
 40
3.0
 40
3.0
 40
3.0
 40
4.0
 40
4.0
 40
4.0
 40
5.0
 40
5.0
 40
5.0
 40
6.0
 40
6.0
 40
6.0
 40
7.0
 40
7.0
 40
7.0
 40
8.0
 40
8.0
 40
8.0
 40
9.0
 40
9.0
 40
9.0
 40
10.0
 40
10.0
 40
10.0
 40
11.0
 40
11.0
 40
11.0
 40
11.0
 10
114.8450001372732
 20
185.561020517707
 10
114.8450001372732
 20
185.561020517707
 10
115.3217635233391
 20
185.561020517707
 10
115.3217635233391
 20
185.561020517707
 10
115.3217635233391
 20
185.561020517707
 10
115.3217635233391
 20
181.6364866113176
 10
115.3217635233391
 20
181.6364866113176
 10
115.3217635233391
 20
181.6364866113176
 10
115.3217635233391
 20
181.2428387006056
 10
115.3217635233391
 20
181.2428387006056
 10
115.3217635233391
 20
180.8662809167238
 10
115.0015821653449
 20
180.5610205189571
 10
114.6066184442416
 20
180.5610205189571
 10
114.6066184442416
 20
180.5610205189571
 10
68.59895168899168
 20
180.5610205189571
 10
68.59895168899168
 20
180.5610205189571
 10
68.20398796788997
 20
180.5610205189571
 10
67.88380660989414
 20
180.8662809167238
 10
67.88380660989414
 20
181.2428387006056
 10
67.88380660989414
 20
181.2428387006056
 10
67.88380660989414
 20
181.6364866113176
 10
67.88380660989414
 20
181.6364866113176
 10
67.88380660989414
 20
181.6364866113176
 10
67.88380660989414
 20
185.561020517707
 10
67.88380660989414
 20
185.561020517707
 10
67.88380660989414
 20
185.561020517707
 10
68.36056999595969
 20
185.561020517707
 10
68.36056999595969
 20
185.561020517707
 10
68.36056999595969
 20
185.561020517707
 10
68.38440816526262
 20
185.561020517707
 10
68.38440816526262
 20
185.561020517707
 10
68.38440816526262
 20
185.561020517707
 10
114.8211619679703
 20
185.561020517707
 10
114.8211619679703
 20
185.561020517707
 97
        0
 72
     1
 10
114.8211619679703
 20
185.561020517707
 11
114.8450001372732
 21
185.561020517707
 97
        0
 75
     2
 76
     1
 98
        1
 10
0.0
 20
0.0
450
        0
451
        0
460
0.0
461
0.0
452
        0
462
0.0
453
        0
470

  0
ENDBLK
  5
B7
330
B4
100
AcDbEntity
  8
0
100
AcDbBlockEnd
  0
BLOCK
  5
BC
330
BA
100
AcDbEntity
  8
0
100
AcDbBlockBegin
  2
Block_15
 70
     0
 10
0.0
 20
0.0
 30
0.0
  3
Block_15
  1

  0
LINE
  5
BE
330
BA
100
AcDbEntity
  8
Sichtbar schmal (ISO)
 62
    18
420
        0
370
     5
100
AcDbLine
 10
72.86728889265795
 20
178.0097101747672
 30
0.0
 11
72.86728889265795
 21
177.7808825886173
 31
0.0
  0
SPLINE
  5
BF
330
BA
100
AcDbEntity
  8
Sichtbar schmal (ISO)
 62
    18
420
        0
370
     5
100
AcDbSpline
210
0.0
220
0.0
230
1.0
 70
     8
 71
     3
 72
     8
 73
     4
 74
     0
 42
0.0000000001
 43
0.0000000001
 40
0.0
 40
0.0
 40
0.0
 40
0.0
 40
1.0
 40
1.0
 40
1.0
 40
1.0
 10
72.86728889265795
 20
178.0097101747672
 30
0.0
 10
72.86728889265795
 20
178.1360881609378
 30
0.0
 10
72.79528747293568
 20
178.238537760917
 30
0.0
 10
72.70646922056672
 20
178.238537760917
 30
0.0
  0
LINE
  5
C0
330
BA
100
AcDbEntity
  8
Sichtbar schmal (ISO)
 62
    18
420
        0
370
     5
100
AcDbLine
 10
67.07778069738383
 20
178.238537760917
 30
0.0
 11
116.1277806851215
 21
178.238537760917
 31
0.0
  0
LINE
  5
C1
330
BA
100
AcDbEntity
  8
Sichtbar schmal (ISO)
 62
    18
420
        0
370
     5
100
AcDbLine
 10
67.07778069738383
 20
185.561020517707
 30
0.0
 11
116.1277806851215
 21
185.561020517707
 31
0.0
  0
LINE
  5
C2
330
BA
100
AcDbEntity
  8
Sichtbar schmal (ISO)
 62
    18
420
        0
370
     5
100
AcDbLine
 10
116.1277806851215
 20
185.561020517707
 30
0.0
 11
116.1277806851215
 21
178.238537760917
 31
0.0
  0
LINE
  5
C3
330
BA
100
AcDbEntity
  8
Sichtbar schmal (ISO)
 62
    18
420
        0
370
     5
100
AcDbLine
 10
67.07778069738383
 20
185.561020517707
 30
0.0
 11
67.07778069738383
 21
178.238537760917
 31
0.0
  0
LINE
  5
C4
330
BA
100
AcDbEntity
  8
Sichtbar schmal (ISO)
 62
    18
420
        0
370
     5
100
AcDbLine
 10
68.12310856597497
 20
165.653020522684
 30
0.0
 11
70.05294463106635
 21
165.653020522684
 31
0.0
  0
LINE
  5
C5
330
BA
100
AcDbEntity
  8
Sichtbar schmal (ISO)
 62
    18
420
        0
370
     5
100
AcDbLine
 10
70.05294463106635
 20
178.238537760917
 30
0.0
 11
70.05294463106635
 21
165.653020522684
 31
0.0
  0
LINE
  5
C6
330
BA
100
AcDbEntity
  8
Sichtbar schmal (ISO)
 62
    18
420
        0
370
     5
100
AcDbLine
 10
68.12310856597497
 20
178.238537760917
 30
0.0
 11
68.12310856597497
 21
165.653020522684
 31
0.0
  0
LINE
  5
C7
330
BA
100
AcDbEntity
  8
Sichtbar schmal (ISO)
 62
    18
420
        0
370
     5
100
AcDbLine
 10
90.63786265870685
 20
165.653020522684
 30
0.0
 11
92.56769872379853
 21
165.653020522684
 31
0.0
  0
LINE
  5
C8
330
BA
100
AcDbEntity
  8
Sichtbar schmal (ISO)
 62
    18
420
        0
370
     5
100
AcDbLine
 10
92.56769872379853
 20
178.238537760917
 30
0.0
 11
92.56769872379853
 21
165.653020522684
 31
0.0
  0
LINE
  5
C9
330
BA
100
AcDbEntity
  8
Sichtbar schmal (ISO)
 62
    18
420
        0
370
     5
100
AcDbLine
 10
90.63786265870685
 20
178.238537760917
 30
0.0
 11
90.63786265870685
 21
165.653020522684
 31
0.0
  0
LINE
  5
CA
330
BA
100
AcDbEntity
  8
Sichtbar schmal (ISO)
 62
    18
420
        0
370
     5
100
AcDbLine
 10
113.152616751439
 20
165.653020522684
 30
0.0
 11
115.0824528165301
 21
165.653020522684
 31
0.0
  0
LINE
  5
CB
330
BA
100
AcDbEntity
  8
Sichtbar schmal (ISO)
 62
    18
420
        0
370
     5
100
AcDbLine
 10
115.0824528165301
 20
178.238537760917
 30
0.0
 11
115.0824528165301
 21
165.653020522684
 31
0.0
  0
LINE
  5
CC
330
BA
100
AcDbEntity
  8
Sichtbar schmal (ISO)
 62
    18
420
        0
370
     5
100
AcDbLine
 10
113.152616751439
 20
178.238537760917
 30
0.0
 11
113.152616751439
 21
165.653020522684
 31
0.0
  0
LINE
  5
CD
330
BA
100
AcDbEntity
  8
Sichtbar schmal (ISO)
 62
    18
420
        0
370
     5
100
AcDbLine
 10
72.5456495484761
 20
178.238537760917
 30
0.0
 11
72.5456495484761
 21
177.3575515542404
 31
0.0
  0
LINE
  5
CE
330
BA
100
AcDbEntity
  8
Sichtbar schmal (ISO)
 62
    18
420
        0
370
     5
100
AcDbLine
 10
72.5456495484761
 20
175.9159377614971
 30
0.0
 11
72.5456495484761
 21
168.8566067287792
 31
0.0
  0
LINE
  5
CF
330
BA
100
AcDbEntity
  8
Sichtbar schmal (ISO)
 62
    18
420
        0
370
     5
100
AcDbLine
 10
72.5456495484761
 20
168.8566067287792
 30
0.0
 11
72.85120692544343
 21
168.8566067287792
 31
0.0
  0
LINE
  5
D0
330
BA
100
AcDbEntity
  8
Sichtbar schmal (ISO)
 62
    18
420
        0
370
     5
100
AcDbLine
 10
110.3543544570619
 20
168.8566067287792
 30
0.0
 11
110.6599118340296
 21
168.8566067287792
 31
0.0
  0
LINE
  5
D1
330
BA
100
AcDbEntity
  8
Sichtbar schmal (ISO)
 62
    18
420
        0
370
     5
100
AcDbLine
 10
110.2578626538043
 20
168.8566067287792
 30
0.0
 11
110.3543544570619
 21
168.8566067287792
 31
0.0
  0
LINE
  5
D2
330
BA
100
AcDbEntity
  8
Sichtbar schmal (ISO)
 62
    18
420
        0
370
     5
100
AcDbLine
 10
110.2578626538031
 20
168.8566067287792
 30
0.0
 11
109.3611060637887
 21
168.8566067287792
 31
0.0
  0
LINE
  5
D3
330
BA
100
AcDbEntity
  8
Sichtbar schmal (ISO)
 62
    18
420
        0
370
     5
100
AcDbLine
 10
109.3611060637945
 20
168.8566067287792
 30
0.0
 11
108.5177889579508
 21
168.8566067287792
 31
0.0
  0
LINE
  5
D4
330
BA
100
AcDbEntity
  8
Sichtbar schmal (ISO)
 62
    18
420
        0
370
     5
100
AcDbLine
 10
108.5177889579483
 20
168.8566067287792
 30
0.0
 11
107.6170611962316
 21
168.8566067287792
 31
0.0
  0
LINE
  5
D5
330
BA
100
AcDbEntity
  8
Sichtbar schmal (ISO)
 62
    18
420
        0
370
     5
100
AcDbLine
 10
106.8002397038468
 20
168.8566067287792
 30
0.0
 11
107.6170611962316
 21
168.8566067287792
 31
0.0
  0
LINE
  5
D6
330
BA
100
AcDbEntity
  8
Sichtbar schmal (ISO)
 62
    18
420
        0
370
     5
100
AcDbLine
 10
106.3177806875724
 20
168.8566067287792
 30
0.0
 11
106.8002397038481
 21
168.8566067287792
 31
0.0
  0
LINE
  5
D7
330
BA
100
AcDbEntity
  8
Sichtbar schmal (ISO)
 62
    18
420
        0
370
     5
100
AcDbLine
 10
99.40253478766319
 20
168.8566067287792
 30
0.0
 11
106.3177806875737
 21
168.8566067287792
 31
0.0
  0
LINE
  5
D8
330
BA
100
AcDbEntity
  8
Sichtbar schmal (ISO)
 62
    18
420
        0
370
     5
100
AcDbLine
 10
99.40253478766319
 20
168.8566067287792
 30
0.0
 11
98.75925609929982
 21
168.8566067287792
 31
0.0
  0
LINE
  5
D9
330
BA
100
AcDbEntity
  8
Sichtbar schmal (ISO)
 62
    18
420
        0
370
     5
100
AcDbLine
 10
97.95515773884488
 20
168.8566067287792
 30
0.0
 11
98.75925609929982
 21
168.8566067287792
 31
0.0
  0
LINE
  5
DA
330
BA
100
AcDbEntity
  8
Sichtbar schmal (ISO)
 62
    18
420
        0
370
     5
100
AcDbLine
 10
97.95515773884488
 20
168.8566067287792
 30
0.0
 11
97.31187905048122
 21
168.8566067287792
 31
0.0
  0
LINE
  5
DB
330
BA
100
AcDbEntity
  8
Sichtbar schmal (ISO)
 62
    18
420
        0
370
     5
100
AcDbLine
 10
97.15105937839028
 20
168.8566067287792
 30
0.0
 11
97.31187905048122
 21
168.8566067287792
 31
0.0
  0
LINE
  5
DC
330
BA
100
AcDbEntity
  8
Sichtbar schmal (ISO)
 62
    18
420
        0
370
     5
100
AcDbLine
 10
96.66860036211623
 20
168.8566067287792
 30
0.0
 11
97.15105937839156
 21
168.8566067287792
 31
0.0
  0
LINE
  5
DD
330
BA
100
AcDbEntity
  8
Sichtbar schmal (ISO)
 62
    18
420
        0
370
     5
100
AcDbLine
 10
96.66860036211751
 20
168.8566067287792
 30
0.0
 11
92.56769872379853
 21
168.8566067287792
 31
0.0
  0
LINE
  5
DE
330
BA
100
AcDbEntity
  8
Sichtbar schmal (ISO)
 62
    18
420
        0
370
     5
100
AcDbLine
 10
90.63786265870685
 20
168.8566067287792
 30
0.0
 11
86.53696102038788
 21
168.8566067287792
 31
0.0
  0
LINE
  5
DF
330
BA
100
AcDbEntity
  8
Sichtbar schmal (ISO)
 62
    18
420
        0
370
     5
100
AcDbLine
 10
86.53696102038916
 20
168.8566067287792
 30
0.0
 11
86.05450200411382
 21
168.8566067287792
 31
0.0
  0
LINE
  5
E0
330
BA
100
AcDbEntity
  8
Sichtbar schmal (ISO)
 62
    18
420
        0
370
     5
100
AcDbLine
 10
86.0545020041151
 20
168.8566067287792
 30
0.0
 11
85.89368233202419
 21
168.8566067287792
 31
0.0
  0
LINE
  5
E1
330
BA
100
AcDbEntity
  8
Sichtbar schmal (ISO)
 62
    18
420
        0
370
     5
100
AcDbLine
 10
85.25040364366018
 20
168.8566067287792
 30
0.0
 11
85.89368233202419
 21
168.8566067287792
 31
0.0
  0
LINE
  5
E2
330
BA
100
AcDbEntity
  8
Sichtbar schmal (ISO)
 62
    18
420
        0
370
     5
100
AcDbLine
 10
85.25040364366018
 20
168.8566067287792
 30
0.0
 11
84.44630528320557
 21
168.8566067287792
 31
0.0
  0
LINE
  5
E3
330
BA
100
AcDbEntity
  8
Sichtbar schmal (ISO)
 62
    18
420
        0
370
     5
100
AcDbLine
 10
83.80302659484188
 20
168.8566067287792
 30
0.0
 11
84.44630528320557
 21
168.8566067287792
 31
0.0
  0
LINE
  5
E4
330
BA
100
AcDbEntity
  8
Sichtbar schmal (ISO)
 62
    18
420
        0
370
     5
100
AcDbLine
 10
83.80302659484188
 20
168.8566067287792
 30
0.0
 11
76.88778069493131
 21
168.8566067287792
 31
0.0
  0
LINE
  5
E5
330
BA
100
AcDbEntity
  8
Sichtbar schmal (ISO)
 62
    18
420
        0
370
     5
100
AcDbLine
 10
76.88778069493259
 20
168.8566067287792
 30
0.0
 11
76.40532167865726
 21
168.8566067287792
 31
0.0
  0
LINE
  5
E6
330
BA
100
AcDbEntity
  8
Sichtbar schmal (ISO)
 62
    18
420
        0
370
     5
100
AcDbLine
 10
76.40532167865855
 20
168.8566067287792
 30
0.0
 11
75.58850018627349
 21
168.8566067287792
 31
0.0
  0
LINE
  5
E7
330
BA
100
AcDbEntity
  8
Sichtbar schmal (ISO)
 62
    18
420
        0
370
     5
100
AcDbLine
 10
74.68777242455711
 20
168.8566067287792
 30
0.0
 11
75.58850018627349
 21
168.8566067287792
 31
0.0
  0
LINE
  5
E8
330
BA
100
AcDbEntity
  8
Sichtbar schmal (ISO)
 62
    18
420
        0
370
     5
100
AcDbLine
 10
73.84445531871053
 20
168.8566067287792
 30
0.0
 11
74.68777242455455
 21
168.8566067287792
 31
0.0
  0
LINE
  5
E9
330
BA
100
AcDbEntity
  8
Sichtbar schmal (ISO)
 62
    18
420
        0
370
     5
100
AcDbLine
 10
72.94769872870293
 20
168.8566067287792
 30
0.0
 11
73.84445531871566
 21
168.8566067287792
 31
0.0
  0
LINE
  5
EA
330
BA
100
AcDbEntity
  8
Sichtbar schmal (ISO)
 62
    18
420
        0
370
     5
100
AcDbLine
 10
72.94769872870102
 20
168.8566067287792
 30
0.0
 11
72.85120692544343
 21
168.8566067287792
 31
0.0
  0
LINE
  5
EB
330
BA
100
AcDbEntity
  8
Sichtbar schmal (ISO)
 62
    18
420
        0
370
     5
100
AcDbLine
 10
73.78933550238385
 20
178.0097101747672
 30
0.0
 11
74.69906894784933
 21
178.0097101747672
 31
0.0
  0
LINE
  5
EC
330
BA
100
AcDbEntity
  8
Sichtbar schmal (ISO)
 62
    18
420
        0
370
     5
100
AcDbLine
 10
74.69906894785414
 20
178.0097101747672
 30
0.0
 11
75.53928618994238
 21
178.0097101747672
 31
0.0
  0
LINE
  5
ED
330
BA
100
AcDbEntity
  8
Sichtbar schmal (ISO)
 62
    18
420
        0
370
     5
100
AcDbLine
 10
76.23649678876076
 20
178.0097101747672
 30
0.0
 11
75.5392861899427
 21
178.0097101747672
 31
0.0
  0
LINE
  5
EE
330
BA
100
AcDbEntity
  8
Sichtbar schmal (ISO)
 62
    18
420
        0
370
     5
100
AcDbLine
 10
72.94769872870325
 20
178.0097101747672
 30
0.0
 11
73.78933550238321
 21
178.0097101747672
 31
0.0
  0
LINE
  5
EF
330
BA
100
AcDbEntity
  8
Sichtbar schmal (ISO)
 62
    18
420
        0
370
     5
100
AcDbLine
 10
74.68777242455167
 20
168.8566067287792
 30
0.0
 11
74.68777242455167
 21
176.6367446578689
 31
0.0
  0
LINE
  5
F0
330
BA
100
AcDbEntity
  8
Sichtbar schmal (ISO)
 62
    18
420
        0
370
     5
100
AcDbLine
 10
74.68777242455455
 20
176.6367446578689
 30
0.0
 11
74.69906894784933
 21
176.6367446578689
 31
0.0
  0
LINE
  5
F1
330
BA
100
AcDbEntity
  8
Sichtbar schmal (ISO)
 62
    18
420
        0
370
     5
100
AcDbLine
 10
74.69906894785606
 20
176.6367446578689
 30
0.0
 11
74.69906894785606
 21
178.0097101747672
 31
0.0
  0
LINE
  5
F2
330
BA
100
AcDbEntity
  8
Sichtbar schmal (ISO)
 62
    18
420
        0
370
     5
100
AcDbLine
 10
73.78933550238514
 20
176.6367446578689
 30
0.0
 11
73.78933550238514
 21
178.0097101747672
 31
0.0
  0
LINE
  5
F3
330
BA
100
AcDbEntity
  8
Sichtbar schmal (ISO)
 62
    18
420
        0
370
     5
100
AcDbLine
 10
73.78933550238385
 20
176.6367446578689
 30
0.0
 11
73.84445531871053
 21
176.6367446578689
 31
0.0
  0
LINE
  5
F4
330
BA
100
AcDbEntity
  8
Sichtbar schmal (ISO)
 62
    18
420
        0
370
     5
100
AcDbLine
 10
73.84445531870987
 20
168.8566067287792
 30
0.0
 11
73.84445531870987
 21
176.6367446578689
 31
0.0
  0
LINE
  5
F5
330
BA
100
AcDbEntity
  8
Sichtbar schmal (ISO)
 62
    18
420
        0
370
     5
100
AcDbLine
 10
75.58850018627349
 20
176.6367446578689
 30
0.0
 11
75.58850018627349
 21
168.8566067287792
 31
0.0
  0
LINE
  5
F6
330
BA
100
AcDbEntity
  8
Sichtbar schmal (ISO)
 62
    18
420
        0
370
     5
100
AcDbLine
 10
74.69906894785414
 20
176.6367446578689
 30
0.0
 11
75.53928618994238
 21
176.6367446578689
 31
0.0
  0
LINE
  5
F7
330
BA
100
AcDbEntity
  8
Sichtbar schmal (ISO)
 62
    18
420
        0
370
     5
100
AcDbLine
 10
75.58850018627349
 20
176.6367446578689
 30
0.0
 11
75.5392861899427
 21
176.6367446578689
 31
0.0
  0
LINE
  5
F8
330
BA
100
AcDbEntity
  8
Sichtbar schmal (ISO)
 62
    18
420
        0
370
     5
100
AcDbLine
 10
72.94769872870325
 20
176.6367446578689
 30
0.0
 11
73.78933550238321
 21
176.6367446578689
 31
0.0
  0
LINE
  5
F9
330
BA
100
AcDbEntity
  8
Sichtbar schmal (ISO)
 62
    18
420
        0
370
     5
100
AcDbLine
 10
75.5392861899427
 20
178.0097101747672
 30
0.0
 11
75.5392861899427
 21
176.6367446578689
 31
0.0
  0
LINE
  5
FA
330
BA
100
AcDbEntity
  8
Sichtbar schmal (ISO)
 62
    18
420
        0
370
     5
100
AcDbLine
 10
96.66860036211751
 20
173.2729791414685
 30
0.0
 11
96.66860036211751
 21
168.8566067287792
 31
0.0
  0
LINE
  5
FB
330
BA
100
AcDbEntity
  8
Sichtbar schmal (ISO)
 62
    18
420
        0
370
     5
100
AcDbLine
 10
86.53696102038788
 20
173.2729791414685
 30
0.0
 11
86.53696102038788
 21
168.8566067287792
 31
0.0
  0
LINE
  5
FC
330
BA
100
AcDbEntity
  8
Sichtbar schmal (ISO)
 62
    18
420
        0
370
     5
100
AcDbLine
 10
92.56769872379853
 20
170.3439860387529
 30
0.0
 11
93.85425610052591
 21
170.3439860387529
 31
0.0
  0
SPLINE
  5
FD
330
BA
100
AcDbEntity
  8
Sichtbar schmal (ISO)
 62
    18
420
        0
370
     5
100
AcDbSpline
210
0.0
220
0.0
230
1.0
 70
     8
 71
     3
 72
     8
 73
     4
 74
     0
 42
0.0000000001
 43
0.0000000001
 40
0.0
 40
0.0
 40
0.0
 40
0.0
 40
1.0
 40
1.0
 40
1.0
 40
1.0
 10
94.01507577261684
 20
170.1151584526024
 30
0.0
 10
94.01507577261684
 20
170.2415364387737
 30
0.0
 10
93.94307435289457
 20
170.3439860387529
 30
0.0
 10
93.85425610052591
 20
170.3439860387529
 30
0.0
  0
LINE
  5
FE
330
BA
100
AcDbEntity
  8
Sichtbar schmal (ISO)
 62
    18
420
        0
370
     5
100
AcDbLine
 10
94.01507577261684
 20
170.1151584526024
 30
0.0
 11
94.01507577261684
 21
169.9206550043747
 31
0.0
  0
SPLINE
  5
FF
330
BA
100
AcDbEntity
  8
Sichtbar schmal (ISO)
 62
    18
420
        0
370
     5
100
AcDbSpline
210
0.0
220
0.0
230
1.0
 70
     8
 71
     3
 72
     8
 73
     4
 74
     0
 42
0.0000000001
 43
0.0000000001
 40
0.0
 40
0.0
 40
0.0
 40
0.0
 40
1.0
 40
1.0
 40
1.0
 40
1.0
 10
93.85425610052591
 20
169.6918274182262
 30
0.0
 10
93.94307435289457
 20
169.6918274182262
 30
0.0
 10
94.01507577261684
 20
169.794277018204
 30
0.0
 10
94.01507577261684
 20
169.9206550043747
 30
0.0
  0
LINE
  5
100
330
BA
100
AcDbEntity
  8
Sichtbar schmal (ISO)
 62
    18
420
        0
370
     5
100
AcDbLine
 10
93.85425610052591
 20
169.6918274182262
 30
0.0
 11
92.56769872379853
 21
169.6918274182262
 31
0.0
  0
LINE
  5
101
330
BA
100
AcDbEntity
  8
Sichtbar schmal (ISO)
 62
    18
420
        0
370
     5
100
AcDbLine
 10
89.35130528197948
 20
169.6918274182262
 30
0.0
 11
90.63786265870685
 21
169.6918274182262
 31
0.0
  0
SPLINE
  5
102
330
BA
100
AcDbEntity
  8
Sichtbar schmal (ISO)
 62
    18
420
        0
370
     5
100
AcDbSpline
210
0.0
220
0.0
230
1.0
 70
     8
 71
     3
 72
     8
 73
     4
 74
     0
 42
0.0000000001
 43
0.0000000001
 40
0.0
 40
0.0
 40
0.0
 40
0.0
 40
1.0
 40
1.0
 40
1.0
 40
1.0
 10
89.19048560988855
 20
169.9206550043747
 30
0.0
 10
89.19048560988855
 20
169.794277018204
 30
0.0
 10
89.2624870296105
 20
169.6918274182262
 30
0.0
 10
89.35130528197948
 20
169.6918274182262
 30
0.0
  0
LINE
  5
103
330
BA
100
AcDbEntity
  8
Sichtbar schmal (ISO)
 62
    18
420
        0
370
     5
100
AcDbLine
 10
89.19048560988855
 20
170.1151584526024
 30
0.0
 11
89.19048560988855
 21
169.9206550043747
 31
0.0
  0
SPLINE
  5
104
330
BA
100
AcDbEntity
  8
Sichtbar schmal (ISO)
 62
    18
420
        0
370
     5
100
AcDbSpline
210
0.0
220
0.0
230
1.0
 70
     8
 71
     3
 72
     8
 73
     4
 74
     0
 42
0.0000000001
 43
0.0000000001
 40
0.0
 40
0.0
 40
0.0
 40
0.0
 40
1.0
 40
1.0
 40
1.0
 40
1.0
 10
89.35130528197948
 20
170.3439860387529
 30
0.0
 10
89.2624870296105
 20
170.3439860387529
 30
0.0
 10
89.19048560988855
 20
170.2415364387737
 30
0.0
 10
89.19048560988855
 20
170.1151584526024
 30
0.0
  0
LINE
  5
105
330
BA
100
AcDbEntity
  8
Sichtbar schmal (ISO)
 62
    18
420
        0
370
     5
100
AcDbLine
 10
90.63786265870685
 20
170.3439860387529
 30
0.0
 11
89.35130528197948
 21
170.3439860387529
 31
0.0
  0
LINE
  5
106
330
BA
100
AcDbEntity
  8
Sichtbar schmal (ISO)
 62
    18
420
        0
370
     5
100
AcDbLine
 10
92.56769872379853
 20
171.7169515556505
 30
0.0
 11
93.85425610052591
 21
171.7169515556505
 31
0.0
  0
SPLINE
  5
107
330
BA
100
AcDbEntity
  8
Sichtbar schmal (ISO)
 62
    18
420
        0
370
     5
100
AcDbSpline
210
0.0
220
0.0
230
1.0
 70
     8
 71
     3
 72
     8
 73
     4
 74
     0
 42
0.0000000001
 43
0.0000000001
 40
0.0
 40
0.0
 40
0.0
 40
0.0
 40
1.0
 40
1.0
 40
1.0
 40
1.0
 10
94.01507577261684
 20
171.4881239695006
 30
0.0
 10
94.01507577261684
 20
171.6145019556719
 30
0.0
 10
93.94307435289457
 20
171.7169515556505
 30
0.0
 10
93.85425610052591
 20
171.7169515556505
 30
0.0
  0
LINE
  5
108
330
BA
100
AcDbEntity
  8
Sichtbar schmal (ISO)
 62
    18
420
        0
370
     5
100
AcDbLine
 10
94.01507577261684
 20
171.4881239695006
 30
0.0
 11
94.01507577261684
 21
171.2936205212736
 31
0.0
  0
SPLINE
  5
109
330
BA
100
AcDbEntity
  8
Sichtbar schmal (ISO)
 62
    18
420
        0
370
     5
100
AcDbSpline
210
0.0
220
0.0
230
1.0
 70
     8
 71
     3
 72
     8
 73
     4
 74
     0
 42
0.0000000001
 43
0.0000000001
 40
0.0
 40
0.0
 40
0.0
 40
0.0
 40
1.0
 40
1.0
 40
1.0
 40
1.0
 10
93.85425610052591
 20
171.0647929351234
 30
0.0
 10
93.94307435289457
 20
171.0647929351234
 30
0.0
 10
94.01507577261684
 20
171.1672425351029
 30
0.0
 10
94.01507577261684
 20
171.2936205212736
 30
0.0
  0
LINE
  5
10A
330
BA
100
AcDbEntity
  8
Sichtbar schmal (ISO)
 62
    18
420
        0
370
     5
100
AcDbLine
 10
93.85425610052591
 20
171.0647929351234
 30
0.0
 11
92.56769872379853
 21
171.0647929351234
 31
0.0
  0
LINE
  5
10B
330
BA
100
AcDbEntity
  8
Sichtbar schmal (ISO)
 62
    18
420
        0
370
     5
100
AcDbLine
 10
89.35130528197948
 20
171.0647929351234
 30
0.0
 11
90.63786265870685
 21
171.0647929351234
 31
0.0
  0
SPLINE
  5
10C
330
BA
100
AcDbEntity
  8
Sichtbar schmal (ISO)
 62
    18
420
        0
370
     5
100
AcDbSpline
210
0.0
220
0.0
230
1.0
 70
     8
 71
     3
 72
     8
 73
     4
 74
     0
 42
0.0000000001
 43
0.0000000001
 40
0.0
 40
0.0
 40
0.0
 40
0.0
 40
1.0
 40
1.0
 40
1.0
 40
1.0
 10
89.19048560988855
 20
171.2936205212736
 30
0.0
 10
89.19048560988855
 20
171.1672425351029
 30
0.0
 10
89.2624870296105
 20
171.0647929351234
 30
0.0
 10
89.35130528197948
 20
171.0647929351234
 30
0.0
  0
LINE
  5
10D
330
BA
100
AcDbEntity
  8
Sichtbar schmal (ISO)
 62
    18
420
        0
370
     5
100
AcDbLine
 10
89.19048560988855
 20
171.4881239695006
 30
0.0
 11
89.19048560988855
 21
171.2936205212736
 31
0.0
  0
SPLINE
  5
10E
330
BA
100
AcDbEntity
  8
Sichtbar schmal (ISO)
 62
    18
420
        0
370
     5
100
AcDbSpline
210
0.0
220
0.0
230
1.0
 70
     8
 71
     3
 72
     8
 73
     4
 74
     0
 42
0.0000000001
 43
0.0000000001
 40
0.0
 40
0.0
 40
0.0
 40
0.0
 40
1.0
 40
1.0
 40
1.0
 40
1.0
 10
89.35130528197948
 20
171.7169515556505
 30
0.0
 10
89.2624870296105
 20
171.7169515556505
 30
0.0
 10
89.19048560988855
 20
171.6145019556719
 30
0.0
 10
89.19048560988855
 20
171.4881239695006
 30
0.0
  0
LINE
  5
10F
330
BA
100
AcDbEntity
  8
Sichtbar schmal (ISO)
 62
    18
420
        0
370
     5
100
AcDbLine
 10
90.63786265870685
 20
171.7169515556505
 30
0.0
 11
89.35130528197948
 21
171.7169515556505
 31
0.0
  0
LINE
  5
110
330
BA
100
AcDbEntity
  8
Sichtbar schmal (ISO)
 62
    18
420
        0
370
     5
100
AcDbLine
 10
92.56769872379853
 20
173.0899170725484
 30
0.0
 11
93.85425610052591
 21
173.0899170725484
 31
0.0
  0
SPLINE
  5
111
330
BA
100
AcDbEntity
  8
Sichtbar schmal (ISO)
 62
    18
420
        0
370
     5
100
AcDbSpline
210
0.0
220
0.0
230
1.0
 70
     8
 71
     3
 72
     8
 73
     4
 74
     0
 42
0.0000000001
 43
0.0000000001
 40
0.0
 40
0.0
 40
0.0
 40
0.0
 40
1.0
 40
1.0
 40
1.0
 40
1.0
 10
94.01507577261684
 20
172.8610894863995
 30
0.0
 10
94.01507577261684
 20
172.9874674725702
 30
0.0
 10
93.94307435289457
 20
173.0899170725484
 30
0.0
 10
93.85425610052591
 20
173.0899170725484
 30
0.0
  0
LINE
  5
112
330
BA
100
AcDbEntity
  8
Sichtbar schmal (ISO)
 62
    18
420
        0
370
     5
100
AcDbLine
 10
94.01507577261684
 20
172.8610894863995
 30
0.0
 11
94.01507577261684
 21
172.6665860381715
 31
0.0
  0
SPLINE
  5
113
330
BA
100
AcDbEntity
  8
Sichtbar schmal (ISO)
 62
    18
420
        0
370
     5
100
AcDbSpline
210
0.0
220
0.0
230
1.0
 70
     8
 71
     3
 72
     8
 73
     4
 74
     0
 42
0.0000000001
 43
0.0000000001
 40
0.0
 40
0.0
 40
0.0
 40
0.0
 40
1.0
 40
1.0
 40
1.0
 40
1.0
 10
93.85425610052591
 20
172.4377584520223
 30
0.0
 10
93.94307435289457
 20
172.4377584520223
 30
0.0
 10
94.01507577261684
 20
172.5402080520002
 30
0.0
 10
94.01507577261684
 20
172.6665860381715
 30
0.0
  0
LINE
  5
114
330
BA
100
AcDbEntity
  8
Sichtbar schmal (ISO)
 62
    18
420
        0
370
     5
100
AcDbLine
 10
93.85425610052591
 20
172.4377584520223
 30
0.0
 11
92.56769872379853
 21
172.4377584520223
 31
0.0
  0
LINE
  5
115
330
BA
100
AcDbEntity
  8
Sichtbar schmal (ISO)
 62
    18
420
        0
370
     5
100
AcDbLine
 10
89.35130528197948
 20
172.4377584520223
 30
0.0
 11
90.63786265870685
 21
172.4377584520223
 31
0.0
  0
SPLINE
  5
116
330
BA
100
AcDbEntity
  8
Sichtbar schmal (ISO)
 62
    18
420
        0
370
     5
100
AcDbSpline
210
0.0
220
0.0
230
1.0
 70
     8
 71
     3
 72
     8
 73
     4
 74
     0
 42
0.0000000001
 43
0.0000000001
 40
0.0
 40
0.0
 40
0.0
 40
0.0
 40
1.0
 40
1.0
 40
1.0
 40
1.0
 10
89.19048560988855
 20
172.6665860381715
 30
0.0
 10
89.19048560988855
 20
172.5402080520002
 30
0.0
 10
89.2624870296105
 20
172.4377584520223
 30
0.0
 10
89.35130528197948
 20
172.4377584520223
 30
0.0
  0
LINE
  5
117
330
BA
100
AcDbEntity
  8
Sichtbar schmal (ISO)
 62
    18
420
        0
370
     5
100
AcDbLine
 10
89.19048560988855
 20
172.8610894863995
 30
0.0
 11
89.19048560988855
 21
172.6665860381715
 31
0.0
  0
SPLINE
  5
118
330
BA
100
AcDbEntity
  8
Sichtbar schmal (ISO)
 62
    18
420
        0
370
     5
100
AcDbSpline
210
0.0
220
0.0
230
1.0
 70
     8
 71
     3
 72
     8
 73
     4
 74
     0
 42
0.0000000001
 43
0.0000000001
 40
0.0
 40
0.0
 40
0.0
 40
0.0
 40
1.0
 40
1.0
 40
1.0
 40
1.0
 10
89.35130528197948
 20
173.0899170725484
 30
0.0
 10
89.2624870296105
 20
173.0899170725484
 30
0.0
 10
89.19048560988855
 20
172.9874674725702
 30
0.0
 10
89.19048560988855
 20
172.8610894863995
 30
0.0
  0
LINE
  5
119
330
BA
100
AcDbEntity
  8
Sichtbar schmal (ISO)
 62
    18
420
        0
370
     5
100
AcDbLine
 10
90.63786265870685
 20
173.0899170725484
 30
0.0
 11
89.35130528197948
 21
173.0899170725484
 31
0.0
  0
LINE
  5
11A
330
BA
100
AcDbEntity
  8
Sichtbar schmal (ISO)
 62
    18
420
        0
370
     5
100
AcDbLine
 10
92.56769872379853
 20
174.462882589447
 30
0.0
 11
93.85425610052591
 21
174.462882589447
 31
0.0
  0
SPLINE
  5
11B
330
BA
100
AcDbEntity
  8
Sichtbar schmal (ISO)
 62
    18
420
        0
370
     5
100
AcDbSpline
210
0.0
220
0.0
230
1.0
 70
     8
 71
     3
 72
     8
 73
     4
 74
     0
 42
0.0000000001
 43
0.0000000001
 40
0.0
 40
0.0
 40
0.0
 40
0.0
 40
1.0
 40
1.0
 40
1.0
 40
1.0
 10
94.01507577261684
 20
174.2340550032968
 30
0.0
 10
94.01507577261684
 20
174.3604329894681
 30
0.0
 10
93.94307435289457
 20
174.462882589447
 30
0.0
 10
93.85425610052591
 20
174.462882589447
 30
0.0
  0
LINE
  5
11C
330
BA
100
AcDbEntity
  8
Sichtbar schmal (ISO)
 62
    18
420
        0
370
     5
100
AcDbLine
 10
94.01507577261684
 20
174.2340550032968
 30
0.0
 11
94.01507577261684
 21
174.0395515550688
 31
0.0
  0
SPLINE
  5
11D
330
BA
100
AcDbEntity
  8
Sichtbar schmal (ISO)
 62
    18
420
        0
370
     5
100
AcDbSpline
210
0.0
220
0.0
230
1.0
 70
     8
 71
     3
 72
     8
 73
     4
 74
     0
 42
0.0000000001
 43
0.0000000001
 40
0.0
 40
0.0
 40
0.0
 40
0.0
 40
1.0
 40
1.0
 40
1.0
 40
1.0
 10
93.85425610052591
 20
173.8107239689205
 30
0.0
 10
93.94307435289457
 20
173.8107239689205
 30
0.0
 10
94.01507577261684
 20
173.9131735688984
 30
0.0
 10
94.01507577261684
 20
174.0395515550688
 30
0.0
  0
LINE
  5
11E
330
BA
100
AcDbEntity
  8
Sichtbar schmal (ISO)
 62
    18
420
        0
370
     5
100
AcDbLine
 10
93.85425610052591
 20
173.8107239689205
 30
0.0
 11
92.56769872379853
 21
173.8107239689205
 31
0.0
  0
LINE
  5
11F
330
BA
100
AcDbEntity
  8
Sichtbar schmal (ISO)
 62
    18
420
        0
370
     5
100
AcDbLine
 10
89.35130528197948
 20
173.8107239689205
 30
0.0
 11
90.63786265870685
 21
173.8107239689205
 31
0.0
  0
SPLINE
  5
120
330
BA
100
AcDbEntity
  8
Sichtbar schmal (ISO)
 62
    18
420
        0
370
     5
100
AcDbSpline
210
0.0
220
0.0
230
1.0
 70
     8
 71
     3
 72
     8
 73
     4
 74
     0
 42
0.0000000001
 43
0.0000000001
 40
0.0
 40
0.0
 40
0.0
 40
0.0
 40
1.0
 40
1.0
 40
1.0
 40
1.0
 10
89.19048560988855
 20
174.0395515550688
 30
0.0
 10
89.19048560988855
 20
173.9131735688984
 30
0.0
 10
89.2624870296105
 20
173.8107239689205
 30
0.0
 10
89.35130528197948
 20
173.8107239689205
 30
0.0
  0
LINE
  5
121
330
BA
100
AcDbEntity
  8
Sichtbar schmal (ISO)
 62
    18
420
        0
370
     5
100
AcDbLine
 10
89.19048560988855
 20
174.2340550032968
 30
0.0
 11
89.19048560988855
 21
174.0395515550688
 31
0.0
  0
SPLINE
  5
122
330
BA
100
AcDbEntity
  8
Sichtbar schmal (ISO)
 62
    18
420
        0
370
     5
100
AcDbSpline
210
0.0
220
0.0
230
1.0
 70
     8
 71
     3
 72
     8
 73
     4
 74
     0
 42
0.0000000001
 43
0.0000000001
 40
0.0
 40
0.0
 40
0.0
 40
0.0
 40
1.0
 40
1.0
 40
1.0
 40
1.0
 10
89.35130528197948
 20
174.462882589447
 30
0.0
 10
89.2624870296105
 20
174.462882589447
 30
0.0
 10
89.19048560988855
 20
174.3604329894681
 30
0.0
 10
89.19048560988855
 20
174.2340550032968
 30
0.0
  0
LINE
  5
123
330
BA
100
AcDbEntity
  8
Sichtbar schmal (ISO)
 62
    18
420
        0
370
     5
100
AcDbLine
 10
90.63786265870685
 20
174.462882589447
 30
0.0
 11
89.35130528197948
 21
174.462882589447
 31
0.0
  0
LINE
  5
124
330
BA
100
AcDbEntity
  8
Sichtbar schmal (ISO)
 62
    18
420
        0
370
     5
100
AcDbLine
 10
92.56769872379853
 20
175.8358481063449
 30
0.0
 11
93.85425610052591
 21
175.8358481063449
 31
0.0
  0
SPLINE
  5
125
330
BA
100
AcDbEntity
  8
Sichtbar schmal (ISO)
 62
    18
420
        0
370
     5
100
AcDbSpline
210
0.0
220
0.0
230
1.0
 70
     8
 71
     3
 72
     8
 73
     4
 74
     0
 42
0.0000000001
 43
0.0000000001
 40
0.0
 40
0.0
 40
0.0
 40
0.0
 40
1.0
 40
1.0
 40
1.0
 40
1.0
 10
94.01507577261684
 20
175.6070205201957
 30
0.0
 10
94.01507577261684
 20
175.7333985063663
 30
0.0
 10
93.94307435289457
 20
175.8358481063449
 30
0.0
 10
93.85425610052591
 20
175.8358481063449
 30
0.0
  0
LINE
  5
126
330
BA
100
AcDbEntity
  8
Sichtbar schmal (ISO)
 62
    18
420
        0
370
     5
100
AcDbLine
 10
94.01507577261684
 20
175.6070205201957
 30
0.0
 11
94.01507577261684
 21
175.412517071968
 31
0.0
  0
SPLINE
  5
127
330
BA
100
AcDbEntity
  8
Sichtbar schmal (ISO)
 62
    18
420
        0
370
     5
100
AcDbSpline
210
0.0
220
0.0
230
1.0
 70
     8
 71
     3
 72
     8
 73
     4
 74
     0
 42
0.0000000001
 43
0.0000000001
 40
0.0
 40
0.0
 40
0.0
 40
0.0
 40
1.0
 40
1.0
 40
1.0
 40
1.0
 10
93.85425610052591
 20
175.1836894858184
 30
0.0
 10
93.94307435289457
 20
175.1836894858184
 30
0.0
 10
94.01507577261684
 20
175.2861390857973
 30
0.0
 10
94.01507577261684
 20
175.412517071968
 30
0.0
  0
LINE
  5
128
330
BA
100
AcDbEntity
  8
Sichtbar schmal (ISO)
 62
    18
420
        0
370
     5
100
AcDbLine
 10
93.85425610052591
 20
175.1836894858184
 30
0.0
 11
92.56769872379853
 21
175.1836894858184
 31
0.0
  0
LINE
  5
129
330
BA
100
AcDbEntity
  8
Sichtbar schmal (ISO)
 62
    18
420
        0
370
     5
100
AcDbLine
 10
89.35130528197948
 20
175.1836894858184
 30
0.0
 11
90.63786265870685
 21
175.1836894858184
 31
0.0
  0
SPLINE
  5
12A
330
BA
100
AcDbEntity
  8
Sichtbar schmal (ISO)
 62
    18
420
        0
370
     5
100
AcDbSpline
210
0.0
220
0.0
230
1.0
 70
     8
 71
     3
 72
     8
 73
     4
 74
     0
 42
0.0000000001
 43
0.0000000001
 40
0.0
 40
0.0
 40
0.0
 40
0.0
 40
1.0
 40
1.0
 40
1.0
 40
1.0
 10
89.19048560988855
 20
175.412517071968
 30
0.0
 10
89.19048560988855
 20
175.2861390857973
 30
0.0
 10
89.2624870296105
 20
175.1836894858184
 30
0.0
 10
89.35130528197948
 20
175.1836894858184
 30
0.0
  0
LINE
  5
12B
330
BA
100
AcDbEntity
  8
Sichtbar schmal (ISO)
 62
    18
420
        0
370
     5
100
AcDbLine
 10
89.19048560988855
 20
175.6070205201957
 30
0.0
 11
89.19048560988855
 21
175.412517071968
 31
0.0
  0
SPLINE
  5
12C
330
BA
100
AcDbEntity
  8
Sichtbar schmal (ISO)
 62
    18
420
        0
370
     5
100
AcDbSpline
210
0.0
220
0.0
230
1.0
 70
     8
 71
     3
 72
     8
 73
     4
 74
     0
 42
0.0000000001
 43
0.0000000001
 40
0.0
 40
0.0
 40
0.0
 40
0.0
 40
1.0
 40
1.0
 40
1.0
 40
1.0
 10
89.35130528197948
 20
175.8358481063449
 30
0.0
 10
89.2624870296105
 20
175.8358481063449
 30
0.0
 10
89.19048560988855
 20
175.7333985063663
 30
0.0
 10
89.19048560988855
 20
175.6070205201957
 30
0.0
  0
LINE
  5
12D
330
BA
100
AcDbEntity
  8
Sichtbar schmal (ISO)
 62
    18
420
        0
370
     5
100
AcDbLine
 10
90.63786265870685
 20
175.8358481063449
 30
0.0
 11
89.35130528197948
 21
175.8358481063449
 31
0.0
  0
LINE
  5
12E
330
BA
100
AcDbEntity
  8
Sichtbar schmal (ISO)
 62
    18
420
        0
370
     5
100
AcDbLine
 10
76.23649678876076
 20
178.0097101747672
 30
0.0
 11
76.23649678876076
 21
178.238537760917
 31
0.0
  0
LINE
  5
12F
330
BA
100
AcDbEntity
  8
Sichtbar schmal (ISO)
 62
    18
420
        0
370
     5
100
AcDbLine
 10
76.40532167865855
 20
176.6367446578689
 30
0.0
 11
76.40532167865855
 21
168.8566067287792
 31
0.0
  0
LINE
  5
130
330
BA
100
AcDbEntity
  8
Sichtbar schmal (ISO)
 62
    18
420
        0
370
     5
100
AcDbLine
 10
76.29727079712932
 20
176.6367446578689
 30
0.0
 11
76.29727079712932
 21
177.0943998301683
 31
0.0
  0
LINE
  5
131
330
BA
100
AcDbEntity
  8
Sichtbar schmal (ISO)
 62
    18
420
        0
370
     5
100
AcDbLine
 10
76.88778069493131
 20
176.6367446578689
 30
0.0
 11
76.88778069493131
 21
168.8566067287792
 31
0.0
  0
LINE
  5
132
330
BA
100
AcDbEntity
  8
Sichtbar schmal (ISO)
 62
    18
420
        0
370
     5
100
AcDbLine
 10
80.03180528430929
 20
169.9206550043747
 30
0.0
 11
80.03180528430929
 21
169.6918274182262
 31
0.0
  0
LINE
  5
133
330
BA
100
AcDbEntity
  8
Sichtbar schmal (ISO)
 62
    18
420
        0
370
     5
100
AcDbLine
 10
79.0508052845547
 20
169.9206550043747
 30
0.0
 11
80.03180528430929
 21
169.9206550043747
 31
0.0
  0
LINE
  5
134
330
BA
100
AcDbEntity
  8
Sichtbar schmal (ISO)
 62
    18
420
        0
370
     5
100
AcDbLine
 10
79.0508052845547
 20
169.6918274182262
 30
0.0
 11
79.0508052845547
 21
169.9206550043747
 31
0.0
  0
LINE
  5
135
330
BA
100
AcDbEntity
  8
Sichtbar schmal (ISO)
 62
    18
420
        0
370
     5
100
AcDbLine
 10
77.28982987515877
 20
169.6918274182262
 30
0.0
 11
79.0508052845547
 21
169.6918274182262
 31
0.0
  0
SPLINE
  5
136
330
BA
100
AcDbEntity
  8
Sichtbar schmal (ISO)
 62
    18
420
        0
370
     5
100
AcDbSpline
210
0.0
220
0.0
230
1.0
 70
     8
 71
     3
 72
     8
 73
     4
 74
     0
 42
0.0000000001
 43
0.0000000001
 40
0.0
 40
0.0
 40
0.0
 40
0.0
 40
1.0
 40
1.0
 40
1.0
 40
1.0
 10
77.12901020306785
 20
169.9206550043747
 30
0.0
 10
77.12901020306785
 20
169.794277018204
 30
0.0
 10
77.20101162279012
 20
169.6918274182262
 30
0.0
 10
77.28982987515877
 20
169.6918274182262
 30
0.0
  0
LINE
  5
137
330
BA
100
AcDbEntity
  8
Sichtbar schmal (ISO)
 62
    18
420
        0
370
     5
100
AcDbLine
 10
77.12901020306785
 20
170.1151584526024
 30
0.0
 11
77.12901020306785
 21
169.9206550043747
 31
0.0
  0
SPLINE
  5
138
330
BA
100
AcDbEntity
  8
Sichtbar schmal (ISO)
 62
    18
420
        0
370
     5
100
AcDbSpline
210
0.0
220
0.0
230
1.0
 70
     8
 71
     3
 72
     8
 73
     4
 74
     0
 42
0.0000000001
 43
0.0000000001
 40
0.0
 40
0.0
 40
0.0
 40
0.0
 40
1.0
 40
1.0
 40
1.0
 40
1.0
 10
77.28982987515877
 20
170.3439860387529
 30
0.0
 10
77.20101162279012
 20
170.3439860387529
 30
0.0
 10
77.12901020306785
 20
170.2415364387737
 30
0.0
 10
77.12901020306785
 20
170.1151584526024
 30
0.0
  0
LINE
  5
139
330
BA
100
AcDbEntity
  8
Sichtbar schmal (ISO)
 62
    18
420
        0
370
     5
100
AcDbLine
 10
79.05884626815923
 20
170.3439860387529
 30
0.0
 11
77.28982987515877
 21
170.3439860387529
 31
0.0
  0
LINE
  5
13A
330
BA
100
AcDbEntity
  8
Sichtbar schmal (ISO)
 62
    18
420
        0
370
     5
100
AcDbLine
 10
79.05884626815923
 20
170.5728136249027
 30
0.0
 11
79.05884626815923
 21
170.3439860387529
 31
0.0
  0
LINE
  5
13B
330
BA
100
AcDbEntity
  8
Sichtbar schmal (ISO)
 62
    18
420
        0
370
     5
100
AcDbLine
 10
80.02376430070475
 20
170.5728136249027
 30
0.0
 11
79.05884626815923
 21
170.5728136249027
 31
0.0
  0
LINE
  5
13C
330
BA
100
AcDbEntity
  8
Sichtbar schmal (ISO)
 62
    18
420
        0
370
     5
100
AcDbLine
 10
80.02376430070475
 20
170.3439860387529
 30
0.0
 11
80.02376430070475
 21
170.5728136249027
 31
0.0
  0
LINE
  5
13D
330
BA
100
AcDbEntity
  8
Sichtbar schmal (ISO)
 62
    18
420
        0
370
     5
100
AcDbLine
 10
81.79278069370521
 20
170.3439860387529
 30
0.0
 11
80.02376430070475
 21
170.3439860387529
 31
0.0
  0
SPLINE
  5
13E
330
BA
100
AcDbEntity
  8
Sichtbar schmal (ISO)
 62
    18
420
        0
370
     5
100
AcDbSpline
210
0.0
220
0.0
230
1.0
 70
     8
 71
     3
 72
     8
 73
     4
 74
     0
 42
0.0000000001
 43
0.0000000001
 40
0.0
 40
0.0
 40
0.0
 40
0.0
 40
1.0
 40
1.0
 40
1.0
 40
1.0
 10
81.95360036579613
 20
170.1151584526024
 30
0.0
 10
81.95360036579613
 20
170.2415364387737
 30
0.0
 10
81.88159894607386
 20
170.3439860387529
 30
0.0
 10
81.79278069370521
 20
170.3439860387529
 30
0.0
  0
LINE
  5
13F
330
BA
100
AcDbEntity
  8
Sichtbar schmal (ISO)
 62
    18
420
        0
370
     5
100
AcDbLine
 10
81.95360036579613
 20
169.9206550043747
 30
0.0
 11
81.95360036579613
 21
170.1151584526024
 31
0.0
  0
SPLINE
  5
140
330
BA
100
AcDbEntity
  8
Sichtbar schmal (ISO)
 62
    18
420
        0
370
     5
100
AcDbSpline
210
0.0
220
0.0
230
1.0
 70
     8
 71
     3
 72
     8
 73
     4
 74
     0
 42
0.0000000001
 43
0.0000000001
 40
0.0
 40
0.0
 40
0.0
 40
0.0
 40
1.0
 40
1.0
 40
1.0
 40
1.0
 10
81.79278069370521
 20
169.6918274182262
 30
0.0
 10
81.88159894607386
 20
169.6918274182262
 30
0.0
 10
81.95360036579613
 20
169.794277018204
 30
0.0
 10
81.95360036579613
 20
169.9206550043747
 30
0.0
  0
LINE
  5
141
330
BA
100
AcDbEntity
  8
Sichtbar schmal (ISO)
 62
    18
420
        0
370
     5
100
AcDbLine
 10
80.03180528430929
 20
169.6918274182262
 30
0.0
 11
81.79278069370521
 21
169.6918274182262
 31
0.0
  0
LINE
  5
142
330
BA
100
AcDbEntity
  8
Sichtbar schmal (ISO)
 62
    18
420
        0
370
     5
100
AcDbLine
 10
80.03180528430929
 20
171.2936205212736
 30
0.0
 11
80.03180528430929
 21
171.0647929351234
 31
0.0
  0
LINE
  5
143
330
BA
100
AcDbEntity
  8
Sichtbar schmal (ISO)
 62
    18
420
        0
370
     5
100
AcDbLine
 10
79.0508052845547
 20
171.2936205212736
 30
0.0
 11
80.03180528430929
 21
171.2936205212736
 31
0.0
  0
LINE
  5
144
330
BA
100
AcDbEntity
  8
Sichtbar schmal (ISO)
 62
    18
420
        0
370
     5
100
AcDbLine
 10
79.0508052845547
 20
171.0647929351234
 30
0.0
 11
79.0508052845547
 21
171.2936205212736
 31
0.0
  0
LINE
  5
145
330
BA
100
AcDbEntity
  8
Sichtbar schmal (ISO)
 62
    18
420
        0
370
     5
100
AcDbLine
 10
77.28982987515877
 20
171.0647929351234
 30
0.0
 11
79.0508052845547
 21
171.0647929351234
 31
0.0
  0
SPLINE
  5
146
330
BA
100
AcDbEntity
  8
Sichtbar schmal (ISO)
 62
    18
420
        0
370
     5
100
AcDbSpline
210
0.0
220
0.0
230
1.0
 70
     8
 71
     3
 72
     8
 73
     4
 74
     0
 42
0.0000000001
 43
0.0000000001
 40
0.0
 40
0.0
 40
0.0
 40
0.0
 40
1.0
 40
1.0
 40
1.0
 40
1.0
 10
77.12901020306785
 20
171.2936205212736
 30
0.0
 10
77.12901020306785
 20
171.1672425351029
 30
0.0
 10
77.20101162279012
 20
171.0647929351234
 30
0.0
 10
77.28982987515877
 20
171.0647929351234
 30
0.0
  0
LINE
  5
147
330
BA
100
AcDbEntity
  8
Sichtbar schmal (ISO)
 62
    18
420
        0
370
     5
100
AcDbLine
 10
77.12901020306785
 20
171.4881239695006
 30
0.0
 11
77.12901020306785
 21
171.2936205212736
 31
0.0
  0
SPLINE
  5
148
330
BA
100
AcDbEntity
  8
Sichtbar schmal (ISO)
 62
    18
420
        0
370
     5
100
AcDbSpline
210
0.0
220
0.0
230
1.0
 70
     8
 71
     3
 72
     8
 73
     4
 74
     0
 42
0.0000000001
 43
0.0000000001
 40
0.0
 40
0.0
 40
0.0
 40
0.0
 40
1.0
 40
1.0
 40
1.0
 40
1.0
 10
77.28982987515877
 20
171.7169515556505
 30
0.0
 10
77.20101162279012
 20
171.7169515556505
 30
0.0
 10
77.12901020306785
 20
171.6145019556719
 30
0.0
 10
77.12901020306785
 20
171.4881239695006
 30
0.0
  0
LINE
  5
149
330
BA
100
AcDbEntity
  8
Sichtbar schmal (ISO)
 62
    18
420
        0
370
     5
100
AcDbLine
 10
79.05884626815923
 20
171.7169515556505
 30
0.0
 11
77.28982987515877
 21
171.7169515556505
 31
0.0
  0
LINE
  5
14A
330
BA
100
AcDbEntity
  8
Sichtbar schmal (ISO)
 62
    18
420
        0
370
     5
100
AcDbLine
 10
79.05884626815923
 20
171.9457791418004
 30
0.0
 11
79.05884626815923
 21
171.7169515556505
 31
0.0
  0
LINE
  5
14B
330
BA
100
AcDbEntity
  8
Sichtbar schmal (ISO)
 62
    18
420
        0
370
     5
100
AcDbLine
 10
80.02376430070475
 20
171.9457791418004
 30
0.0
 11
79.05884626815923
 21
171.9457791418004
 31
0.0
  0
LINE
  5
14C
330
BA
100
AcDbEntity
  8
Sichtbar schmal (ISO)
 62
    18
420
        0
370
     5
100
AcDbLine
 10
80.02376430070475
 20
171.7169515556505
 30
0.0
 11
80.02376430070475
 21
171.9457791418004
 31
0.0
  0
LINE
  5
14D
330
BA
100
AcDbEntity
  8
Sichtbar schmal (ISO)
 62
    18
420
        0
370
     5
100
AcDbLine
 10
81.79278069370521
 20
171.7169515556505
 30
0.0
 11
80.02376430070475
 21
171.7169515556505
 31
0.0
  0
SPLINE
  5
14E
330
BA
100
AcDbEntity
  8
Sichtbar schmal (ISO)
 62
    18
420
        0
370
     5
100
AcDbSpline
210
0.0
220
0.0
230
1.0
 70
     8
 71
     3
 72
     8
 73
     4
 74
     0
 42
0.0000000001
 43
0.0000000001
 40
0.0
 40
0.0
 40
0.0
 40
0.0
 40
1.0
 40
1.0
 40
1.0
 40
1.0
 10
81.95360036579613
 20
171.4881239695006
 30
0.0
 10
81.95360036579613
 20
171.6145019556719
 30
0.0
 10
81.88159894607386
 20
171.7169515556505
 30
0.0
 10
81.79278069370521
 20
171.7169515556505
 30
0.0
  0
LINE
  5
14F
330
BA
100
AcDbEntity
  8
Sichtbar schmal (ISO)
 62
    18
420
        0
370
     5
100
AcDbLine
 10
81.95360036579613
 20
171.2936205212736
 30
0.0
 11
81.95360036579613
 21
171.4881239695006
 31
0.0
  0
SPLINE
  5
150
330
BA
100
AcDbEntity
  8
Sichtbar schmal (ISO)
 62
    18
420
        0
370
     5
100
AcDbSpline
210
0.0
220
0.0
230
1.0
 70
     8
 71
     3
 72
     8
 73
     4
 74
     0
 42
0.0000000001
 43
0.0000000001
 40
0.0
 40
0.0
 40
0.0
 40
0.0
 40
1.0
 40
1.0
 40
1.0
 40
1.0
 10
81.79278069370521
 20
171.0647929351234
 30
0.0
 10
81.88159894607386
 20
171.0647929351234
 30
0.0
 10
81.95360036579613
 20
171.1672425351029
 30
0.0
 10
81.95360036579613
 20
171.2936205212736
 30
0.0
  0
LINE
  5
151
330
BA
100
AcDbEntity
  8
Sichtbar schmal (ISO)
 62
    18
420
        0
370
     5
100
AcDbLine
 10
80.03180528430929
 20
171.0647929351234
 30
0.0
 11
81.79278069370521
 21
171.0647929351234
 31
0.0
  0
LINE
  5
152
330
BA
100
AcDbEntity
  8
Sichtbar schmal (ISO)
 62
    18
420
        0
370
     5
100
AcDbLine
 10
80.03180528430929
 20
172.6665860381715
 30
0.0
 11
80.03180528430929
 21
172.4377584520223
 31
0.0
  0
LINE
  5
153
330
BA
100
AcDbEntity
  8
Sichtbar schmal (ISO)
 62
    18
420
        0
370
     5
100
AcDbLine
 10
79.0508052845547
 20
172.6665860381715
 30
0.0
 11
80.03180528430929
 21
172.6665860381715
 31
0.0
  0
LINE
  5
154
330
BA
100
AcDbEntity
  8
Sichtbar schmal (ISO)
 62
    18
420
        0
370
     5
100
AcDbLine
 10
79.0508052845547
 20
172.4377584520223
 30
0.0
 11
79.0508052845547
 21
172.6665860381715
 31
0.0
  0
LINE
  5
155
330
BA
100
AcDbEntity
  8
Sichtbar schmal (ISO)
 62
    18
420
        0
370
     5
100
AcDbLine
 10
77.28982987515877
 20
172.4377584520223
 30
0.0
 11
79.0508052845547
 21
172.4377584520223
 31
0.0
  0
SPLINE
  5
156
330
BA
100
AcDbEntity
  8
Sichtbar schmal (ISO)
 62
    18
420
        0
370
     5
100
AcDbSpline
210
0.0
220
0.0
230
1.0
 70
     8
 71
     3
 72
     8
 73
     4
 74
     0
 42
0.0000000001
 43
0.0000000001
 40
0.0
 40
0.0
 40
0.0
 40
0.0
 40
1.0
 40
1.0
 40
1.0
 40
1.0
 10
77.12901020306785
 20
172.6665860381715
 30
0.0
 10
77.12901020306785
 20
172.5402080520002
 30
0.0
 10
77.20101162279012
 20
172.4377584520223
 30
0.0
 10
77.28982987515877
 20
172.4377584520223
 30
0.0
  0
LINE
  5
157
330
BA
100
AcDbEntity
  8
Sichtbar schmal (ISO)
 62
    18
420
        0
370
     5
100
AcDbLine
 10
77.12901020306785
 20
172.8610894863995
 30
0.0
 11
77.12901020306785
 21
172.6665860381715
 31
0.0
  0
SPLINE
  5
158
330
BA
100
AcDbEntity
  8
Sichtbar schmal (ISO)
 62
    18
420
        0
370
     5
100
AcDbSpline
210
0.0
220
0.0
230
1.0
 70
     8
 71
     3
 72
     8
 73
     4
 74
     0
 42
0.0000000001
 43
0.0000000001
 40
0.0
 40
0.0
 40
0.0
 40
0.0
 40
1.0
 40
1.0
 40
1.0
 40
1.0
 10
77.28982987515877
 20
173.0899170725484
 30
0.0
 10
77.20101162279012
 20
173.0899170725484
 30
0.0
 10
77.12901020306785
 20
172.9874674725702
 30
0.0
 10
77.12901020306785
 20
172.8610894863995
 30
0.0
  0
LINE
  5
159
330
BA
100
AcDbEntity
  8
Sichtbar schmal (ISO)
 62
    18
420
        0
370
     5
100
AcDbLine
 10
79.05884626815923
 20
173.0899170725484
 30
0.0
 11
77.28982987515877
 21
173.0899170725484
 31
0.0
  0
LINE
  5
15A
330
BA
100
AcDbEntity
  8
Sichtbar schmal (ISO)
 62
    18
420
        0
370
     5
100
AcDbLine
 10
79.05884626815923
 20
173.3187446586982
 30
0.0
 11
79.05884626815923
 21
173.0899170725484
 31
0.0
  0
LINE
  5
15B
330
BA
100
AcDbEntity
  8
Sichtbar schmal (ISO)
 62
    18
420
        0
370
     5
100
AcDbLine
 10
80.02376430070475
 20
173.3187446586982
 30
0.0
 11
79.05884626815923
 21
173.3187446586982
 31
0.0
  0
LINE
  5
15C
330
BA
100
AcDbEntity
  8
Sichtbar schmal (ISO)
 62
    18
420
        0
370
     5
100
AcDbLine
 10
80.02376430070475
 20
173.0899170725484
 30
0.0
 11
80.02376430070475
 21
173.3187446586982
 31
0.0
  0
LINE
  5
15D
330
BA
100
AcDbEntity
  8
Sichtbar schmal (ISO)
 62
    18
420
        0
370
     5
100
AcDbLine
 10
81.79278069370521
 20
173.0899170725484
 30
0.0
 11
80.02376430070475
 21
173.0899170725484
 31
0.0
  0
SPLINE
  5
15E
330
BA
100
AcDbEntity
  8
Sichtbar schmal (ISO)
 62
    18
420
        0
370
     5
100
AcDbSpline
210
0.0
220
0.0
230
1.0
 70
     8
 71
     3
 72
     8
 73
     4
 74
     0
 42
0.0000000001
 43
0.0000000001
 40
0.0
 40
0.0
 40
0.0
 40
0.0
 40
1.0
 40
1.0
 40
1.0
 40
1.0
 10
81.95360036579613
 20
172.8610894863995
 30
0.0
 10
81.95360036579613
 20
172.9874674725702
 30
0.0
 10
81.88159894607386
 20
173.0899170725484
 30
0.0
 10
81.79278069370521
 20
173.0899170725484
 30
0.0
  0
LINE
  5
15F
330
BA
100
AcDbEntity
  8
Sichtbar schmal (ISO)
 62
    18
420
        0
370
     5
100
AcDbLine
 10
81.95360036579613
 20
172.6665860381715
 30
0.0
 11
81.95360036579613
 21
172.8610894863995
 31
0.0
  0
SPLINE
  5
160
330
BA
100
AcDbEntity
  8
Sichtbar schmal (ISO)
 62
    18
420
        0
370
     5
100
AcDbSpline
210
0.0
220
0.0
230
1.0
 70
     8
 71
     3
 72
     8
 73
     4
 74
     0
 42
0.0000000001
 43
0.0000000001
 40
0.0
 40
0.0
 40
0.0
 40
0.0
 40
1.0
 40
1.0
 40
1.0
 40
1.0
 10
81.79278069370521
 20
172.4377584520223
 30
0.0
 10
81.88159894607386
 20
172.4377584520223
 30
0.0
 10
81.95360036579613
 20
172.5402080520002
 30
0.0
 10
81.95360036579613
 20
172.6665860381715
 30
0.0
  0
LINE
  5
161
330
BA
100
AcDbEntity
  8
Sichtbar schmal (ISO)
 62
    18
420
        0
370
     5
100
AcDbLine
 10
80.03180528430929
 20
172.4377584520223
 30
0.0
 11
81.79278069370521
 21
172.4377584520223
 31
0.0
  0
LINE
  5
162
330
BA
100
AcDbEntity
  8
Sichtbar schmal (ISO)
 62
    18
420
        0
370
     5
100
AcDbLine
 10
80.03180528430929
 20
174.0395515550688
 30
0.0
 11
80.03180528430929
 21
173.8107239689205
 31
0.0
  0
LINE
  5
163
330
BA
100
AcDbEntity
  8
Sichtbar schmal (ISO)
 62
    18
420
        0
370
     5
100
AcDbLine
 10
79.0508052845547
 20
174.0395515550688
 30
0.0
 11
80.03180528430929
 21
174.0395515550688
 31
0.0
  0
LINE
  5
164
330
BA
100
AcDbEntity
  8
Sichtbar schmal (ISO)
 62
    18
420
        0
370
     5
100
AcDbLine
 10
79.0508052845547
 20
173.8107239689205
 30
0.0
 11
79.0508052845547
 21
174.0395515550688
 31
0.0
  0
LINE
  5
165
330
BA
100
AcDbEntity
  8
Sichtbar schmal (ISO)
 62
    18
420
        0
370
     5
100
AcDbLine
 10
77.28982987515877
 20
173.8107239689205
 30
0.0
 11
79.0508052845547
 21
173.8107239689205
 31
0.0
  0
SPLINE
  5
166
330
BA
100
AcDbEntity
  8
Sichtbar schmal (ISO)
 62
    18
420
        0
370
     5
100
AcDbSpline
210
0.0
220
0.0
230
1.0
 70
     8
 71
     3
 72
     8
 73
     4
 74
     0
 42
0.0000000001
 43
0.0000000001
 40
0.0
 40
0.0
 40
0.0
 40
0.0
 40
1.0
 40
1.0
 40
1.0
 40
1.0
 10
77.12901020306785
 20
174.0395515550688
 30
0.0
 10
77.12901020306785
 20
173.9131735688984
 30
0.0
 10
77.20101162279012
 20
173.8107239689205
 30
0.0
 10
77.28982987515877
 20
173.8107239689205
 30
0.0
  0
LINE
  5
167
330
BA
100
AcDbEntity
  8
Sichtbar schmal (ISO)
 62
    18
420
        0
370
     5
100
AcDbLine
 10
77.12901020306785
 20
174.2340550032968
 30
0.0
 11
77.12901020306785
 21
174.0395515550688
 31
0.0
  0
SPLINE
  5
168
330
BA
100
AcDbEntity
  8
Sichtbar schmal (ISO)
 62
    18
420
        0
370
     5
100
AcDbSpline
210
0.0
220
0.0
230
1.0
 70
     8
 71
     3
 72
     8
 73
     4
 74
     0
 42
0.0000000001
 43
0.0000000001
 40
0.0
 40
0.0
 40
0.0
 40
0.0
 40
1.0
 40
1.0
 40
1.0
 40
1.0
 10
77.28982987515877
 20
174.462882589447
 30
0.0
 10
77.20101162279012
 20
174.462882589447
 30
0.0
 10
77.12901020306785
 20
174.3604329894681
 30
0.0
 10
77.12901020306785
 20
174.2340550032968
 30
0.0
  0
LINE
  5
169
330
BA
100
AcDbEntity
  8
Sichtbar schmal (ISO)
 62
    18
420
        0
370
     5
100
AcDbLine
 10
79.05884626815923
 20
174.462882589447
 30
0.0
 11
77.28982987515877
 21
174.462882589447
 31
0.0
  0
LINE
  5
16A
330
BA
100
AcDbEntity
  8
Sichtbar schmal (ISO)
 62
    18
420
        0
370
     5
100
AcDbLine
 10
79.05884626815923
 20
174.6917101755971
 30
0.0
 11
79.05884626815923
 21
174.462882589447
 31
0.0
  0
LINE
  5
16B
330
BA
100
AcDbEntity
  8
Sichtbar schmal (ISO)
 62
    18
420
        0
370
     5
100
AcDbLine
 10
80.02376430070475
 20
174.6917101755971
 30
0.0
 11
79.05884626815923
 21
174.6917101755971
 31
0.0
  0
LINE
  5
16C
330
BA
100
AcDbEntity
  8
Sichtbar schmal (ISO)
 62
    18
420
        0
370
     5
100
AcDbLine
 10
80.02376430070475
 20
174.462882589447
 30
0.0
 11
80.02376430070475
 21
174.6917101755971
 31
0.0
  0
LINE
  5
16D
330
BA
100
AcDbEntity
  8
Sichtbar schmal (ISO)
 62
    18
420
        0
370
     5
100
AcDbLine
 10
81.79278069370521
 20
174.462882589447
 30
0.0
 11
80.02376430070475
 21
174.462882589447
 31
0.0
  0
SPLINE
  5
16E
330
BA
100
AcDbEntity
  8
Sichtbar schmal (ISO)
 62
    18
420
        0
370
     5
100
AcDbSpline
210
0.0
220
0.0
230
1.0
 70
     8
 71
     3
 72
     8
 73
     4
 74
     0
 42
0.0000000001
 43
0.0000000001
 40
0.0
 40
0.0
 40
0.0
 40
0.0
 40
1.0
 40
1.0
 40
1.0
 40
1.0
 10
81.95360036579613
 20
174.2340550032968
 30
0.0
 10
81.95360036579613
 20
174.3604329894681
 30
0.0
 10
81.88159894607386
 20
174.462882589447
 30
0.0
 10
81.79278069370521
 20
174.462882589447
 30
0.0
  0
LINE
  5
16F
330
BA
100
AcDbEntity
  8
Sichtbar schmal (ISO)
 62
    18
420
        0
370
     5
100
AcDbLine
 10
81.95360036579613
 20
174.0395515550688
 30
0.0
 11
81.95360036579613
 21
174.2340550032968
 31
0.0
  0
SPLINE
  5
170
330
BA
100
AcDbEntity
  8
Sichtbar schmal (ISO)
 62
    18
420
        0
370
     5
100
AcDbSpline
210
0.0
220
0.0
230
1.0
 70
     8
 71
     3
 72
     8
 73
     4
 74
     0
 42
0.0000000001
 43
0.0000000001
 40
0.0
 40
0.0
 40
0.0
 40
0.0
 40
1.0
 40
1.0
 40
1.0
 40
1.0
 10
81.79278069370521
 20
173.8107239689205
 30
0.0
 10
81.88159894607386
 20
173.8107239689205
 30
0.0
 10
81.95360036579613
 20
173.9131735688984
 30
0.0
 10
81.95360036579613
 20
174.0395515550688
 30
0.0
  0
LINE
  5
171
330
BA
100
AcDbEntity
  8
Sichtbar schmal (ISO)
 62
    18
420
        0
370
     5
100
AcDbLine
 10
80.03180528430929
 20
173.8107239689205
 30
0.0
 11
81.79278069370521
 21
173.8107239689205
 31
0.0
  0
LINE
  5
172
330
BA
100
AcDbEntity
  8
Sichtbar schmal (ISO)
 62
    18
420
        0
370
     5
100
AcDbLine
 10
80.03180528430929
 20
175.1836894858184
 30
0.0
 11
81.79278069370521
 21
175.1836894858184
 31
0.0
  0
LINE
  5
173
330
BA
100
AcDbEntity
  8
Sichtbar schmal (ISO)
 62
    18
420
        0
370
     5
100
AcDbLine
 10
80.03180528430929
 20
175.412517071968
 30
0.0
 11
80.03180528430929
 21
175.1836894858184
 31
0.0
  0
LINE
  5
174
330
BA
100
AcDbEntity
  8
Sichtbar schmal (ISO)
 62
    18
420
        0
370
     5
100
AcDbLine
 10
79.0508052845547
 20
175.412517071968
 30
0.0
 11
80.03180528430929
 21
175.412517071968
 31
0.0
  0
LINE
  5
175
330
BA
100
AcDbEntity
  8
Sichtbar schmal (ISO)
 62
    18
420
        0
370
     5
100
AcDbLine
 10
79.0508052845547
 20
175.1836894858184
 30
0.0
 11
79.0508052845547
 21
175.412517071968
 31
0.0
  0
LINE
  5
176
330
BA
100
AcDbEntity
  8
Sichtbar schmal (ISO)
 62
    18
420
        0
370
     5
100
AcDbLine
 10
77.28982987515877
 20
175.1836894858184
 30
0.0
 11
79.0508052845547
 21
175.1836894858184
 31
0.0
  0
SPLINE
  5
177
330
BA
100
AcDbEntity
  8
Sichtbar schmal (ISO)
 62
    18
420
        0
370
     5
100
AcDbSpline
210
0.0
220
0.0
230
1.0
 70
     8
 71
     3
 72
     8
 73
     4
 74
     0
 42
0.0000000001
 43
0.0000000001
 40
0.0
 40
0.0
 40
0.0
 40
0.0
 40
1.0
 40
1.0
 40
1.0
 40
1.0
 10
77.12901020306785
 20
175.412517071968
 30
0.0
 10
77.12901020306785
 20
175.2861390857973
 30
0.0
 10
77.20101162279012
 20
175.1836894858184
 30
0.0
 10
77.28982987515877
 20
175.1836894858184
 30
0.0
  0
LINE
  5
178
330
BA
100
AcDbEntity
  8
Sichtbar schmal (ISO)
 62
    18
420
        0
370
     5
100
AcDbLine
 10
77.12901020306785
 20
175.6070205201957
 30
0.0
 11
77.12901020306785
 21
175.412517071968
 31
0.0
  0
SPLINE
  5
179
330
BA
100
AcDbEntity
  8
Sichtbar schmal (ISO)
 62
    18
420
        0
370
     5
100
AcDbSpline
210
0.0
220
0.0
230
1.0
 70
     8
 71
     3
 72
     8
 73
     4
 74
     0
 42
0.0000000001
 43
0.0000000001
 40
0.0
 40
0.0
 40
0.0
 40
0.0
 40
1.0
 40
1.0
 40
1.0
 40
1.0
 10
77.28982987515877
 20
175.8358481063449
 30
0.0
 10
77.20101162279012
 20
175.8358481063449
 30
0.0
 10
77.12901020306785
 20
175.7333985063663
 30
0.0
 10
77.12901020306785
 20
175.6070205201957
 30
0.0
  0
LINE
  5
17A
330
BA
100
AcDbEntity
  8
Sichtbar schmal (ISO)
 62
    18
420
        0
370
     5
100
AcDbLine
 10
79.05884626815923
 20
175.8358481063449
 30
0.0
 11
77.28982987515877
 21
175.8358481063449
 31
0.0
  0
LINE
  5
17B
330
BA
100
AcDbEntity
  8
Sichtbar schmal (ISO)
 62
    18
420
        0
370
     5
100
AcDbLine
 10
79.05884626815923
 20
176.0646756924951
 30
0.0
 11
79.05884626815923
 21
175.8358481063449
 31
0.0
  0
LINE
  5
17C
330
BA
100
AcDbEntity
  8
Sichtbar schmal (ISO)
 62
    18
420
        0
370
     5
100
AcDbLine
 10
80.02376430070475
 20
176.0646756924951
 30
0.0
 11
79.05884626815923
 21
176.0646756924951
 31
0.0
  0
LINE
  5
17D
330
BA
100
AcDbEntity
  8
Sichtbar schmal (ISO)
 62
    18
420
        0
370
     5
100
AcDbLine
 10
80.02376430070475
 20
175.8358481063449
 30
0.0
 11
80.02376430070475
 21
176.0646756924951
 31
0.0
  0
LINE
  5
17E
330
BA
100
AcDbEntity
  8
Sichtbar schmal (ISO)
 62
    18
420
        0
370
     5
100
AcDbLine
 10
81.79278069370521
 20
175.8358481063449
 30
0.0
 11
80.02376430070475
 21
175.8358481063449
 31
0.0
  0
SPLINE
  5
17F
330
BA
100
AcDbEntity
  8
Sichtbar schmal (ISO)
 62
    18
420
        0
370
     5
100
AcDbSpline
210
0.0
220
0.0
230
1.0
 70
     8
 71
     3
 72
     8
 73
     4
 74
     0
 42
0.0000000001
 43
0.0000000001
 40
0.0
 40
0.0
 40
0.0
 40
0.0
 40
1.0
 40
1.0
 40
1.0
 40
1.0
 10
81.95360036579613
 20
175.6070205201957
 30
0.0
 10
81.95360036579613
 20
175.7333985063663
 30
0.0
 10
81.88159894607386
 20
175.8358481063449
 30
0.0
 10
81.79278069370521
 20
175.8358481063449
 30
0.0
  0
LINE
  5
180
330
BA
100
AcDbEntity
  8
Sichtbar schmal (ISO)
 62
    18
420
        0
370
     5
100
AcDbLine
 10
81.95360036579613
 20
175.412517071968
 30
0.0
 11
81.95360036579613
 21
175.6070205201957
 31
0.0
  0
SPLINE
  5
181
330
BA
100
AcDbEntity
  8
Sichtbar schmal (ISO)
 62
    18
420
        0
370
     5
100
AcDbSpline
210
0.0
220
0.0
230
1.0
 70
     8
 71
     3
 72
     8
 73
     4
 74
     0
 42
0.0000000001
 43
0.0000000001
 40
0.0
 40
0.0
 40
0.0
 40
0.0
 40
1.0
 40
1.0
 40
1.0
 40
1.0
 10
81.79278069370521
 20
175.1836894858184
 30
0.0
 10
81.88159894607386
 20
175.1836894858184
 30
0.0
 10
81.95360036579613
 20
175.2861390857973
 30
0.0
 10
81.95360036579613
 20
175.412517071968
 30
0.0
  0
LINE
  5
182
330
BA
100
AcDbEntity
  8
Sichtbar schmal (ISO)
 62
    18
420
        0
370
     5
100
AcDbLine
 10
85.25040364366018
 20
171.7855998314962
 30
0.0
 11
84.44630528320557
 21
171.7855998314962
 31
0.0
  0
LINE
  5
183
330
BA
100
AcDbEntity
  8
Sichtbar schmal (ISO)
 62
    18
420
        0
370
     5
100
AcDbLine
 10
84.44630528320557
 20
169.9549791422979
 30
0.0
 11
85.25040364366018
 21
169.9549791422979
 31
0.0
  0
LINE
  5
184
330
BA
100
AcDbEntity
  8
Sichtbar schmal (ISO)
 62
    18
420
        0
370
     5
100
AcDbLine
 10
98.75925609929982
 20
169.9549791422979
 30
0.0
 11
97.95515773884488
 21
169.9549791422979
 31
0.0
  0
LINE
  5
185
330
BA
100
AcDbEntity
  8
Sichtbar schmal (ISO)
 62
    18
420
        0
370
     5
100
AcDbLine
 10
97.95515773884488
 20
171.7855998314962
 30
0.0
 11
98.75925609929982
 21
171.7855998314962
 31
0.0
  0
LINE
  5
186
330
BA
100
AcDbEntity
  8
Sichtbar schmal (ISO)
 62
    18
420
        0
370
     5
100
AcDbLine
 10
106.3177806875737
 20
176.6367446578689
 30
0.0
 11
106.3177806875737
 21
168.8566067287792
 31
0.0
  0
LINE
  5
187
330
BA
100
AcDbEntity
  8
Sichtbar schmal (ISO)
 62
    18
420
        0
370
     5
100
AcDbLine
 10
103.1737560981961
 20
175.1836894858184
 30
0.0
 11
101.4127806888001
 21
175.1836894858184
 31
0.0
  0
SPLINE
  5
188
330
BA
100
AcDbEntity
  8
Sichtbar schmal (ISO)
 62
    18
420
        0
370
     5
100
AcDbSpline
210
0.0
220
0.0
230
1.0
 70
     8
 71
     3
 72
     8
 73
     4
 74
     0
 42
0.0000000001
 43
0.0000000001
 40
0.0
 40
0.0
 40
0.0
 40
0.0
 40
1.0
 40
1.0
 40
1.0
 40
1.0
 10
101.2519610167092
 20
175.412517071968
 30
0.0
 10
101.2519610167092
 20
175.2861390857973
 30
0.0
 10
101.3239624364315
 20
175.1836894858184
 30
0.0
 10
101.4127806888001
 20
175.1836894858184
 30
0.0
  0
LINE
  5
189
330
BA
100
AcDbEntity
  8
Sichtbar schmal (ISO)
 62
    18
420
        0
370
     5
100
AcDbLine
 10
101.2519610167092
 20
175.412517071968
 30
0.0
 11
101.2519610167092
 21
175.6070205201957
 31
0.0
  0
SPLINE
  5
18A
330
BA
100
AcDbEntity
  8
Sichtbar schmal (ISO)
 62
    18
420
        0
370
     5
100
AcDbSpline
210
0.0
220
0.0
230
1.0
 70
     8
 71
     3
 72
     8
 73
     4
 74
     0
 42
0.0000000001
 43
0.0000000001
 40
0.0
 40
0.0
 40
0.0
 40
0.0
 40
1.0
 40
1.0
 40
1.0
 40
1.0
 10
101.4127806888001
 20
175.8358481063449
 30
0.0
 10
101.3239624364315
 20
175.8358481063449
 30
0.0
 10
101.2519610167092
 20
175.7333985063663
 30
0.0
 10
101.2519610167092
 20
175.6070205201957
 30
0.0
  0
LINE
  5
18B
330
BA
100
AcDbEntity
  8
Sichtbar schmal (ISO)
 62
    18
420
        0
370
     5
100
AcDbLine
 10
101.4127806888001
 20
175.8358481063449
 30
0.0
 11
103.1817970818006
 21
175.8358481063449
 31
0.0
  0
LINE
  5
18C
330
BA
100
AcDbEntity
  8
Sichtbar schmal (ISO)
 62
    18
420
        0
370
     5
100
AcDbLine
 10
103.1817970818006
 20
175.8358481063449
 30
0.0
 11
103.1817970818006
 21
176.0646756924951
 31
0.0
  0
LINE
  5
18D
330
BA
100
AcDbEntity
  8
Sichtbar schmal (ISO)
 62
    18
420
        0
370
     5
100
AcDbLine
 10
103.1817970818006
 20
176.0646756924951
 30
0.0
 11
104.1467151143461
 21
176.0646756924951
 31
0.0
  0
LINE
  5
18E
330
BA
100
AcDbEntity
  8
Sichtbar schmal (ISO)
 62
    18
420
        0
370
     5
100
AcDbLine
 10
104.1467151143461
 20
176.0646756924951
 30
0.0
 11
104.1467151143461
 21
175.8358481063449
 31
0.0
  0
LINE
  5
18F
330
BA
100
AcDbEntity
  8
Sichtbar schmal (ISO)
 62
    18
420
        0
370
     5
100
AcDbLine
 10
104.1467151143461
 20
175.8358481063449
 30
0.0
 11
105.9157315073466
 21
175.8358481063449
 31
0.0
  0
SPLINE
  5
190
330
BA
100
AcDbEntity
  8
Sichtbar schmal (ISO)
 62
    18
420
        0
370
     5
100
AcDbSpline
210
0.0
220
0.0
230
1.0
 70
     8
 71
     3
 72
     8
 73
     4
 74
     0
 42
0.0000000001
 43
0.0000000001
 40
0.0
 40
0.0
 40
0.0
 40
0.0
 40
1.0
 40
1.0
 40
1.0
 40
1.0
 10
106.0765511794378
 20
175.6070205201957
 30
0.0
 10
106.0765511794378
 20
175.7333985063663
 30
0.0
 10
106.0045497597156
 20
175.8358481063449
 30
0.0
 10
105.9157315073466
 20
175.8358481063449
 30
0.0
  0
LINE
  5
191
330
BA
100
AcDbEntity
  8
Sichtbar schmal (ISO)
 62
    18
420
        0
370
     5
100
AcDbLine
 10
106.0765511794378
 20
175.6070205201957
 30
0.0
 11
106.0765511794378
 21
175.412517071968
 31
0.0
  0
SPLINE
  5
192
330
BA
100
AcDbEntity
  8
Sichtbar schmal (ISO)
 62
    18
420
        0
370
     5
100
AcDbSpline
210
0.0
220
0.0
230
1.0
 70
     8
 71
     3
 72
     8
 73
     4
 74
     0
 42
0.0000000001
 43
0.0000000001
 40
0.0
 40
0.0
 40
0.0
 40
0.0
 40
1.0
 40
1.0
 40
1.0
 40
1.0
 10
105.9157315073466
 20
175.1836894858184
 30
0.0
 10
106.0045497597156
 20
175.1836894858184
 30
0.0
 10
106.0765511794378
 20
175.2861390857973
 30
0.0
 10
106.0765511794378
 20
175.412517071968
 30
0.0
  0
LINE
  5
193
330
BA
100
AcDbEntity
  8
Sichtbar schmal (ISO)
 62
    18
420
        0
370
     5
100
AcDbLine
 10
105.9157315073466
 20
175.1836894858184
 30
0.0
 11
104.1547560979507
 21
175.1836894858184
 31
0.0
  0
LINE
  5
194
330
BA
100
AcDbEntity
  8
Sichtbar schmal (ISO)
 62
    18
420
        0
370
     5
100
AcDbLine
 10
104.1547560979507
 20
175.1836894858184
 30
0.0
 11
104.1547560979507
 21
175.412517071968
 31
0.0
  0
LINE
  5
195
330
BA
100
AcDbEntity
  8
Sichtbar schmal (ISO)
 62
    18
420
        0
370
     5
100
AcDbLine
 10
104.1547560979507
 20
175.412517071968
 30
0.0
 11
103.1737560981961
 21
175.412517071968
 31
0.0
  0
LINE
  5
196
330
BA
100
AcDbEntity
  8
Sichtbar schmal (ISO)
 62
    18
420
        0
370
     5
100
AcDbLine
 10
103.1737560981961
 20
175.412517071968
 30
0.0
 11
103.1737560981961
 21
175.1836894858184
 31
0.0
  0
LINE
  5
197
330
BA
100
AcDbEntity
  8
Sichtbar schmal (ISO)
 62
    18
420
        0
370
     5
100
AcDbLine
 10
103.1737560981961
 20
174.0395515550688
 30
0.0
 11
103.1737560981961
 21
173.8107239689205
 31
0.0
  0
LINE
  5
198
330
BA
100
AcDbEntity
  8
Sichtbar schmal (ISO)
 62
    18
420
        0
370
     5
100
AcDbLine
 10
103.1737560981961
 20
173.8107239689205
 30
0.0
 11
101.4127806888001
 21
173.8107239689205
 31
0.0
  0
SPLINE
  5
199
330
BA
100
AcDbEntity
  8
Sichtbar schmal (ISO)
 62
    18
420
        0
370
     5
100
AcDbSpline
210
0.0
220
0.0
230
1.0
 70
     8
 71
     3
 72
     8
 73
     4
 74
     0
 42
0.0000000001
 43
0.0000000001
 40
0.0
 40
0.0
 40
0.0
 40
0.0
 40
1.0
 40
1.0
 40
1.0
 40
1.0
 10
101.2519610167092
 20
174.0395515550688
 30
0.0
 10
101.2519610167092
 20
173.9131735688984
 30
0.0
 10
101.3239624364315
 20
173.8107239689205
 30
0.0
 10
101.4127806888001
 20
173.8107239689205
 30
0.0
  0
LINE
  5
19A
330
BA
100
AcDbEntity
  8
Sichtbar schmal (ISO)
 62
    18
420
        0
370
     5
100
AcDbLine
 10
101.2519610167092
 20
174.0395515550688
 30
0.0
 11
101.2519610167092
 21
174.2340550032968
 31
0.0
  0
SPLINE
  5
19B
330
BA
100
AcDbEntity
  8
Sichtbar schmal (ISO)
 62
    18
420
        0
370
     5
100
AcDbSpline
210
0.0
220
0.0
230
1.0
 70
     8
 71
     3
 72
     8
 73
     4
 74
     0
 42
0.0000000001
 43
0.0000000001
 40
0.0
 40
0.0
 40
0.0
 40
0.0
 40
1.0
 40
1.0
 40
1.0
 40
1.0
 10
101.4127806888001
 20
174.462882589447
 30
0.0
 10
101.3239624364315
 20
174.462882589447
 30
0.0
 10
101.2519610167092
 20
174.3604329894681
 30
0.0
 10
101.2519610167092
 20
174.2340550032968
 30
0.0
  0
LINE
  5
19C
330
BA
100
AcDbEntity
  8
Sichtbar schmal (ISO)
 62
    18
420
        0
370
     5
100
AcDbLine
 10
101.4127806888001
 20
174.462882589447
 30
0.0
 11
103.1817970818006
 21
174.462882589447
 31
0.0
  0
LINE
  5
19D
330
BA
100
AcDbEntity
  8
Sichtbar schmal (ISO)
 62
    18
420
        0
370
     5
100
AcDbLine
 10
103.1817970818006
 20
174.462882589447
 30
0.0
 11
103.1817970818006
 21
174.6917101755971
 31
0.0
  0
LINE
  5
19E
330
BA
100
AcDbEntity
  8
Sichtbar schmal (ISO)
 62
    18
420
        0
370
     5
100
AcDbLine
 10
103.1817970818006
 20
174.6917101755971
 30
0.0
 11
104.1467151143461
 21
174.6917101755971
 31
0.0
  0
LINE
  5
19F
330
BA
100
AcDbEntity
  8
Sichtbar schmal (ISO)
 62
    18
420
        0
370
     5
100
AcDbLine
 10
104.1467151143461
 20
174.6917101755971
 30
0.0
 11
104.1467151143461
 21
174.462882589447
 31
0.0
  0
LINE
  5
1A0
330
BA
100
AcDbEntity
  8
Sichtbar schmal (ISO)
 62
    18
420
        0
370
     5
100
AcDbLine
 10
104.1467151143461
 20
174.462882589447
 30
0.0
 11
105.9157315073466
 21
174.462882589447
 31
0.0
  0
SPLINE
  5
1A1
330
BA
100
AcDbEntity
  8
Sichtbar schmal (ISO)
 62
    18
420
        0
370
     5
100
AcDbSpline
210
0.0
220
0.0
230
1.0
 70
     8
 71
     3
 72
     8
 73
     4
 74
     0
 42
0.0000000001
 43
0.0000000001
 40
0.0
 40
0.0
 40
0.0
 40
0.0
 40
1.0
 40
1.0
 40
1.0
 40
1.0
 10
106.0765511794378
 20
174.2340550032968
 30
0.0
 10
106.0765511794378
 20
174.3604329894681
 30
0.0
 10
106.0045497597156
 20
174.462882589447
 30
0.0
 10
105.9157315073466
 20
174.462882589447
 30
0.0
  0
LINE
  5
1A2
330
BA
100
AcDbEntity
  8
Sichtbar schmal (ISO)
 62
    18
420
        0
370
     5
100
AcDbLine
 10
106.0765511794378
 20
174.2340550032968
 30
0.0
 11
106.0765511794378
 21
174.0395515550688
 31
0.0
  0
SPLINE
  5
1A3
330
BA
100
AcDbEntity
  8
Sichtbar schmal (ISO)
 62
    18
420
        0
370
     5
100
AcDbSpline
210
0.0
220
0.0
230
1.0
 70
     8
 71
     3
 72
     8
 73
     4
 74
     0
 42
0.0000000001
 43
0.0000000001
 40
0.0
 40
0.0
 40
0.0
 40
0.0
 40
1.0
 40
1.0
 40
1.0
 40
1.0
 10
105.9157315073466
 20
173.8107239689205
 30
0.0
 10
106.0045497597156
 20
173.8107239689205
 30
0.0
 10
106.0765511794378
 20
173.9131735688984
 30
0.0
 10
106.0765511794378
 20
174.0395515550688
 30
0.0
  0
LINE
  5
1A4
330
BA
100
AcDbEntity
  8
Sichtbar schmal (ISO)
 62
    18
420
        0
370
     5
100
AcDbLine
 10
105.9157315073466
 20
173.8107239689205
 30
0.0
 11
104.1547560979507
 21
173.8107239689205
 31
0.0
  0
LINE
  5
1A5
330
BA
100
AcDbEntity
  8
Sichtbar schmal (ISO)
 62
    18
420
        0
370
     5
100
AcDbLine
 10
104.1547560979507
 20
173.8107239689205
 30
0.0
 11
104.1547560979507
 21
174.0395515550688
 31
0.0
  0
LINE
  5
1A6
330
BA
100
AcDbEntity
  8
Sichtbar schmal (ISO)
 62
    18
420
        0
370
     5
100
AcDbLine
 10
104.1547560979507
 20
174.0395515550688
 30
0.0
 11
103.1737560981961
 21
174.0395515550688
 31
0.0
  0
LINE
  5
1A7
330
BA
100
AcDbEntity
  8
Sichtbar schmal (ISO)
 62
    18
420
        0
370
     5
100
AcDbLine
 10
103.1737560981961
 20
172.6665860381715
 30
0.0
 11
103.1737560981961
 21
172.4377584520223
 31
0.0
  0
LINE
  5
1A8
330
BA
100
AcDbEntity
  8
Sichtbar schmal (ISO)
 62
    18
420
        0
370
     5
100
AcDbLine
 10
103.1737560981961
 20
172.4377584520223
 30
0.0
 11
101.4127806888001
 21
172.4377584520223
 31
0.0
  0
SPLINE
  5
1A9
330
BA
100
AcDbEntity
  8
Sichtbar schmal (ISO)
 62
    18
420
        0
370
     5
100
AcDbSpline
210
0.0
220
0.0
230
1.0
 70
     8
 71
     3
 72
     8
 73
     4
 74
     0
 42
0.0000000001
 43
0.0000000001
 40
0.0
 40
0.0
 40
0.0
 40
0.0
 40
1.0
 40
1.0
 40
1.0
 40
1.0
 10
101.2519610167092
 20
172.6665860381715
 30
0.0
 10
101.2519610167092
 20
172.5402080520002
 30
0.0
 10
101.3239624364315
 20
172.4377584520223
 30
0.0
 10
101.4127806888001
 20
172.4377584520223
 30
0.0
  0
LINE
  5
1AA
330
BA
100
AcDbEntity
  8
Sichtbar schmal (ISO)
 62
    18
420
        0
370
     5
100
AcDbLine
 10
101.2519610167092
 20
172.6665860381715
 30
0.0
 11
101.2519610167092
 21
172.8610894863995
 31
0.0
  0
SPLINE
  5
1AB
330
BA
100
AcDbEntity
  8
Sichtbar schmal (ISO)
 62
    18
420
        0
370
     5
100
AcDbSpline
210
0.0
220
0.0
230
1.0
 70
     8
 71
     3
 72
     8
 73
     4
 74
     0
 42
0.0000000001
 43
0.0000000001
 40
0.0
 40
0.0
 40
0.0
 40
0.0
 40
1.0
 40
1.0
 40
1.0
 40
1.0
 10
101.4127806888001
 20
173.0899170725484
 30
0.0
 10
101.3239624364315
 20
173.0899170725484
 30
0.0
 10
101.2519610167092
 20
172.9874674725702
 30
0.0
 10
101.2519610167092
 20
172.8610894863995
 30
0.0
  0
LINE
  5
1AC
330
BA
100
AcDbEntity
  8
Sichtbar schmal (ISO)
 62
    18
420
        0
370
     5
100
AcDbLine
 10
101.4127806888001
 20
173.0899170725484
 30
0.0
 11
103.1817970818006
 21
173.0899170725484
 31
0.0
  0
LINE
  5
1AD
330
BA
100
AcDbEntity
  8
Sichtbar schmal (ISO)
 62
    18
420
        0
370
     5
100
AcDbLine
 10
103.1817970818006
 20
173.0899170725484
 30
0.0
 11
103.1817970818006
 21
173.3187446586982
 31
0.0
  0
LINE
  5
1AE
330
BA
100
AcDbEntity
  8
Sichtbar schmal (ISO)
 62
    18
420
        0
370
     5
100
AcDbLine
 10
103.1817970818006
 20
173.3187446586982
 30
0.0
 11
104.1467151143461
 21
173.3187446586982
 31
0.0
  0
LINE
  5
1AF
330
BA
100
AcDbEntity
  8
Sichtbar schmal (ISO)
 62
    18
420
        0
370
     5
100
AcDbLine
 10
104.1467151143461
 20
173.3187446586982
 30
0.0
 11
104.1467151143461
 21
173.0899170725484
 31
0.0
  0
LINE
  5
1B0
330
BA
100
AcDbEntity
  8
Sichtbar schmal (ISO)
 62
    18
420
        0
370
     5
100
AcDbLine
 10
104.1467151143461
 20
173.0899170725484
 30
0.0
 11
105.9157315073466
 21
173.0899170725484
 31
0.0
  0
SPLINE
  5
1B1
330
BA
100
AcDbEntity
  8
Sichtbar schmal (ISO)
 62
    18
420
        0
370
     5
100
AcDbSpline
210
0.0
220
0.0
230
1.0
 70
     8
 71
     3
 72
     8
 73
     4
 74
     0
 42
0.0000000001
 43
0.0000000001
 40
0.0
 40
0.0
 40
0.0
 40
0.0
 40
1.0
 40
1.0
 40
1.0
 40
1.0
 10
106.0765511794378
 20
172.8610894863995
 30
0.0
 10
106.0765511794378
 20
172.9874674725702
 30
0.0
 10
106.0045497597156
 20
173.0899170725484
 30
0.0
 10
105.9157315073466
 20
173.0899170725484
 30
0.0
  0
LINE
  5
1B2
330
BA
100
AcDbEntity
  8
Sichtbar schmal (ISO)
 62
    18
420
        0
370
     5
100
AcDbLine
 10
106.0765511794378
 20
172.8610894863995
 30
0.0
 11
106.0765511794378
 21
172.6665860381715
 31
0.0
  0
SPLINE
  5
1B3
330
BA
100
AcDbEntity
  8
Sichtbar schmal (ISO)
 62
    18
420
        0
370
     5
100
AcDbSpline
210
0.0
220
0.0
230
1.0
 70
     8
 71
     3
 72
     8
 73
     4
 74
     0
 42
0.0000000001
 43
0.0000000001
 40
0.0
 40
0.0
 40
0.0
 40
0.0
 40
1.0
 40
1.0
 40
1.0
 40
1.0
 10
105.9157315073466
 20
172.4377584520223
 30
0.0
 10
106.0045497597156
 20
172.4377584520223
 30
0.0
 10
106.0765511794378
 20
172.5402080520002
 30
0.0
 10
106.0765511794378
 20
172.6665860381715
 30
0.0
  0
LINE
  5
1B4
330
BA
100
AcDbEntity
  8
Sichtbar schmal (ISO)
 62
    18
420
        0
370
     5
100
AcDbLine
 10
105.9157315073466
 20
172.4377584520223
 30
0.0
 11
104.1547560979507
 21
172.4377584520223
 31
0.0
  0
LINE
  5
1B5
330
BA
100
AcDbEntity
  8
Sichtbar schmal (ISO)
 62
    18
420
        0
370
     5
100
AcDbLine
 10
104.1547560979507
 20
172.4377584520223
 30
0.0
 11
104.1547560979507
 21
172.6665860381715
 31
0.0
  0
LINE
  5
1B6
330
BA
100
AcDbEntity
  8
Sichtbar schmal (ISO)
 62
    18
420
        0
370
     5
100
AcDbLine
 10
104.1547560979507
 20
172.6665860381715
 30
0.0
 11
103.1737560981961
 21
172.6665860381715
 31
0.0
  0
LINE
  5
1B7
330
BA
100
AcDbEntity
  8
Sichtbar schmal (ISO)
 62
    18
420
        0
370
     5
100
AcDbLine
 10
103.1737560981961
 20
171.2936205212736
 30
0.0
 11
103.1737560981961
 21
171.0647929351234
 31
0.0
  0
LINE
  5
1B8
330
BA
100
AcDbEntity
  8
Sichtbar schmal (ISO)
 62
    18
420
        0
370
     5
100
AcDbLine
 10
103.1737560981961
 20
171.0647929351234
 30
0.0
 11
101.4127806888001
 21
171.0647929351234
 31
0.0
  0
SPLINE
  5
1B9
330
BA
100
AcDbEntity
  8
Sichtbar schmal (ISO)
 62
    18
420
        0
370
     5
100
AcDbSpline
210
0.0
220
0.0
230
1.0
 70
     8
 71
     3
 72
     8
 73
     4
 74
     0
 42
0.0000000001
 43
0.0000000001
 40
0.0
 40
0.0
 40
0.0
 40
0.0
 40
1.0
 40
1.0
 40
1.0
 40
1.0
 10
101.2519610167092
 20
171.2936205212736
 30
0.0
 10
101.2519610167092
 20
171.1672425351029
 30
0.0
 10
101.3239624364315
 20
171.0647929351234
 30
0.0
 10
101.4127806888001
 20
171.0647929351234
 30
0.0
  0
LINE
  5
1BA
330
BA
100
AcDbEntity
  8
Sichtbar schmal (ISO)
 62
    18
420
        0
370
     5
100
AcDbLine
 10
101.2519610167092
 20
171.2936205212736
 30
0.0
 11
101.2519610167092
 21
171.4881239695006
 31
0.0
  0
SPLINE
  5
1BB
330
BA
100
AcDbEntity
  8
Sichtbar schmal (ISO)
 62
    18
420
        0
370
     5
100
AcDbSpline
210
0.0
220
0.0
230
1.0
 70
     8
 71
     3
 72
     8
 73
     4
 74
     0
 42
0.0000000001
 43
0.0000000001
 40
0.0
 40
0.0
 40
0.0
 40
0.0
 40
1.0
 40
1.0
 40
1.0
 40
1.0
 10
101.4127806888001
 20
171.7169515556505
 30
0.0
 10
101.3239624364315
 20
171.7169515556505
 30
0.0
 10
101.2519610167092
 20
171.6145019556719
 30
0.0
 10
101.2519610167092
 20
171.4881239695006
 30
0.0
  0
LINE
  5
1BC
330
BA
100
AcDbEntity
  8
Sichtbar schmal (ISO)
 62
    18
420
        0
370
     5
100
AcDbLine
 10
101.4127806888001
 20
171.7169515556505
 30
0.0
 11
103.1817970818006
 21
171.7169515556505
 31
0.0
  0
LINE
  5
1BD
330
BA
100
AcDbEntity
  8
Sichtbar schmal (ISO)
 62
    18
420
        0
370
     5
100
AcDbLine
 10
103.1817970818006
 20
171.7169515556505
 30
0.0
 11
103.1817970818006
 21
171.9457791418004
 31
0.0
  0
LINE
  5
1BE
330
BA
100
AcDbEntity
  8
Sichtbar schmal (ISO)
 62
    18
420
        0
370
     5
100
AcDbLine
 10
103.1817970818006
 20
171.9457791418004
 30
0.0
 11
104.1467151143461
 21
171.9457791418004
 31
0.0
  0
LINE
  5
1BF
330
BA
100
AcDbEntity
  8
Sichtbar schmal (ISO)
 62
    18
420
        0
370
     5
100
AcDbLine
 10
104.1467151143461
 20
171.9457791418004
 30
0.0
 11
104.1467151143461
 21
171.7169515556505
 31
0.0
  0
LINE
  5
1C0
330
BA
100
AcDbEntity
  8
Sichtbar schmal (ISO)
 62
    18
420
        0
370
     5
100
AcDbLine
 10
104.1467151143461
 20
171.7169515556505
 30
0.0
 11
105.9157315073466
 21
171.7169515556505
 31
0.0
  0
SPLINE
  5
1C1
330
BA
100
AcDbEntity
  8
Sichtbar schmal (ISO)
 62
    18
420
        0
370
     5
100
AcDbSpline
210
0.0
220
0.0
230
1.0
 70
     8
 71
     3
 72
     8
 73
     4
 74
     0
 42
0.0000000001
 43
0.0000000001
 40
0.0
 40
0.0
 40
0.0
 40
0.0
 40
1.0
 40
1.0
 40
1.0
 40
1.0
 10
106.0765511794378
 20
171.4881239695006
 30
0.0
 10
106.0765511794378
 20
171.6145019556719
 30
0.0
 10
106.0045497597156
 20
171.7169515556505
 30
0.0
 10
105.9157315073466
 20
171.7169515556505
 30
0.0
  0
LINE
  5
1C2
330
BA
100
AcDbEntity
  8
Sichtbar schmal (ISO)
 62
    18
420
        0
370
     5
100
AcDbLine
 10
106.0765511794378
 20
171.4881239695006
 30
0.0
 11
106.0765511794378
 21
171.2936205212736
 31
0.0
  0
SPLINE
  5
1C3
330
BA
100
AcDbEntity
  8
Sichtbar schmal (ISO)
 62
    18
420
        0
370
     5
100
AcDbSpline
210
0.0
220
0.0
230
1.0
 70
     8
 71
     3
 72
     8
 73
     4
 74
     0
 42
0.0000000001
 43
0.0000000001
 40
0.0
 40
0.0
 40
0.0
 40
0.0
 40
1.0
 40
1.0
 40
1.0
 40
1.0
 10
105.9157315073466
 20
171.0647929351234
 30
0.0
 10
106.0045497597156
 20
171.0647929351234
 30
0.0
 10
106.0765511794378
 20
171.1672425351029
 30
0.0
 10
106.0765511794378
 20
171.2936205212736
 30
0.0
  0
LINE
  5
1C4
330
BA
100
AcDbEntity
  8
Sichtbar schmal (ISO)
 62
    18
420
        0
370
     5
100
AcDbLine
 10
105.9157315073466
 20
171.0647929351234
 30
0.0
 11
104.1547560979507
 21
171.0647929351234
 31
0.0
  0
LINE
  5
1C5
330
BA
100
AcDbEntity
  8
Sichtbar schmal (ISO)
 62
    18
420
        0
370
     5
100
AcDbLine
 10
104.1547560979507
 20
171.0647929351234
 30
0.0
 11
104.1547560979507
 21
171.2936205212736
 31
0.0
  0
LINE
  5
1C6
330
BA
100
AcDbEntity
  8
Sichtbar schmal (ISO)
 62
    18
420
        0
370
     5
100
AcDbLine
 10
104.1547560979507
 20
171.2936205212736
 30
0.0
 11
103.1737560981961
 21
171.2936205212736
 31
0.0
  0
LINE
  5
1C7
330
BA
100
AcDbEntity
  8
Sichtbar schmal (ISO)
 62
    18
420
        0
370
     5
100
AcDbLine
 10
103.1737560981961
 20
169.9206550043747
 30
0.0
 11
103.1737560981961
 21
169.6918274182262
 31
0.0
  0
LINE
  5
1C8
330
BA
100
AcDbEntity
  8
Sichtbar schmal (ISO)
 62
    18
420
        0
370
     5
100
AcDbLine
 10
103.1737560981961
 20
169.6918274182262
 30
0.0
 11
101.4127806888001
 21
169.6918274182262
 31
0.0
  0
SPLINE
  5
1C9
330
BA
100
AcDbEntity
  8
Sichtbar schmal (ISO)
 62
    18
420
        0
370
     5
100
AcDbSpline
210
0.0
220
0.0
230
1.0
 70
     8
 71
     3
 72
     8
 73
     4
 74
     0
 42
0.0000000001
 43
0.0000000001
 40
0.0
 40
0.0
 40
0.0
 40
0.0
 40
1.0
 40
1.0
 40
1.0
 40
1.0
 10
101.2519610167092
 20
169.9206550043747
 30
0.0
 10
101.2519610167092
 20
169.794277018204
 30
0.0
 10
101.3239624364315
 20
169.6918274182262
 30
0.0
 10
101.4127806888001
 20
169.6918274182262
 30
0.0
  0
LINE
  5
1CA
330
BA
100
AcDbEntity
  8
Sichtbar schmal (ISO)
 62
    18
420
        0
370
     5
100
AcDbLine
 10
101.2519610167092
 20
169.9206550043747
 30
0.0
 11
101.2519610167092
 21
170.1151584526024
 31
0.0
  0
SPLINE
  5
1CB
330
BA
100
AcDbEntity
  8
Sichtbar schmal (ISO)
 62
    18
420
        0
370
     5
100
AcDbSpline
210
0.0
220
0.0
230
1.0
 70
     8
 71
     3
 72
     8
 73
     4
 74
     0
 42
0.0000000001
 43
0.0000000001
 40
0.0
 40
0.0
 40
0.0
 40
0.0
 40
1.0
 40
1.0
 40
1.0
 40
1.0
 10
101.4127806888001
 20
170.3439860387529
 30
0.0
 10
101.3239624364315
 20
170.3439860387529
 30
0.0
 10
101.2519610167092
 20
170.2415364387737
 30
0.0
 10
101.2519610167092
 20
170.1151584526024
 30
0.0
  0
LINE
  5
1CC
330
BA
100
AcDbEntity
  8
Sichtbar schmal (ISO)
 62
    18
420
        0
370
     5
100
AcDbLine
 10
101.4127806888001
 20
170.3439860387529
 30
0.0
 11
103.1817970818006
 21
170.3439860387529
 31
0.0
  0
LINE
  5
1CD
330
BA
100
AcDbEntity
  8
Sichtbar schmal (ISO)
 62
    18
420
        0
370
     5
100
AcDbLine
 10
103.1817970818006
 20
170.3439860387529
 30
0.0
 11
103.1817970818006
 21
170.5728136249027
 31
0.0
  0
LINE
  5
1CE
330
BA
100
AcDbEntity
  8
Sichtbar schmal (ISO)
 62
    18
420
        0
370
     5
100
AcDbLine
 10
103.1817970818006
 20
170.5728136249027
 30
0.0
 11
104.1467151143461
 21
170.5728136249027
 31
0.0
  0
LINE
  5
1CF
330
BA
100
AcDbEntity
  8
Sichtbar schmal (ISO)
 62
    18
420
        0
370
     5
100
AcDbLine
 10
104.1467151143461
 20
170.5728136249027
 30
0.0
 11
104.1467151143461
 21
170.3439860387529
 31
0.0
  0
LINE
  5
1D0
330
BA
100
AcDbEntity
  8
Sichtbar schmal (ISO)
 62
    18
420
        0
370
     5
100
AcDbLine
 10
104.1467151143461
 20
170.3439860387529
 30
0.0
 11
105.9157315073466
 21
170.3439860387529
 31
0.0
  0
SPLINE
  5
1D1
330
BA
100
AcDbEntity
  8
Sichtbar schmal (ISO)
 62
    18
420
        0
370
     5
100
AcDbSpline
210
0.0
220
0.0
230
1.0
 70
     8
 71
     3
 72
     8
 73
     4
 74
     0
 42
0.0000000001
 43
0.0000000001
 40
0.0
 40
0.0
 40
0.0
 40
0.0
 40
1.0
 40
1.0
 40
1.0
 40
1.0
 10
106.0765511794378
 20
170.1151584526024
 30
0.0
 10
106.0765511794378
 20
170.2415364387737
 30
0.0
 10
106.0045497597156
 20
170.3439860387529
 30
0.0
 10
105.9157315073466
 20
170.3439860387529
 30
0.0
  0
LINE
  5
1D2
330
BA
100
AcDbEntity
  8
Sichtbar schmal (ISO)
 62
    18
420
        0
370
     5
100
AcDbLine
 10
106.0765511794378
 20
170.1151584526024
 30
0.0
 11
106.0765511794378
 21
169.9206550043747
 31
0.0
  0
SPLINE
  5
1D3
330
BA
100
AcDbEntity
  8
Sichtbar schmal (ISO)
 62
    18
420
        0
370
     5
100
AcDbSpline
210
0.0
220
0.0
230
1.0
 70
     8
 71
     3
 72
     8
 73
     4
 74
     0
 42
0.0000000001
 43
0.0000000001
 40
0.0
 40
0.0
 40
0.0
 40
0.0
 40
1.0
 40
1.0
 40
1.0
 40
1.0
 10
105.9157315073466
 20
169.6918274182262
 30
0.0
 10
106.0045497597156
 20
169.6918274182262
 30
0.0
 10
106.0765511794378
 20
169.794277018204
 30
0.0
 10
106.0765511794378
 20
169.9206550043747
 30
0.0
  0
LINE
  5
1D4
330
BA
100
AcDbEntity
  8
Sichtbar schmal (ISO)
 62
    18
420
        0
370
     5
100
AcDbLine
 10
105.9157315073466
 20
169.6918274182262
 30
0.0
 11
104.1547560979507
 21
169.6918274182262
 31
0.0
  0
LINE
  5
1D5
330
BA
100
AcDbEntity
  8
Sichtbar schmal (ISO)
 62
    18
420
        0
370
     5
100
AcDbLine
 10
104.1547560979507
 20
169.6918274182262
 30
0.0
 11
104.1547560979507
 21
169.9206550043747
 31
0.0
  0
LINE
  5
1D6
330
BA
100
AcDbEntity
  8
Sichtbar schmal (ISO)
 62
    18
420
        0
370
     5
100
AcDbLine
 10
104.1547560979507
 20
169.9206550043747
 30
0.0
 11
103.1737560981961
 21
169.9206550043747
 31
0.0
  0
LINE
  5
1D7
330
BA
100
AcDbEntity
  8
Sichtbar schmal (ISO)
 62
    18
420
        0
370
     5
100
AcDbLine
 10
106.908290585376
 20
176.6367446578689
 30
0.0
 11
106.908290585376
 21
177.0943998301683
 31
0.0
  0
LINE
  5
1D8
330
BA
100
AcDbEntity
  8
Sichtbar schmal (ISO)
 62
    18
420
        0
370
     5
100
AcDbLine
 10
106.8002397038468
 20
176.6367446578689
 30
0.0
 11
106.8002397038468
 21
168.8566067287792
 31
0.0
  0
LINE
  5
1D9
330
BA
100
AcDbEntity
  8
Sichtbar schmal (ISO)
 62
    18
420
        0
370
     5
100
AcDbLine
 10
107.6170611962316
 20
176.6367446578689
 30
0.0
 11
107.6170611962316
 21
168.8566067287792
 31
0.0
  0
LINE
  5
1DA
330
BA
100
AcDbEntity
  8
Sichtbar schmal (ISO)
 62
    18
420
        0
370
     5
100
AcDbLine
 10
107.6170611962316
 20
176.6367446578689
 30
0.0
 11
107.6662751925623
 21
176.6367446578689
 31
0.0
  0
LINE
  5
1DB
330
BA
100
AcDbEntity
  8
Sichtbar schmal (ISO)
 62
    18
420
        0
370
     5
100
AcDbLine
 10
107.6662751925623
 20
178.0097101747672
 30
0.0
 11
107.6662751925623
 21
176.6367446578689
 31
0.0
  0
LINE
  5
1DC
330
BA
100
AcDbEntity
  8
Sichtbar schmal (ISO)
 62
    18
420
        0
370
     5
100
AcDbLine
 10
106.9690645937436
 20
178.0097101747672
 30
0.0
 11
107.6662751925623
 21
178.0097101747672
 31
0.0
  0
LINE
  5
1DD
330
BA
100
AcDbEntity
  8
Sichtbar schmal (ISO)
 62
    18
420
        0
370
     5
100
AcDbLine
 10
106.9690645937436
 20
178.0097101747672
 30
0.0
 11
106.9690645937436
 21
178.238537760917
 31
0.0
  0
SPLINE
  5
1DE
330
BA
100
AcDbEntity
  8
Sichtbar schmal (ISO)
 62
    18
420
        0
370
     5
100
AcDbSpline
210
0.0
220
0.0
230
1.0
 70
     8
 71
     3
 72
     8
 73
     4
 74
     0
 42
0.0000000001
 43
0.0000000001
 40
0.0
 40
0.0
 40
0.0
 40
0.0
 40
1.0
 40
1.0
 40
1.0
 40
1.0
 10
86.83649992081745
 20
175.5125838155943
 30
0.0
 10
86.81874076191974
 20
175.5125838155933
 30
0.0
 10
86.80435557980038
 20
175.4921153837283
 30
0.0
 10
86.80435557979974
 20
175.4668461774814
 30
0.0
  0
LINE
  5
1DF
330
BA
100
AcDbEntity
  8
Sichtbar schmal (ISO)
 62
    18
420
        0
370
     5
100
AcDbLine
 10
86.80435557979974
 20
175.4668461774814
 30
0.0
 11
86.80435557979974
 21
174.5285973160325
 31
0.0
  0
SPLINE
  5
1E0
330
BA
100
AcDbEntity
  8
Sichtbar schmal (ISO)
 62
    18
420
        0
370
     5
100
AcDbSpline
210
0.0
220
0.0
230
1.0
 70
     8
 71
     3
 72
     8
 73
     4
 74
     0
 42
0.0000000001
 43
0.0000000001
 40
0.0
 40
0.0
 40
0.0
 40
0.0
 40
1.0
 40
1.0
 40
1.0
 40
1.0
 10
86.77221123878233
 20
174.4828596779191
 30
0.0
 10
86.78997039768036
 20
174.4828596779191
 30
0.0
 10
86.8043555798007
 20
174.5033281097853
 30
0.0
 10
86.8043555798007
 20
174.5285973160325
 30
0.0
  0
LINE
  5
1E1
330
BA
100
AcDbEntity
  8
Sichtbar schmal (ISO)
 62
    18
420
        0
370
     5
100
AcDbLine
 10
86.77221123878233
 20
174.48285967792
 30
0.0
 11
85.81925178572097
 21
174.48285967792
 31
0.0
  0
SPLINE
  5
1E2
330
BA
100
AcDbEntity
  8
Sichtbar schmal (ISO)
 62
    18
420
        0
370
     5
100
AcDbSpline
210
0.0
220
0.0
230
1.0
 70
     8
 71
     3
 72
     8
 73
     4
 74
     0
 42
0.0000000001
 43
0.0000000001
 40
0.0
 40
0.0
 40
0.0
 40
0.0
 40
1.0
 40
1.0
 40
1.0
 40
1.0
 10
85.78710744470228
 20
174.5285973160325
 30
0.0
 10
85.78710744470228
 20
174.5033281097853
 30
0.0
 10
85.8014926268226
 20
174.4828596779191
 30
0.0
 10
85.81925178572097
 20
174.4828596779191
 30
0.0
  0
LINE
  5
1E3
330
BA
100
AcDbEntity
  8
Sichtbar schmal (ISO)
 62
    18
420
        0
370
     5
100
AcDbLine
 10
85.78710744470324
 20
174.5285973160325
 30
0.0
 11
85.78710744470324
 21
175.4668461774814
 31
0.0
  0
SPLINE
  5
1E4
330
BA
100
AcDbEntity
  8
Sichtbar schmal (ISO)
 62
    18
420
        0
370
     5
100
AcDbSpline
210
0.0
220
0.0
230
1.0
 70
     8
 71
     3
 72
     8
 73
     4
 74
     0
 42
0.0000000001
 43
0.0000000001
 40
0.0
 40
0.0
 40
0.0
 40
0.0
 40
1.0
 40
1.0
 40
1.0
 40
1.0
 10
85.78710744470356
 20
175.4668461774814
 30
0.0
 10
85.78710744470324
 20
175.4921153837283
 30
0.0
 10
85.77272226258322
 20
175.5125838155943
 30
0.0
 10
85.75496310368553
 20
175.5125838155943
 30
0.0
  0
LINE
  5
1E5
330
BA
100
AcDbEntity
  8
Sichtbar schmal (ISO)
 62
    18
420
        0
370
     5
100
AcDbLine
 10
85.75496310368553
 20
175.5125838155933
 30
0.0
 11
85.37699768747085
 21
175.5125838155933
 31
0.0
  0
SPLINE
  5
1E6
330
BA
100
AcDbEntity
  8
Sichtbar schmal (ISO)
 62
    18
420
        0
370
     5
100
AcDbSpline
210
0.0
220
0.0
230
1.0
 70
     8
 71
     3
 72
     8
 73
     4
 74
     0
 42
0.0000000001
 43
0.0000000001
 40
0.0
 40
0.0
 40
0.0
 40
0.0
 40
1.0
 40
1.0
 40
1.0
 40
1.0
 10
85.34485334645216
 20
175.5583214537067
 30
0.0
 10
85.3448533464528
 20
175.5330522474589
 30
0.0
 10
85.35923852857314
 20
175.5125838155933
 30
0.0
 10
85.37699768747085
 20
175.5125838155933
 30
0.0
  0
LINE
  5
1E7
330
BA
100
AcDbEntity
  8
Sichtbar schmal (ISO)
 62
    18
420
        0
370
     5
100
AcDbLine
 10
85.34485334645314
 20
175.5583214537067
 30
0.0
 11
85.34485334645314
 21
176.4566161382076
 31
0.0
  0
SPLINE
  5
1E8
330
BA
100
AcDbEntity
  8
Sichtbar schmal (ISO)
 62
    18
420
        0
370
     5
100
AcDbSpline
210
0.0
220
0.0
230
1.0
 70
     8
 71
     3
 72
     8
 73
     4
 74
     0
 42
0.0000000001
 43
0.0000000001
 40
0.0
 40
0.0
 40
0.0
 40
0.0
 40
1.0
 40
1.0
 40
1.0
 40
1.0
 10
85.37699768747085
 20
176.5023537763214
 30
0.0
 10
85.3592385285725
 20
176.5023537763214
 30
0.0
 10
85.34485334645184
 20
176.4818853444551
 30
0.0
 10
85.34485334645216
 20
176.4566161382076
 30
0.0
  0
LINE
  5
1E9
330
BA
100
AcDbEntity
  8
Sichtbar schmal (ISO)
 62
    18
420
        0
370
     5
100
AcDbLine
 10
85.37699768747085
 20
176.5023537763214
 30
0.0
 11
87.21446533703245
 21
176.5023537763214
 31
0.0
  0
SPLINE
  5
1EA
330
BA
100
AcDbEntity
  8
Sichtbar schmal (ISO)
 62
    18
420
        0
370
     5
100
AcDbSpline
210
0.0
220
0.0
230
1.0
 70
     8
 71
     3
 72
     8
 73
     4
 74
     0
 42
0.0000000001
 43
0.0000000001
 40
0.0
 40
0.0
 40
0.0
 40
0.0
 40
1.0
 40
1.0
 40
1.0
 40
1.0
 10
87.24660967805082
 20
176.4566161382076
 30
0.0
 10
87.24660967805112
 20
176.4818853444551
 30
0.0
 10
87.23222449593048
 20
176.5023537763214
 30
0.0
 10
87.21446533703245
 20
176.5023537763214
 30
0.0
  0
LINE
  5
1EB
330
BA
100
AcDbEntity
  8
Sichtbar schmal (ISO)
 62
    18
420
        0
370
     5
100
AcDbLine
 10
87.24660967804984
 20
176.4566161382076
 30
0.0
 11
87.24660967804984
 21
175.5583214537067
 31
0.0
  0
SPLINE
  5
1EC
330
BA
100
AcDbEntity
  8
Sichtbar schmal (ISO)
 62
    18
420
        0
370
     5
100
AcDbSpline
210
0.0
220
0.0
230
1.0
 70
     8
 71
     3
 72
     8
 73
     4
 74
     0
 42
0.0000000001
 43
0.0000000001
 40
0.0
 40
0.0
 40
0.0
 40
0.0
 40
1.0
 40
1.0
 40
1.0
 40
1.0
 10
87.21446533703245
 20
175.5125838155933
 30
0.0
 10
87.23222449593015
 20
175.5125838155933
 30
0.0
 10
87.24660967805048
 20
175.5330522474589
 30
0.0
 10
87.24660967805082
 20
175.5583214537067
 30
0.0
  0
LINE
  5
1ED
330
BA
100
AcDbEntity
  8
Sichtbar schmal (ISO)
 62
    18
420
        0
370
     5
100
AcDbLine
 10
87.21446533703245
 20
175.5125838155933
 30
0.0
 11
86.83649992081745
 21
175.5125838155933
 31
0.0
  0
SPLINE
  5
1EE
330
BA
100
AcDbEntity
  8
Sichtbar schmal (ISO)
 62
    18
420
        0
370
     5
100
AcDbSpline
210
0.0
220
0.0
230
1.0
 70
     8
 71
     3
 72
     8
 73
     4
 74
     0
 42
0.0000000001
 43
0.0000000001
 40
0.0
 40
0.0
 40
0.0
 40
0.0
 40
1.0
 40
1.0
 40
1.0
 40
1.0
 10
96.40120580270567
 20
175.4668461774814
 30
0.0
 10
96.40120580270567
 20
175.4921153837283
 30
0.0
 10
96.38682062058563
 20
175.5125838155933
 30
0.0
 10
96.36906146168762
 20
175.5125838155943
 30
0.0
  0
LINE
  5
1EF
330
BA
100
AcDbEntity
  8
Sichtbar schmal (ISO)
 62
    18
420
        0
370
     5
100
AcDbLine
 10
95.99109604547294
 20
175.5125838155933
 30
0.0
 11
96.36906146168762
 21
175.5125838155933
 31
0.0
  0
SPLINE
  5
1F0
330
BA
100
AcDbEntity
  8
Sichtbar schmal (ISO)
 62
    18
420
        0
370
     5
100
AcDbSpline
210
0.0
220
0.0
230
1.0
 70
     8
 71
     3
 72
     8
 73
     4
 74
     0
 42
0.0000000001
 43
0.0000000001
 40
0.0
 40
0.0
 40
0.0
 40
0.0
 40
1.0
 40
1.0
 40
1.0
 40
1.0
 10
95.95895170445457
 20
175.5583214537067
 30
0.0
 10
95.95895170445491
 20
175.5330522474589
 30
0.0
 10
95.97333688657522
 20
175.5125838155933
 30
0.0
 10
95.99109604547294
 20
175.5125838155933
 30
0.0
  0
LINE
  5
1F1
330
BA
100
AcDbEntity
  8
Sichtbar schmal (ISO)
 62
    18
420
        0
370
     5
100
AcDbLine
 10
95.95895170445521
 20
176.4566161382076
 30
0.0
 11
95.95895170445521
 21
175.5583214537067
 31
0.0
  0
SPLINE
  5
1F2
330
BA
100
AcDbEntity
  8
Sichtbar schmal (ISO)
 62
    18
420
        0
370
     5
100
AcDbSpline
210
0.0
220
0.0
230
1.0
 70
     8
 71
     3
 72
     8
 73
     4
 74
     0
 42
0.0000000001
 43
0.0000000001
 40
0.0
 40
0.0
 40
0.0
 40
0.0
 40
1.0
 40
1.0
 40
1.0
 40
1.0
 10
95.99109604547294
 20
176.5023537763214
 30
0.0
 10
95.97333688657458
 20
176.5023537763214
 30
0.0
 10
95.95895170445425
 20
176.4818853444551
 30
0.0
 10
95.95895170445457
 20
176.4566161382076
 30
0.0
  0
LINE
  5
1F3
330
BA
100
AcDbEntity
  8
Sichtbar schmal (ISO)
 62
    18
420
        0
370
     5
100
AcDbLine
 10
97.82856369503456
 20
176.5023537763214
 30
0.0
 11
95.99109604547294
 21
176.5023537763214
 31
0.0
  0
SPLINE
  5
1F4
330
BA
100
AcDbEntity
  8
Sichtbar schmal (ISO)
 62
    18
420
        0
370
     5
100
AcDbSpline
210
0.0
220
0.0
230
1.0
 70
     8
 71
     3
 72
     8
 73
     4
 74
     0
 42
0.0000000001
 43
0.0000000001
 40
0.0
 40
0.0
 40
0.0
 40
0.0
 40
1.0
 40
1.0
 40
1.0
 40
1.0
 10
97.86070803605323
 20
176.4566161382076
 30
0.0
 10
97.86070803605355
 20
176.4818853444551
 30
0.0
 10
97.84632285393289
 20
176.5023537763214
 30
0.0
 10
97.82856369503456
 20
176.5023537763214
 30
0.0
  0
LINE
  5
1F5
330
BA
100
AcDbEntity
  8
Sichtbar schmal (ISO)
 62
    18
420
        0
370
     5
100
AcDbLine
 10
97.86070803605227
 20
175.5583214537067
 30
0.0
 11
97.86070803605227
 21
176.4566161382076
 31
0.0
  0
SPLINE
  5
1F6
330
BA
100
AcDbEntity
  8
Sichtbar schmal (ISO)
 62
    18
420
        0
370
     5
100
AcDbSpline
210
0.0
220
0.0
230
1.0
 70
     8
 71
     3
 72
     8
 73
     4
 74
     0
 42
0.0000000001
 43
0.0000000001
 40
0.0
 40
0.0
 40
0.0
 40
0.0
 40
1.0
 40
1.0
 40
1.0
 40
1.0
 10
97.82856369503422
 20
175.5125838155933
 30
0.0
 10
97.84632285393225
 20
175.5125838155933
 30
0.0
 10
97.86070803605323
 20
175.5330522474589
 30
0.0
 10
97.86070803605323
 20
175.5583214537067
 30
0.0
  0
LINE
  5
1F7
330
BA
100
AcDbEntity
  8
Sichtbar schmal (ISO)
 62
    18
420
        0
370
     5
100
AcDbLine
 10
97.45059827881988
 20
175.5125838155933
 30
0.0
 11
97.82856369503456
 21
175.5125838155933
 31
0.0
  0
SPLINE
  5
1F8
330
BA
100
AcDbEntity
  8
Sichtbar schmal (ISO)
 62
    18
420
        0
370
     5
100
AcDbSpline
210
0.0
220
0.0
230
1.0
 70
     8
 71
     3
 72
     8
 73
     4
 74
     0
 42
0.0000000001
 43
0.0000000001
 40
0.0
 40
0.0
 40
0.0
 40
0.0
 40
1.0
 40
1.0
 40
1.0
 40
1.0
 10
97.45059827881988
 20
175.5125838155943
 30
0.0
 10
97.43283911992216
 20
175.5125838155943
 30
0.0
 10
97.41845393780215
 20
175.4921153837283
 30
0.0
 10
97.41845393780183
 20
175.4668461774814
 30
0.0
  0
LINE
  5
1F9
330
BA
100
AcDbEntity
  8
Sichtbar schmal (ISO)
 62
    18
420
        0
370
     5
100
AcDbLine
 10
97.41845393780215
 20
174.5285973160325
 30
0.0
 11
97.41845393780215
 21
175.4668461774814
 31
0.0
  0
SPLINE
  5
1FA
330
BA
100
AcDbEntity
  8
Sichtbar schmal (ISO)
 62
    18
420
        0
370
     5
100
AcDbSpline
210
0.0
220
0.0
230
1.0
 70
     8
 71
     3
 72
     8
 73
     4
 74
     0
 42
0.0000000001
 43
0.0000000001
 40
0.0
 40
0.0
 40
0.0
 40
0.0
 40
1.0
 40
1.0
 40
1.0
 40
1.0
 10
97.38630959678443
 20
174.4828596779191
 30
0.0
 10
97.40406875568277
 20
174.4828596779191
 30
0.0
 10
97.41845393780311
 20
174.5033281097853
 30
0.0
 10
97.41845393780311
 20
174.5285973160325
 30
0.0
  0
LINE
  5
1FB
330
BA
100
AcDbEntity
  8
Sichtbar schmal (ISO)
 62
    18
420
        0
370
     5
100
AcDbLine
 10
96.43335014372306
 20
174.48285967792
 30
0.0
 11
97.38630959678443
 21
174.48285967792
 31
0.0
  0
SPLINE
  5
1FC
330
BA
100
AcDbEntity
  8
Sichtbar schmal (ISO)
 62
    18
420
        0
370
     5
100
AcDbSpline
210
0.0
220
0.0
230
1.0
 70
     8
 71
     3
 72
     8
 73
     4
 74
     0
 42
0.0000000001
 43
0.0000000001
 40
0.0
 40
0.0
 40
0.0
 40
0.0
 40
1.0
 40
1.0
 40
1.0
 40
1.0
 10
96.40120580270469
 20
174.5285973160325
 30
0.0
 10
96.40120580270469
 20
174.5033281097853
 30
0.0
 10
96.41559098482503
 20
174.4828596779191
 30
0.0
 10
96.43335014372306
 20
174.4828596779191
 30
0.0
  0
LINE
  5
1FD
330
BA
100
AcDbEntity
  8
Sichtbar schmal (ISO)
 62
    18
420
        0
370
     5
100
AcDbLine
 10
96.40120580270567
 20
175.4668461774814
 30
0.0
 11
96.40120580270567
 21
174.5285973160325
 31
0.0
  0
LINE
  5
1FE
330
BA
100
AcDbEntity
  8
Sichtbar schmal (ISO)
 62
    18
420
        0
370
     5
100
AcDbLine
 10
109.4162258801215
 20
178.0097101747672
 30
0.0
 11
108.5064924346554
 21
178.0097101747672
 31
0.0
  0
LINE
  5
1FF
330
BA
100
AcDbEntity
  8
Sichtbar schmal (ISO)
 62
    18
420
        0
370
     5
100
AcDbLine
 10
110.2578626538024
 20
178.0097101747672
 30
0.0
 11
109.4162258801222
 21
178.0097101747672
 31
0.0
  0
LINE
  5
200
330
BA
100
AcDbEntity
  8
Sichtbar schmal (ISO)
 62
    18
420
        0
370
     5
100
AcDbLine
 10
108.5064924346516
 20
178.0097101747672
 30
0.0
 11
107.666275192563
 21
178.0097101747672
 31
0.0
  0
LINE
  5
201
330
BA
100
AcDbEntity
  8
Sichtbar schmal (ISO)
 62
    18
420
        0
370
     5
100
AcDbLine
 10
109.3611060637952
 20
168.8566067287792
 30
0.0
 11
109.3611060637952
 21
176.6367446578689
 31
0.0
  0
LINE
  5
202
330
BA
100
AcDbEntity
  8
Sichtbar schmal (ISO)
 62
    18
420
        0
370
     5
100
AcDbLine
 10
109.4162258801215
 20
176.6367446578689
 30
0.0
 11
109.3611060637945
 21
176.6367446578689
 31
0.0
  0
LINE
  5
203
330
BA
100
AcDbEntity
  8
Sichtbar schmal (ISO)
 62
    18
420
        0
370
     5
100
AcDbLine
 10
109.4162258801202
 20
176.6367446578689
 30
0.0
 11
109.4162258801202
 21
178.0097101747672
 31
0.0
  0
LINE
  5
204
330
BA
100
AcDbEntity
  8
Sichtbar schmal (ISO)
 62
    18
420
        0
370
     5
100
AcDbLine
 10
108.506492434649
 20
176.6367446578689
 30
0.0
 11
108.506492434649
 21
178.0097101747672
 31
0.0
  0
LINE
  5
205
330
BA
100
AcDbEntity
  8
Sichtbar schmal (ISO)
 62
    18
420
        0
370
     5
100
AcDbLine
 10
108.5177889579508
 20
176.6367446578689
 30
0.0
 11
108.5064924346554
 21
176.6367446578689
 31
0.0
  0
LINE
  5
206
330
BA
100
AcDbEntity
  8
Sichtbar schmal (ISO)
 62
    18
420
        0
370
     5
100
AcDbLine
 10
108.5177889579534
 20
168.8566067287792
 30
0.0
 11
108.5177889579534
 21
176.6367446578689
 31
0.0
  0
LINE
  5
207
330
BA
100
AcDbEntity
  8
Sichtbar schmal (ISO)
 62
    18
420
        0
370
     5
100
AcDbLine
 10
108.5064924346516
 20
176.6367446578689
 30
0.0
 11
107.666275192563
 21
176.6367446578689
 31
0.0
  0
LINE
  5
208
330
BA
100
AcDbEntity
  8
Sichtbar schmal (ISO)
 62
    18
420
        0
370
     5
100
AcDbLine
 10
110.2578626538024
 20
176.6367446578689
 30
0.0
 11
109.4162258801222
 21
176.6367446578689
 31
0.0
  0
LINE
  5
209
330
BA
100
AcDbEntity
  8
Sichtbar schmal (ISO)
 62
    18
420
        0
370
     5
100
AcDbLine
 10
110.2578626538018
 20
178.0097101747672
 30
0.0
 11
110.2578626538018
 21
176.6367446578689
 31
0.0
  0
LINE
  5
20A
330
BA
100
AcDbEntity
  8
Sichtbar schmal (ISO)
 62
    18
420
        0
370
     5
100
AcDbLine
 10
110.2578626538018
 20
178.0097101747672
 30
0.0
 11
110.2578626538018
 21
178.238537760917
 31
0.0
  0
LINE
  5
20B
330
BA
100
AcDbEntity
  8
Sichtbar schmal (ISO)
 62
    18
420
        0
370
     5
100
AcDbLine
 10
110.6599118340296
 20
175.95026189942
 30
0.0
 11
110.6599118340296
 21
168.8566067287792
 31
0.0
  0
LINE
  5
20C
330
BA
100
AcDbEntity
  8
Sichtbar schmal (ISO)
 62
    18
420
        0
370
     5
100
AcDbLine
 10
110.6599118340296
 20
178.238537760917
 30
0.0
 11
110.6599118340296
 21
175.95026189942
 31
0.0
  0
LINE
  5
20D
330
BA
100
AcDbEntity
  8
Sichtbar schmal (ISO)
 62
    18
420
        0
370
     5
100
AcDbLine
 10
110.2578626538043
 20
176.6367446578689
 30
0.0
 11
110.3543544570619
 21
176.6367446578689
 31
0.0
  0
LINE
  5
20E
330
BA
100
AcDbEntity
  8
Sichtbar schmal (ISO)
 62
    18
420
        0
370
     5
100
AcDbLine
 10
84.44630528320557
 20
168.8566067287792
 30
0.0
 11
84.44630528320557
 21
173.2043308656235
 31
0.0
  0
LINE
  5
20F
330
BA
100
AcDbEntity
  8
Sichtbar schmal (ISO)
 62
    18
420
        0
370
     5
100
AcDbLine
 10
87.74310856106994
 20
176.6367446578689
 30
0.0
 11
90.63786265870685
 21
176.6367446578689
 31
0.0
  0
LINE
  5
210
330
BA
100
AcDbEntity
  8
Sichtbar schmal (ISO)
 62
    18
420
        0
370
     5
100
AcDbLine
 10
92.56769872379853
 20
176.6367446578689
 30
0.0
 11
95.46245282143544
 21
176.6367446578689
 31
0.0
  0
LINE
  5
211
330
BA
100
AcDbEntity
  8
Sichtbar schmal (ISO)
 62
    18
420
        0
370
     5
100
AcDbLine
 10
95.46245282143544
 20
176.6367446578689
 30
0.0
 11
95.46245282143544
 21
173.2729791414685
 31
0.0
  0
LINE
  5
212
330
BA
100
AcDbEntity
  8
Sichtbar schmal (ISO)
 62
    18
420
        0
370
     5
100
AcDbLine
 10
95.46245282143544
 20
173.2729791414685
 30
0.0
 11
97.31187905048122
 21
173.2729791414685
 31
0.0
  0
LINE
  5
213
330
BA
100
AcDbEntity
  8
Sichtbar schmal (ISO)
 62
    18
420
        0
370
     5
100
AcDbLine
 10
97.31187905048122
 20
173.2729791414685
 30
0.0
 11
97.31187905048122
 21
168.8566067287792
 31
0.0
  0
LINE
  5
214
330
BA
100
AcDbEntity
  8
Sichtbar schmal (ISO)
 62
    18
420
        0
370
     5
100
AcDbLine
 10
97.95515773884488
 20
168.8566067287792
 30
0.0
 11
97.95515773884488
 21
173.2043308656235
 31
0.0
  0
LINE
  5
215
330
BA
100
AcDbEntity
  8
Sichtbar schmal (ISO)
 62
    18
420
        0
370
     5
100
AcDbLine
 10
97.95515773884488
 20
173.2043308656235
 30
0.0
 11
98.75925609929982
 21
173.2043308656235
 31
0.0
  0
LINE
  5
216
330
BA
100
AcDbEntity
  8
Sichtbar schmal (ISO)
 62
    18
420
        0
370
     5
100
AcDbLine
 10
98.75925609929982
 20
168.8566067287792
 30
0.0
 11
98.75925609929982
 21
173.2043308656235
 31
0.0
  0
LINE
  5
217
330
BA
100
AcDbEntity
  8
Sichtbar schmal (ISO)
 62
    18
420
        0
370
     5
100
AcDbLine
 10
99.40253478766319
 20
176.6367446578689
 30
0.0
 11
99.40253478766319
 21
168.8566067287792
 31
0.0
  0
LINE
  5
218
330
BA
100
AcDbEntity
  8
Sichtbar schmal (ISO)
 62
    18
420
        0
370
     5
100
AcDbLine
 10
99.40253478766319
 20
176.6367446578689
 30
0.0
 11
105.9157315073466
 21
176.6367446578689
 31
0.0
  0
LINE
  5
219
330
BA
100
AcDbEntity
  8
Sichtbar schmal (ISO)
 62
    18
420
        0
370
     5
100
AcDbLine
 10
99.08089544348166
 20
177.0943998301683
 30
0.0
 11
105.9157315073466
 21
177.0943998301683
 31
0.0
  0
LINE
  5
21A
330
BA
100
AcDbEntity
  8
Sichtbar schmal (ISO)
 62
    18
420
        0
370
     5
100
AcDbLine
 10
99.08089544348166
 20
177.0943998301683
 30
0.0
 11
99.06851719780338
 21
173.7306343137683
 31
0.0
  0
LINE
  5
21B
330
BA
100
AcDbEntity
  8
Sichtbar schmal (ISO)
 62
    18
420
        0
370
     5
100
AcDbLine
 10
95.79647041129524
 20
173.7306343137683
 30
0.0
 11
99.06851719780338
 21
173.7306343137683
 31
0.0
  0
LINE
  5
21C
330
BA
100
AcDbEntity
  8
Sichtbar schmal (ISO)
 62
    18
420
        0
370
     5
100
AcDbLine
 10
95.78409216561729
 20
177.0943998301683
 30
0.0
 11
95.79647041129524
 21
173.7306343137683
 31
0.0
  0
LINE
  5
21D
330
BA
100
AcDbEntity
  8
Sichtbar schmal (ISO)
 62
    18
420
        0
370
     5
100
AcDbLine
 10
95.78409216561729
 20
177.0943998301683
 30
0.0
 11
92.56769872379853
 21
177.0943998301683
 31
0.0
  0
LINE
  5
21E
330
BA
100
AcDbEntity
  8
Sichtbar schmal (ISO)
 62
    18
420
        0
370
     5
100
AcDbLine
 10
90.63786265870685
 20
177.0943998301683
 30
0.0
 11
87.4214692168881
 21
177.0943998301683
 31
0.0
  0
LINE
  5
21F
330
BA
100
AcDbEntity
  8
Sichtbar schmal (ISO)
 62
    18
420
        0
370
     5
100
AcDbLine
 10
87.4214692168881
 20
177.0943998301683
 30
0.0
 11
87.40909097121013
 21
173.7306343137683
 31
0.0
  0
LINE
  5
220
330
BA
100
AcDbEntity
  8
Sichtbar schmal (ISO)
 62
    18
420
        0
370
     5
100
AcDbLine
 10
87.40909097121013
 20
173.7306343137683
 30
0.0
 11
84.13704418470201
 21
173.7306343137683
 31
0.0
  0
LINE
  5
221
330
BA
100
AcDbEntity
  8
Sichtbar schmal (ISO)
 62
    18
420
        0
370
     5
100
AcDbLine
 10
84.12466593902372
 20
177.0943998301683
 30
0.0
 11
84.13704418470201
 21
173.7306343137683
 31
0.0
  0
LINE
  5
222
330
BA
100
AcDbEntity
  8
Sichtbar schmal (ISO)
 62
    18
420
        0
370
     5
100
AcDbLine
 10
84.12466593902372
 20
177.0943998301683
 30
0.0
 11
77.28982987515877
 21
177.0943998301683
 31
0.0
  0
LINE
  5
223
330
BA
100
AcDbEntity
  8
Sichtbar schmal (ISO)
 62
    18
420
        0
370
     5
100
AcDbLine
 10
83.80302659484188
 20
176.6367446578689
 30
0.0
 11
77.28982987515877
 21
176.6367446578689
 31
0.0
  0
LINE
  5
224
330
BA
100
AcDbEntity
  8
Sichtbar schmal (ISO)
 62
    18
420
        0
370
     5
100
AcDbLine
 10
83.80302659484188
 20
176.6367446578689
 30
0.0
 11
83.80302659484188
 21
168.8566067287792
 31
0.0
  0
LINE
  5
225
330
BA
100
AcDbEntity
  8
Sichtbar schmal (ISO)
 62
    18
420
        0
370
     5
100
AcDbLine
 10
85.25040364366018
 20
173.2043308656235
 30
0.0
 11
84.44630528320557
 21
173.2043308656235
 31
0.0
  0
LINE
  5
226
330
BA
100
AcDbEntity
  8
Sichtbar schmal (ISO)
 62
    18
420
        0
370
     5
100
AcDbLine
 10
85.25040364366018
 20
168.8566067287792
 30
0.0
 11
85.25040364366018
 21
173.2043308656235
 31
0.0
  0
LINE
  5
227
330
BA
100
AcDbEntity
  8
Sichtbar schmal (ISO)
 62
    18
420
        0
370
     5
100
AcDbLine
 10
85.89368233202419
 20
173.2729791414685
 30
0.0
 11
85.89368233202419
 21
168.8566067287792
 31
0.0
  0
LINE
  5
228
330
BA
100
AcDbEntity
  8
Sichtbar schmal (ISO)
 62
    18
420
        0
370
     5
100
AcDbLine
 10
87.74310856106994
 20
173.2729791414685
 30
0.0
 11
85.89368233202419
 21
173.2729791414685
 31
0.0
  0
LINE
  5
229
330
BA
100
AcDbEntity
  8
Sichtbar schmal (ISO)
 62
    18
420
        0
370
     5
100
AcDbLine
 10
87.74310856106994
 20
176.6367446578689
 30
0.0
 11
87.74310856106994
 21
173.2729791414685
 31
0.0
  0
LINE
  5
22A
330
BA
100
AcDbEntity
  8
Sichtbar schmal (ISO)
 62
    18
420
        0
370
     5
100
AcDbLine
 10
76.70875961163357
 20
176.6367446578689
 30
0.0
 11
77.28982987515877
 21
176.6367446578689
 31
0.0
  0
LINE
  5
22B
330
BA
100
AcDbEntity
  8
Sichtbar schmal (ISO)
 62
    18
420
        0
370
     5
100
AcDbLine
 10
76.29727079712835
 20
176.6367446578689
 30
0.0
 11
76.70875961163421
 21
176.6367446578689
 31
0.0
  0
LINE
  5
22C
330
BA
100
AcDbEntity
  8
Sichtbar schmal (ISO)
 62
    18
420
        0
370
     5
100
AcDbLine
 10
106.4968017708718
 20
176.6367446578689
 30
0.0
 11
105.9157315073466
 21
176.6367446578689
 31
0.0
  0
LINE
  5
22D
330
BA
100
AcDbEntity
  8
Sichtbar schmal (ISO)
 62
    18
420
        0
370
     5
100
AcDbLine
 10
106.9082905853767
 20
176.6367446578689
 30
0.0
 11
106.4968017708705
 21
176.6367446578689
 31
0.0
  0
LINE
  5
22E
330
BA
100
AcDbEntity
  8
Sichtbar schmal (ISO)
 62
    18
420
        0
370
     5
100
AcDbLine
 10
76.70875961163357
 20
177.0943998301683
 30
0.0
 11
77.28982987515877
 21
177.0943998301683
 31
0.0
  0
LINE
  5
22F
330
BA
100
AcDbEntity
  8
Sichtbar schmal (ISO)
 62
    18
420
        0
370
     5
100
AcDbLine
 10
76.29727079712835
 20
177.0943998301683
 30
0.0
 11
76.70875961163421
 21
177.0943998301683
 31
0.0
  0
LINE
  5
230
330
BA
100
AcDbEntity
  8
Sichtbar schmal (ISO)
 62
    18
420
        0
370
     5
100
AcDbLine
 10
106.4968017708718
 20
177.0943998301683
 30
0.0
 11
105.9157315073466
 21
177.0943998301683
 31
0.0
  0
LINE
  5
231
330
BA
100
AcDbEntity
  8
Sichtbar schmal (ISO)
 62
    18
420
        0
370
     5
100
AcDbLine
 10
106.9082905853767
 20
177.0943998301683
 30
0.0
 11
106.4968017708705
 21
177.0943998301683
 31
0.0
  0
LINE
  5
232
330
BA
100
AcDbEntity
  8
Sichtbar schmal (ISO)
 62
    18
420
        0
370
     5
100
AcDbLine
 10
82.43605938206888
 20
178.238537760917
 30
0.0
 11
82.43605938206888
 21
177.0943998301683
 31
0.0
  0
LINE
  5
233
330
BA
100
AcDbEntity
  8
Sichtbar schmal (ISO)
 62
    18
420
        0
370
     5
100
AcDbLine
 10
82.43605938206888
 20
176.6367446578689
 30
0.0
 11
82.43605938206888
 21
173.6619860379226
 31
0.0
  0
LINE
  5
234
330
BA
100
AcDbEntity
  8
Sichtbar schmal (ISO)
 62
    18
420
        0
370
     5
100
AcDbLine
 10
83.40097741461443
 20
178.238537760917
 30
0.0
 11
83.40097741461443
 21
177.0943998301683
 31
0.0
  0
LINE
  5
235
330
BA
100
AcDbEntity
  8
Sichtbar schmal (ISO)
 62
    18
420
        0
370
     5
100
AcDbLine
 10
83.40097741461443
 20
173.6619860379226
 30
0.0
 11
82.43605938206888
 21
173.6619860379226
 31
0.0
  0
LINE
  5
236
330
BA
100
AcDbEntity
  8
Sichtbar schmal (ISO)
 62
    18
420
        0
370
     5
100
AcDbLine
 10
83.40097741461443
 20
176.6367446578689
 30
0.0
 11
83.40097741461443
 21
173.6619860379226
 31
0.0
  0
LINE
  5
237
330
BA
100
AcDbEntity
  8
Sichtbar schmal (ISO)
 62
    18
420
        0
370
     5
100
AcDbLine
 10
99.80458396789066
 20
178.238537760917
 30
0.0
 11
99.80458396789066
 21
177.0943998301683
 31
0.0
  0
LINE
  5
238
330
BA
100
AcDbEntity
  8
Sichtbar schmal (ISO)
 62
    18
420
        0
370
     5
100
AcDbLine
 10
99.80458396789066
 20
176.6367446578689
 30
0.0
 11
99.80458396789066
 21
173.6619860379226
 31
0.0
  0
LINE
  5
239
330
BA
100
AcDbEntity
  8
Sichtbar schmal (ISO)
 62
    18
420
        0
370
     5
100
AcDbLine
 10
100.7695020004365
 20
178.238537760917
 30
0.0
 11
100.7695020004365
 21
177.0943998301683
 31
0.0
  0
LINE
  5
23A
330
BA
100
AcDbEntity
  8
Sichtbar schmal (ISO)
 62
    18
420
        0
370
     5
100
AcDbLine
 10
99.80458396789066
 20
173.6619860379226
 30
0.0
 11
100.7695020004365
 21
173.6619860379226
 31
0.0
  0
LINE
  5
23B
330
BA
100
AcDbEntity
  8
Sichtbar schmal (ISO)
 62
    18
420
        0
370
     5
100
AcDbLine
 10
100.7695020004365
 20
176.6367446578689
 30
0.0
 11
100.7695020004365
 21
173.6619860379226
 31
0.0
  0
LINE
  5
23C
330
BA
100
AcDbEntity
  8
Sichtbar schmal (ISO)
 62
    18
420
        0
370
     5
100
AcDbLine
 10
72.94769872870102
 20
176.6367446578689
 30
0.0
 11
72.85120692544343
 21
176.6367446578689
 31
0.0
  0
LINE
  5
23D
330
BA
100
AcDbEntity
  8
Sichtbar schmal (ISO)
 62
    18
420
        0
370
     5
100
AcDbLine
 10
110.3543544570619
 20
176.6367446578689
 30
0.0
 11
110.3543544570619
 21
168.8566067287792
 31
0.0
  0
LINE
  5
23E
330
BA
100
AcDbEntity
  8
Sichtbar schmal (ISO)
 62
    18
420
        0
370
     5
100
AcDbLine
 10
72.85120692544343
 20
168.8566067287792
 30
0.0
 11
72.85120692544343
 21
176.6367446578689
 31
0.0
  0
LINE
  5
23F
330
BA
100
AcDbEntity
  8
Sichtbar schmal (ISO)
 62
    18
420
        0
370
     5
100
AcDbLine
 10
71.84383876650432
 20
177.3575515542404
 30
0.0
 11
72.5456495484761
 21
177.3575515542404
 31
0.0
  0
LINE
  5
240
330
BA
100
AcDbEntity
  8
Sichtbar schmal (ISO)
 62
    18
420
        0
370
     5
100
AcDbLine
 10
71.84383876650432
 20
175.9159377614971
 30
0.0
 11
71.84383876650432
 21
177.3575515542404
 31
0.0
  0
LINE
  5
241
330
BA
100
AcDbEntity
  8
Sichtbar schmal (ISO)
 62
    18
420
        0
370
     5
100
AcDbLine
 10
72.5456495484761
 20
175.9159377614971
 30
0.0
 11
71.84383876650432
 21
175.9159377614971
 31
0.0
  0
LINE
  5
242
330
BA
100
AcDbEntity
  8
Sichtbar schmal (ISO)
 62
    18
420
        0
370
     5
100
AcDbLine
 10
72.78438762778094
 20
175.4926067271202
 30
0.0
 11
72.63985553129095
 21
175.4926067271202
 31
0.0
  0
LINE
  5
243
330
BA
100
AcDbEntity
  8
Sichtbar schmal (ISO)
 62
    18
420
        0
370
     5
100
AcDbLine
 10
72.63985553129095
 20
177.7808825886173
 30
0.0
 11
72.78438762778094
 21
177.7808825886173
 31
0.0
  0
ELLIPSE
  5
244
330
BA
100
AcDbEntity
  8
Sichtbar schmal (ISO)
 62
    18
420
        0
370
     5
100
AcDbEllipse
 10
72.21000647830611
 20
176.6367446578691
 30
0.0
 11
0.0
 21
0.2002241378810926
 31
0.0
210
0.0
220
0.0
230
1.0
 40
0.4969535474154408
 41
0.0
 42
6.283185307179585
  0
LINE
  5
245
330
BA
100
AcDbEntity
  8
Sichtbar schmal (ISO)
 62
    18
420
        0
370
     5
100
AcDbLine
 10
71.84383876650432
 20
177.3575515542404
 30
0.0
 11
71.75741408918483
 21
177.3575515542404
 31
0.0
  0
LINE
  5
246
330
BA
100
AcDbEntity
  8
Sichtbar schmal (ISO)
 62
    18
420
        0
370
     5
100
AcDbLine
 10
71.75741408918483
 20
175.9159377614971
 30
0.0
 11
71.84383876650432
 21
175.9159377614971
 31
0.0
  0
LINE
  5
247
330
BA
100
AcDbEntity
  8
Sichtbar schmal (ISO)
 62
    18
420
        0
370
     5
100
AcDbLine
 10
72.63985553129095
 20
175.4926067271202
 30
0.0
 11
72.55343085397083
 21
175.4926067271202
 31
0.0
  0
LINE
  5
248
330
BA
100
AcDbEntity
  8
Sichtbar schmal (ISO)
 62
    18
420
        0
370
     5
100
AcDbLine
 10
72.78438762778094
 20
175.4926067271202
 30
0.0
 11
72.85120692544343
 21
175.4926067271202
 31
0.0
  0
LINE
  5
249
330
BA
100
AcDbEntity
  8
Sichtbar schmal (ISO)
 62
    18
420
        0
370
     5
100
AcDbLine
 10
72.86728889265795
 20
176.6367446578689
 30
0.0
 11
72.86728889265795
 21
177.7808825886173
 31
0.0
  0
LINE
  5
24A
330
BA
100
AcDbEntity
  8
Sichtbar schmal (ISO)
 62
    18
420
        0
370
     5
100
AcDbLine
 10
72.86728889265795
 20
177.7808825886173
 30
0.0
 11
72.78438762778094
 21
177.7808825886173
 31
0.0
  0
LINE
  5
24B
330
BA
100
AcDbEntity
  8
Sichtbar schmal (ISO)
 62
    18
420
        0
370
     5
100
AcDbLine
 10
72.55343085397083
 20
177.7808825886173
 30
0.0
 11
72.63985553129095
 21
177.7808825886173
 31
0.0
  0
LINE
  5
24C
330
BA
100
AcDbEntity
  8
Sichtbar schmal (ISO)
 62
    18
420
        0
370
     5
100
AcDbLine
 10
71.75741408918483
 20
175.9159377614971
 30
0.0
 11
71.67416770125619
 21
176.144765347647
 31
0.0
  0
LINE
  5
24D
330
BA
100
AcDbEntity
  8
Sichtbar schmal (ISO)
 62
    18
420
        0
370
     5
100
AcDbLine
 10
71.67416770125619
 20
176.144765347647
 30
0.0
 11
71.67416770125619
 21
177.1287239680902
 31
0.0
  0
LINE
  5
24E
330
BA
100
AcDbEntity
  8
Sichtbar schmal (ISO)
 62
    18
420
        0
370
     5
100
AcDbLine
 10
71.67416770125619
 20
177.1287239680902
 30
0.0
 11
71.75741408918483
 21
177.3575515542404
 31
0.0
  0
LINE
  5
24F
330
BA
100
AcDbEntity
  8
Sichtbar schmal (ISO)
 62
    18
420
        0
370
     5
100
AcDbLine
 10
72.94769872870357
 20
178.0097101747672
 30
0.0
 11
72.86728889265795
 21
178.0097101747672
 31
0.0
  0
ENDBLK
  5
BD
330
BA
100
AcDbEntity
  8
0
100
AcDbBlockEnd
  0
BLOCK
  5
252
330
250
100
AcDbEntity
  8
0
100
AcDbBlockBegin
  2
Block_16
 70
     0
 10
0.0
 20
0.0
 30
0.0
  3
Block_16
  1

  0
SPLINE
  5
254
330
250
100
AcDbEntity
  8
Sichtbar schmal (ISO)
 62
    18
420
        0
370
     5
100
AcDbSpline
210
0.0
220
0.0
230
1.0
 70
     8
 71
     3
 72
    17
 73
    13
 74
     0
 42
0.0000000001
 43
0.0000000001
 40
0.0
 40
0.0
 40
0.0
 40
0.0
 40
1.0
 40
1.0
 40
1.0
 40
2.0
 40
2.0
 40
2.0
 40
3.0
 40
3.0
 40
3.0
 40
4.0
 40
4.0
 40
4.0
 40
4.0
 10
89.03942725499883
 20
114.3311659889024
 30
0.0
 10
102.5089213782486
 20
112.9154651096618
 30
0.0
 10
114.5757561159444
 20
122.6869952114476
 30
0.0
 10
115.9914569951824
 20
136.1564893346983
 30
0.0
 10
117.4071578744231
 20
149.6259834579459
 30
0.0
 10
107.635627772636
 20
161.6928181956417
 30
0.0
 10
94.16613364938752
 20
163.1085190748826
 30
0.0
 10
80.69663952613707
 20
164.5242199541222
 30
0.0
 10
68.62980478844256
 20
154.7526898523346
 30
0.0
 10
67.2141039092029
 20
141.2831957290844
 30
0.0
 10
65.79849038741237
 20
127.8145327564591
 30
0.0
 10
75.56875956547502
 20
115.7481786555033
 30
0.0
 10
89.0372989512328
 20
114.3313897765321
 30
0.0
  0
SPLINE
  5
255
330
250
100
AcDbEntity
  8
Sichtbar schmal (ISO)
 62
    18
420
        0
370
     5
100
AcDbSpline
210
0.0
220
0.0
230
1.0
 70
     8
 71
     3
 72
     8
 73
     4
 74
     0
 42
0.0000000001
 43
0.0000000001
 40
0.0
 40
0.0
 40
0.0
 40
0.0
 40
1.0
 40
1.0
 40
1.0
 40
1.0
 10
67.88380660989414
 20
138.7405412465807
 30
0.0
 10
67.88379456786941
 20
138.726742106082
 30
0.0
 10
67.88379456786941
 20
138.7129429577001
 30
0.0
 10
67.88380660989414
 20
138.6991438172014
 30
0.0
  0
SPLINE
  5
256
330
250
100
AcDbEntity
  8
Sichtbar schmal (ISO)
 62
    18
420
        0
370
     5
100
AcDbSpline
210
0.0
220
0.0
230
1.0
 70
     8
 71
     3
 72
    17
 73
    13
 74
     0
 42
0.0000000001
 43
0.0000000001
 40
0.0
 40
0.0
 40
0.0
 40
0.0
 40
1.0
 40
1.0
 40
1.0
 40
2.0
 40
2.0
 40
2.0
 40
3.0
 40
3.0
 40
3.0
 40
4.0
 40
4.0
 40
4.0
 40
4.0
 10
67.56219340525271
 20
138.6988631566631
 30
0.0
 10
67.57377999425372
 20
125.4216135536585
 30
0.0
 10
78.34651022441793
 20
114.6676688959521
 30
0.0
 10
91.62375982742211
 20
114.6792554849519
 30
0.0
 10
104.9010094304273
 20
114.6908420739529
 30
0.0
 10
115.654954088132
 20
125.4635723041184
 30
0.0
 10
115.6433674991317
 20
138.7408219071216
 30
0.0
 10
115.6317809101319
 20
152.0180715101274
 30
0.0
 10
104.8590506799678
 20
162.7720161678329
 30
0.0
 10
91.58180107696198
 20
162.7604295788318
 30
0.0
 10
78.32093442117524
 20
162.7488572866541
 30
0.0
 10
67.57376569742949
 20
152.0016885629067
 30
0.0
 10
67.56219340525271
 20
138.7408219071197
 30
0.0
  0
LINE
  5
257
330
250
100
AcDbEntity
  8
Sichtbar schmal (ISO)
 62
    18
420
        0
370
     5
100
AcDbLine
 10
67.56219340525271
 20
138.6988631566618
 30
0.0
 11
67.88380660989414
 21
138.6991438172002
 31
0.0
  0
LINE
  5
258
330
250
100
AcDbEntity
  8
Sichtbar schmal (ISO)
 62
    18
420
        0
370
     5
100
AcDbLine
 10
67.56219340525913
 20
138.7408219071197
 30
0.0
 11
67.88380660989606
 21
138.7405412465807
 31
0.0
  0
SPLINE
  5
259
330
250
100
AcDbEntity
  8
Sichtbar schmal (ISO)
 62
    18
420
        0
370
     5
100
AcDbSpline
210
0.0
220
0.0
230
1.0
 70
     8
 71
     3
 72
    17
 73
    13
 74
     0
 42
0.0000000001
 43
0.0000000001
 40
0.0
 40
0.0
 40
0.0
 40
0.0
 40
1.0
 40
1.0
 40
1.0
 40
2.0
 40
2.0
 40
2.0
 40
3.0
 40
3.0
 40
3.0
 40
4.0
 40
4.0
 40
4.0
 40
4.0
 10
67.88380660989414
 20
138.6991438172014
 30
0.0
 10
67.89523819436173
 20
125.5995162824634
 30
0.0
 10
78.52385163214993
 20
114.9894371051308
 30
0.0
 10
91.62347916688664
 20
115.0008686895965
 30
0.0
 10
104.7231067016239
 20
115.0123002740641
 30
0.0
 10
115.3331858789579
 20
125.6409137118529
 30
0.0
 10
115.3217542944909
 20
138.7405412465884
 30
0.0
 10
115.3103227100227
 20
151.8401687813257
 30
0.0
 10
104.6817092722348
 20
162.4502479586596
 30
0.0
 10
91.58208173749843
 20
162.4388163741933
 30
0.0
 10
78.49861798011651
 20
162.4273988952858
 30
0.0
 10
67.89522408879782
 20
151.8240050039645
 30
0.0
 10
67.88380660989414
 20
138.7405412465813
 30
0.0
  0
LINE
  5
25A
330
250
100
AcDbEntity
  8
Sichtbar schmal (ISO)
 62
    18
420
        0
370
     5
100
AcDbLine
 10
115.6171343012937
 20
139.8914601110765
 30
0.0
 11
115.6147682769463
 21
139.8923212735129
 31
0.0
  0
LINE
  5
25B
330
250
100
AcDbEntity
  8
Sichtbar schmal (ISO)
 62
    18
420
        0
370
     5
100
AcDbLine
 10
115.6432421990021
 20
138.8002458636672
 30
0.0
 11
115.6433766531122
 21
138.8002458636672
 31
0.0
  0
LINE
  5
25C
330
250
100
AcDbEntity
  8
Sichtbar schmal (ISO)
 62
    18
420
        0
370
     5
100
AcDbLine
 10
115.6171343012937
 20
137.5482249527075
 30
0.0
 11
115.6147682769463
 21
137.5473637902711
 31
0.0
  0
LINE
  5
25D
330
250
100
AcDbEntity
  8
Sichtbar schmal (ISO)
 62
    18
420
        0
370
     5
100
AcDbLine
 10
115.6385358313826
 20
138.2374225412387
 30
0.0
 11
115.6433766531122
 21
138.2374225412387
 31
0.0
  0
LINE
  5
25E
330
250
100
AcDbEntity
  8
Sichtbar schmal (ISO)
 62
    18
420
        0
370
     5
100
AcDbLine
 10
80.61025411473634
 20
117.3369932535051
 30
0.0
 11
80.61218291545912
 21
117.3386117094799
 31
0.0
  0
LINE
  5
25F
330
250
100
AcDbEntity
  8
Sichtbar schmal (ISO)
 62
    18
420
        0
370
     5
100
AcDbLine
 10
80.00269072979873
 20
117.6630577790355
 30
0.0
 11
80.00027031893232
 21
117.6588655044407
 31
0.0
  0
LINE
  5
260
330
250
100
AcDbEntity
  8
Sichtbar schmal (ISO)
 62
    18
420
        0
370
     5
100
AcDbLine
 10
79.65218090665536
 20
117.8599902745549
 30
0.0
 11
79.65211367960029
 21
117.8598738338794
 31
0.0
  0
LINE
  5
261
330
250
100
AcDbEntity
  8
Sichtbar schmal (ISO)
 62
    18
420
        0
370
     5
100
AcDbLine
 10
79.16711479539976
 20
118.1454777696924
 30
0.0
 11
79.16469438453238
 21
118.1412854950943
 31
0.0
  0
LINE
  5
262
330
250
100
AcDbEntity
  8
Sichtbar schmal (ISO)
 62
    18
420
        0
370
     5
100
AcDbLine
 10
78.5809529405494
 20
158.9310742310932
 30
0.0
 11
78.58139016417628
 21
158.9285946126819
 31
0.0
  0
LINE
  5
263
330
250
100
AcDbEntity
  8
Sichtbar schmal (ISO)
 62
    18
420
        0
370
     5
100
AcDbLine
 10
79.5129182509214
 20
159.4992914574524
 30
0.0
 11
79.51285102386761
 21
159.4994078981278
 31
0.0
  0
LINE
  5
264
330
250
100
AcDbEntity
  8
Sichtbar schmal (ISO)
 62
    18
420
        0
370
     5
100
AcDbLine
 10
80.61025411473634
 20
160.1026918102771
 30
0.0
 11
80.61218291545912
 21
160.1010733543025
 31
0.0
  0
LINE
  5
265
330
250
100
AcDbEntity
  8
Sichtbar schmal (ISO)
 62
    18
420
        0
370
     5
100
AcDbLine
 10
80.00269072979873
 20
159.7766272847465
 30
0.0
 11
80.00027031893232
 21
159.7808195593427
 31
0.0
  0
LINE
  5
266
330
250
100
AcDbEntity
  8
Sichtbar schmal (ISO)
 62
    18
420
        0
370
     5
100
AcDbLine
 10
115.1287953297464
 20
141.131942485161
 30
0.0
 11
115.1287953297464
 21
136.3077425786224
 31
0.0
  0
LINE
  5
267
330
250
100
AcDbEntity
  8
Sichtbar schmal (ISO)
 62
    18
420
        0
370
     5
100
AcDbLine
 10
81.92871284941318
 20
117.1396660214855
 30
0.0
 11
77.75083317741643
 21
119.5517659747574
 31
0.0
  0
LINE
  5
268
330
250
100
AcDbEntity
  8
Sichtbar schmal (ISO)
 62
    18
420
        0
370
     5
100
AcDbLine
 10
77.75083317741643
 20
157.8879190890269
 30
0.0
 11
81.92871284941318
 21
160.3000190422963
 31
0.0
  0
LINE
  5
269
330
250
100
AcDbEntity
  8
Sichtbar schmal (ISO)
 62
    18
420
        0
370
     5
100
AcDbLine
 10
115.6171343012937
 20
137.5482249527075
 30
0.0
 11
115.6150844473442
 21
137.5538568801452
 31
0.0
  0
ENDBLK
  5
253
330
250
100
AcDbEntity
  8
0
100
AcDbBlockEnd
  0
BLOCK
  5
26C
330
26A
100
AcDbEntity
  8
0
100
AcDbBlockBegin
  2
Block_17
 70
     0
 10
0.0
 20
0.0
 30
0.0
  3
Block_17
  1

  0
INSERT
  5
26F
330
26A
100
AcDbEntity
  8
Sichtbar schmal (ISO)
100
AcDbBlockReference
  2
Block_18
 10
0.0
 20
0.0
 30
0.0
  0
ENDBLK
  5
26D
330
26A
100
AcDbEntity
  8
0
100
AcDbBlockEnd
  0
BLOCK
  5
270
330
26E
100
AcDbEntity
  8
0
100
AcDbBlockBegin
  2
Block_18
 70
     0
 10
0.0
 20
0.0
 30
0.0
  3
Block_18
  1

  0
LINE
  5
272
330
26E
100
AcDbEntity
  8
Sichtbar schmal (ISO)
 62
    18
420
        0
370
     5
100
AcDbLine
 10
132.9227435309512
 20
161.3971036719445
 30
0.0
 11
132.925876414658
 21
116.187804638108
 31
0.0
  0
INSERT
  5
274
330
26E
100
AcDbEntity
  8
Sichtbar schmal (ISO)
100
AcDbBlockReference
  2
Block_19
 10
0.0
 20
0.0
 30
0.0
  0
INSERT
  5
27A
330
26E
100
AcDbEntity
  8
Sichtbar schmal (ISO)
100
AcDbBlockReference
  2
Block_20
 10
0.0
 20
0.0
 30
0.0
  0
ENDBLK
  5
271
330
26E
100
AcDbEntity
  8
0
100
AcDbBlockEnd
  0
BLOCK
  5
275
330
273
100
AcDbEntity
  8
0
100
AcDbBlockBegin
  2
Block_19
 70
     0
 10
0.0
 20
0.0
 30
0.0
  3
Block_19
  1

  0
LWPOLYLINE
  5
277
330
273
100
AcDbEntity
  8
Sichtbar schmal (ISO)
100
AcDbPolyline
 90
        3
 70
     1
 43
0.0
 10
132.701482273411
 20
160.7646272045462
 10
132.9219899163138
 20
162.4458230354248
 10
133.1441016818019
 20
160.7646595023164
  0
HATCH
  5
278
330
273
100
AcDbEntity
  8
Sichtbar schmal (ISO)
 62
    18
420
        0
440
 33554687
100
AcDbHatch
 10
0.0
 20
0.0
 30
0.0
210
0.0
220
0.0
230
1.0
  2
SOLID
 70
     1
 71
     1
 91
        1
 92
        1
 93
        3
 72
     1
 10
132.701482273411
 20
160.7646272045462
 11
132.9219899163138
 21
162.4458230354248
 72
     1
 10
132.9219899163138
 20
162.4458230354248
 11
133.1441016818019
 21
160.7646595023164
 72
     1
 10
133.1441016818019
 20
160.7646595023164
 11
132.701482273411
 21
160.7646272045462
 97
        1
330
277
 75
     2
 76
     1
 98
        1
 10
0.0
 20
0.0
450
        0
451
        0
460
0.0
461
0.0
452
        0
462
0.0
453
        0
470

  0
ENDBLK
  5
276
330
273
100
AcDbEntity
  8
0
100
AcDbBlockEnd
  0
BLOCK
  5
27B
330
279
100
AcDbEntity
  8
0
100
AcDbBlockBegin
  2
Block_20
 70
     0
 10
0.0
 20
0.0
 30
0.0
  3
Block_20
  1

  0
LWPOLYLINE
  5
27D
330
279
100
AcDbEntity
  8
Sichtbar schmal (ISO)
100
AcDbPolyline
 90
        3
 70
     1
 43
0.0
 10
132.7045290297308
 20
116.8202488077361
 10
132.9252627570247
 20
115.1390852746277
 10
133.1471484381216
 20
116.8202811055063
  0
HATCH
  5
27E
330
279
100
AcDbEntity
  8
Sichtbar schmal (ISO)
 62
    18
420
        0
440
 33554687
100
AcDbHatch
 10
0.0
 20
0.0
 30
0.0
210
0.0
220
0.0
230
1.0
  2
SOLID
 70
     1
 71
     1
 91
        1
 92
        1
 93
        3
 72
     1
 10
132.7045290297308
 20
116.8202488077361
 11
132.9252627570247
 21
115.1390852746277
 72
     1
 10
132.9252627570247
 20
115.1390852746277
 11
133.1471484381216
 21
116.8202811055063
 72
     1
 10
133.1471484381216
 20
116.8202811055063
 11
132.7045290297308
 21
116.8202488077361
 97
        1
330
27D
 75
     2
 76
     1
 98
        1
 10
0.0
 20
0.0
450
        0
451
        0
460
0.0
461
0.0
452
        0
462
0.0
453
        0
470

  0
ENDBLK
  5
27C
330
279
100
AcDbEntity
  8
0
100
AcDbBlockEnd
  0
BLOCK
  5
284
330
282
100
AcDbEntity
  8
0
100
AcDbBlockBegin
  2
Block_21
 70
     0
 10
0.0
 20
0.0
 30
0.0
  3
Block_21
  1

  0
INSERT
  5
287
330
282
100
AcDbEntity
  8
Sichtbar schmal (ISO)
100
AcDbBlockReference
  2
Block_22
 10
0.0
 20
0.0
 30
0.0
  0
ENDBLK
  5
285
330
282
100
AcDbEntity
  8
0
100
AcDbBlockEnd
  0
BLOCK
  5
288
330
286
100
AcDbEntity
  8
0
100
AcDbBlockBegin
  2
Block_22
 70
     0
 10
0.0
 20
0.0
 30
0.0
  3
Block_22
  1

  0
LINE
  5
28A
330
286
100
AcDbEntity
  8
Sichtbar schmal (ISO)
 62
    18
420
        0
370
     5
100
AcDbLine
 10
139.9791065289972
 20
162.2210413209356
 30
0.0
 11
139.9713550641553
 21
115.2551311628637
 31
0.0
  0
INSERT
  5
28C
330
286
100
AcDbEntity
  8
Sichtbar schmal (ISO)
100
AcDbBlockReference
  2
Block_23
 10
0.0
 20
0.0
 30
0.0
  0
INSERT
  5
292
330
286
100
AcDbEntity
  8
Sichtbar schmal (ISO)
100
AcDbBlockReference
  2
Block_24
 10
0.0
 20
0.0
 30
0.0
  0
ENDBLK
  5
289
330
286
100
AcDbEntity
  8
0
100
AcDbBlockEnd
  0
BLOCK
  5
28D
330
28B
100
AcDbEntity
  8
0
100
AcDbBlockBegin
  2
Block_23
 70
     0
 10
0.0
 20
0.0
 30
0.0
  3
Block_23
  1

  0
LWPOLYLINE
  5
28F
330
28B
100
AcDbEntity
  8
Sichtbar schmal (ISO)
100
AcDbPolyline
 90
        3
 70
     1
 43
0.0
 10
139.7576945485295
 20
161.5886186831543
 10
139.9785897646744
 20
163.2697606844159
 10
140.2003139569204
 20
161.5885433216909
  0
HATCH
  5
290
330
28B
100
AcDbEntity
  8
Sichtbar schmal (ISO)
 62
    18
420
        0
440
 33554687
100
AcDbHatch
 10
0.0
 20
0.0
 30
0.0
210
0.0
220
0.0
230
1.0
  2
SOLID
 70
     1
 71
     1
 91
        1
 92
        1
 93
        3
 72
     1
 10
139.7576945485295
 20
161.5886186831543
 11
139.9785897646744
 21
163.2697606844159
 72
     1
 10
139.9785897646744
 20
163.2697606844159
 11
140.2003139569204
 21
161.5885433216909
 72
     1
 10
140.2003139569204
 20
161.5885433216909
 11
139.7576945485295
 21
161.5886186831543
 97
        1
330
28F
 75
     2
 76
     1
 98
        1
 10
0.0
 20
0.0
450
        0
451
        0
460
0.0
461
0.0
452
        0
462
0.0
453
        0
470

  0
ENDBLK
  5
28E
330
28B
100
AcDbEntity
  8
0
100
AcDbBlockEnd
  0
BLOCK
  5
293
330
291
100
AcDbEntity
  8
0
100
AcDbBlockBegin
  2
Block_24
 70
     0
 10
0.0
 20
0.0
 30
0.0
  3
Block_24
  1

  0
LWPOLYLINE
  5
295
330
291
100
AcDbEntity
  8
Sichtbar schmal (ISO)
100
AcDbPolyline
 90
        3
 70
     1
 43
0.0
 10
139.7501476362322
 20
115.8876183961854
 10
139.9704937902841
 20
114.2064010334601
 10
140.1927778105464
 20
115.8875430347217
  0
HATCH
  5
296
330
291
100
AcDbEntity
  8
Sichtbar schmal (ISO)
 62
    18
420
        0
440
 33554687
100
AcDbHatch
 10
0.0
 20
0.0
 30
0.0
210
0.0
220
0.0
230
1.0
  2
SOLID
 70
     1
 71
     1
 91
        1
 92
        1
 93
        3
 72
     1
 10
139.7501476362322
 20
115.8876183961854
 11
139.9704937902841
 21
114.2064010334601
 72
     1
 10
139.9704937902841
 20
114.2064010334601
 11
140.1927778105464
 21
115.8875430347217
 72
     1
 10
140.1927778105464
 20
115.8875430347217
 11
139.7501476362322
 21
115.8876183961854
 97
        1
330
295
 75
     2
 76
     1
 98
        1
 10
0.0
 20
0.0
450
        0
451
        0
460
0.0
461
0.0
452
        0
462
0.0
453
        0
470

  0
ENDBLK
  5
294
330
291
100
AcDbEntity
  8
0
100
AcDbBlockEnd
  0
BLOCK
  5
29F
330
29D
100
AcDbEntity
  8
0
100
AcDbBlockBegin
  2
Block_25
 70
     0
 10
0.0
 20
0.0
 30
0.0
  3
Block_25
  1

  0
INSERT
  5
2A2
330
29D
100
AcDbEntity
  8
Sichtbar schmal (ISO)
100
AcDbBlockReference
  2
Block_26
 10
0.0
 20
0.0
 30
0.0
  0
ENDBLK
  5
2A0
330
29D
100
AcDbEntity
  8
0
100
AcDbBlockEnd
  0
BLOCK
  5
2A3
330
2A1
100
AcDbEntity
  8
0
100
AcDbBlockBegin
  2
Block_26
 70
     0
 10
0.0
 20
0.0
 30
0.0
  3
Block_26
  1

  0
LINE
  5
2A5
330
2A1
100
AcDbEntity
  8
Sichtbar schmal (ISO)
 62
    18
420
        0
370
     5
100
AcDbLine
 10
125.9461237274653
 20
184.4909998114619
 30
0.0
 11
125.9463713437033
 21
181.6097372660667
 31
0.0
  0
INSERT
  5
2A7
330
2A1
100
AcDbEntity
  8
Sichtbar schmal (ISO)
100
AcDbBlockReference
  2
Block_27
 10
0.0
 20
0.0
 30
0.0
  0
INSERT
  5
2AD
330
2A1
100
AcDbEntity
  8
Sichtbar schmal (ISO)
100
AcDbBlockReference
  2
Block_28
 10
0.0
 20
0.0
 30
0.0
  0
ENDBLK
  5
2A4
330
2A1
100
AcDbEntity
  8
0
100
AcDbBlockEnd
  0
BLOCK
  5
2A8
330
2A6
100
AcDbEntity
  8
0
100
AcDbBlockBegin
  2
Block_27
 70
     0
 10
0.0
 20
0.0
 30
0.0
  3
Block_27
  1

  0
LWPOLYLINE
  5
2AA
330
2A6
100
AcDbEntity
  8
Sichtbar schmal (ISO)
100
AcDbPolyline
 90
        3
 70
     1
 43
0.0
 10
125.7248624699251
 20
183.8585233440636
 10
125.9453485809811
 20
185.5397299408655
 10
126.1674926442394
 20
183.8585664077571
  0
HATCH
  5
2AB
330
2A6
100
AcDbEntity
  8
Sichtbar schmal (ISO)
 62
    18
420
        0
440
 33554687
100
AcDbHatch
 10
0.0
 20
0.0
 30
0.0
210
0.0
220
0.0
230
1.0
  2
SOLID
 70
     1
 71
     1
 91
        1
 92
        1
 93
        3
 72
     1
 10
125.7248624699251
 20
183.8585233440636
 11
125.9453485809811
 21
185.5397299408655
 72
     1
 10
125.9453485809811
 20
185.5397299408655
 11
126.1674926442394
 21
183.8585664077571
 72
     1
 10
126.1674926442394
 20
183.8585664077571
 11
125.7248624699251
 21
183.8585233440636
 97
        1
330
2AA
 75
     2
 76
     1
 98
        1
 10
0.0
 20
0.0
450
        0
451
        0
460
0.0
461
0.0
452
        0
462
0.0
453
        0
470

  0
ENDBLK
  5
2A9
330
2A6
100
AcDbEntity
  8
0
100
AcDbBlockEnd
  0
BLOCK
  5
2AE
330
2AC
100
AcDbEntity
  8
0
100
AcDbBlockBegin
  2
Block_28
 70
     0
 10
0.0
 20
0.0
 30
0.0
  3
Block_28
  1

  0
LWPOLYLINE
  5
2B0
330
2AC
100
AcDbEntity
  8
Sichtbar schmal (ISO)
100
AcDbPolyline
 90
        3
 70
     1
 43
0.0
 10
125.7250024269292
 20
182.2421706697715
 10
125.9457684519934
 20
180.5610179025865
 10
126.1676218353201
 20
182.242213733465
  0
HATCH
  5
2B1
330
2AC
100
AcDbEntity
  8
Sichtbar schmal (ISO)
 62
    18
420
        0
440
 33554687
100
AcDbHatch
 10
0.0
 20
0.0
 30
0.0
210
0.0
220
0.0
230
1.0
  2
SOLID
 70
     1
 71
     1
 91
        1
 92
        1
 93
        3
 72
     1
 10
125.7250024269292
 20
182.2421706697715
 11
125.9457684519934
 21
180.5610179025865
 72
     1
 10
125.9457684519934
 20
180.5610179025865
 11
126.1676218353201
 21
182.242213733465
 72
     1
 10
126.1676218353201
 20
182.242213733465
 11
125.7250024269292
 21
182.2421706697715
 97
        1
330
2B0
 75
     2
 76
     1
 98
        1
 10
0.0
 20
0.0
450
        0
451
        0
460
0.0
461
0.0
452
        0
462
0.0
453
        0
470

  0
ENDBLK
  5
2AF
330
2AC
100
AcDbEntity
  8
0
100
AcDbBlockEnd
  0
BLOCK
  5
2B5
330
2B3
100
AcDbEntity
  8
0
100
AcDbBlockBegin
  2
Block_29
 70
     0
 10
0.0
 20
0.0
 30
0.0
  3
Block_29
  1

  0
INSERT
  5
2B8
330
2B3
100
AcDbEntity
  8
Sichtbar schmal (ISO)
100
AcDbBlockReference
  2
Block_30
 10
0.0
 20
0.0
 30
0.0
  0
ENDBLK
  5
2B6
330
2B3
100
AcDbEntity
  8
0
100
AcDbBlockEnd
  0
BLOCK
  5
2B9
330
2B7
100
AcDbEntity
  8
0
100
AcDbBlockBegin
  2
Block_30
 70
     0
 10
0.0
 20
0.0
 30
0.0
  3
Block_30
  1

  0
LINE
  5
2BB
330
2B7
100
AcDbEntity
  8
Sichtbar schmal (ISO)
 62
    18
420
        0
370
     5
100
AcDbLine
 10
139.9310151492078
 20
166.6870908532392
 30
0.0
 11
139.912949929757
 21
184.5269579955892
 31
0.0
  0
INSERT
  5
2BD
330
2B7
100
AcDbEntity
  8
Sichtbar schmal (ISO)
100
AcDbBlockReference
  2
Block_31
 10
0.0
 20
0.0
 30
0.0
  0
INSERT
  5
2C3
330
2B7
100
AcDbEntity
  8
Sichtbar schmal (ISO)
100
AcDbBlockReference
  2
Block_32
 10
0.0
 20
0.0
 30
0.0
  0
ENDBLK
  5
2BA
330
2B7
100
AcDbEntity
  8
0
100
AcDbBlockEnd
  0
BLOCK
  5
2BE
330
2BC
100
AcDbEntity
  8
0
100
AcDbBlockBegin
  2
Block_31
 70
     0
 10
0.0
 20
0.0
 30
0.0
  3
Block_31
  1

  0
LWPOLYLINE
  5
2C0
330
2BC
100
AcDbEntity
  8
Sichtbar schmal (ISO)
100
AcDbPolyline
 90
        3
 70
     1
 43
0.0
 10
140.1516950468848
 20
167.319771873182
 10
139.9327699947206
 20
165.638371489759
 10
139.7090648725705
 20
167.3193197043995
  0
HATCH
  5
2C1
330
2BC
100
AcDbEntity
  8
Sichtbar schmal (ISO)
 62
    18
420
        0
440
 33554687
100
AcDbHatch
 10
0.0
 20
0.0
 30
0.0
210
0.0
220
0.0
230
1.0
  2
SOLID
 70
     1
 71
     1
 91
        1
 92
        1
 93
        3
 72
     1
 10
140.1516950468848
 20
167.319771873182
 11
139.9327699947206
 21
165.638371489759
 72
     1
 10
139.9327699947206
 20
165.638371489759
 11
139.7090648725705
 21
167.3193197043995
 72
     1
 10
139.7090648725705
 20
167.3193197043995
 11
140.1516950468848
 21
167.319771873182
 97
        1
330
2C0
 75
     2
 76
     1
 98
        1
 10
0.0
 20
0.0
450
        0
451
        0
460
0.0
461
0.0
452
        0
462
0.0
453
        0
470

  0
ENDBLK
  5
2BF
330
2BC
100
AcDbEntity
  8
0
100
AcDbBlockEnd
  0
BLOCK
  5
2C4
330
2C2
100
AcDbEntity
  8
0
100
AcDbBlockBegin
  2
Block_32
 70
     0
 10
0.0
 20
0.0
 30
0.0
  3
Block_32
  1

  0
LWPOLYLINE
  5
2C6
330
2C2
100
AcDbEntity
  8
Sichtbar schmal (ISO)
100
AcDbPolyline
 90
        3
 70
     1
 43
0.0
 10
140.1349002063942
 20
183.8947183785055
 10
139.9125731224383
 20
185.575666593146
 10
139.6922807980033
 20
183.894266209723
  0
HATCH
  5
2C7
330
2C2
100
AcDbEntity
  8
Sichtbar schmal (ISO)
 62
    18
420
        0
440
 33554687
100
AcDbHatch
 10
0.0
 20
0.0
 30
0.0
210
0.0
220
0.0
230
1.0
  2
SOLID
 70
     1
 71
     1
 91
        1
 92
        1
 93
        3
 72
     1
 10
140.1349002063942
 20
183.8947183785055
 11
139.9125731224383
 21
185.575666593146
 72
     1
 10
139.9125731224383
 20
185.575666593146
 11
139.6922807980033
 21
183.894266209723
 72
     1
 10
139.6922807980033
 20
183.894266209723
 11
140.1349002063942
 21
183.8947183785055
 97
        1
330
2C6
 75
     2
 76
     1
 98
        1
 10
0.0
 20
0.0
450
        0
451
        0
460
0.0
461
0.0
452
        0
462
0.0
453
        0
470

  0
ENDBLK
  5
2C5
330
2C2
100
AcDbEntity
  8
0
100
AcDbBlockEnd
  0
BLOCK
  5
2CA
330
2C8
100
AcDbEntity
  8
0
100
AcDbBlockBegin
  2
Block_33
 70
     0
 10
0.0
 20
0.0
 30
0.0
  3
Block_33
  1

  0
INSERT
  5
2CD
330
2C8
100
AcDbEntity
  8
Sichtbar schmal (ISO)
100
AcDbBlockReference
  2
Block_34
 10
0.0
 20
0.0
 30
0.0
  0
ENDBLK
  5
2CB
330
2C8
100
AcDbEntity
  8
0
100
AcDbBlockEnd
  0
BLOCK
  5
2CE
330
2CC
100
AcDbEntity
  8
0
100
AcDbBlockBegin
  2
Block_34
 70
     0
 10
0.0
 20
0.0
 30
0.0
  3
Block_34
  1

  0
SPLINE
  5
2D0
330
2CC
100
AcDbEntity
  8
Sichtbar schmal (ISO)
100
AcDbSpline
210
0.0
220
0.0
230
1.0
 70
     9
 71
     3
 72
    41
 73
    37
 74
     0
 42
0.0000000001
 43
0.0000000001
 40
0.0
 40
0.0
 40
0.0
 40
0.0
 40
1.0
 40
1.0
 40
1.0
 40
2.0
 40
2.0
 40
2.0
 40
3.0
 40
3.0
 40
3.0
 40
4.0
 40
4.0
 40
4.0
 40
5.0
 40
5.0
 40
5.0
 40
6.0
 40
6.0
 40
6.0
 40
7.0
 40
7.0
 40
7.0
 40
8.0
 40
8.0
 40
8.0
 40
9.0
 40
9.0
 40
9.0
 40
10.0
 40
10.0
 40
10.0
 40
11.0
 40
11.0
 40
11.0
 40
12.0
 40
12.0
 40
12.0
 40
12.0
 10
127.8881455843474
 20
182.0843207010067
 30
0.0
 10
127.6766167215531
 20
182.4228013324325
 30
0.0
 10
127.5581054368605
 20
182.5948838519207
 30
0.0
 10
127.2787081930067
 20
182.5948838519207
 30
0.0
 10
127.0613226678874
 20
182.5948838519207
 30
0.0
 10
126.9176621861525
 20
182.41987300127
 30
0.0
 10
126.9176621861525
 20
182.2083441384757
 30
0.0
 10
126.9176621861525
 20
181.9291191493962
 30
0.0
 10
127.1743217998036
 20
181.8106078647036
 30
0.0
 10
127.414100445577
 20
181.8190483486424
 30
0.0
 10
127.414100445577
 20
181.8190483486424
 30
0.0
 10
127.414100445577
 20
181.5792697028691
 30
0.0
 10
127.414100445577
 20
181.5792697028691
 30
0.0
 10
127.0079236878661
 20
181.5568765822149
 30
0.0
 10
126.7061333233582
 20
181.7994113043765
 30
0.0
 10
126.7061333233582
 20
182.2224690299652
 30
0.0
 10
126.7061333233582
 20
182.5693901453299
 30
0.0
 10
126.9090494474394
 20
182.8486151344094
 30
0.0
 10
127.2818087789434
 20
182.8486151344094
 30
0.0
 10
127.633897537536
 20
182.8486151344094
 30
0.0
 10
127.8089083881866
 20
182.6117648197984
 30
0.0
 10
127.9670382709596
 20
182.3635456900862
 30
0.0
 10
128.1165554150195
 20
182.1153265603739
 30
0.0
 10
128.2491915912016
 20
181.8472981316215
 30
0.0
 10
128.4944823897514
 20
181.8021673807647
 30
0.0
 10
128.4944823897514
 20
181.8021673807647
 30
0.0
 10
128.4944823897514
 20
182.8289780901434
 30
0.0
 10
128.4944823897514
 20
182.8289780901434
 30
0.0
 10
128.4944823897514
 20
182.8289780901434
 30
0.0
 10
128.7060112525457
 20
182.8289780901434
 30
0.0
 10
128.7060112525457
 20
182.8289780901434
 30
0.0
 10
128.7060112525457
 20
182.8289780901434
 30
0.0
 10
128.7060112525457
 20
181.5229423916852
 30
0.0
 10
128.7060112525457
 20
181.5229423916852
 30
0.0
 10
128.2347221901635
 20
181.5596326586032
 30
0.0
 10
128.0572997726732
 20
181.8021673807647
 30
0.0
 10
127.8881455843474
 20
182.0843207010067
 30
0.0
  0
HATCH
  5
2D1
330
2CC
100
AcDbEntity
  8
Sichtbar schmal (ISO)
 62
    18
420
        0
440
 33554687
100
AcDbHatch
 10
0.0
 20
0.0
 30
0.0
210
0.0
220
0.0
230
1.0
  2
SOLID
 70
     1
 71
     1
 91
        1
 92
        1
 93
        1
 72
     4
 94
        3
 73
     0
 74
     0
 95
       41
 96
       37
 40
0.0
 40
0.0
 40
0.0
 40
0.0
 40
1.0
 40
1.0
 40
1.0
 40
2.0
 40
2.0
 40
2.0
 40
3.0
 40
3.0
 40
3.0
 40
4.0
 40
4.0
 40
4.0
 40
5.0
 40
5.0
 40
5.0
 40
6.0
 40
6.0
 40
6.0
 40
7.0
 40
7.0
 40
7.0
 40
8.0
 40
8.0
 40
8.0
 40
9.0
 40
9.0
 40
9.0
 40
10.0
 40
10.0
 40
10.0
 40
11.0
 40
11.0
 40
11.0
 40
12.0
 40
12.0
 40
12.0
 40
12.0
 10
127.8881455843474
 20
182.0843207010067
 10
127.6766167215531
 20
182.4228013324325
 10
127.5581054368605
 20
182.5948838519207
 10
127.2787081930067
 20
182.5948838519207
 10
127.0613226678874
 20
182.5948838519207
 10
126.9176621861525
 20
182.41987300127
 10
126.9176621861525
 20
182.2083441384757
 10
126.9176621861525
 20
181.9291191493962
 10
127.1743217998036
 20
181.8106078647036
 10
127.414100445577
 20
181.8190483486424
 10
127.414100445577
 20
181.8190483486424
 10
127.414100445577
 20
181.5792697028691
 10
127.414100445577
 20
181.5792697028691
 10
127.0079236878661
 20
181.5568765822149
 10
126.7061333233582
 20
181.7994113043765
 10
126.7061333233582
 20
182.2224690299652
 10
126.7061333233582
 20
182.5693901453299
 10
126.9090494474394
 20
182.8486151344094
 10
127.2818087789434
 20
182.8486151344094
 10
127.633897537536
 20
182.8486151344094
 10
127.8089083881866
 20
182.6117648197984
 10
127.9670382709596
 20
182.3635456900862
 10
128.1165554150195
 20
182.1153265603739
 10
128.2491915912016
 20
181.8472981316215
 10
128.4944823897514
 20
181.8021673807647
 10
128.4944823897514
 20
181.8021673807647
 10
128.4944823897514
 20
182.8289780901434
 10
128.4944823897514
 20
182.8289780901434
 10
128.4944823897514
 20
182.8289780901434
 10
128.7060112525457
 20
182.8289780901434
 10
128.7060112525457
 20
182.8289780901434
 10
128.7060112525457
 20
182.8289780901434
 10
128.7060112525457
 20
181.5229423916852
 10
128.7060112525457
 20
181.5229423916852
 10
128.2347221901635
 20
181.5596326586032
 10
128.0572997726732
 20
181.8021673807647
 10
127.8881455843474
 20
182.0843207010067
 97
        0
 97
        1
330
2D0
 75
     2
 76
     1
 98
        1
 10
0.0
 20
0.0
450
        0
451
        0
460
0.0
461
0.0
452
        0
462
0.0
453
        0
470

  0
SPLINE
  5
2D2
330
2CC
100
AcDbEntity
  8
Sichtbar schmal (ISO)
100
AcDbSpline
210
0.0
220
0.0
230
1.0
 70
     9
 71
     3
 72
    53
 73
    49
 74
     0
 42
0.0000000001
 43
0.0000000001
 40
0.0
 40
0.0
 40
0.0
 40
0.0
 40
1.0
 40
1.0
 40
1.0
 40
2.0
 40
2.0
 40
2.0
 40
3.0
 40
3.0
 40
3.0
 40
4.0
 40
4.0
 40
4.0
 40
5.0
 40
5.0
 40
5.0
 40
6.0
 40
6.0
 40
6.0
 40
7.0
 40
7.0
 40
7.0
 40
8.0
 40
8.0
 40
8.0
 40
9.0
 40
9.0
 40
9.0
 40
10.0
 40
10.0
 40
10.0
 40
11.0
 40
11.0
 40
11.0
 40
12.0
 40
12.0
 40
12.0
 40
13.0
 40
13.0
 40
13.0
 40
14.0
 40
14.0
 40
14.0
 40
15.0
 40
15.0
 40
15.0
 40
16.0
 40
16.0
 40
16.0
 40
16.0
 10
128.1671983186526
 20
183.3629678903572
 30
0.0
 10
128.3732150286706
 20
183.3770927818467
 30
0.0
 10
128.5282443255068
 20
183.5434908937843
 30
0.0
 10
128.5282443255068
 20
183.7832695395576
 30
0.0
 10
128.5282443255068
 20
184.0116793702297
 30
0.0
 10
128.3704589522824
 20
184.2063272651463
 30
0.0
 10
128.0541991867364
 20
184.2063272651463
 30
0.0
 10
127.7923719298574
 20
184.2063272651463
 30
0.0
 10
127.6001356017805
 20
184.0258042617192
 30
0.0
 10
127.6001356017805
 20
183.7550197565786
 30
0.0
 10
127.6001356017805
 20
183.5998182049681
 30
0.0
 10
127.6766167215531
 20
183.4757947674991
 30
0.0
 10
127.7892713439207
 20
183.3827771893973
 30
0.0
 10
127.7892713439207
 20
183.3827771893973
 30
0.0
 10
127.7779025288194
 20
183.1767604793794
 30
0.0
 10
127.7779025288194
 20
183.1767604793794
 30
0.0
 10
127.7779025288194
 20
183.1767604793794
 30
0.0
 10
126.7402397686621
 20
183.3629678903572
 30
0.0
 10
126.7402397686621
 20
183.3629678903572
 30
0.0
 10
126.7402397686621
 20
183.3629678903572
 30
0.0
 10
126.7402397686621
 20
184.3501600016555
 30
0.0
 10
126.7402397686621
 20
184.3501600016555
 30
0.0
 10
126.7402397686621
 20
184.3501600016555
 30
0.0
 10
126.9517686314565
 20
184.3501600016555
 30
0.0
 10
126.9517686314565
 20
184.3501600016555
 30
0.0
 10
126.9517686314565
 20
184.3501600016555
 30
0.0
 10
126.9517686314565
 20
183.5434908937843
 30
0.0
 10
126.9517686314565
 20
183.5434908937843
 30
0.0
 10
126.9517686314565
 20
183.5434908937843
 30
0.0
 10
127.5270995774932
 20
183.436348424193
 30
0.0
 10
127.5270995774932
 20
183.436348424193
 30
0.0
 10
127.5270995774932
 20
183.436348424193
 30
0.0
 10
127.5326117302696
 20
183.4420328317436
 30
0.0
 10
127.5326117302696
 20
183.4420328317436
 30
0.0
 10
127.4340819993915
 20
183.5293660022947
 30
0.0
 10
127.3886067389861
 20
183.6788831463546
 30
0.0
 10
127.3886067389861
 20
183.8142753989249
 30
0.0
 10
127.3886067389861
 20
184.1696369982284
 30
0.0
 10
127.6146050028186
 20
184.4602308024092
 30
0.0
 10
128.0741807405509
 20
184.4602308024092
 30
0.0
 10
128.4124891172024
 20
184.4602308024092
 30
0.0
 10
128.7397731883011
 20
184.2261365641865
 30
0.0
 10
128.7397731883011
 20
183.7607041641292
 30
0.0
 10
128.7397731883011
 20
183.4137830487646
 30
0.0
 10
128.5282443255068
 20
183.1316297285226
 30
0.0
 10
128.1671983186526
 20
183.1231892445838
 30
0.0
 10
128.1671983186526
 20
183.1231892445838
 30
0.0
 10
128.1671983186526
 20
183.3629678903572
 30
0.0
 10
128.1671983186526
 20
183.3629678903572
 30
0.0
  0
HATCH
  5
2D3
330
2CC
100
AcDbEntity
  8
Sichtbar schmal (ISO)
 62
    18
420
        0
440
 33554687
100
AcDbHatch
 10
0.0
 20
0.0
 30
0.0
210
0.0
220
0.0
230
1.0
  2
SOLID
 70
     1
 71
     1
 91
        1
 92
        1
 93
        1
 72
     4
 94
        3
 73
     0
 74
     0
 95
       53
 96
       49
 40
0.0
 40
0.0
 40
0.0
 40
0.0
 40
1.0
 40
1.0
 40
1.0
 40
2.0
 40
2.0
 40
2.0
 40
3.0
 40
3.0
 40
3.0
 40
4.0
 40
4.0
 40
4.0
 40
5.0
 40
5.0
 40
5.0
 40
6.0
 40
6.0
 40
6.0
 40
7.0
 40
7.0
 40
7.0
 40
8.0
 40
8.0
 40
8.0
 40
9.0
 40
9.0
 40
9.0
 40
10.0
 40
10.0
 40
10.0
 40
11.0
 40
11.0
 40
11.0
 40
12.0
 40
12.0
 40
12.0
 40
13.0
 40
13.0
 40
13.0
 40
14.0
 40
14.0
 40
14.0
 40
15.0
 40
15.0
 40
15.0
 40
16.0
 40
16.0
 40
16.0
 40
16.0
 10
128.1671983186526
 20
183.3629678903572
 10
128.3732150286706
 20
183.3770927818467
 10
128.5282443255068
 20
183.5434908937843
 10
128.5282443255068
 20
183.7832695395576
 10
128.5282443255068
 20
184.0116793702297
 10
128.3704589522824
 20
184.2063272651463
 10
128.0541991867364
 20
184.2063272651463
 10
127.7923719298574
 20
184.2063272651463
 10
127.6001356017805
 20
184.0258042617192
 10
127.6001356017805
 20
183.7550197565786
 10
127.6001356017805
 20
183.5998182049681
 10
127.6766167215531
 20
183.4757947674991
 10
127.7892713439207
 20
183.3827771893973
 10
127.7892713439207
 20
183.3827771893973
 10
127.7779025288194
 20
183.1767604793794
 10
127.7779025288194
 20
183.1767604793794
 10
127.7779025288194
 20
183.1767604793794
 10
126.7402397686621
 20
183.3629678903572
 10
126.7402397686621
 20
183.3629678903572
 10
126.7402397686621
 20
183.3629678903572
 10
126.7402397686621
 20
184.3501600016555
 10
126.7402397686621
 20
184.3501600016555
 10
126.7402397686621
 20
184.3501600016555
 10
126.9517686314565
 20
184.3501600016555
 10
126.9517686314565
 20
184.3501600016555
 10
126.9517686314565
 20
184.3501600016555
 10
126.9517686314565
 20
183.5434908937843
 10
126.9517686314565
 20
183.5434908937843
 10
126.9517686314565
 20
183.5434908937843
 10
127.5270995774932
 20
183.436348424193
 10
127.5270995774932
 20
183.436348424193
 10
127.5270995774932
 20
183.436348424193
 10
127.5326117302696
 20
183.4420328317436
 10
127.5326117302696
 20
183.4420328317436
 10
127.4340819993915
 20
183.5293660022947
 10
127.3886067389861
 20
183.6788831463546
 10
127.3886067389861
 20
183.8142753989249
 10
127.3886067389861
 20
184.1696369982284
 10
127.6146050028186
 20
184.4602308024092
 10
128.0741807405509
 20
184.4602308024092
 10
128.4124891172024
 20
184.4602308024092
 10
128.7397731883011
 20
184.2261365641865
 10
128.7397731883011
 20
183.7607041641292
 10
128.7397731883011
 20
183.4137830487646
 10
128.5282443255068
 20
183.1316297285226
 10
128.1671983186526
 20
183.1231892445838
 10
128.1671983186526
 20
183.1231892445838
 10
128.1671983186526
 20
183.3629678903572
 10
128.1671983186526
 20
183.3629678903572
 97
        0
 97
        1
330
2D2
 75
     2
 76
     1
 98
        1
 10
0.0
 20
0.0
450
        0
451
        0
460
0.0
461
0.0
452
        0
462
0.0
453
        0
470

  0
ENDBLK
  5
2CF
330
2CC
100
AcDbEntity
  8
0
100
AcDbBlockEnd
  0
BLOCK
  5
2D8
330
2D6
100
AcDbEntity
  8
0
100
AcDbBlockBegin
  2
Block_35
 70
     0
 10
0.0
 20
0.0
 30
0.0
  3
Block_35
  1

  0
INSERT
  5
2DB
330
2D6
100
AcDbEntity
  8
Sichtbar schmal (ISO)
100
AcDbBlockReference
  2
Block_36
 10
0.0
 20
0.0
 30
0.0
  0
ENDBLK
  5
2D9
330
2D6
100
AcDbEntity
  8
0
100
AcDbBlockEnd
  0
BLOCK
  5
2DC
330
2DA
100
AcDbEntity
  8
0
100
AcDbBlockBegin
  2
Block_36
 70
     0
 10
0.0
 20
0.0
 30
0.0
  3
Block_36
  1

  0
SPLINE
  5
2DE
330
2DA
100
AcDbEntity
  8
Sichtbar schmal (ISO)
100
AcDbSpline
210
0.0
220
0.0
230
1.0
 70
     9
 71
     3
 72
    17
 73
    13
 74
     0
 42
0.0000000001
 43
0.0000000001
 40
0.0
 40
0.0
 40
0.0
 40
0.0
 40
1.0
 40
1.0
 40
1.0
 40
2.0
 40
2.0
 40
2.0
 40
3.0
 40
3.0
 40
3.0
 40
4.0
 40
4.0
 40
4.0
 40
4.0
 10
142.7571776986857
 20
174.7240464515447
 30
0.0
 10
142.7571776986857
 20
174.9638250973181
 30
0.0
 10
142.5907795867481
 20
175.1331515404181
 30
0.0
 10
142.3678819088524
 20
175.1331515404181
 30
0.0
 10
142.1535969696699
 20
175.1331515404181
 30
0.0
 10
141.9871988577324
 20
174.9469441294403
 30
0.0
 10
141.9871988577324
 20
174.7212903751565
 30
0.0
 10
141.9871988577324
 20
174.4844400605455
 30
0.0
 10
142.1367160017922
 20
174.2982326495678
 30
0.0
 10
142.3706379852407
 20
174.2982326495678
 30
0.0
 10
142.610416631014
 20
174.2982326495678
 30
0.0
 10
142.7571776986857
 20
174.4758273218324
 30
0.0
 10
142.7571776986857
 20
174.7240464515447
 30
0.0
  0
SPLINE
  5
2DF
330
2DA
100
AcDbEntity
  8
Sichtbar schmal (ISO)
100
AcDbSpline
210
0.0
220
0.0
230
1.0
 70
     9
 71
     3
 72
    17
 73
    13
 74
     0
 42
0.0000000001
 43
0.0000000001
 40
0.0
 40
0.0
 40
0.0
 40
0.0
 40
1.0
 40
1.0
 40
1.0
 40
2.0
 40
2.0
 40
2.0
 40
3.0
 40
3.0
 40
3.0
 40
4.0
 40
4.0
 40
4.0
 40
4.0
 10
141.4538980766157
 20
175.0540865990316
 30
0.0
 10
141.2509819525345
 20
175.0540865990316
 30
0.0
 10
141.1465955593314
 20
174.9130099389106
 30
0.0
 10
141.1465955593314
 20
174.7185342987683
 30
0.0
 10
141.1465955593314
 20
174.5266424802399
 30
0.0
 10
141.2537380289226
 20
174.3686848522411
 30
0.0
 10
141.4538980766157
 20
174.3686848522411
 30
0.0
 10
141.6712836017349
 20
174.3686848522411
 30
0.0
 10
141.775669994938
 20
174.5295708114023
 30
0.0
 10
141.775669994938
 20
174.7240464515447
 30
0.0
 10
141.775669994938
 20
174.9159382700731
 30
0.0
 10
141.6571587102454
 20
175.0540865990316
 30
0.0
 10
141.4538980766157
 20
175.0540865990316
 30
0.0
  0
SPLINE
  5
2E0
330
2DA
100
AcDbEntity
  8
Sichtbar schmal (ISO)
100
AcDbSpline
210
0.0
220
0.0
230
1.0
 70
     9
 71
     3
 72
    29
 73
    25
 74
     0
 42
0.0000000001
 43
0.0000000001
 40
0.0
 40
0.0
 40
0.0
 40
0.0
 40
1.0
 40
1.0
 40
1.0
 40
2.0
 40
2.0
 40
2.0
 40
3.0
 40
3.0
 40
3.0
 40
4.0
 40
4.0
 40
4.0
 40
5.0
 40
5.0
 40
5.0
 40
6.0
 40
6.0
 40
6.0
 40
7.0
 40
7.0
 40
7.0
 40
8.0
 40
8.0
 40
8.0
 40
8.0
 10
141.8600748343266
 20
174.394178558832
 30
0.0
 10
141.7925509628157
 20
174.2248521157319
 30
0.0
 10
141.6261528508782
 20
174.1147813149782
 30
0.0
 10
141.4456298474511
 20
174.1147813149782
 30
0.0
 10
141.1183457763523
 20
174.1147813149782
 30
0.0
 10
140.935066696537
 20
174.394178558832
 30
0.0
 10
140.935066696537
 20
174.7014810761163
 30
0.0
 10
140.935066696537
 20
175.1386636931945
 30
0.0
 10
141.1889702337999
 20
175.3079901362945
 30
0.0
 10
141.4456298474511
 20
175.3079901362945
 30
0.0
 10
141.6261528508782
 20
175.3079901362945
 30
0.0
 10
141.7839382241026
 20
175.1979193355408
 30
0.0
 10
141.8600748343266
 20
175.0315212236032
 30
0.0
 10
141.9362114445507
 20
175.2712998693766
 30
0.0
 10
142.1112222952013
 20
175.387055077681
 30
0.0
 10
142.3592691701393
 20
175.387055077681
 30
0.0
 10
142.7458088835843
 20
175.387055077681
 30
0.0
 10
142.96870656148
 20
175.0935329423377
 30
0.0
 10
142.96870656148
 20
174.7240464515447
 30
0.0
 10
142.96870656148
 20
174.3404350692621
 30
0.0
 10
142.7654459278503
 20
174.0443291123049
 30
0.0
 10
142.3592691701393
 20
174.0443291123049
 30
0.0
 10
142.1225911103027
 20
174.0443291123049
 30
0.0
 10
141.9393120304874
 20
174.1685248045481
 30
0.0
 10
141.8600748343266
 20
174.394178558832
 30
0.0
  0
HATCH
  5
2E1
330
2DA
100
AcDbEntity
  8
Sichtbar schmal (ISO)
 62
    18
420
        0
440
 33554687
100
AcDbHatch
 10
0.0
 20
0.0
 30
0.0
210
0.0
220
0.0
230
1.0
  2
SOLID
 70
     1
 71
     1
 91
        3
 92
        1
 93
        1
 72
     4
 94
        3
 73
     0
 74
     0
 95
       17
 96
       13
 40
0.0
 40
0.0
 40
0.0
 40
0.0
 40
1.0
 40
1.0
 40
1.0
 40
2.0
 40
2.0
 40
2.0
 40
3.0
 40
3.0
 40
3.0
 40
4.0
 40
4.0
 40
4.0
 40
4.0
 10
142.7571776986857
 20
174.7240464515447
 10
142.7571776986857
 20
174.9638250973181
 10
142.5907795867481
 20
175.1331515404181
 10
142.3678819088524
 20
175.1331515404181
 10
142.1535969696699
 20
175.1331515404181
 10
141.9871988577324
 20
174.9469441294403
 10
141.9871988577324
 20
174.7212903751565
 10
141.9871988577324
 20
174.4844400605455
 10
142.1367160017922
 20
174.2982326495678
 10
142.3706379852407
 20
174.2982326495678
 10
142.610416631014
 20
174.2982326495678
 10
142.7571776986857
 20
174.4758273218324
 10
142.7571776986857
 20
174.7240464515447
 97
        0
 97
        1
330
2DE
 92
        1
 93
        1
 72
     4
 94
        3
 73
     0
 74
     0
 95
       17
 96
       13
 40
0.0
 40
0.0
 40
0.0
 40
0.0
 40
1.0
 40
1.0
 40
1.0
 40
2.0
 40
2.0
 40
2.0
 40
3.0
 40
3.0
 40
3.0
 40
4.0
 40
4.0
 40
4.0
 40
4.0
 10
141.4538980766157
 20
175.0540865990316
 10
141.2509819525345
 20
175.0540865990316
 10
141.1465955593314
 20
174.9130099389106
 10
141.1465955593314
 20
174.7185342987683
 10
141.1465955593314
 20
174.5266424802399
 10
141.2537380289226
 20
174.3686848522411
 10
141.4538980766157
 20
174.3686848522411
 10
141.6712836017349
 20
174.3686848522411
 10
141.775669994938
 20
174.5295708114023
 10
141.775669994938
 20
174.7240464515447
 10
141.775669994938
 20
174.9159382700731
 10
141.6571587102454
 20
175.0540865990316
 10
141.4538980766157
 20
175.0540865990316
 97
        0
 97
        1
330
2DF
 92
        1
 93
        1
 72
     4
 94
        3
 73
     0
 74
     0
 95
       29
 96
       25
 40
0.0
 40
0.0
 40
0.0
 40
0.0
 40
1.0
 40
1.0
 40
1.0
 40
2.0
 40
2.0
 40
2.0
 40
3.0
 40
3.0
 40
3.0
 40
4.0
 40
4.0
 40
4.0
 40
5.0
 40
5.0
 40
5.0
 40
6.0
 40
6.0
 40
6.0
 40
7.0
 40
7.0
 40
7.0
 40
8.0
 40
8.0
 40
8.0
 40
8.0
 10
141.8600748343266
 20
174.394178558832
 10
141.7925509628157
 20
174.2248521157319
 10
141.6261528508782
 20
174.1147813149782
 10
141.4456298474511
 20
174.1147813149782
 10
141.1183457763523
 20
174.1147813149782
 10
140.935066696537
 20
174.394178558832
 10
140.935066696537
 20
174.7014810761163
 10
140.935066696537
 20
175.1386636931945
 10
141.1889702337999
 20
175.3079901362945
 10
141.4456298474511
 20
175.3079901362945
 10
141.6261528508782
 20
175.3079901362945
 10
141.7839382241026
 20
175.1979193355408
 10
141.8600748343266
 20
175.0315212236032
 10
141.9362114445507
 20
175.2712998693766
 10
142.1112222952013
 20
175.387055077681
 10
142.3592691701393
 20
175.387055077681
 10
142.7458088835843
 20
175.387055077681
 10
142.96870656148
 20
175.0935329423377
 10
142.96870656148
 20
174.7240464515447
 10
142.96870656148
 20
174.3404350692621
 10
142.7654459278503
 20
174.0443291123049
 10
142.3592691701393
 20
174.0443291123049
 10
142.1225911103027
 20
174.0443291123049
 10
141.9393120304874
 20
174.1685248045481
 10
141.8600748343266
 20
174.394178558832
 97
        0
 97
        1
330
2E0
 75
     2
 76
     1
 98
        1
 10
0.0
 20
0.0
450
        0
451
        0
460
0.0
461
0.0
452
        0
462
0.0
453
        0
470

  0
SPLINE
  5
2E2
330
2DA
100
AcDbEntity
  8
Sichtbar schmal (ISO)
100
AcDbSpline
210
0.0
220
0.0
230
1.0
 70
     9
 71
     3
 72
    26
 73
    22
 74
     0
 42
0.0000000001
 43
0.0000000001
 40
0.0
 40
0.0
 40
0.0
 40
0.0
 40
1.0
 40
1.0
 40
1.0
 40
2.0
 40
2.0
 40
2.0
 40
3.0
 40
3.0
 40
3.0
 40
4.0
 40
4.0
 40
4.0
 40
5.0
 40
5.0
 40
5.0
 40
6.0
 40
6.0
 40
6.0
 40
7.0
 40
7.0
 40
7.0
 40
7.0
 10
141.1944823865764
 20
176.6910237188481
 30
0.0
 10
141.1944823865764
 20
176.6910237188481
 30
0.0
 10
141.1944823865764
 20
175.6418198888152
 30
0.0
 10
141.1944823865764
 20
175.6418198888152
 30
0.0
 10
141.1944823865764
 20
175.6418198888152
 30
0.0
 10
140.9688286322925
 20
175.6418198888152
 30
0.0
 10
140.9688286322925
 20
175.6418198888152
 30
0.0
 10
140.9688286322925
 20
175.6418198888152
 30
0.0
 10
140.9688286322925
 20
176.9364867721721
 30
0.0
 10
140.9688286322925
 20
176.9364867721721
 30
0.0
 10
140.9688286322925
 20
176.9364867721721
 30
0.0
 10
141.1748453423104
 20
176.9364867721721
 30
0.0
 10
141.1748453423104
 20
176.9364867721721
 30
0.0
 10
141.5724093613083
 20
176.5330660908494
 30
0.0
 10
142.3113823428943
 20
176.2059542745249
 30
0.0
 10
142.9349446257246
 20
176.169264007607
 30
0.0
 10
142.9349446257246
 20
176.169264007607
 30
0.0
 10
142.9349446257246
 20
175.9012355788545
 30
0.0
 10
142.9349446257246
 20
175.9012355788545
 30
0.0
 10
142.257983362873
 20
175.9463663297113
 30
0.0
 10
141.637177156431
 20
176.2707220696476
 30
0.0
 10
141.1944823865764
 20
176.6910237188481
 30
0.0
  0
HATCH
  5
2E3
330
2DA
100
AcDbEntity
  8
Sichtbar schmal (ISO)
 62
    18
420
        0
440
 33554687
100
AcDbHatch
 10
0.0
 20
0.0
 30
0.0
210
0.0
220
0.0
230
1.0
  2
SOLID
 70
     1
 71
     1
 91
        1
 92
        1
 93
        1
 72
     4
 94
        3
 73
     0
 74
     0
 95
       26
 96
       22
 40
0.0
 40
0.0
 40
0.0
 40
0.0
 40
1.0
 40
1.0
 40
1.0
 40
2.0
 40
2.0
 40
2.0
 40
3.0
 40
3.0
 40
3.0
 40
4.0
 40
4.0
 40
4.0
 40
5.0
 40
5.0
 40
5.0
 40
6.0
 40
6.0
 40
6.0
 40
7.0
 40
7.0
 40
7.0
 40
7.0
 10
141.1944823865764
 20
176.6910237188481
 10
141.1944823865764
 20
176.6910237188481
 10
141.1944823865764
 20
175.6418198888152
 10
141.1944823865764
 20
175.6418198888152
 10
141.1944823865764
 20
175.6418198888152
 10
140.9688286322925
 20
175.6418198888152
 10
140.9688286322925
 20
175.6418198888152
 10
140.9688286322925
 20
175.6418198888152
 10
140.9688286322925
 20
176.9364867721721
 10
140.9688286322925
 20
176.9364867721721
 10
140.9688286322925
 20
176.9364867721721
 10
141.1748453423104
 20
176.9364867721721
 10
141.1748453423104
 20
176.9364867721721
 10
141.5724093613083
 20
176.5330660908494
 10
142.3113823428943
 20
176.2059542745249
 10
142.9349446257246
 20
176.169264007607
 10
142.9349446257246
 20
176.169264007607
 10
142.9349446257246
 20
175.9012355788545
 10
142.9349446257246
 20
175.9012355788545
 10
142.257983362873
 20
175.9463663297113
 10
141.637177156431
 20
176.2707220696476
 10
141.1944823865764
 20
176.6910237188481
 97
        0
 97
        1
330
2E2
 75
     2
 76
     1
 98
        1
 10
0.0
 20
0.0
450
        0
451
        0
460
0.0
461
0.0
452
        0
462
0.0
453
        0
470

  0
ENDBLK
  5
2DD
330
2DA
100
AcDbEntity
  8
0
100
AcDbBlockEnd
  0
BLOCK
  5
2E6
330
2E4
100
AcDbEntity
  8
0
100
AcDbBlockBegin
  2
Block_37
 70
     0
 10
0.0
 20
0.0
 30
0.0
  3
Block_37
  1

  0
INSERT
  5
2E9
330
2E4
100
AcDbEntity
  8
Sichtbar schmal (ISO)
100
AcDbBlockReference
  2
Block_38
 10
0.0
 20
0.0
 30
0.0
  0
ENDBLK
  5
2E7
330
2E4
100
AcDbEntity
  8
0
100
AcDbBlockEnd
  0
BLOCK
  5
2EA
330
2E8
100
AcDbEntity
  8
0
100
AcDbBlockBegin
  2
Block_38
 70
     0
 10
0.0
 20
0.0
 30
0.0
  3
Block_38
  1

  0
SPLINE
  5
2EC
330
2E8
100
AcDbEntity
  8
Sichtbar schmal (ISO)
100
AcDbSpline
210
0.0
220
0.0
230
1.0
 70
     9
 71
     3
 72
    26
 73
    22
 74
     0
 42
0.0000000001
 43
0.0000000001
 40
0.0
 40
0.0
 40
0.0
 40
0.0
 40
1.0
 40
1.0
 40
1.0
 40
2.0
 40
2.0
 40
2.0
 40
3.0
 40
3.0
 40
3.0
 40
4.0
 40
4.0
 40
4.0
 40
5.0
 40
5.0
 40
5.0
 40
6.0
 40
6.0
 40
6.0
 40
7.0
 40
7.0
 40
7.0
 40
7.0
 10
135.7498534816875
 20
136.5391248573583
 30
0.0
 10
135.7677679782108
 20
136.5921793278311
 30
0.0
 10
135.777069736021
 20
136.6462673269495
 30
0.0
 10
135.777069736021
 20
136.7006998356165
 30
0.0
 10
135.777069736021
 20
136.8763997053642
 30
0.0
 10
135.6954209730206
 20
137.0011121619302
 30
0.0
 10
135.5317789374712
 20
137.0744926957661
 30
0.0
 10
135.4335937161416
 20
137.1189344275258
 30
0.0
 10
135.3205945842254
 20
137.1413275481799
 30
0.0
 10
135.1927815417226
 20
137.1413275481799
 30
0.0
 10
135.1100992500766
 20
137.1413275481799
 30
0.0
 10
135.0387857735319
 20
137.1340928476609
 30
0.0
 10
134.9791856216371
 20
137.1203124657199
 30
0.0
 10
134.9471462336243
 20
137.1127332556524
 30
0.0
 10
134.9092501832866
 20
137.0999864023569
 30
0.0
 10
134.8661864897209
 20
137.0824164153821
 30
0.0
 10
134.8661864897209
 20
137.0824164153821
 30
0.0
 10
135.6444335598389
 20
136.3913302610411
 30
0.0
 10
135.6444335598389
 20
136.3913302610411
 30
0.0
 10
135.6964545016662
 20
136.4368055214463
 30
0.0
 10
135.7315944756157
 20
136.4864148964339
 30
0.0
 10
135.7498534816875
 20
136.5391248573583
 30
0.0
  0
SPLINE
  5
2ED
330
2E8
100
AcDbEntity
  8
Sichtbar schmal (ISO)
100
AcDbSpline
210
0.0
220
0.0
230
1.0
 70
     9
 71
     3
 72
    26
 73
    22
 74
     0
 42
0.0000000001
 43
0.0000000001
 40
0.0
 40
0.0
 40
0.0
 40
0.0
 40
1.0
 40
1.0
 40
1.0
 40
2.0
 40
2.0
 40
2.0
 40
3.0
 40
3.0
 40
3.0
 40
4.0
 40
4.0
 40
4.0
 40
5.0
 40
5.0
 40
5.0
 40
6.0
 40
6.0
 40
6.0
 40
7.0
 40
7.0
 40
7.0
 40
7.0
 10
134.6756727093866
 20
136.9029269406006
 30
0.0
 10
134.6494899836987
 20
136.845393845997
 30
0.0
 10
134.6360541113062
 20
136.7813150699713
 30
0.0
 10
134.6360541113062
 20
136.7106906125237
 30
0.0
 10
134.6360541113062
 20
136.5759873790504
 30
0.0
 10
134.6918646581673
 20
136.4681558903621
 30
0.0
 10
134.8038302614379
 20
136.3868516369102
 30
0.0
 10
134.91545135516
 20
136.3055473834583
 30
0.0
 10
135.0594563464435
 20
136.2648952567324
 30
0.0
 10
135.2351562161912
 20
136.2648952567324
 30
0.0
 10
135.301302049508
 20
136.2648952567324
 30
0.0
 10
135.3646918064366
 20
136.2721299572514
 30
0.0
 10
135.425325486977
 20
136.2862548487409
 30
0.0
 10
135.459431932281
 20
136.294867587454
 30
0.0
 10
135.5024956258466
 20
136.308647969395
 30
0.0
 10
135.5552055867709
 20
136.3286295232095
 30
0.0
 10
135.5552055867709
 20
136.3286295232095
 30
0.0
 10
134.7735134211677
 20
137.0283284162637
 30
0.0
 10
134.7735134211677
 20
137.0283284162637
 30
0.0
 10
134.7349283517329
 20
137.0024902001244
 30
0.0
 10
134.702199944623
 20
136.9604600352043
 30
0.0
 10
134.6756727093866
 20
136.9029269406006
 30
0.0
  0
SPLINE
  5
2EE
330
2E8
100
AcDbEntity
  8
Sichtbar schmal (ISO)
100
AcDbSpline
210
0.0
220
0.0
230
1.0
 70
    11
 71
     3
 72
    59
 73
    55
 74
     0
 42
0.0000000001
 43
0.0000000001
 40
0.0
 40
0.0
 40
0.0
 40
0.0
 40
1.0
 40
1.0
 40
1.0
 40
2.0
 40
2.0
 40
2.0
 40
3.0
 40
3.0
 40
3.0
 40
4.0
 40
4.0
 40
4.0
 40
5.0
 40
5.0
 40
5.0
 40
6.0
 40
6.0
 40
6.0
 40
7.0
 40
7.0
 40
7.0
 40
8.0
 40
8.0
 40
8.0
 40
9.0
 40
9.0
 40
9.0
 40
10.0
 40
10.0
 40
10.0
 40
11.0
 40
11.0
 40
11.0
 40
12.0
 40
12.0
 40
12.0
 40
13.0
 40
13.0
 40
13.0
 40
14.0
 40
14.0
 40
14.0
 40
15.0
 40
15.0
 40
15.0
 40
16.0
 40
16.0
 40
16.0
 40
17.0
 40
17.0
 40
17.0
 40
18.0
 40
18.0
 40
18.0
 40
18.0
 10
135.9314100137602
 20
135.9810193887478
 30
0.0
 10
135.9314100137602
 20
135.9810193887478
 30
0.0
 10
135.7460638766537
 20
136.1577527871411
 30
0.0
 10
135.7460638766537
 20
136.1577527871411
 30
0.0
 10
135.6781954955943
 20
136.1115885076388
 30
0.0
 10
135.6017143758218
 20
136.0764485336892
 30
0.0
 10
135.5176540459817
 20
136.0516438461954
 30
0.0
 10
135.4329046970445
 20
136.0264946491531
 30
0.0
 10
135.3329969279723
 20
136.0140923054062
 30
0.0
 10
135.2172417196679
 20
136.0140923054062
 30
0.0
 10
135.0088134428103
 20
136.0140923054062
 30
0.0
 10
134.8234673057038
 20
136.0726589286554
 30
0.0
 10
134.6612033083486
 20
136.1894476656054
 30
0.0
 10
134.4992838205418
 20
136.3065809121039
 30
0.0
 10
134.4183240766384
 20
136.4771131386238
 30
0.0
 10
134.4183240766384
 20
136.701044345165
 30
0.0
 10
134.4183240766384
 20
136.8174885725665
 30
0.0
 10
134.4393391590985
 20
136.9198079084784
 30
0.0
 10
134.4806803049215
 20
137.0076578433522
 30
0.0
 10
134.5051404828668
 20
137.059334275631
 30
0.0
 10
134.5447590809471
 20
137.1185899179773
 30
0.0
 10
134.5998806087111
 20
137.1850802608426
 30
0.0
 10
134.5998806087111
 20
137.1850802608426
 30
0.0
 10
134.4062662424401
 20
137.3607801305903
 30
0.0
 10
134.4062662424401
 20
137.3607801305903
 30
0.0
 10
134.4062662424401
 20
137.3607801305903
 30
0.0
 10
134.4762016807906
 20
137.432093607135
 30
0.0
 10
134.4762016807906
 20
137.432093607135
 30
0.0
 10
134.4762016807906
 20
137.432093607135
 30
0.0
 10
134.6736056520955
 20
137.2550156991932
 30
0.0
 10
134.6736056520955
 20
137.2550156991932
 30
0.0
 10
134.7583550010326
 20
137.3132378128939
 30
0.0
 10
134.8548176746196
 20
137.3545789587169
 30
0.0
 10
134.9643717110506
 20
137.3793836462107
 30
0.0
 10
135.0349961684982
 20
137.3952310854428
 30
0.0
 10
135.1056206259458
 20
137.4031548050589
 30
0.0
 10
135.176589592942
 20
137.4031548050589
 30
0.0
 10
135.4136121623271
 20
137.4031548050589
 30
0.0
 10
135.6086045667923
 20
137.3387315194848
 30
0.0
 10
135.7626003349829
 20
137.2098849483364
 30
0.0
 10
135.9165961031736
 20
137.0810383771881
 30
0.0
 10
135.9934217324947
 20
136.9094726220226
 30
0.0
 10
135.9934217324947
 20
136.6951876828401
 30
0.0
 10
135.9934217324947
 20
136.5932128564767
 30
0.0
 10
135.9786078219081
 20
136.5022623356661
 30
0.0
 10
135.948980000735
 20
136.4226806299568
 30
0.0
 10
135.9190076700133
 20
136.3430989242475
 30
0.0
 10
135.8787000528359
 20
136.2783311291248
 30
0.0
 10
135.8270236205571
 20
136.2294107732343
 30
0.0
 10
135.8270236205571
 20
136.2294107732343
 30
0.0
 10
136.0030679998534
 20
136.0623236421997
 30
0.0
 10
136.0030679998534
 20
136.0623236421997
 30
0.0
 10
136.0030679998534
 20
136.0623236421997
 30
0.0
 10
135.9314100137602
 20
135.9810193887478
 30
0.0
 10
135.9314100137602
 20
135.9810193887478
 30
0.0
  0
HATCH
  5
2EF
330
2E8
100
AcDbEntity
  8
Sichtbar schmal (ISO)
 62
   250
420
  2039067
440
 33554687
100
AcDbHatch
 10
0.0
 20
0.0
 30
0.0
210
0.0
220
0.0
230
1.0
  2
SOLID
 70
     1
 71
     1
 91
        3
 92
        1
 93
        1
 72
     4
 94
        3
 73
     0
 74
     0
 95
       26
 96
       22
 40
0.0
 40
0.0
 40
0.0
 40
0.0
 40
1.0
 40
1.0
 40
1.0
 40
2.0
 40
2.0
 40
2.0
 40
3.0
 40
3.0
 40
3.0
 40
4.0
 40
4.0
 40
4.0
 40
5.0
 40
5.0
 40
5.0
 40
6.0
 40
6.0
 40
6.0
 40
7.0
 40
7.0
 40
7.0
 40
7.0
 10
135.7498534816875
 20
136.5391248573583
 10
135.7677679782108
 20
136.5921793278311
 10
135.777069736021
 20
136.6462673269495
 10
135.777069736021
 20
136.7006998356165
 10
135.777069736021
 20
136.8763997053642
 10
135.6954209730206
 20
137.0011121619302
 10
135.5317789374712
 20
137.0744926957661
 10
135.4335937161416
 20
137.1189344275258
 10
135.3205945842254
 20
137.1413275481799
 10
135.1927815417226
 20
137.1413275481799
 10
135.1100992500766
 20
137.1413275481799
 10
135.0387857735319
 20
137.1340928476609
 10
134.9791856216371
 20
137.1203124657199
 10
134.9471462336243
 20
137.1127332556524
 10
134.9092501832866
 20
137.0999864023569
 10
134.8661864897209
 20
137.0824164153821
 10
134.8661864897209
 20
137.0824164153821
 10
135.6444335598389
 20
136.3913302610411
 10
135.6444335598389
 20
136.3913302610411
 10
135.6964545016662
 20
136.4368055214463
 10
135.7315944756157
 20
136.4864148964339
 10
135.7498534816875
 20
136.5391248573583
 97
        0
 97
        1
330
2EC
 92
        1
 93
        1
 72
     4
 94
        3
 73
     0
 74
     0
 95
       26
 96
       22
 40
0.0
 40
0.0
 40
0.0
 40
0.0
 40
1.0
 40
1.0
 40
1.0
 40
2.0
 40
2.0
 40
2.0
 40
3.0
 40
3.0
 40
3.0
 40
4.0
 40
4.0
 40
4.0
 40
5.0
 40
5.0
 40
5.0
 40
6.0
 40
6.0
 40
6.0
 40
7.0
 40
7.0
 40
7.0
 40
7.0
 10
134.6756727093866
 20
136.9029269406006
 10
134.6494899836987
 20
136.845393845997
 10
134.6360541113062
 20
136.7813150699713
 10
134.6360541113062
 20
136.7106906125237
 10
134.6360541113062
 20
136.5759873790504
 10
134.6918646581673
 20
136.4681558903621
 10
134.8038302614379
 20
136.3868516369102
 10
134.91545135516
 20
136.3055473834583
 10
135.0594563464435
 20
136.2648952567324
 10
135.2351562161912
 20
136.2648952567324
 10
135.301302049508
 20
136.2648952567324
 10
135.3646918064366
 20
136.2721299572514
 10
135.425325486977
 20
136.2862548487409
 10
135.459431932281
 20
136.294867587454
 10
135.5024956258466
 20
136.308647969395
 10
135.5552055867709
 20
136.3286295232095
 10
135.5552055867709
 20
136.3286295232095
 10
134.7735134211677
 20
137.0283284162637
 10
134.7735134211677
 20
137.0283284162637
 10
134.7349283517329
 20
137.0024902001244
 10
134.702199944623
 20
136.9604600352043
 10
134.6756727093866
 20
136.9029269406006
 97
        0
 97
        1
330
2ED
 92
        1
 93
        1
 72
     4
 94
        3
 73
     0
 74
     0
 95
       59
 96
       55
 40
0.0
 40
0.0
 40
0.0
 40
0.0
 40
1.0
 40
1.0
 40
1.0
 40
2.0
 40
2.0
 40
2.0
 40
3.0
 40
3.0
 40
3.0
 40
4.0
 40
4.0
 40
4.0
 40
5.0
 40
5.0
 40
5.0
 40
6.0
 40
6.0
 40
6.0
 40
7.0
 40
7.0
 40
7.0
 40
8.0
 40
8.0
 40
8.0
 40
9.0
 40
9.0
 40
9.0
 40
10.0
 40
10.0
 40
10.0
 40
11.0
 40
11.0
 40
11.0
 40
12.0
 40
12.0
 40
12.0
 40
13.0
 40
13.0
 40
13.0
 40
14.0
 40
14.0
 40
14.0
 40
15.0
 40
15.0
 40
15.0
 40
16.0
 40
16.0
 40
16.0
 40
17.0
 40
17.0
 40
17.0
 40
18.0
 40
18.0
 40
18.0
 40
18.0
 10
135.9314100137602
 20
135.9810193887478
 10
135.9314100137602
 20
135.9810193887478
 10
135.7460638766537
 20
136.1577527871411
 10
135.7460638766537
 20
136.1577527871411
 10
135.6781954955943
 20
136.1115885076388
 10
135.6017143758218
 20
136.0764485336892
 10
135.5176540459817
 20
136.0516438461954
 10
135.4329046970445
 20
136.0264946491531
 10
135.3329969279723
 20
136.0140923054062
 10
135.2172417196679
 20
136.0140923054062
 10
135.0088134428103
 20
136.0140923054062
 10
134.8234673057038
 20
136.0726589286554
 10
134.6612033083486
 20
136.1894476656054
 10
134.4992838205418
 20
136.3065809121039
 10
134.4183240766384
 20
136.4771131386238
 10
134.4183240766384
 20
136.701044345165
 10
134.4183240766384
 20
136.8174885725665
 10
134.4393391590985
 20
136.9198079084784
 10
134.4806803049215
 20
137.0076578433522
 10
134.5051404828668
 20
137.059334275631
 10
134.5447590809471
 20
137.1185899179773
 10
134.5998806087111
 20
137.1850802608426
 10
134.5998806087111
 20
137.1850802608426
 10
134.4062662424401
 20
137.3607801305903
 10
134.4062662424401
 20
137.3607801305903
 10
134.4062662424401
 20
137.3607801305903
 10
134.4762016807906
 20
137.432093607135
 10
134.4762016807906
 20
137.432093607135
 10
134.4762016807906
 20
137.432093607135
 10
134.6736056520955
 20
137.2550156991932
 10
134.6736056520955
 20
137.2550156991932
 10
134.7583550010326
 20
137.3132378128939
 10
134.8548176746196
 20
137.3545789587169
 10
134.9643717110506
 20
137.3793836462107
 10
135.0349961684982
 20
137.3952310854428
 10
135.1056206259458
 20
137.4031548050589
 10
135.176589592942
 20
137.4031548050589
 10
135.4136121623271
 20
137.4031548050589
 10
135.6086045667923
 20
137.3387315194848
 10
135.7626003349829
 20
137.2098849483364
 10
135.9165961031736
 20
137.0810383771881
 10
135.9934217324947
 20
136.9094726220226
 10
135.9934217324947
 20
136.6951876828401
 10
135.9934217324947
 20
136.5932128564767
 10
135.9786078219081
 20
136.5022623356661
 10
135.948980000735
 20
136.4226806299568
 10
135.9190076700133
 20
136.3430989242475
 10
135.8787000528359
 20
136.2783311291248
 10
135.8270236205571
 20
136.2294107732343
 10
135.8270236205571
 20
136.2294107732343
 10
136.0030679998534
 20
136.0623236421997
 10
136.0030679998534
 20
136.0623236421997
 10
136.0030679998534
 20
136.0623236421997
 10
135.9314100137602
 20
135.9810193887478
 10
135.9314100137602
 20
135.9810193887478
 97
        0
 97
        1
330
2EE
 75
     2
 76
     1
 98
        1
 10
0.0
 20
0.0
450
        0
451
        0
460
0.0
461
0.0
452
        0
462
0.0
453
        0
470

  0
SPLINE
  5
2F0
330
2E8
100
AcDbEntity
  8
Sichtbar schmal (ISO)
100
AcDbSpline
210
0.0
220
0.0
230
1.0
 70
     9
 71
     3
 72
    41
 73
    37
 74
     0
 42
0.0000000001
 43
0.0000000001
 40
0.0
 40
0.0
 40
0.0
 40
0.0
 40
1.0
 40
1.0
 40
1.0
 40
2.0
 40
2.0
 40
2.0
 40
3.0
 40
3.0
 40
3.0
 40
4.0
 40
4.0
 40
4.0
 40
5.0
 40
5.0
 40
5.0
 40
6.0
 40
6.0
 40
6.0
 40
7.0
 40
7.0
 40
7.0
 40
8.0
 40
8.0
 40
8.0
 40
9.0
 40
9.0
 40
9.0
 40
10.0
 40
10.0
 40
10.0
 40
11.0
 40
11.0
 40
11.0
 40
12.0
 40
12.0
 40
12.0
 40
12.0
 10
135.1187119887898
 20
138.2072400913162
 30
0.0
 10
134.9071831259954
 20
138.5458929775163
 30
0.0
 10
134.7886718413028
 20
138.7178032422303
 30
0.0
 10
134.5096191069976
 20
138.7178032422303
 30
0.0
 10
134.2925780914268
 20
138.7178032422303
 30
0.0
 10
134.1485731001434
 20
138.5427923915796
 30
0.0
 10
134.1485731001434
 20
138.3312635287852
 30
0.0
 10
134.1485731001434
 20
138.0518662849315
 30
0.0
 10
134.4052327137945
 20
137.9333550002389
 30
0.0
 10
134.6450113595679
 20
137.941967738952
 30
0.0
 10
134.6450113595679
 20
137.941967738952
 30
0.0
 10
134.6450113595679
 20
137.7021890931786
 30
0.0
 10
134.6450113595679
 20
137.7021890931786
 30
0.0
 10
134.2388346018569
 20
137.6797959725245
 30
0.0
 10
133.9370442373491
 20
137.9223306946861
 30
0.0
 10
133.9370442373491
 20
138.3453884202747
 30
0.0
 10
133.9370442373491
 20
138.6923095356394
 30
0.0
 10
134.1403048709788
 20
138.9717067794932
 30
0.0
 10
134.5123751833858
 20
138.9717067794932
 30
0.0
 10
134.8651529610753
 20
138.9717067794932
 30
0.0
 10
135.040163811726
 20
138.734684210108
 30
0.0
 10
135.1979491849505
 20
138.48663733517
 30
0.0
 10
135.3474663290103
 20
138.2382459506835
 30
0.0
 10
135.4797579956439
 20
137.970217521931
 30
0.0
 10
135.7253933037422
 20
137.9250867710743
 30
0.0
 10
135.7253933037422
 20
137.9250867710743
 30
0.0
 10
135.7253933037422
 20
138.9517252256787
 30
0.0
 10
135.7253933037422
 20
138.9517252256787
 30
0.0
 10
135.7253933037422
 20
138.9517252256787
 30
0.0
 10
135.9369221665366
 20
138.9517252256787
 30
0.0
 10
135.9369221665366
 20
138.9517252256787
 30
0.0
 10
135.9369221665366
 20
138.9517252256787
 30
0.0
 10
135.9369221665366
 20
137.646034036769
 30
0.0
 10
135.9369221665366
 20
137.646034036769
 30
0.0
 10
135.4659776137029
 20
137.6825520489127
 30
0.0
 10
135.288210686664
 20
137.9250867710743
 30
0.0
 10
135.1187119887898
 20
138.2072400913162
 30
0.0
  0
HATCH
  5
2F1
330
2E8
100
AcDbEntity
  8
Sichtbar schmal (ISO)
 62
    18
420
        0
440
 33554687
100
AcDbHatch
 10
0.0
 20
0.0
 30
0.0
210
0.0
220
0.0
230
1.0
  2
SOLID
 70
     1
 71
     1
 91
        1
 92
        1
 93
        1
 72
     4
 94
        3
 73
     0
 74
     0
 95
       41
 96
       37
 40
0.0
 40
0.0
 40
0.0
 40
0.0
 40
1.0
 40
1.0
 40
1.0
 40
2.0
 40
2.0
 40
2.0
 40
3.0
 40
3.0
 40
3.0
 40
4.0
 40
4.0
 40
4.0
 40
5.0
 40
5.0
 40
5.0
 40
6.0
 40
6.0
 40
6.0
 40
7.0
 40
7.0
 40
7.0
 40
8.0
 40
8.0
 40
8.0
 40
9.0
 40
9.0
 40
9.0
 40
10.0
 40
10.0
 40
10.0
 40
11.0
 40
11.0
 40
11.0
 40
12.0
 40
12.0
 40
12.0
 40
12.0
 10
135.1187119887898
 20
138.2072400913162
 10
134.9071831259954
 20
138.5458929775163
 10
134.7886718413028
 20
138.7178032422303
 10
134.5096191069976
 20
138.7178032422303
 10
134.2925780914268
 20
138.7178032422303
 10
134.1485731001434
 20
138.5427923915796
 10
134.1485731001434
 20
138.3312635287852
 10
134.1485731001434
 20
138.0518662849315
 10
134.4052327137945
 20
137.9333550002389
 10
134.6450113595679
 20
137.941967738952
 10
134.6450113595679
 20
137.941967738952
 10
134.6450113595679
 20
137.7021890931786
 10
134.6450113595679
 20
137.7021890931786
 10
134.2388346018569
 20
137.6797959725245
 10
133.9370442373491
 20
137.9223306946861
 10
133.9370442373491
 20
138.3453884202747
 10
133.9370442373491
 20
138.6923095356394
 10
134.1403048709788
 20
138.9717067794932
 10
134.5123751833858
 20
138.9717067794932
 10
134.8651529610753
 20
138.9717067794932
 10
135.040163811726
 20
138.734684210108
 10
135.1979491849505
 20
138.48663733517
 10
135.3474663290103
 20
138.2382459506835
 10
135.4797579956439
 20
137.970217521931
 10
135.7253933037422
 20
137.9250867710743
 10
135.7253933037422
 20
137.9250867710743
 10
135.7253933037422
 20
138.9517252256787
 10
135.7253933037422
 20
138.9517252256787
 10
135.7253933037422
 20
138.9517252256787
 10
135.9369221665366
 20
138.9517252256787
 10
135.9369221665366
 20
138.9517252256787
 10
135.9369221665366
 20
138.9517252256787
 10
135.9369221665366
 20
137.646034036769
 10
135.9369221665366
 20
137.646034036769
 10
135.4659776137029
 20
137.6825520489127
 10
135.288210686664
 20
137.9250867710743
 10
135.1187119887898
 20
138.2072400913162
 97
        0
 97
        1
330
2F0
 75
     2
 76
     1
 98
        1
 10
0.0
 20
0.0
450
        0
451
        0
460
0.0
461
0.0
452
        0
462
0.0
453
        0
470

  0
SPLINE
  5
2F2
330
2E8
100
AcDbEntity
  8
Sichtbar schmal (ISO)
100
AcDbSpline
210
0.0
220
0.0
230
1.0
 70
     9
 71
     3
 72
    17
 73
    13
 74
     0
 42
0.0000000001
 43
0.0000000001
 40
0.0
 40
0.0
 40
0.0
 40
0.0
 40
1.0
 40
1.0
 40
1.0
 40
2.0
 40
2.0
 40
2.0
 40
3.0
 40
3.0
 40
3.0
 40
4.0
 40
4.0
 40
4.0
 40
4.0
 10
134.6053927614875
 20
140.3008246177025
 30
0.0
 10
134.3601019629377
 20
140.3008246177025
 30
0.0
 10
134.1485731001434
 20
140.1571641359676
 30
0.0
 10
134.1485731001434
 20
139.8894802167637
 30
0.0
 10
134.1485731001434
 20
139.604226310585
 30
0.0
 10
134.377327440364
 20
139.4970838409937
 30
0.0
 10
134.6226182389138
 20
139.4970838409937
 30
0.0
 10
134.8396592544845
 20
139.4970838409937
 30
0.0
 10
135.0456759645024
 20
139.6607258765431
 30
0.0
 10
135.0456759645024
 20
139.8922362931519
 30
0.0
 10
135.0456759645024
 20
140.1430392444781
 30
0.0
 10
134.8424153308727
 20
140.3008246177025
 30
0.0
 10
134.6053927614875
 20
140.3008246177025
 30
0.0
  0
SPLINE
  5
2F3
330
2E8
100
AcDbEntity
  8
Sichtbar schmal (ISO)
100
AcDbSpline
210
0.0
220
0.0
230
1.0
 70
     9
 71
     3
 72
    35
 73
    31
 74
     0
 42
0.0000000001
 43
0.0000000001
 40
0.0
 40
0.0
 40
0.0
 40
0.0
 40
1.0
 40
1.0
 40
1.0
 40
2.0
 40
2.0
 40
2.0
 40
3.0
 40
3.0
 40
3.0
 40
4.0
 40
4.0
 40
4.0
 40
5.0
 40
5.0
 40
5.0
 40
6.0
 40
6.0
 40
6.0
 40
7.0
 40
7.0
 40
7.0
 40
8.0
 40
8.0
 40
8.0
 40
9.0
 40
9.0
 40
9.0
 40
10.0
 40
10.0
 40
10.0
 40
10.0
 10
135.4546087986016
 20
139.5253336239728
 30
0.0
 10
135.6492566935182
 20
139.5449706682387
 30
0.0
 10
135.7591552394977
 20
139.7003444746235
 30
0.0
 10
135.7591552394977
 20
139.8922362931519
 30
0.0
 10
135.7591552394977
 20
140.1854139189467
 30
0.0
 10
135.5052517022348
 20
140.3290744006816
 30
0.0
 10
134.9864203221562
 20
140.3435438017196
 30
0.0
 10
134.9864203221562
 20
140.3435438017196
 30
0.0
 10
134.9809081693797
 20
140.3376871393947
 30
0.0
 10
134.9809081693797
 20
140.3376871393947
 30
0.0
 10
135.149717848157
 20
140.2474256376812
 30
0.0
 10
135.2572048272968
 20
140.0700032201908
 30
0.0
 10
135.2572048272968
 20
139.8750108157257
 30
0.0
 10
135.2572048272968
 20
139.4660779816265
 30
0.0
 10
134.9836642457679
 20
139.2431803037308
 30
0.0
 10
134.5888563031583
 20
139.2431803037308
 30
0.0
 10
134.2050726661015
 20
139.2431803037308
 30
0.0
 10
133.9370442373491
 20
139.5139648088715
 30
0.0
 10
133.9370442373491
 20
139.9005045223165
 30
0.0
 10
133.9370442373491
 20
140.272919344272
 30
0.0
 10
134.1375487945906
 20
140.5860785238813
 30
0.0
 10
134.8934027440544
 20
140.5860785238813
 30
0.0
 10
135.5844888983955
 20
140.5860785238813
 30
0.0
 10
135.970684102292
 20
140.3773057374751
 30
0.0
 10
135.970684102292
 20
139.8922362931519
 30
0.0
 10
135.970684102292
 20
139.55633948334
 30
0.0
 10
135.7987738375781
 20
139.3165608375667
 30
0.0
 10
135.4546087986016
 20
139.2855549781994
 30
0.0
 10
135.4546087986016
 20
139.2855549781994
 30
0.0
 10
135.4546087986016
 20
139.5253336239728
 30
0.0
 10
135.4546087986016
 20
139.5253336239728
 30
0.0
  0
HATCH
  5
2F4
330
2E8
100
AcDbEntity
  8
Sichtbar schmal (ISO)
 62
    18
420
        0
440
 33554687
100
AcDbHatch
 10
0.0
 20
0.0
 30
0.0
210
0.0
220
0.0
230
1.0
  2
SOLID
 70
     1
 71
     1
 91
        2
 92
        1
 93
        1
 72
     4
 94
        3
 73
     0
 74
     0
 95
       17
 96
       13
 40
0.0
 40
0.0
 40
0.0
 40
0.0
 40
1.0
 40
1.0
 40
1.0
 40
2.0
 40
2.0
 40
2.0
 40
3.0
 40
3.0
 40
3.0
 40
4.0
 40
4.0
 40
4.0
 40
4.0
 10
134.6053927614875
 20
140.3008246177025
 10
134.3601019629377
 20
140.3008246177025
 10
134.1485731001434
 20
140.1571641359676
 10
134.1485731001434
 20
139.8894802167637
 10
134.1485731001434
 20
139.604226310585
 10
134.377327440364
 20
139.4970838409937
 10
134.6226182389138
 20
139.4970838409937
 10
134.8396592544845
 20
139.4970838409937
 10
135.0456759645024
 20
139.6607258765431
 10
135.0456759645024
 20
139.8922362931519
 10
135.0456759645024
 20
140.1430392444781
 10
134.8424153308727
 20
140.3008246177025
 10
134.6053927614875
 20
140.3008246177025
 97
        0
 97
        1
330
2F2
 92
        1
 93
        1
 72
     4
 94
        3
 73
     0
 74
     0
 95
       35
 96
       31
 40
0.0
 40
0.0
 40
0.0
 40
0.0
 40
1.0
 40
1.0
 40
1.0
 40
2.0
 40
2.0
 40
2.0
 40
3.0
 40
3.0
 40
3.0
 40
4.0
 40
4.0
 40
4.0
 40
5.0
 40
5.0
 40
5.0
 40
6.0
 40
6.0
 40
6.0
 40
7.0
 40
7.0
 40
7.0
 40
8.0
 40
8.0
 40
8.0
 40
9.0
 40
9.0
 40
9.0
 40
10.0
 40
10.0
 40
10.0
 40
10.0
 10
135.4546087986016
 20
139.5253336239728
 10
135.6492566935182
 20
139.5449706682387
 10
135.7591552394977
 20
139.7003444746235
 10
135.7591552394977
 20
139.8922362931519
 10
135.7591552394977
 20
140.1854139189467
 10
135.5052517022348
 20
140.3290744006816
 10
134.9864203221562
 20
140.3435438017196
 10
134.9864203221562
 20
140.3435438017196
 10
134.9809081693797
 20
140.3376871393947
 10
134.9809081693797
 20
140.3376871393947
 10
135.149717848157
 20
140.2474256376812
 10
135.2572048272968
 20
140.0700032201908
 10
135.2572048272968
 20
139.8750108157257
 10
135.2572048272968
 20
139.4660779816265
 10
134.9836642457679
 20
139.2431803037308
 10
134.5888563031583
 20
139.2431803037308
 10
134.2050726661015
 20
139.2431803037308
 10
133.9370442373491
 20
139.5139648088715
 10
133.9370442373491
 20
139.9005045223165
 10
133.9370442373491
 20
140.272919344272
 10
134.1375487945906
 20
140.5860785238813
 10
134.8934027440544
 20
140.5860785238813
 10
135.5844888983955
 20
140.5860785238813
 10
135.970684102292
 20
140.3773057374751
 10
135.970684102292
 20
139.8922362931519
 10
135.970684102292
 20
139.55633948334
 10
135.7987738375781
 20
139.3165608375667
 10
135.4546087986016
 20
139.2855549781994
 10
135.4546087986016
 20
139.2855549781994
 10
135.4546087986016
 20
139.5253336239728
 10
135.4546087986016
 20
139.5253336239728
 97
        0
 97
        1
330
2F3
 75
     2
 76
     1
 98
        1
 10
0.0
 20
0.0
450
        0
451
        0
460
0.0
461
0.0
452
        0
462
0.0
453
        0
470

  0
SPLINE
  5
2F5
330
2E8
100
AcDbEntity
  8
Sichtbar schmal (ISO)
100
AcDbSpline
210
0.0
220
0.0
230
1.0
 70
     9
 71
     3
 72
    53
 73
    49
 74
     0
 42
0.0000000001
 43
0.0000000001
 40
0.0
 40
0.0
 40
0.0
 40
0.0
 40
1.0
 40
1.0
 40
1.0
 40
2.0
 40
2.0
 40
2.0
 40
3.0
 40
3.0
 40
3.0
 40
4.0
 40
4.0
 40
4.0
 40
5.0
 40
5.0
 40
5.0
 40
6.0
 40
6.0
 40
6.0
 40
7.0
 40
7.0
 40
7.0
 40
8.0
 40
8.0
 40
8.0
 40
9.0
 40
9.0
 40
9.0
 40
10.0
 40
10.0
 40
10.0
 40
11.0
 40
11.0
 40
11.0
 40
12.0
 40
12.0
 40
12.0
 40
13.0
 40
13.0
 40
13.0
 40
14.0
 40
14.0
 40
14.0
 40
15.0
 40
15.0
 40
15.0
 40
16.0
 40
16.0
 40
16.0
 40
16.0
 10
135.3981092326435
 20
141.0553005289723
 30
0.0
 10
135.6041259426615
 20
141.0690809109133
 30
0.0
 10
135.7591552394977
 20
141.2358235323994
 30
0.0
 10
135.7591552394977
 20
141.4756021781728
 30
0.0
 10
135.7591552394977
 20
141.7036674992963
 30
0.0
 10
135.6010253567247
 20
141.8986599037614
 30
0.0
 10
135.2854546102759
 20
141.8986599037614
 30
0.0
 10
135.0229383342998
 20
141.8986599037614
 30
0.0
 10
134.8313910253199
 20
141.7181369003343
 30
0.0
 10
134.8313910253199
 20
141.4473523951937
 30
0.0
 10
134.8313910253199
 20
141.2919785888089
 30
0.0
 10
134.9071831259954
 20
141.1679551513399
 30
0.0
 10
135.0201822579116
 20
141.0749375732382
 30
0.0
 10
135.0201822579116
 20
141.0749375732382
 30
0.0
 10
135.0091579523588
 20
140.8689208632202
 30
0.0
 10
135.0091579523588
 20
140.8689208632202
 30
0.0
 10
135.0091579523588
 20
140.8689208632202
 30
0.0
 10
133.9708061731045
 20
141.0553005289723
 30
0.0
 10
133.9708061731045
 20
141.0553005289723
 30
0.0
 10
133.9708061731045
 20
141.0553005289723
 30
0.0
 10
133.9708061731045
 20
142.0423203854964
 30
0.0
 10
133.9708061731045
 20
142.0423203854964
 30
0.0
 10
133.9708061731045
 20
142.0423203854964
 30
0.0
 10
134.1823350358988
 20
142.0423203854964
 30
0.0
 10
134.1823350358988
 20
142.0423203854964
 30
0.0
 10
134.1823350358988
 20
142.0423203854964
 30
0.0
 10
134.1823350358988
 20
141.2358235323994
 30
0.0
 10
134.1823350358988
 20
141.2358235323994
 30
0.0
 10
134.1823350358988
 20
141.2358235323994
 30
0.0
 10
134.7576659819356
 20
141.1283365532596
 30
0.0
 10
134.7576659819356
 20
141.1283365532596
 30
0.0
 10
134.7576659819356
 20
141.1283365532596
 30
0.0
 10
134.7635226442605
 20
141.1341932155845
 30
0.0
 10
134.7635226442605
 20
141.1341932155845
 30
0.0
 10
134.6646484038338
 20
141.2213541313613
 30
0.0
 10
134.6198621625256
 20
141.3708712754211
 30
0.0
 10
134.6198621625256
 20
141.50660803754
 30
0.0
 10
134.6198621625256
 20
141.8617973820692
 30
0.0
 10
134.8451714072609
 20
142.1522189314758
 30
0.0
 10
135.3050916545418
 20
142.1522189314758
 30
0.0
 10
135.6437445407418
 20
142.1522189314758
 30
0.0
 10
135.970684102292
 20
141.9182969480274
 30
0.0
 10
135.970684102292
 20
141.4528645479701
 30
0.0
 10
135.970684102292
 20
141.1059434326054
 30
0.0
 10
135.7591552394977
 20
140.8237901123635
 30
0.0
 10
135.3981092326435
 20
140.8155218831989
 30
0.0
 10
135.3981092326435
 20
140.8155218831989
 30
0.0
 10
135.3981092326435
 20
141.0553005289723
 30
0.0
 10
135.3981092326435
 20
141.0553005289723
 30
0.0
  0
HATCH
  5
2F6
330
2E8
100
AcDbEntity
  8
Sichtbar schmal (ISO)
 62
    18
420
        0
440
 33554687
100
AcDbHatch
 10
0.0
 20
0.0
 30
0.0
210
0.0
220
0.0
230
1.0
  2
SOLID
 70
     1
 71
     1
 91
        1
 92
        1
 93
        1
 72
     4
 94
        3
 73
     0
 74
     0
 95
       53
 96
       49
 40
0.0
 40
0.0
 40
0.0
 40
0.0
 40
1.0
 40
1.0
 40
1.0
 40
2.0
 40
2.0
 40
2.0
 40
3.0
 40
3.0
 40
3.0
 40
4.0
 40
4.0
 40
4.0
 40
5.0
 40
5.0
 40
5.0
 40
6.0
 40
6.0
 40
6.0
 40
7.0
 40
7.0
 40
7.0
 40
8.0
 40
8.0
 40
8.0
 40
9.0
 40
9.0
 40
9.0
 40
10.0
 40
10.0
 40
10.0
 40
11.0
 40
11.0
 40
11.0
 40
12.0
 40
12.0
 40
12.0
 40
13.0
 40
13.0
 40
13.0
 40
14.0
 40
14.0
 40
14.0
 40
15.0
 40
15.0
 40
15.0
 40
16.0
 40
16.0
 40
16.0
 40
16.0
 10
135.3981092326435
 20
141.0553005289723
 10
135.6041259426615
 20
141.0690809109133
 10
135.7591552394977
 20
141.2358235323994
 10
135.7591552394977
 20
141.4756021781728
 10
135.7591552394977
 20
141.7036674992963
 10
135.6010253567247
 20
141.8986599037614
 10
135.2854546102759
 20
141.8986599037614
 10
135.0229383342998
 20
141.8986599037614
 10
134.8313910253199
 20
141.7181369003343
 10
134.8313910253199
 20
141.4473523951937
 10
134.8313910253199
 20
141.2919785888089
 10
134.9071831259954
 20
141.1679551513399
 10
135.0201822579116
 20
141.0749375732382
 10
135.0201822579116
 20
141.0749375732382
 10
135.0091579523588
 20
140.8689208632202
 10
135.0091579523588
 20
140.8689208632202
 10
135.0091579523588
 20
140.8689208632202
 10
133.9708061731045
 20
141.0553005289723
 10
133.9708061731045
 20
141.0553005289723
 10
133.9708061731045
 20
141.0553005289723
 10
133.9708061731045
 20
142.0423203854964
 10
133.9708061731045
 20
142.0423203854964
 10
133.9708061731045
 20
142.0423203854964
 10
134.1823350358988
 20
142.0423203854964
 10
134.1823350358988
 20
142.0423203854964
 10
134.1823350358988
 20
142.0423203854964
 10
134.1823350358988
 20
141.2358235323994
 10
134.1823350358988
 20
141.2358235323994
 10
134.1823350358988
 20
141.2358235323994
 10
134.7576659819356
 20
141.1283365532596
 10
134.7576659819356
 20
141.1283365532596
 10
134.7576659819356
 20
141.1283365532596
 10
134.7635226442605
 20
141.1341932155845
 10
134.7635226442605
 20
141.1341932155845
 10
134.6646484038338
 20
141.2213541313613
 10
134.6198621625256
 20
141.3708712754211
 10
134.6198621625256
 20
141.50660803754
 10
134.6198621625256
 20
141.8617973820692
 10
134.8451714072609
 20
142.1522189314758
 10
135.3050916545418
 20
142.1522189314758
 10
135.6437445407418
 20
142.1522189314758
 10
135.970684102292
 20
141.9182969480274
 10
135.970684102292
 20
141.4528645479701
 10
135.970684102292
 20
141.1059434326054
 10
135.7591552394977
 20
140.8237901123635
 10
135.3981092326435
 20
140.8155218831989
 10
135.3981092326435
 20
140.8155218831989
 10
135.3981092326435
 20
141.0553005289723
 10
135.3981092326435
 20
141.0553005289723
 97
        0
 97
        1
330
2F5
 75
     2
 76
     1
 98
        1
 10
0.0
 20
0.0
450
        0
451
        0
460
0.0
461
0.0
452
        0
462
0.0
453
        0
470

  0
ENDBLK
  5
2EB
330
2E8
100
AcDbEntity
  8
0
100
AcDbBlockEnd
  0
BLOCK
  5
2F9
330
2F7
100
AcDbEntity
  8
0
100
AcDbBlockBegin
  2
Block_39
 70
     0
 10
0.0
 20
0.0
 30
0.0
  3
Block_39
  1

  0
INSERT
  5
2FC
330
2F7
100
AcDbEntity
  8
Sichtbar schmal (ISO)
100
AcDbBlockReference
  2
Block_40
 10
0.0
 20
0.0
 30
0.0
  0
ENDBLK
  5
2FA
330
2F7
100
AcDbEntity
  8
0
100
AcDbBlockEnd
  0
BLOCK
  5
2FD
330
2FB
100
AcDbEntity
  8
0
100
AcDbBlockBegin
  2
Block_40
 70
     0
 10
0.0
 20
0.0
 30
0.0
  3
Block_40
  1

  0
SPLINE
  5
2FF
330
2FB
100
AcDbEntity
  8
Sichtbar schmal (ISO)
100
AcDbSpline
210
0.0
220
0.0
230
1.0
 70
     9
 71
     3
 72
    26
 73
    22
 74
     0
 42
0.0000000001
 43
0.0000000001
 40
0.0
 40
0.0
 40
0.0
 40
0.0
 40
1.0
 40
1.0
 40
1.0
 40
2.0
 40
2.0
 40
2.0
 40
3.0
 40
3.0
 40
3.0
 40
4.0
 40
4.0
 40
4.0
 40
5.0
 40
5.0
 40
5.0
 40
6.0
 40
6.0
 40
6.0
 40
7.0
 40
7.0
 40
7.0
 40
7.0
 10
142.7892170866985
 20
136.5522162202022
 30
0.0
 10
142.8074760927704
 20
136.605270690675
 30
0.0
 10
142.8167778505805
 20
136.6593586897935
 30
0.0
 10
142.8167778505805
 20
136.7137911984604
 30
0.0
 10
142.8167778505805
 20
136.8894910682082
 30
0.0
 10
142.7347845780316
 20
137.0142035247742
 30
0.0
 10
142.5714870520307
 20
137.08758405861
 30
0.0
 10
142.4729573211526
 20
137.1320257903697
 30
0.0
 10
142.3599581892364
 20
137.1544189110239
 30
0.0
 10
142.2324896562821
 20
137.1544189110239
 30
0.0
 10
142.1498073646361
 20
137.1544189110239
 30
0.0
 10
142.0784938880915
 20
137.1471842105049
 30
0.0
 10
142.0188937361966
 20
137.1334038285638
 30
0.0
 10
141.9865098386353
 20
137.1258246184963
 30
0.0
 10
141.9489582978461
 20
137.1130777652009
 30
0.0
 10
141.9058946042805
 20
137.0955077782261
 30
0.0
 10
141.9058946042805
 20
137.0955077782261
 30
0.0
 10
142.6841416743984
 20
136.404421623885
 30
0.0
 10
142.6841416743984
 20
136.404421623885
 30
0.0
 10
142.7361626162257
 20
136.4498968842903
 30
0.0
 10
142.7713025901752
 20
136.4995062592779
 30
0.0
 10
142.7892170866985
 20
136.5522162202022
 30
0.0
  0
SPLINE
  5
300
330
2FB
100
AcDbEntity
  8
Sichtbar schmal (ISO)
100
AcDbSpline
210
0.0
220
0.0
230
1.0
 70
    11
 71
     3
 72
    26
 73
    22
 74
     0
 42
0.0000000001
 43
0.0000000001
 40
0.0
 40
0.0
 40
0.0
 40
0.0
 40
1.0
 40
1.0
 40
1.0
 40
2.0
 40
2.0
 40
2.0
 40
3.0
 40
3.0
 40
3.0
 40
4.0
 40
4.0
 40
4.0
 40
5.0
 40
5.0
 40
5.0
 40
6.0
 40
6.0
 40
6.0
 40
7.0
 40
7.0
 40
7.0
 40
7.0
 10
141.7153808239461
 20
136.9160183034446
 30
0.0
 10
141.6888535887097
 20
136.8584852088409
 30
0.0
 10
141.6757622258657
 20
136.7944064328153
 30
0.0
 10
141.6757622258657
 20
136.7237819753676
 30
0.0
 10
141.6757622258657
 20
136.5890787418944
 30
0.0
 10
141.7315727727268
 20
136.481247253206
 30
0.0
 10
141.8435383759975
 20
136.3999429997542
 30
0.0
 10
141.9551594697195
 20
136.3186387463023
 30
0.0
 10
142.0988199514544
 20
136.2779866195763
 30
0.0
 10
142.2745198212022
 20
136.2779866195763
 30
0.0
 10
142.3410101640675
 20
136.2779866195763
 30
0.0
 10
142.4043999209961
 20
136.2852213200953
 30
0.0
 10
142.4650336015365
 20
136.2993462115849
 30
0.0
 10
142.4991400468405
 20
136.307958950298
 30
0.0
 10
142.5422037404061
 20
136.321739332239
 30
0.0
 10
142.5949137013304
 20
136.3417208860534
 30
0.0
 10
142.5949137013304
 20
136.3417208860534
 30
0.0
 10
141.8128770261787
 20
137.0414197791077
 30
0.0
 10
141.8128770261787
 20
137.0414197791077
 30
0.0
 10
141.7742919567439
 20
137.0155815629683
 30
0.0
 10
141.7419080591826
 20
136.9735513980482
 30
0.0
 10
141.7153808239461
 20
136.9160183034446
 30
0.0
  0
SPLINE
  5
301
330
2FB
100
AcDbEntity
  8
Sichtbar schmal (ISO)
100
AcDbSpline
210
0.0
220
0.0
230
1.0
 70
    11
 71
     3
 72
    59
 73
    55
 74
     0
 42
0.0000000001
 43
0.0000000001
 40
0.0
 40
0.0
 40
0.0
 40
0.0
 40
1.0
 40
1.0
 40
1.0
 40
2.0
 40
2.0
 40
2.0
 40
3.0
 40
3.0
 40
3.0
 40
4.0
 40
4.0
 40
4.0
 40
5.0
 40
5.0
 40
5.0
 40
6.0
 40
6.0
 40
6.0
 40
7.0
 40
7.0
 40
7.0
 40
8.0
 40
8.0
 40
8.0
 40
9.0
 40
9.0
 40
9.0
 40
10.0
 40
10.0
 40
10.0
 40
11.0
 40
11.0
 40
11.0
 40
12.0
 40
12.0
 40
12.0
 40
13.0
 40
13.0
 40
13.0
 40
14.0
 40
14.0
 40
14.0
 40
15.0
 40
15.0
 40
15.0
 40
16.0
 40
16.0
 40
16.0
 40
17.0
 40
17.0
 40
17.0
 40
18.0
 40
18.0
 40
18.0
 40
18.0
 10
142.9711181283197
 20
135.9941107515917
 30
0.0
 10
142.9711181283197
 20
135.9941107515917
 30
0.0
 10
142.7857719912133
 20
136.1708441499851
 30
0.0
 10
142.7857719912133
 20
136.1708441499851
 30
0.0
 10
142.7179036101538
 20
136.1246798704827
 30
0.0
 10
142.6414224903813
 20
136.0895398965332
 30
0.0
 10
142.5570176509927
 20
136.0647352090394
 30
0.0
 10
142.4726128116041
 20
136.039586011997
 30
0.0
 10
142.3723605329833
 20
136.0271836682501
 30
0.0
 10
142.2569498342274
 20
136.0271836682501
 30
0.0
 10
142.0485215573698
 20
136.0271836682501
 30
0.0
 10
141.8631754202634
 20
136.0857502914994
 30
0.0
 10
141.7009114229081
 20
136.2025390284493
 30
0.0
 10
141.5389919351014
 20
136.3196722749478
 30
0.0
 10
141.458032191198
 20
136.4902045014677
 30
0.0
 10
141.458032191198
 20
136.7141357080089
 30
0.0
 10
141.458032191198
 20
136.8305799354104
 30
0.0
 10
141.4787027641095
 20
136.9328992713223
 30
0.0
 10
141.520388419481
 20
137.0207492061962
 30
0.0
 10
141.5448485974263
 20
137.0724256384749
 30
0.0
 10
141.5844671955067
 20
137.1316812808212
 30
0.0
 10
141.6395887232706
 20
137.1981716236865
 30
0.0
 10
141.6395887232706
 20
137.1981716236865
 30
0.0
 10
141.4456298474511
 20
137.3738714934343
 30
0.0
 10
141.4456298474511
 20
137.3738714934343
 30
0.0
 10
141.4456298474511
 20
137.3738714934343
 30
0.0
 10
141.5159097953502
 20
137.445184969979
 30
0.0
 10
141.5159097953502
 20
137.445184969979
 30
0.0
 10
141.5159097953502
 20
137.445184969979
 30
0.0
 10
141.713313766655
 20
137.2681070620371
 30
0.0
 10
141.713313766655
 20
137.2681070620371
 30
0.0
 10
141.7977186060436
 20
137.3263291757378
 30
0.0
 10
141.8945257891791
 20
137.3676703215608
 30
0.0
 10
142.0040798256101
 20
137.3924750090546
 30
0.0
 10
142.0747042830577
 20
137.4083224482868
 30
0.0
 10
142.1453287405053
 20
137.4162461679029
 30
0.0
 10
142.2159531979529
 20
137.4162461679029
 30
0.0
 10
142.4529757673381
 20
137.4162461679029
 30
0.0
 10
142.6483126813518
 20
137.3518228823287
 30
0.0
 10
142.8023084495425
 20
137.2229763111803
 30
0.0
 10
142.9563042177331
 20
137.094129740032
 30
0.0
 10
143.0331298470542
 20
136.9225639848666
 30
0.0
 10
143.0331298470542
 20
136.708279045684
 30
0.0
 10
143.0331298470542
 20
136.6063042193206
 30
0.0
 10
143.0183159364676
 20
136.51535369851
 30
0.0
 10
142.9883436057459
 20
136.4357719928008
 30
0.0
 10
142.9587157845728
 20
136.3561902870915
 30
0.0
 10
142.9180636578469
 20
136.2914224919688
 30
0.0
 10
142.8667317351166
 20
136.2425021360782
 30
0.0
 10
142.8667317351166
 20
136.2425021360782
 30
0.0
 10
143.0427761144129
 20
136.0754150050436
 30
0.0
 10
143.0427761144129
 20
136.0754150050436
 30
0.0
 10
143.0427761144129
 20
136.0754150050436
 30
0.0
 10
142.9711181283197
 20
135.9941107515917
 30
0.0
 10
142.9711181283197
 20
135.9941107515917
 30
0.0
  0
HATCH
  5
302
330
2FB
100
AcDbEntity
  8
Sichtbar schmal (ISO)
 62
   250
420
  2039067
440
 33554687
100
AcDbHatch
 10
0.0
 20
0.0
 30
0.0
210
0.0
220
0.0
230
1.0
  2
SOLID
 70
     1
 71
     1
 91
        3
 92
        1
 93
        1
 72
     4
 94
        3
 73
     0
 74
     0
 95
       26
 96
       22
 40
0.0
 40
0.0
 40
0.0
 40
0.0
 40
1.0
 40
1.0
 40
1.0
 40
2.0
 40
2.0
 40
2.0
 40
3.0
 40
3.0
 40
3.0
 40
4.0
 40
4.0
 40
4.0
 40
5.0
 40
5.0
 40
5.0
 40
6.0
 40
6.0
 40
6.0
 40
7.0
 40
7.0
 40
7.0
 40
7.0
 10
142.7892170866985
 20
136.5522162202022
 10
142.8074760927704
 20
136.605270690675
 10
142.8167778505805
 20
136.6593586897935
 10
142.8167778505805
 20
136.7137911984604
 10
142.8167778505805
 20
136.8894910682082
 10
142.7347845780316
 20
137.0142035247742
 10
142.5714870520307
 20
137.08758405861
 10
142.4729573211526
 20
137.1320257903697
 10
142.3599581892364
 20
137.1544189110239
 10
142.2324896562821
 20
137.1544189110239
 10
142.1498073646361
 20
137.1544189110239
 10
142.0784938880915
 20
137.1471842105049
 10
142.0188937361966
 20
137.1334038285638
 10
141.9865098386353
 20
137.1258246184963
 10
141.9489582978461
 20
137.1130777652009
 10
141.9058946042805
 20
137.0955077782261
 10
141.9058946042805
 20
137.0955077782261
 10
142.6841416743984
 20
136.404421623885
 10
142.6841416743984
 20
136.404421623885
 10
142.7361626162257
 20
136.4498968842903
 10
142.7713025901752
 20
136.4995062592779
 10
142.7892170866985
 20
136.5522162202022
 97
        0
 97
        1
330
2FF
 92
        1
 93
        1
 72
     4
 94
        3
 73
     0
 74
     0
 95
       26
 96
       22
 40
0.0
 40
0.0
 40
0.0
 40
0.0
 40
1.0
 40
1.0
 40
1.0
 40
2.0
 40
2.0
 40
2.0
 40
3.0
 40
3.0
 40
3.0
 40
4.0
 40
4.0
 40
4.0
 40
5.0
 40
5.0
 40
5.0
 40
6.0
 40
6.0
 40
6.0
 40
7.0
 40
7.0
 40
7.0
 40
7.0
 10
141.7153808239461
 20
136.9160183034446
 10
141.6888535887097
 20
136.8584852088409
 10
141.6757622258657
 20
136.7944064328153
 10
141.6757622258657
 20
136.7237819753676
 10
141.6757622258657
 20
136.5890787418944
 10
141.7315727727268
 20
136.481247253206
 10
141.8435383759975
 20
136.3999429997542
 10
141.9551594697195
 20
136.3186387463023
 10
142.0988199514544
 20
136.2779866195763
 10
142.2745198212022
 20
136.2779866195763
 10
142.3410101640675
 20
136.2779866195763
 10
142.4043999209961
 20
136.2852213200953
 10
142.4650336015365
 20
136.2993462115849
 10
142.4991400468405
 20
136.307958950298
 10
142.5422037404061
 20
136.321739332239
 10
142.5949137013304
 20
136.3417208860534
 10
142.5949137013304
 20
136.3417208860534
 10
141.8128770261787
 20
137.0414197791077
 10
141.8128770261787
 20
137.0414197791077
 10
141.7742919567439
 20
137.0155815629683
 10
141.7419080591826
 20
136.9735513980482
 10
141.7153808239461
 20
136.9160183034446
 97
        0
 97
        1
330
300
 92
        1
 93
        1
 72
     4
 94
        3
 73
     0
 74
     0
 95
       59
 96
       55
 40
0.0
 40
0.0
 40
0.0
 40
0.0
 40
1.0
 40
1.0
 40
1.0
 40
2.0
 40
2.0
 40
2.0
 40
3.0
 40
3.0
 40
3.0
 40
4.0
 40
4.0
 40
4.0
 40
5.0
 40
5.0
 40
5.0
 40
6.0
 40
6.0
 40
6.0
 40
7.0
 40
7.0
 40
7.0
 40
8.0
 40
8.0
 40
8.0
 40
9.0
 40
9.0
 40
9.0
 40
10.0
 40
10.0
 40
10.0
 40
11.0
 40
11.0
 40
11.0
 40
12.0
 40
12.0
 40
12.0
 40
13.0
 40
13.0
 40
13.0
 40
14.0
 40
14.0
 40
14.0
 40
15.0
 40
15.0
 40
15.0
 40
16.0
 40
16.0
 40
16.0
 40
17.0
 40
17.0
 40
17.0
 40
18.0
 40
18.0
 40
18.0
 40
18.0
 10
142.9711181283197
 20
135.9941107515917
 10
142.9711181283197
 20
135.9941107515917
 10
142.7857719912133
 20
136.1708441499851
 10
142.7857719912133
 20
136.1708441499851
 10
142.7179036101538
 20
136.1246798704827
 10
142.6414224903813
 20
136.0895398965332
 10
142.5570176509927
 20
136.0647352090394
 10
142.4726128116041
 20
136.039586011997
 10
142.3723605329833
 20
136.0271836682501
 10
142.2569498342274
 20
136.0271836682501
 10
142.0485215573698
 20
136.0271836682501
 10
141.8631754202634
 20
136.0857502914994
 10
141.7009114229081
 20
136.2025390284493
 10
141.5389919351014
 20
136.3196722749478
 10
141.458032191198
 20
136.4902045014677
 10
141.458032191198
 20
136.7141357080089
 10
141.458032191198
 20
136.8305799354104
 10
141.4787027641095
 20
136.9328992713223
 10
141.520388419481
 20
137.0207492061962
 10
141.5448485974263
 20
137.0724256384749
 10
141.5844671955067
 20
137.1316812808212
 10
141.6395887232706
 20
137.1981716236865
 10
141.6395887232706
 20
137.1981716236865
 10
141.4456298474511
 20
137.3738714934343
 10
141.4456298474511
 20
137.3738714934343
 10
141.4456298474511
 20
137.3738714934343
 10
141.5159097953502
 20
137.445184969979
 10
141.5159097953502
 20
137.445184969979
 10
141.5159097953502
 20
137.445184969979
 10
141.713313766655
 20
137.2681070620371
 10
141.713313766655
 20
137.2681070620371
 10
141.7977186060436
 20
137.3263291757378
 10
141.8945257891791
 20
137.3676703215608
 10
142.0040798256101
 20
137.3924750090546
 10
142.0747042830577
 20
137.4083224482868
 10
142.1453287405053
 20
137.4162461679029
 10
142.2159531979529
 20
137.4162461679029
 10
142.4529757673381
 20
137.4162461679029
 10
142.6483126813518
 20
137.3518228823287
 10
142.8023084495425
 20
137.2229763111803
 10
142.9563042177331
 20
137.094129740032
 10
143.0331298470542
 20
136.9225639848666
 10
143.0331298470542
 20
136.708279045684
 10
143.0331298470542
 20
136.6063042193206
 10
143.0183159364676
 20
136.51535369851
 10
142.9883436057459
 20
136.4357719928008
 10
142.9587157845728
 20
136.3561902870915
 10
142.9180636578469
 20
136.2914224919688
 10
142.8667317351166
 20
136.2425021360782
 10
142.8667317351166
 20
136.2425021360782
 10
143.0427761144129
 20
136.0754150050436
 10
143.0427761144129
 20
136.0754150050436
 10
143.0427761144129
 20
136.0754150050436
 10
142.9711181283197
 20
135.9941107515917
 10
142.9711181283197
 20
135.9941107515917
 97
        0
 97
        1
330
301
 75
     2
 76
     1
 98
        1
 10
0.0
 20
0.0
450
        0
451
        0
460
0.0
461
0.0
452
        0
462
0.0
453
        0
470

  0
SPLINE
  5
303
330
2FB
100
AcDbEntity
  8
Sichtbar schmal (ISO)
100
AcDbSpline
210
0.0
220
0.0
230
1.0
 70
     9
 71
     3
 72
    62
 73
    58
 74
     0
 42
0.0000000001
 43
0.0000000001
 40
0.0
 40
0.0
 40
0.0
 40
0.0
 40
1.0
 40
1.0
 40
1.0
 40
2.0
 40
2.0
 40
2.0
 40
3.0
 40
3.0
 40
3.0
 40
4.0
 40
4.0
 40
4.0
 40
5.0
 40
5.0
 40
5.0
 40
6.0
 40
6.0
 40
6.0
 40
7.0
 40
7.0
 40
7.0
 40
8.0
 40
8.0
 40
8.0
 40
9.0
 40
9.0
 40
9.0
 40
10.0
 40
10.0
 40
10.0
 40
11.0
 40
11.0
 40
11.0
 40
12.0
 40
12.0
 40
12.0
 40
13.0
 40
13.0
 40
13.0
 40
14.0
 40
14.0
 40
14.0
 40
15.0
 40
15.0
 40
15.0
 40
16.0
 40
16.0
 40
16.0
 40
17.0
 40
17.0
 40
17.0
 40
18.0
 40
18.0
 40
18.0
 40
19.0
 40
19.0
 40
19.0
 40
19.0
 10
142.3589246605908
 20
137.9154405037156
 30
0.0
 10
142.6183403506301
 20
137.9240532424287
 30
0.0
 10
142.7988633540572
 20
138.0677137241636
 30
0.0
 10
142.7988633540572
 20
138.341598815241
 30
0.0
 10
142.7988633540572
 20
138.5755207986894
 30
0.0
 10
142.6521022863856
 20
138.776025355931
 30
0.0
 10
142.4123236406122
 20
138.776025355931
 30
0.0
 10
142.161520689286
 20
138.776025355931
 30
0.0
 10
142.0288845131039
 20
138.5868896137908
 30
0.0
 10
142.0288845131039
 20
138.3502115539541
 30
0.0
 10
142.0288845131039
 20
138.2992241407724
 30
0.0
 10
142.0316405894921
 20
138.2513373135274
 30
0.0
 10
142.0371527422685
 20
138.2062065626707
 30
0.0
 10
142.0371527422685
 20
138.2062065626707
 30
0.0
 10
141.8342366181873
 20
138.2062065626707
 30
0.0
 10
141.8342366181873
 20
138.2062065626707
 30
0.0
 10
141.8369926945755
 20
138.2258436069366
 30
0.0
 10
141.8369926945755
 20
138.2427245748143
 30
0.0
 10
141.8369926945755
 20
138.2599500522406
 30
0.0
 10
141.8369926945755
 20
138.2599500522406
 30
0.0
 10
141.8369926945755
 20
138.3105929558737
 30
0.0
 10
141.8369926945755
 20
138.3105929558737
 30
0.0
 10
141.8369926945755
 20
138.5135090799549
 30
0.0
 10
141.7243380722078
 20
138.6912760069938
 30
0.0
 10
141.5097086234767
 20
138.6912760069938
 30
0.0
 10
141.2981797606824
 20
138.6912760069938
 30
0.0
 10
141.1882812147029
 20
138.5390027865458
 30
0.0
 10
141.1882812147029
 20
138.3357421529161
 30
0.0
 10
141.1882812147029
 20
138.0763264628767
 30
0.0
 10
141.3884412623959
 20
137.9581596877327
 30
0.0
 10
141.6227077553929
 20
137.9581596877327
 30
0.0
 10
141.6227077553929
 20
137.9581596877327
 30
0.0
 10
141.6227077553929
 20
137.7183810419593
 30
0.0
 10
141.6227077553929
 20
137.7183810419593
 30
0.0
 10
141.2416801947243
 20
137.7321614239003
 30
0.0
 10
140.9767523519086
 20
137.93542205753
 30
0.0
 10
140.9767523519086
 20
138.3357421529161
 30
0.0
 10
140.9767523519086
 20
138.6830077778292
 30
0.0
 10
141.1431504638461
 20
138.9451795442568
 30
0.0
 10
141.5124646998649
 20
138.9451795442568
 30
0.0
 10
141.6902316269038
 20
138.9451795442568
 30
0.0
 10
141.8397487709636
 20
138.8239121831759
 30
0.0
 10
141.9103732284113
 20
138.6685383767912
 30
0.0
 10
141.9103732284113
 20
138.6685383767912
 30
0.0
 10
141.9158853811877
 20
138.6685383767912
 30
0.0
 10
141.9158853811877
 20
138.6685383767912
 30
0.0
 10
141.9696288707576
 20
138.9141736848895
 30
0.0
 10
142.161520689286
 20
139.0295843836454
 30
0.0
 10
142.4012993350594
 20
139.0295843836454
 30
0.0
 10
142.7988633540572
 20
139.0295843836454
 30
0.0
 10
143.0103922168516
 20
138.7167697135847
 30
0.0
 10
143.0103922168516
 20
138.341598815241
 30
0.0
 10
143.0103922168516
 20
137.93542205753
 30
0.0
 10
142.7733696474664
 20
137.6673936287776
 30
0.0
 10
142.3589246605908
 20
137.6756618579422
 30
0.0
 10
142.3589246605908
 20
137.6756618579422
 30
0.0
 10
142.3589246605908
 20
137.9154405037156
 30
0.0
 10
142.3589246605908
 20
137.9154405037156
 30
0.0
  0
HATCH
  5
304
330
2FB
100
AcDbEntity
  8
Sichtbar schmal (ISO)
 62
    18
420
        0
440
 33554687
100
AcDbHatch
 10
0.0
 20
0.0
 30
0.0
210
0.0
220
0.0
230
1.0
  2
SOLID
 70
     1
 71
     1
 91
        1
 92
        1
 93
        1
 72
     4
 94
        3
 73
     0
 74
     0
 95
       62
 96
       58
 40
0.0
 40
0.0
 40
0.0
 40
0.0
 40
1.0
 40
1.0
 40
1.0
 40
2.0
 40
2.0
 40
2.0
 40
3.0
 40
3.0
 40
3.0
 40
4.0
 40
4.0
 40
4.0
 40
5.0
 40
5.0
 40
5.0
 40
6.0
 40
6.0
 40
6.0
 40
7.0
 40
7.0
 40
7.0
 40
8.0
 40
8.0
 40
8.0
 40
9.0
 40
9.0
 40
9.0
 40
10.0
 40
10.0
 40
10.0
 40
11.0
 40
11.0
 40
11.0
 40
12.0
 40
12.0
 40
12.0
 40
13.0
 40
13.0
 40
13.0
 40
14.0
 40
14.0
 40
14.0
 40
15.0
 40
15.0
 40
15.0
 40
16.0
 40
16.0
 40
16.0
 40
17.0
 40
17.0
 40
17.0
 40
18.0
 40
18.0
 40
18.0
 40
19.0
 40
19.0
 40
19.0
 40
19.0
 10
142.3589246605908
 20
137.9154405037156
 10
142.6183403506301
 20
137.9240532424287
 10
142.7988633540572
 20
138.0677137241636
 10
142.7988633540572
 20
138.341598815241
 10
142.7988633540572
 20
138.5755207986894
 10
142.6521022863856
 20
138.776025355931
 10
142.4123236406122
 20
138.776025355931
 10
142.161520689286
 20
138.776025355931
 10
142.0288845131039
 20
138.5868896137908
 10
142.0288845131039
 20
138.3502115539541
 10
142.0288845131039
 20
138.2992241407724
 10
142.0316405894921
 20
138.2513373135274
 10
142.0371527422685
 20
138.2062065626707
 10
142.0371527422685
 20
138.2062065626707
 10
141.8342366181873
 20
138.2062065626707
 10
141.8342366181873
 20
138.2062065626707
 10
141.8369926945755
 20
138.2258436069366
 10
141.8369926945755
 20
138.2427245748143
 10
141.8369926945755
 20
138.2599500522406
 10
141.8369926945755
 20
138.2599500522406
 10
141.8369926945755
 20
138.3105929558737
 10
141.8369926945755
 20
138.3105929558737
 10
141.8369926945755
 20
138.5135090799549
 10
141.7243380722078
 20
138.6912760069938
 10
141.5097086234767
 20
138.6912760069938
 10
141.2981797606824
 20
138.6912760069938
 10
141.1882812147029
 20
138.5390027865458
 10
141.1882812147029
 20
138.3357421529161
 10
141.1882812147029
 20
138.0763264628767
 10
141.3884412623959
 20
137.9581596877327
 10
141.6227077553929
 20
137.9581596877327
 10
141.6227077553929
 20
137.9581596877327
 10
141.6227077553929
 20
137.7183810419593
 10
141.6227077553929
 20
137.7183810419593
 10
141.2416801947243
 20
137.7321614239003
 10
140.9767523519086
 20
137.93542205753
 10
140.9767523519086
 20
138.3357421529161
 10
140.9767523519086
 20
138.6830077778292
 10
141.1431504638461
 20
138.9451795442568
 10
141.5124646998649
 20
138.9451795442568
 10
141.6902316269038
 20
138.9451795442568
 10
141.8397487709636
 20
138.8239121831759
 10
141.9103732284113
 20
138.6685383767912
 10
141.9103732284113
 20
138.6685383767912
 10
141.9158853811877
 20
138.6685383767912
 10
141.9158853811877
 20
138.6685383767912
 10
141.9696288707576
 20
138.9141736848895
 10
142.161520689286
 20
139.0295843836454
 10
142.4012993350594
 20
139.0295843836454
 10
142.7988633540572
 20
139.0295843836454
 10
143.0103922168516
 20
138.7167697135847
 10
143.0103922168516
 20
138.341598815241
 10
143.0103922168516
 20
137.93542205753
 10
142.7733696474664
 20
137.6673936287776
 10
142.3589246605908
 20
137.6756618579422
 10
142.3589246605908
 20
137.6756618579422
 10
142.3589246605908
 20
137.9154405037156
 10
142.3589246605908
 20
137.9154405037156
 97
        0
 97
        1
330
303
 75
     2
 76
     1
 98
        1
 10
0.0
 20
0.0
450
        0
451
        0
460
0.0
461
0.0
452
        0
462
0.0
453
        0
470

  0
SPLINE
  5
305
330
2FB
100
AcDbEntity
  8
Sichtbar schmal (ISO)
100
AcDbSpline
210
0.0
220
0.0
230
1.0
 70
     9
 71
     3
 72
    17
 73
    13
 74
     0
 42
0.0000000001
 43
0.0000000001
 40
0.0
 40
0.0
 40
0.0
 40
0.0
 40
1.0
 40
1.0
 40
1.0
 40
2.0
 40
2.0
 40
2.0
 40
3.0
 40
3.0
 40
3.0
 40
4.0
 40
4.0
 40
4.0
 40
4.0
 10
141.9920219914117
 20
140.3566351645636
 30
0.0
 10
141.6960882892287
 20
140.3566351645636
 30
0.0
 10
141.1882812147029
 20
140.3538790881754
 30
0.0
 10
141.1882812147029
 20
139.9446017445277
 30
0.0
 10
141.1882812147029
 20
139.5356689104286
 30
0.0
 10
141.6960882892287
 20
139.5329128340404
 30
0.0
 10
141.9920219914117
 20
139.5329128340404
 30
0.0
 10
142.2910562795314
 20
139.5329128340404
 30
0.0
 10
142.7988633540572
 20
139.5356689104286
 30
0.0
 10
142.7988633540572
 20
139.9446017445277
 30
0.0
 10
142.7988633540572
 20
140.3538790881754
 30
0.0
 10
142.2910562795314
 20
140.3566351645636
 30
0.0
 10
141.9920219914117
 20
140.3566351645636
 30
0.0
  0
SPLINE
  5
306
330
2FB
100
AcDbEntity
  8
Sichtbar schmal (ISO)
100
AcDbSpline
210
0.0
220
0.0
230
1.0
 70
     9
 71
     3
 72
    17
 73
    13
 74
     0
 42
0.0000000001
 43
0.0000000001
 40
0.0
 40
0.0
 40
0.0
 40
0.0
 40
1.0
 40
1.0
 40
1.0
 40
2.0
 40
2.0
 40
2.0
 40
3.0
 40
3.0
 40
3.0
 40
4.0
 40
4.0
 40
4.0
 40
4.0
 10
141.9951225773484
 20
139.2790092967775
 30
0.0
 10
141.5548393743335
 20
139.2790092967775
 30
0.0
 10
140.9767523519086
 20
139.3182833853093
 30
0.0
 10
140.9767523519086
 20
139.9446017445277
 30
0.0
 10
140.9767523519086
 20
140.5709201037462
 30
0.0
 10
141.5548393743335
 20
140.610194192278
 30
0.0
 10
141.9951225773484
 20
140.610194192278
 30
0.0
 10
142.4350612708148
 20
140.610194192278
 30
0.0
 10
143.0103922168516
 20
140.5709201037462
 30
0.0
 10
143.0103922168516
 20
139.9446017445277
 30
0.0
 10
143.0103922168516
 20
139.3182833853093
 30
0.0
 10
142.4350612708148
 20
139.2790092967775
 30
0.0
 10
141.9951225773484
 20
139.2790092967775
 30
0.0
  0
HATCH
  5
307
330
2FB
100
AcDbEntity
  8
Sichtbar schmal (ISO)
 62
    18
420
        0
440
 33554687
100
AcDbHatch
 10
0.0
 20
0.0
 30
0.0
210
0.0
220
0.0
230
1.0
  2
SOLID
 70
     1
 71
     1
 91
        2
 92
        1
 93
        1
 72
     4
 94
        3
 73
     0
 74
     0
 95
       17
 96
       13
 40
0.0
 40
0.0
 40
0.0
 40
0.0
 40
1.0
 40
1.0
 40
1.0
 40
2.0
 40
2.0
 40
2.0
 40
3.0
 40
3.0
 40
3.0
 40
4.0
 40
4.0
 40
4.0
 40
4.0
 10
141.9920219914117
 20
140.3566351645636
 10
141.6960882892287
 20
140.3566351645636
 10
141.1882812147029
 20
140.3538790881754
 10
141.1882812147029
 20
139.9446017445277
 10
141.1882812147029
 20
139.5356689104286
 10
141.6960882892287
 20
139.5329128340404
 10
141.9920219914117
 20
139.5329128340404
 10
142.2910562795314
 20
139.5329128340404
 10
142.7988633540572
 20
139.5356689104286
 10
142.7988633540572
 20
139.9446017445277
 10
142.7988633540572
 20
140.3538790881754
 10
142.2910562795314
 20
140.3566351645636
 10
141.9920219914117
 20
140.3566351645636
 97
        0
 97
        1
330
305
 92
        1
 93
        1
 72
     4
 94
        3
 73
     0
 74
     0
 95
       17
 96
       13
 40
0.0
 40
0.0
 40
0.0
 40
0.0
 40
1.0
 40
1.0
 40
1.0
 40
2.0
 40
2.0
 40
2.0
 40
3.0
 40
3.0
 40
3.0
 40
4.0
 40
4.0
 40
4.0
 40
4.0
 10
141.9951225773484
 20
139.2790092967775
 10
141.5548393743335
 20
139.2790092967775
 10
140.9767523519086
 20
139.3182833853093
 10
140.9767523519086
 20
139.9446017445277
 10
140.9767523519086
 20
140.5709201037462
 10
141.5548393743335
 20
140.610194192278
 10
141.9951225773484
 20
140.610194192278
 10
142.4350612708148
 20
140.610194192278
 10
143.0103922168516
 20
140.5709201037462
 10
143.0103922168516
 20
139.9446017445277
 10
143.0103922168516
 20
139.3182833853093
 10
142.4350612708148
 20
139.2790092967775
 10
141.9951225773484
 20
139.2790092967775
 97
        0
 97
        1
330
306
 75
     2
 76
     1
 98
        1
 10
0.0
 20
0.0
450
        0
451
        0
460
0.0
461
0.0
452
        0
462
0.0
453
        0
470

  0
SPLINE
  5
308
330
2FB
100
AcDbEntity
  8
Sichtbar schmal (ISO)
100
AcDbSpline
210
0.0
220
0.0
230
1.0
 70
     9
 71
     3
 72
    53
 73
    49
 74
     0
 42
0.0000000001
 43
0.0000000001
 40
0.0
 40
0.0
 40
0.0
 40
0.0
 40
1.0
 40
1.0
 40
1.0
 40
2.0
 40
2.0
 40
2.0
 40
3.0
 40
3.0
 40
3.0
 40
4.0
 40
4.0
 40
4.0
 40
5.0
 40
5.0
 40
5.0
 40
6.0
 40
6.0
 40
6.0
 40
7.0
 40
7.0
 40
7.0
 40
8.0
 40
8.0
 40
8.0
 40
9.0
 40
9.0
 40
9.0
 40
10.0
 40
10.0
 40
10.0
 40
11.0
 40
11.0
 40
11.0
 40
12.0
 40
12.0
 40
12.0
 40
13.0
 40
13.0
 40
13.0
 40
14.0
 40
14.0
 40
14.0
 40
15.0
 40
15.0
 40
15.0
 40
16.0
 40
16.0
 40
16.0
 40
16.0
 10
142.437817347203
 20
141.0683918918162
 30
0.0
 10
142.643834057221
 20
141.0821722737572
 30
0.0
 10
142.7988633540572
 20
141.2489148952433
 30
0.0
 10
142.7988633540572
 20
141.4886935410167
 30
0.0
 10
142.7988633540572
 20
141.7167588621403
 30
0.0
 10
142.6407334712842
 20
141.9117512666054
 30
0.0
 10
142.3248182152868
 20
141.9117512666054
 30
0.0
 10
142.0626464488593
 20
141.9117512666054
 30
0.0
 10
141.8707546303309
 20
141.7312282631783
 30
0.0
 10
141.8707546303309
 20
141.4604437580377
 30
0.0
 10
141.8707546303309
 20
141.3050699516529
 30
0.0
 10
141.9468912405549
 20
141.1810465141839
 30
0.0
 10
142.0598903724711
 20
141.0880289360821
 30
0.0
 10
142.0598903724711
 20
141.0880289360821
 30
0.0
 10
142.0485215573698
 20
140.8820122260642
 30
0.0
 10
142.0485215573698
 20
140.8820122260642
 30
0.0
 10
142.0485215573698
 20
140.8820122260642
 30
0.0
 10
141.010514287664
 20
141.0683918918162
 30
0.0
 10
141.010514287664
 20
141.0683918918162
 30
0.0
 10
141.010514287664
 20
141.0683918918162
 30
0.0
 10
141.010514287664
 20
142.0554117483403
 30
0.0
 10
141.010514287664
 20
142.0554117483403
 30
0.0
 10
141.010514287664
 20
142.0554117483403
 30
0.0
 10
141.2220431504584
 20
142.0554117483403
 30
0.0
 10
141.2220431504584
 20
142.0554117483403
 30
0.0
 10
141.2220431504584
 20
142.0554117483403
 30
0.0
 10
141.2220431504584
 20
141.2489148952433
 30
0.0
 10
141.2220431504584
 20
141.2489148952433
 30
0.0
 10
141.2220431504584
 20
141.2489148952433
 30
0.0
 10
141.7973740964951
 20
141.1414279161035
 30
0.0
 10
141.7973740964951
 20
141.1414279161035
 30
0.0
 10
141.7973740964951
 20
141.1414279161035
 30
0.0
 10
141.80323075882
 20
141.1472845784284
 30
0.0
 10
141.80323075882
 20
141.1472845784284
 30
0.0
 10
141.7043565183933
 20
141.2344454942053
 30
0.0
 10
141.6592257675366
 20
141.3839626382651
 30
0.0
 10
141.6592257675366
 20
141.5196994003839
 30
0.0
 10
141.6592257675366
 20
141.8748887449132
 30
0.0
 10
141.8848795218204
 20
142.1653102943198
 30
0.0
 10
142.3447997691013
 20
142.1653102943198
 30
0.0
 10
142.6831081457528
 20
142.1653102943198
 30
0.0
 10
143.0103922168516
 20
141.9313883108713
 30
0.0
 10
143.0103922168516
 20
141.4659559108141
 30
0.0
 10
143.0103922168516
 20
141.1190347954494
 30
0.0
 10
142.7988633540572
 20
140.8368814752074
 30
0.0
 10
142.437817347203
 20
140.8286132460428
 30
0.0
 10
142.437817347203
 20
140.8286132460428
 30
0.0
 10
142.437817347203
 20
141.0683918918162
 30
0.0
 10
142.437817347203
 20
141.0683918918162
 30
0.0
  0
HATCH
  5
309
330
2FB
100
AcDbEntity
  8
Sichtbar schmal (ISO)
 62
    18
420
        0
440
 33554687
100
AcDbHatch
 10
0.0
 20
0.0
 30
0.0
210
0.0
220
0.0
230
1.0
  2
SOLID
 70
     1
 71
     1
 91
        1
 92
        1
 93
        1
 72
     4
 94
        3
 73
     0
 74
     0
 95
       53
 96
       49
 40
0.0
 40
0.0
 40
0.0
 40
0.0
 40
1.0
 40
1.0
 40
1.0
 40
2.0
 40
2.0
 40
2.0
 40
3.0
 40
3.0
 40
3.0
 40
4.0
 40
4.0
 40
4.0
 40
5.0
 40
5.0
 40
5.0
 40
6.0
 40
6.0
 40
6.0
 40
7.0
 40
7.0
 40
7.0
 40
8.0
 40
8.0
 40
8.0
 40
9.0
 40
9.0
 40
9.0
 40
10.0
 40
10.0
 40
10.0
 40
11.0
 40
11.0
 40
11.0
 40
12.0
 40
12.0
 40
12.0
 40
13.0
 40
13.0
 40
13.0
 40
14.0
 40
14.0
 40
14.0
 40
15.0
 40
15.0
 40
15.0
 40
16.0
 40
16.0
 40
16.0
 40
16.0
 10
142.437817347203
 20
141.0683918918162
 10
142.643834057221
 20
141.0821722737572
 10
142.7988633540572
 20
141.2489148952433
 10
142.7988633540572
 20
141.4886935410167
 10
142.7988633540572
 20
141.7167588621403
 10
142.6407334712842
 20
141.9117512666054
 10
142.3248182152868
 20
141.9117512666054
 10
142.0626464488593
 20
141.9117512666054
 10
141.8707546303309
 20
141.7312282631783
 10
141.8707546303309
 20
141.4604437580377
 10
141.8707546303309
 20
141.3050699516529
 10
141.9468912405549
 20
141.1810465141839
 10
142.0598903724711
 20
141.0880289360821
 10
142.0598903724711
 20
141.0880289360821
 10
142.0485215573698
 20
140.8820122260642
 10
142.0485215573698
 20
140.8820122260642
 10
142.0485215573698
 20
140.8820122260642
 10
141.010514287664
 20
141.0683918918162
 10
141.010514287664
 20
141.0683918918162
 10
141.010514287664
 20
141.0683918918162
 10
141.010514287664
 20
142.0554117483403
 10
141.010514287664
 20
142.0554117483403
 10
141.010514287664
 20
142.0554117483403
 10
141.2220431504584
 20
142.0554117483403
 10
141.2220431504584
 20
142.0554117483403
 10
141.2220431504584
 20
142.0554117483403
 10
141.2220431504584
 20
141.2489148952433
 10
141.2220431504584
 20
141.2489148952433
 10
141.2220431504584
 20
141.2489148952433
 10
141.7973740964951
 20
141.1414279161035
 10
141.7973740964951
 20
141.1414279161035
 10
141.7973740964951
 20
141.1414279161035
 10
141.80323075882
 20
141.1472845784284
 10
141.80323075882
 20
141.1472845784284
 10
141.7043565183933
 20
141.2344454942053
 10
141.6592257675366
 20
141.3839626382651
 10
141.6592257675366
 20
141.5196994003839
 10
141.6592257675366
 20
141.8748887449132
 10
141.8848795218204
 20
142.1653102943198
 10
142.3447997691013
 20
142.1653102943198
 10
142.6831081457528
 20
142.1653102943198
 10
143.0103922168516
 20
141.9313883108713
 10
143.0103922168516
 20
141.4659559108141
 10
143.0103922168516
 20
141.1190347954494
 10
142.7988633540572
 20
140.8368814752074
 10
142.437817347203
 20
140.8286132460428
 10
142.437817347203
 20
140.8286132460428
 10
142.437817347203
 20
141.0683918918162
 10
142.437817347203
 20
141.0683918918162
 97
        0
 97
        1
330
308
 75
     2
 76
     1
 98
        1
 10
0.0
 20
0.0
450
        0
451
        0
460
0.0
461
0.0
452
        0
462
0.0
453
        0
470

  0
ENDBLK
  5
2FE
330
2FB
100
AcDbEntity
  8
0
100
AcDbBlockEnd
  0
ENDSEC
  0
SECTION
  2
ENTITIES
  0
INSERT
  5
79
330
70
100
AcDbEntity
  8
0
100
AcDbBlockReference
  2
Block_0
 10
0.0
 20
0.0
 30
0.0
  0
INSERT
  5
7D
330
70
100
AcDbEntity
  8
0
100
AcDbBlockReference
  2
Block_1
 10
0.0
 20
0.0
 30
0.0
  0
INSERT
  5
81
330
70
100
AcDbEntity
  8
0
100
AcDbBlockReference
  2
Block_2
 10
0.0
 20
0.0
 30
0.0
  0
INSERT
  5
85
330
70
100
AcDbEntity
  8
0
100
AcDbBlockReference
  2
Block_3
 10
0.0
 20
0.0
 30
0.0
  0
INSERT
  5
89
330
70
100
AcDbEntity
  8
0
100
AcDbBlockReference
  2
Block_4
 10
0.0
 20
0.0
 30
0.0
  0
INSERT
  5
8F
330
70
100
AcDbEntity
  8
Titel (ISO)
100
AcDbBlockReference
  2
Block_5
 10
0.0
 20
0.0
 30
0.0
  0
INSERT
  5
93
330
70
100
AcDbEntity
  8
Titel (ISO)
100
AcDbBlockReference
  2
Block_6
 10
0.0
 20
0.0
 30
0.0
  0
INSERT
  5
97
330
70
100
AcDbEntity
  8
Titel (ISO)
100
AcDbBlockReference
  2
Block_7
 10
0.0
 20
0.0
 30
0.0
  0
INSERT
  5
9B
330
70
100
AcDbEntity
  8
Titel (ISO)
100
AcDbBlockReference
  2
Block_8
 10
0.0
 20
0.0
 30
0.0
  0
INSERT
  5
9F
330
70
100
AcDbEntity
  8
Titel (ISO)
100
AcDbBlockReference
  2
Block_9
 10
0.0
 20
0.0
 30
0.0
  0
INSERT
  5
A3
330
70
100
AcDbEntity
  8
Titel (ISO)
100
AcDbBlockReference
  2
Block_10
 10
0.0
 20
0.0
 30
0.0
  0
INSERT
  5
A7
330
70
100
AcDbEntity
  8
Titel (ISO)
100
AcDbBlockReference
  2
Block_11
 10
0.0
 20
0.0
 30
0.0
  0
INSERT
  5
AB
330
70
100
AcDbEntity
  8
Titel (ISO)
100
AcDbBlockReference
  2
Block_12
 10
0.0
 20
0.0
 30
0.0
  0
INSERT
  5
AF
330
70
100
AcDbEntity
  8
Titel (ISO)
100
AcDbBlockReference
  2
Block_13
 10
0.0
 20
0.0
 30
0.0
  0
INSERT
  5
B5
330
70
100
AcDbEntity
  8
Sichtbar schmal (ISO)
100
AcDbBlockReference
  2
Block_14
 10
0.0
 20
0.0
 30
0.0
  0
INSERT
  5
BB
330
70
100
AcDbEntity
  8
Sichtbar schmal (ISO)
100
AcDbBlockReference
  2
Block_15
 10
0.0
 20
0.0
 30
0.0
  0
INSERT
  5
251
330
70
100
AcDbEntity
  8
Sichtbar schmal (ISO)
100
AcDbBlockReference
  2
Block_16
 10
0.0
 20
0.0
 30
0.0
  0
INSERT
  5
26B
330
70
100
AcDbEntity
  8
Sichtbar schmal (ISO)
100
AcDbBlockReference
  2
Block_17
 10
0.0
 20
0.0
 30
0.0
  0
LINE
  5
27F
330
70
100
AcDbEntity
  8
Sichtbar schmal (ISO)
 62
    18
420
        0
370
     5
100
AcDbLine
 10
91.60278512918518
 20
115.0008594607489
 30
0.0
 11
135.0183658891575
 21
115.1460819524544
 31
0.0
  0
LINE
  5
280
330
70
100
AcDbEntity
  8
Sichtbar schmal (ISO)
 62
    18
420
        0
370
     5
100
AcDbLine
 10
91.58208173749843
 20
162.4310892476279
 30
0.0
 11
134.9891514016967
 21
162.4465619584551
 31
0.0
  0
LINE
  5
281
330
70
100
AcDbEntity
  8
Sichtbar schmal (ISO)
 62
    18
420
        0
370
     5
100
AcDbLine
 10
91.61956263400616
 20
114.1948422989639
 30
0.0
 11
141.9459501880229
 21
114.2066806104402
 31
0.0
  0
INSERT
  5
283
330
70
100
AcDbEntity
  8
Sichtbar schmal (ISO)
100
AcDbBlockReference
  2
Block_21
 10
0.0
 20
0.0
 30
0.0
  0
LINE
  5
297
330
70
100
AcDbEntity
  8
Sichtbar schmal (ISO)
 62
    18
420
        0
370
     5
100
AcDbLine
 10
91.60278512918454
 20
163.2426445189771
 30
0.0
 11
141.956836893205
 21
163.2163582027753
 31
0.0
  0
LWPOLYLINE
  5
298
330
70
100
AcDbEntity
  8
Sichtbar schmal (ISO)
 62
    18
420
        0
370
     5
100
AcDbPolyline
 90
        1
 70
     0
 43
0.0
 10
145.0523566143625
 20
170.1682271226946
  0
LINE
  5
299
330
70
100
AcDbEntity
  8
Sichtbar schmal (ISO)
 62
    18
420
        0
370
     5
100
AcDbLine
 10
115.0824528165301
 20
165.6319232909403
 30
0.0
 11
142.0050521979867
 21
165.6376072579883
 31
0.0
  0
LWPOLYLINE
  5
29A
330
70
100
AcDbEntity
  8
Sichtbar schmal (ISO)
 62
    18
420
        0
370
     5
100
AcDbPolyline
 90
        1
 70
     0
 43
0.0
 10
137.0129857859892
 20
169.9813696362741
  0
LINE
  5
29B
330
70
100
AcDbEntity
  8
Sichtbar schmal (ISO)
  6
AI-Linetype-0
 62
    18
420
        0
370
     5
100
AcDbLine
 10
127.951394694817
 20
180.5822755624365
 30
0.0
 11
114.6066184442416
 21
180.5397654754774
 31
0.0
  0
INSERT
  5
29E
330
70
100
AcDbEntity
  8
Sichtbar schmal (ISO)
100
AcDbBlockReference
  2
Block_25
 10
0.0
 20
0.0
 30
0.0
  0
LWPOLYLINE
  5
2B2
330
70
100
AcDbEntity
  8
Sichtbar schmal (ISO)
 62
    18
420
        0
370
     5
100
AcDbPolyline
 90
        1
 70
     0
 43
0.0
 10
125.4443253874783
 20
177.6715329240498
  0
INSERT
  5
2B4
330
70
100
AcDbEntity
  8
Sichtbar schmal (ISO)
100
AcDbBlockReference
  2
Block_29
 10
0.0
 20
0.0
 30
0.0
  0
INSERT
  5
2C9
330
70
100
AcDbEntity
  8
Sichtbar schmal (ISO)
100
AcDbBlockReference
  2
Block_33
 10
0.0
 20
0.0
 30
0.0
  0
LINE
  5
2D4
330
70
100
AcDbEntity
  8
Sichtbar schmal (ISO)
 62
    18
420
        0
370
     5
100
AcDbLine
 10
116.1221763540223
 20
185.5579734881261
 30
0.0
 11
142.0626279341685
 21
185.5772734344112
 31
0.0
  0
LWPOLYLINE
  5
2D5
330
70
100
AcDbEntity
  8
Sichtbar schmal (ISO)
 62
    18
420
        0
370
     5
100
AcDbPolyline
 90
        1
 70
     0
 43
0.0
 10
132.2859402216573
 20
178.243286245003
  0
INSERT
  5
2D7
330
70
100
AcDbEntity
  8
Sichtbar schmal (ISO)
100
AcDbBlockReference
  2
Block_35
 10
0.0
 20
0.0
 30
0.0
  0
INSERT
  5
2E5
330
70
100
AcDbEntity
  8
Sichtbar schmal (ISO)
100
AcDbBlockReference
  2
Block_37
 10
0.0
 20
0.0
 30
0.0
  0
INSERT
  5
2F8
330
70
100
AcDbEntity
  8
Sichtbar schmal (ISO)
100
AcDbBlockReference
  2
Block_39
 10
0.0
 20
0.0
 30
0.0
  0
ENDSEC
  0
SECTION
  2
OBJECTS
  0
DICTIONARY
  5
C
330
0
100
AcDbDictionary
281
     1
  3
ACAD_COLOR
350
63
  3
ACAD_DETAILVIEWSTYLE
350
6A
  3
ACAD_GROUP
350
D
  3
ACAD_LAYOUT
350
62
  3
ACAD_MATERIAL
350
10
  3
ACAD_MLEADERSTYLE
350
66
  3
ACAD_MLINESTYLE
350
5F
  3
ACAD_PLOTSETTINGS
350
61
  3
ACAD_PLOTSTYLENAME
350
E
  3
ACAD_SCALELIST
350
42
  3
ACAD_SECTIONVIEWSTYLE
350
68
  3
ACAD_TABLESTYLE
350
64
  3
ACAD_VISUALSTYLE
350
29
  3
ACDB_RECOMPOSE_DATA
350
312
  3
AcDbVariableDictionary
350
30A
  0
DICTIONARY
  5
63
102
{ACAD_REACTORS
330
C
102
}
330
C
100
AcDbDictionary
281
     1
  0
DICTIONARY
  5
6A
102
{ACAD_REACTORS
330
C
102
}
330
C
100
AcDbDictionary
281
     1
  3
Imperial24
350
6B
  0
DICTIONARY
  5
D
102
{ACAD_REACTORS
330
C
102
}
330
C
100
AcDbDictionary
281
     1
  0
DICTIONARY
  5
62
102
{ACAD_REACTORS
330
C
102
}
330
C
100
AcDbDictionary
281
     1
  3
Layout1
350
6F
  3
Layout2
350
77
  3
Model
350
73
  0
DICTIONARY
  5
10
102
{ACAD_REACTORS
330
C
102
}
330
C
100
AcDbDictionary
281
     1
  3
ByBlock
350
19
  3
ByLayer
350
11
  3
Global
350
21
  0
DICTIONARY
  5
66
102
{ACAD_REACTORS
330
C
102
}
330
C
100
AcDbDictionary
281
     1
  3
Standard
350
67
  0
DICTIONARY
  5
5F
102
{ACAD_REACTORS
330
C
102
}
330
C
100
AcDbDictionary
281
     1
  3
Standard
350
60
  0
DICTIONARY
  5
61
102
{ACAD_REACTORS
330
C
102
}
330
C
100
AcDbDictionary
281
     1
  0
ACDBDICTIONARYWDFLT
  5
E
102
{ACAD_REACTORS
330
C
102
}
330
C
100
AcDbDictionary
281
     1
  3
Normal
350
F
100
AcDbDictionaryWithDefault
340
F
  0
DICTIONARY
  5
42
102
{ACAD_REACTORS
330
C
102
}
330
C
100
AcDbDictionary
281
     1
  3
A0
350
43
  3
A1
350
44
  3
A2
350
45
  3
A3
350
46
  3
A4
350
47
  3
A5
350
48
  3
A6
350
49
  3
A7
350
4A
  3
A8
350
4B
  3
A9
350
4C
  3
B0
350
4D
  3
B1
350
4E
  3
B2
350
4F
  3
B3
350
50
  3
B4
350
51
  3
B5
350
52
  3
B6
350
53
  0
DICTIONARY
  5
68
102
{ACAD_REACTORS
330
C
102
}
330
C
100
AcDbDictionary
281
     1
  3
Imperial24
350
69
  0
DICTIONARY
  5
64
102
{ACAD_REACTORS
330
C
102
}
330
C
100
AcDbDictionary
281
     1
  3
Standard
350
65
  0
DICTIONARY
  5
29
102
{ACAD_REACTORS
330
C
102
}
330
C
100
AcDbDictionary
281
     1
  3
2dWireframe
350
2F
  3
Basic
350
2E
  3
Brighten
350
35
  3
ColorChange
350
39
  3
Conceptual
350
32
  3
Dim
350
34
  3
EdgeColorOff
350
41
  3
Facepattern
350
38
  3
Flat
350
2A
  3
FlatWithEdges
350
2B
  3
Gouraud
350
2C
  3
GouraudWithEdges
350
2D
  3
Hidden
350
31
  3
JitterOff
350
3F
  3
Linepattern
350
37
  3
OverhangOff
350
40
  3
Realistic
350
33
  3
Shaded
350
3E
  3
Shaded with edges
350
3D
  3
Shades of Gray
350
3A
  3
Sketchy
350
3B
  3
Thicken
350
36
  3
Wireframe
350
30
  3
X-Ray
350
3C
  0
XRECORD
  5
312
102
{ACAD_REACTORS
330
C
102
}
330
C
100
AcDbXrecord
280
     1
 90
        1
330
65
  0
DICTIONARY
  5
30A
102
{ACAD_REACTORS
330
C
102
}
330
C
100
AcDbDictionary
281
     1
  3
CANNOSCALE
350
30F
  3
CMLEADERSTYLE
350
30C
  3
CTABLESTYLE
350
30B
  3
CVIEWDETAILSTYLE
350
30D
  3
CVIEWSECTIONSTYLE
350
30E
  0
ACDBDETAILVIEWSTYLE
  5
6B
102
{ACAD_REACTORS
330
6A
102
}
330
6A
100
AcDbModelDocViewStyle
 70
     0
  3
Imperial24
290
     1
300
Imperial24
 90
        0
100
AcDbDetailViewStyle
 70
     0
 71
     0
 90
        3
 71
     1
340
55
 62
   256
 40
0.24
340
0
 62
   256
 40
0.24
300

 40
0.36
280
     3
 71
     2
340
5D
 90
       25
 62
   256
 71
     3
340
55
 62
   256
 40
0.24
 90
        1
 40
0.75
 90
        1
300
%<\AcVar ViewType \f "%tc1">% %<\AcVar ViewDetailId>%\PSCALE %<\AcVar ViewScale \f "%sn">%
 71
     4
340
5D
 90
       25
 62
   256
340
5D
 90
       25
 62
   256
280
     0
  0
LAYOUT
  5
6F
102
{ACAD_REACTORS
330
62
102
}
330
62
100
AcDbPlotSettings
  1

  2

  4

  6

 40
0.0
 41
0.0
 42
0.0
 43
0.0
 44
0.0
 45
0.0
 46
0.0
 47
0.0
 48
0.0
 49
0.0
140
0.0
141
0.0
142
1.0
143
1.0
 70
   688
 72
     0
 73
     0
 74
     5
  7

 75
    16
147
1.0
 76
     0
 77
     2
 78
   300
148
0.0
149
0.0
100
AcDbLayout
  1
Layout1
 70
     1
 71
     1
 10
0.0
 20
0.0
 11
12.0
 21
9.0
 12
0.0
 22
0.0
 32
0.0
 14
0.0
 24
0.0
 34
0.0
 15
0.0
 25
0.0
 35
0.0
146
0.0
 13
0.0
 23
0.0
 33
0.0
 16
1.0
 26
0.0
 36
0.0
 17
0.0
 27
1.0
 37
0.0
 76
     0
330
6C
  0
LAYOUT
  5
77
102
{ACAD_REACTORS
330
62
102
}
330
62
100
AcDbPlotSettings
  1

  2

  4

  6

 40
0.0
 41
0.0
 42
0.0
 43
0.0
 44
0.0
 45
0.0
 46
0.0
 47
0.0
 48
0.0
 49
0.0
140
0.0
141
0.0
142
1.0
143
1.0
 70
   688
 72
     0
 73
     0
 74
     5
  7

 75
    16
147
1.0
 76
     0
 77
     2
 78
   300
148
0.0
149
0.0
100
AcDbLayout
  1
Layout2
 70
     1
 71
     2
 10
0.0
 20
0.0
 11
12.0
 21
9.0
 12
0.0
 22
0.0
 32
0.0
 14
0.0
 24
0.0
 34
0.0
 15
0.0
 25
0.0
 35
0.0
146
0.0
 13
0.0
 23
0.0
 33
0.0
 16
1.0
 26
0.0
 36
0.0
 17
0.0
 27
1.0
 37
0.0
 76
     0
330
74
  0
LAYOUT
  5
73
102
{ACAD_REACTORS
330
62
102
}
330
62
100
AcDbPlotSettings
  1

  2

  4

  6

 40
0.0
 41
0.0
 42
0.0
 43
0.0
 44
0.0
 45
0.0
 46
0.0
 47
0.0
 48
0.0
 49
0.0
140
0.0
141
0.0
142
1.0
143
1.0
 70
  1712
 72
     0
 73
     0
 74
     0
  7

 75
     0
147
1.0
 76
     0
 77
     2
 78
   300
148
0.0
149
0.0
100
AcDbLayout
  1
Model
 70
     1
 71
     0
 10
0.0
 20
0.0
 11
12.0
 21
9.0
 12
0.0
 22
0.0
 32
0.0
 14
0.0
 24
0.0
 34
0.0
 15
0.0
 25
0.0
 35
0.0
146
0.0
 13
0.0
 23
0.0
 33
0.0
 16
1.0
 26
0.0
 36
0.0
 17
0.0
 27
1.0
 37
0.0
 76
     0
330
70
  0
MATERIAL
  5
19
102
{ACAD_XDICTIONARY
360
1A
102
}
102
{ACAD_REACTORS
330
10
102
}
330
10
100
AcDbMaterial
  1
ByBlock
 72
     0
 43
0.0208333333333333
 43
0.0
 43
0.0
 43
0.0
 43
0.0
 43
0.0208333333333333
 43
0.0
 43
0.0
 43
0.0
 43
0.0
 43
1.0
 43
0.0
 43
0.0
 43
0.0
 43
0.0
 43
1.0
 77
     0
 47
0.0208333333333333
 47
0.0
 47
0.0
 47
0.0
 47
0.0
 47
0.0208333333333333
 47
0.0
 47
0.0
 47
0.0
 47
0.0
 47
1.0
 47
0.0
 47
0.0
 47
0.0
 47
0.0
 47
1.0
171
     0
 49
0.0208333333333333
 49
0.0
 49
0.0
 49
0.0
 49
0.0
 49
0.0208333333333333
 49
0.0
 49
0.0
 49
0.0
 49
0.0
 49
1.0
 49
0.0
 49
0.0
 49
0.0
 49
0.0
 49
1.0
175
     0
142
0.0208333333333333
142
0.0
142
0.0
142
0.0
142
0.0
142
0.0208333333333333
142
0.0
142
0.0
142
0.0
142
0.0
142
1.0
142
0.0
142
0.0
142
0.0
142
0.0
142
1.0
179
     0
144
0.0208333333333333
144
0.0
144
0.0
144
0.0
144
0.0
144
0.0208333333333333
144
0.0
144
0.0
144
0.0
144
0.0
144
1.0
144
0.0
144
0.0
144
0.0
144
0.0
144
1.0
147
0.0208333333333333
147
0.0
147
0.0
147
0.0
147
0.0
147
0.0208333333333333
147
0.0
147
0.0
147
0.0
147
0.0
147
1.0
147
0.0
147
0.0
147
0.0
147
0.0
147
1.0
  0
MATERIAL
  5
11
102
{ACAD_XDICTIONARY
360
12
102
}
102
{ACAD_REACTORS
330
10
102
}
330
10
100
AcDbMaterial
  1
ByLayer
 72
     0
 43
0.0208333333333333
 43
0.0
 43
0.0
 43
0.0
 43
0.0
 43
0.0208333333333333
 43
0.0
 43
0.0
 43
0.0
 43
0.0
 43
1.0
 43
0.0
 43
0.0
 43
0.0
 43
0.0
 43
1.0
 77
     0
 47
0.0208333333333333
 47
0.0
 47
0.0
 47
0.0
 47
0.0
 47
0.0208333333333333
 47
0.0
 47
0.0
 47
0.0
 47
0.0
 47
1.0
 47
0.0
 47
0.0
 47
0.0
 47
0.0
 47
1.0
171
     0
 49
0.0208333333333333
 49
0.0
 49
0.0
 49
0.0
 49
0.0
 49
0.0208333333333333
 49
0.0
 49
0.0
 49
0.0
 49
0.0
 49
1.0
 49
0.0
 49
0.0
 49
0.0
 49
0.0
 49
1.0
175
     0
142
0.0208333333333333
142
0.0
142
0.0
142
0.0
142
0.0
142
0.0208333333333333
142
0.0
142
0.0
142
0.0
142
0.0
142
1.0
142
0.0
142
0.0
142
0.0
142
0.0
142
1.0
179
     0
144
0.0208333333333333
144
0.0
144
0.0
144
0.0
144
0.0
144
0.0208333333333333
144
0.0
144
0.0
144
0.0
144
0.0
144
1.0
144
0.0
144
0.0
144
0.0
144
0.0
144
1.0
147
0.0208333333333333
147
0.0
147
0.0
147
0.0
147
0.0
147
0.0208333333333333
147
0.0
147
0.0
147
0.0
147
0.0
147
1.0
147
0.0
147
0.0
147
0.0
147
0.0
147
1.0
  0
MATERIAL
  5
21
102
{ACAD_XDICTIONARY
360
22
102
}
102
{ACAD_REACTORS
330
10
102
}
330
10
100
AcDbMaterial
  1
Global
 72
     0
 43
0.0208333333333333
 43
0.0
 43
0.0
 43
0.0
 43
0.0
 43
0.0208333333333333
 43
0.0
 43
0.0
 43
0.0
 43
0.0
 43
1.0
 43
0.0
 43
0.0
 43
0.0
 43
0.0
 43
1.0
 77
     0
 47
0.0208333333333333
 47
0.0
 47
0.0
 47
0.0
 47
0.0
 47
0.0208333333333333
 47
0.0
 47
0.0
 47
0.0
 47
0.0
 47
1.0
 47
0.0
 47
0.0
 47
0.0
 47
0.0
 47
1.0
171
     0
 49
0.0208333333333333
 49
0.0
 49
0.0
 49
0.0
 49
0.0
 49
0.0208333333333333
 49
0.0
 49
0.0
 49
0.0
 49
0.0
 49
1.0
 49
0.0
 49
0.0
 49
0.0
 49
0.0
 49
1.0
175
     0
142
0.0208333333333333
142
0.0
142
0.0
142
0.0
142
0.0
142
0.0208333333333333
142
0.0
142
0.0
142
0.0
142
0.0
142
1.0
142
0.0
142
0.0
142
0.0
142
0.0
142
1.0
179
     0
144
0.0208333333333333
144
0.0
144
0.0
144
0.0
144
0.0
144
0.0208333333333333
144
0.0
144
0.0
144
0.0
144
0.0
144
1.0
144
0.0
144
0.0
144
0.0
144
0.0
144
1.0
147
0.0208333333333333
147
0.0
147
0.0
147
0.0
147
0.0
147
0.0208333333333333
147
0.0
147
0.0
147
0.0
147
0.0
147
1.0
147
0.0
147
0.0
147
0.0
147
0.0
147
1.0
  0
MLEADERSTYLE
  5
67
102
{ACAD_REACTORS
330
66
102
}
330
66
100
AcDbMLeaderStyle
179
     2
170
     2
171
     1
172
     0
 90
        2
 40
0.0
 41
0.0
173
     1
 91
-1056964608
340
5B
 92
       -2
290
     1
 42
0.09
291
     1
 43
0.36
  3
Standard
 44
0.18
300

342
55
174
     1
178
     6
175
     1
176
     0
 93
-1056964608
 45
0.18
292
     0
297
     0
 46
0.18
 94
-1056964608
 47
1.0
 49
1.0
140
1.0
293
     1
141
0.0
294
     1
177
     0
142
1.0
295
     1
296
     0
143
0.125
271
     0
272
     9
273
     9
298
     1
  0
MLINESTYLE
  5
60
102
{ACAD_REACTORS
330
5F
102
}
330
5F
100
AcDbMlineStyle
  2
STANDARD
 70
     0
  3

 62
   256
 51
90.0
 52
90.0
 71
     2
 49
0.5
 62
   256
  6
BYLAYER
 49
-0.5
 62
   256
  6
BYLAYER
  0
ACDBPLACEHOLDER
  5
F
102
{ACAD_REACTORS
330
E
102
}
330
E
  0
SCALE
  5
43
102
{ACAD_REACTORS
330
42
102
}
330
42
100
AcDbScale
 70
     0
300
1:1
140
1.0
141
1.0
290
     1
  0
SCALE
  5
44
102
{ACAD_REACTORS
330
42
102
}
330
42
100
AcDbScale
 70
     0
300
1/128" = 1'-0"
140
0.0078125
141
12.0
290
     0
  0
SCALE
  5
45
102
{ACAD_REACTORS
330
42
102
}
330
42
100
AcDbScale
 70
     0
300
1/64" = 1'-0"
140
0.015625
141
12.0
290
     0
  0
SCALE
  5
46
102
{ACAD_REACTORS
330
42
102
}
330
42
100
AcDbScale
 70
     0
300
1/32" = 1'-0"
140
0.03125
141
12.0
290
     0
  0
SCALE
  5
47
102
{ACAD_REACTORS
330
42
102
}
330
42
100
AcDbScale
 70
     0
300
1/16" = 1'-0"
140
0.0625
141
12.0
290
     0
  0
SCALE
  5
48
102
{ACAD_REACTORS
330
42
102
}
330
42
100
AcDbScale
 70
     0
300
3/32" = 1'-0"
140
0.09375
141
12.0
290
     0
  0
SCALE
  5
49
102
{ACAD_REACTORS
330
42
102
}
330
42
100
AcDbScale
 70
     0
300
1/8" = 1'-0"
140
0.125
141
12.0
290
     0
  0
SCALE
  5
4A
102
{ACAD_REACTORS
330
42
102
}
330
42
100
AcDbScale
 70
     0
300
3/16" = 1'-0"
140
0.1875
141
12.0
290
     0
  0
SCALE
  5
4B
102
{ACAD_REACTORS
330
42
102
}
330
42
100
AcDbScale
 70
     0
300
1/4" = 1'-0"
140
0.25
141
12.0
290
     0
  0
SCALE
  5
4C
102
{ACAD_REACTORS
330
42
102
}
330
42
100
AcDbScale
 70
     0
300
3/8" = 1'-0"
140
0.375
141
12.0
290
     0
  0
SCALE
  5
4D
102
{ACAD_REACTORS
330
42
102
}
330
42
100
AcDbScale
 70
     0
300
1/2" = 1'-0"
140
0.5
141
12.0
290
     0
  0
SCALE
  5
4E
102
{ACAD_REACTORS
330
42
102
}
330
42
100
AcDbScale
 70
     0
300
3/4" = 1'-0"
140
0.75
141
12.0
290
     0
  0
SCALE
  5
4F
102
{ACAD_REACTORS
330
42
102
}
330
42
100
AcDbScale
 70
     0
300
1" = 1'-0"
140
1.0
141
12.0
290
     0
  0
SCALE
  5
50
102
{ACAD_REACTORS
330
42
102
}
330
42
100
AcDbScale
 70
     0
300
1-1/2" = 1'-0"
140
1.5
141
12.0
290
     0
  0
SCALE
  5
51
102
{ACAD_REACTORS
330
42
102
}
330
42
100
AcDbScale
 70
     0
300
3" = 1'-0"
140
3.0
141
12.0
290
     0
  0
SCALE
  5
52
102
{ACAD_REACTORS
330
42
102
}
330
42
100
AcDbScale
 70
     0
300
6" = 1'-0"
140
6.0
141
12.0
290
     0
  0
SCALE
  5
53
102
{ACAD_REACTORS
330
42
102
}
330
42
100
AcDbScale
 70
     0
300
1'-0" = 1'-0"
140
12.0
141
12.0
290
     0
  0
ACDBSECTIONVIEWSTYLE
  5
69
102
{ACAD_REACTORS
330
68
102
}
330
68
100
AcDbModelDocViewStyle
 70
     0
  3
Imperial24
290
     1
300
Imperial24
 90
        0
100
AcDbSectionViewStyle
 70
     0
 71
     0
 90
       78
 71
     1
340
55
 62
   256
 40
0.24
340
0
340
0
 62
   256
 40
0.24
300
I, O, Q, S, X, Z
 40
0.48
 90
        3
 40
0.18
 90
        1
 71
     2
340
5D
 90
       25
 62
   256
340
5D
 90
       50
 62
   256
 40
0.24
 40
0.0
 40
0.24
 71
     3
340
55
 62
   256
 40
0.24
 90
        1
 40
0.75
 90
        1
300
%<\AcVar ViewType \f "%tc1">% %<\AcVar ViewSectionStartId>%-%<\AcVar ViewSectionEndId>%\PSCALE %<\AcVar ViewScale \f "%sn">%
 71
     4
 62
   256
 62
   257
300
ANSI31
 40
1.0
 90
        0
290
     0
290
     0
 90
        6
 40
0.0
 40
1.570796326794896
 40
0.2617993877991494
 40
1.308996938995747
 40
-0.2617993877991494
 40
1.832595714594046
  0
TABLESTYLE
  5
65
102
{ACAD_XDICTIONARY
360
310
102
}
102
{ACAD_REACTORS
330
64
102
}
330
64
100
AcDbTableStyle
280
     0
  3
Standard
 70
     0
 71
     0
 40
0.06
 41
0.06
280
     0
281
     0
  7
Standard
140
0.18
170
     2
 62
     0
 63
     7
283
     0
 90
      512
 91
        0
  1

274
    -2
284
     1
 64
     0
275
    -2
285
     1
 65
     0
276
    -2
286
     1
 66
     0
277
    -2
287
     1
 67
     0
278
    -2
288
     1
 68
     0
279
    -2
289
     1
 69
     0
  7
Standard
140
0.25
170
     5
 62
     0
 63
     7
283
     0
 90
      512
 91
        0
  1

274
    -2
284
     1
 64
     0
275
    -2
285
     1
 65
     0
276
    -2
286
     1
 66
     0
277
    -2
287
     1
 67
     0
278
    -2
288
     1
 68
     0
279
    -2
289
     1
 69
     0
  7
Standard
140
0.18
170
     5
 62
     0
 63
     7
283
     0
 90
      512
 91
        0
  1

274
    -2
284
     1
 64
     0
275
    -2
285
     1
 65
     0
276
    -2
286
     1
 66
     0
277
    -2
287
     1
 67
     0
278
    -2
288
     1
 68
     0
279
    -2
289
     1
 69
     0
  0
VISUALSTYLE
  5
2F
102
{ACAD_REACTORS
330
29
102
}
330
29
100
AcDbVisualStyle
  2
2dWireframe
 70
     4
177
     3
291
     0
 70
    58
 90
        0
176
     1
 90
        2
176
     1
 90
        0
176
     1
 90
        0
176
     1
 40
0.6
176
     1
 40
30.0
176
     1
 62
     7
420
 16777215
176
     1
 90
        1
176
     1
 90
        4
176
     1
 62
     7
176
     1
 62
   257
176
     1
 90
        1
176
     1
 90
        1
176
     1
 40
1.0
176
     1
 90
        0
176
     1
 62
   257
176
     1
 40
1.0
176
     1
 90
        1
176
     1
 90
        6
176
     1
 90
        2
176
     1
 62
     7
176
     1
 90
        5
176
     1
 90
        0
176
     1
 90
        0
176
     1
290
     0
176
     1
 90
        1
176
     1
 40
0.0
176
     1
 90
        0
176
     1
290
     1
176
     1
290
     1
176
     1
290
     0
176
     1
290
     0
176
     1
290
     0
176
     1
290
     0
176
     1
290
     0
176
     1
290
     0
176
     1
290
     0
176
     1
 90
       50
176
     1
 40
0.0
176
     1
 40
1.0
176
     1
 90
        0
176
     1
 62
    18
420
        0
176
     1
 90
       50
176
     1
 90
        3
176
     1
 62
     5
420
      255
176
     1
290
     0
176
     1
 90
       50
176
     1
 90
       50
176
     1
 90
       50
176
     1
290
     0
176
     1
 90
       50
176
     1
 62
   256
176
     0
 40
1.0
176
     0
 90
        2
176
     1
  1
strokes_ogs.tif
176
     1
290
     0
176
     1
 40
1.0
176
     1
 40
1.0
176
     1
  0
VISUALSTYLE
  5
2E
102
{ACAD_REACTORS
330
29
102
}
330
29
100
AcDbVisualStyle
  2
Basic
 70
     7
177
     3
291
     1
 70
    58
 90
        1
176
     1
 90
        0
176
     1
 90
        1
176
     1
 90
        0
176
     1
 40
0.6
176
     1
 40
30.0
176
     1
 62
     7
420
 16777215
176
     1
 90
        0
176
     1
 90
        4
176
     1
 62
     7
176
     1
 62
   257
176
     1
 90
        1
176
     1
 90
        1
176
     1
 40
1.0
176
     1
 90
        8
176
     1
 62
     7
176
     1
 40
1.0
176
     1
 90
        1
176
     1
 90
        6
176
     1
 90
        2
176
     1
 62
     7
176
     1
 90
        5
176
     1
 90
        0
176
     1
 90
        0
176
     1
290
     0
176
     1
 90
        1
176
     1
 40
0.0
176
     1
 90
        0
176
     1
290
     0
176
     1
290
     1
176
     1
290
     1
176
     1
290
     0
176
     1
290
     0
176
     1
290
     0
176
     1
290
     0
176
     1
290
     0
176
     1
290
     0
176
     1
 90
       50
176
     1
 40
0.0
176
     1
 40
1.0
176
     1
 90
        0
176
     1
 62
    18
420
        0
176
     1
 90
       50
176
     1
 90
        3
176
     1
 62
     5
420
      255
176
     1
290
     0
176
     1
 90
       50
176
     1
 90
       50
176
     1
 90
       50
176
     1
290
     0
176
     1
 90
       50
176
     1
 62
   256
176
     0
 40
1.0
176
     0
 90
        2
176
     1
  1
strokes_ogs.tif
176
     1
290
     0
176
     1
 40
1.0
176
     1
 40
1.0
176
     1
  0
VISUALSTYLE
  5
35
102
{ACAD_REACTORS
330
29
102
}
330
29
100
AcDbVisualStyle
  2
Brighten
 70
    12
177
     3
291
     1
 70
    58
 90
        2
176
     1
 90
        2
176
     1
 90
        0
176
     1
 90
        0
176
     1
 40
0.6
176
     1
 40
30.0
176
     1
 62
     7
420
 16777215
176
     1
 90
        1
176
     1
 90
        4
176
     1
 62
     7
176
     1
 62
   257
176
     1
 90
        1
176
     1
 90
        1
176
     1
 40
1.0
176
     1
 90
        8
176
     1
 62
     7
176
     1
 40
1.0
176
     1
 90
        1
176
     1
 90
        6
176
     1
 90
        2
176
     1
 62
     7
176
     1
 90
        5
176
     1
 90
        0
176
     1
 90
        0
176
     1
290
     0
176
     1
 90
        1
176
     1
 40
50.0
176
     1
 90
        0
176
     1
290
     0
176
     1
290
     1
176
     1
290
     1
176
     1
290
     0
176
     1
290
     0
176
     1
290
     0
176
     1
290
     0
176
     1
290
     0
176
     1
290
     0
176
     1
 90
       50
176
     1
 40
0.0
176
     1
 40
1.0
176
     1
 90
        0
176
     1
 62
    18
420
        0
176
     1
 90
       50
176
     1
 90
        3
176
     1
 62
     5
420
      255
176
     1
290
     0
176
     1
 90
       50
176
     1
 90
       50
176
     1
 90
       50
176
     1
290
     0
176
     1
 90
       50
176
     1
 62
   256
176
     0
 40
1.0
176
     0
 90
        2
176
     1
  1
strokes_ogs.tif
176
     1
290
     0
176
     1
 40
1.0
176
     1
 40
1.0
176
     1
  0
VISUALSTYLE
  5
39
102
{ACAD_REACTORS
330
29
102
}
330
29
100
AcDbVisualStyle
  2
ColorChange
 70
    16
177
     3
291
     1
 70
    58
 90
        2
176
     1
 90
        2
176
     1
 90
        3
176
     1
 90
        0
176
     1
 40
0.6
176
     1
 40
30.0
176
     1
 62
     8
420
  8421504
176
     1
 90
        1
176
     1
 90
        4
176
     1
 62
     7
176
     1
 62
   257
176
     1
 90
        1
176
     1
 90
        1
176
     1
 40
1.0
176
     1
 90
        8
176
     1
 62
     8
420
  8421504
176
     1
 40
1.0
176
     1
 90
        1
176
     1
 90
        6
176
     1
 90
        2
176
     1
 62
     7
176
     1
 90
        5
176
     1
 90
        0
176
     1
 90
        0
176
     1
290
     0
176
     1
 90
        1
176
     1
 40
0.0
176
     1
 90
        0
176
     1
290
     0
176
     1
290
     1
176
     1
290
     1
176
     1
290
     0
176
     1
290
     0
176
     1
290
     0
176
     1
290
     0
176
     1
290
     0
176
     1
290
     0
176
     1
 90
       50
176
     1
 40
0.0
176
     1
 40
1.0
176
     1
 90
        0
176
     1
 62
    18
420
        0
176
     1
 90
       50
176
     1
 90
        3
176
     1
 62
     5
420
      255
176
     1
290
     0
176
     1
 90
       50
176
     1
 90
       50
176
     1
 90
       50
176
     1
290
     0
176
     1
 90
       50
176
     1
 62
   256
176
     0
 40
1.0
176
     0
 90
        2
176
     1
  1
strokes_ogs.tif
176
     1
290
     0
176
     1
 40
1.0
176
     1
 40
1.0
176
     1
  0
VISUALSTYLE
  5
32
102
{ACAD_REACTORS
330
29
102
}
330
29
100
AcDbVisualStyle
  2
Conceptual
 70
     9
177
     3
291
     0
 70
    58
 90
        3
176
     1
 90
        2
176
     1
 90
        0
176
     1
 90
        0
176
     1
 40
0.6
176
     1
 40
30.0
176
     1
 62
     7
420
 16777215
176
     1
 90
        2
176
     1
 90
        2
176
     1
 62
     7
176
     1
 62
   257
176
     1
 90
        1
176
     1
 90
        1
176
     1
 40
179.0
176
     1
 90
        8
176
     1
 62
     7
176
     1
 40
1.0
176
     1
 90
        1
176
     1
 90
        6
176
     1
 90
        2
176
     1
 62
     7
176
     1
 90
        3
176
     1
 90
        0
176
     1
 90
        0
176
     1
290
     0
176
     1
 90
        1
176
     1
 40
0.0
176
     1
 90
        0
176
     1
290
     0
176
     1
290
     1
176
     1
290
     1
176
     1
290
     0
176
     1
290
     0
176
     1
290
     0
176
     1
290
     0
176
     1
290
     0
176
     1
290
     0
176
     1
 90
       50
176
     1
 40
0.0
176
     1
 40
1.0
176
     1
 90
        0
176
     1
 62
    18
420
        0
176
     1
 90
       50
176
     1
 90
        3
176
     1
 62
     5
420
      255
176
     1
290
     0
176
     1
 90
       50
176
     1
 90
       50
176
     1
 90
       50
176
     1
290
     0
176
     1
 90
       50
176
     1
 62
   256
176
     0
 40
1.0
176
     0
 90
        2
176
     1
  1
strokes_ogs.tif
176
     1
290
     0
176
     1
 40
1.0
176
     1
 40
1.0
176
     1
  0
VISUALSTYLE
  5
34
102
{ACAD_REACTORS
330
29
102
}
330
29
100
AcDbVisualStyle
  2
Dim
 70
    11
177
     3
291
     1
 70
    58
 90
        2
176
     1
 90
        2
176
     1
 90
        0
176
     1
 90
        0
176
     1
 40
0.6
176
     1
 40
30.0
176
     1
 62
     7
420
 16777215
176
     1
 90
        1
176
     1
 90
        4
176
     1
 62
     7
176
     1
 62
   257
176
     1
 90
        1
176
     1
 90
        1
176
     1
 40
1.0
176
     1
 90
        8
176
     1
 62
     7
176
     1
 40
1.0
176
     1
 90
        1
176
     1
 90
        6
176
     1
 90
        2
176
     1
 62
     7
176
     1
 90
        5
176
     1
 90
        0
176
     1
 90
        0
176
     1
290
     0
176
     1
 90
        1
176
     1
 40
-50.0
176
     1
 90
        0
176
     1
290
     0
176
     1
290
     1
176
     1
290
     1
176
     1
290
     0
176
     1
290
     0
176
     1
290
     0
176
     1
290
     0
176
     1
290
     0
176
     1
290
     0
176
     1
 90
       50
176
     1
 40
0.0
176
     1
 40
1.0
176
     1
 90
        0
176
     1
 62
    18
420
        0
176
     1
 90
       50
176
     1
 90
        3
176
     1
 62
     5
420
      255
176
     1
290
     0
176
     1
 90
       50
176
     1
 90
       50
176
     1
 90
       50
176
     1
290
     0
176
     1
 90
       50
176
     1
 62
   256
176
     0
 40
1.0
176
     0
 90
        2
176
     1
  1
strokes_ogs.tif
176
     1
290
     0
176
     1
 40
1.0
176
     1
 40
1.0
176
     1
  0
VISUALSTYLE
  5
41
102
{ACAD_REACTORS
330
29
102
}
330
29
100
AcDbVisualStyle
  2
EdgeColorOff
 70
    22
177
     3
291
     1
 70
    58
 90
        2
176
     0
 90
        2
176
     0
 90
        0
176
     0
 90
        0
176
     0
 40
0.6
176
     0
 40
30.0
176
     0
 62
     7
420
 16777215
176
     0
 90
        1
176
     0
 90
        4
176
     0
 62
     7
176
     0
 62
   257
176
     0
 90
        1
176
     0
 90
        1
176
     0
 40
1.0
176
     0
 90
        8
176
     2
 62
     7
176
     0
 40
1.0
176
     0
 90
        1
176
     0
 90
        6
176
     0
 90
        2
176
     0
 62
     7
176
     0
 90
        5
176
     0
 90
        0
176
     0
 90
        0
176
     0
290
     0
176
     0
 90
        1
176
     0
 40
0.0
176
     0
 90
        0
176
     0
290
     0
176
     0
290
     1
176
     0
290
     1
176
     0
290
     0
176
     0
290
     0
176
     0
290
     0
176
     0
290
     0
176
     0
290
     0
176
     0
290
     0
176
     0
 90
       50
176
     0
 40
0.0
176
     0
 40
1.0
176
     0
 90
        0
176
     0
 62
    18
420
        0
176
     0
 90
       50
176
     0
 90
        3
176
     0
 62
     5
420
      255
176
     0
290
     0
176
     0
 90
       50
176
     0
 90
       50
176
     0
 90
       50
176
     0
290
     0
176
     0
 90
       50
176
     0
 62
   256
176
     0
 40
1.0
176
     0
 90
        2
176
     0
  1
strokes_ogs.tif
176
     0
290
     0
176
     0
 40
1.0
176
     0
 40
1.0
176
     0
  0
VISUALSTYLE
  5
38
102
{ACAD_REACTORS
330
29
102
}
330
29
100
AcDbVisualStyle
  2
Facepattern
 70
    15
177
     3
291
     1
 70
    58
 90
        2
176
     1
 90
        2
176
     1
 90
        0
176
     1
 90
        0
176
     1
 40
0.6
176
     1
 40
30.0
176
     1
 62
     7
420
 16777215
176
     1
 90
        1
176
     1
 90
        4
176
     1
 62
     7
176
     1
 62
   257
176
     1
 90
        1
176
     1
 90
        1
176
     1
 40
1.0
176
     1
 90
        8
176
     1
 62
     7
176
     1
 40
1.0
176
     1
 90
        1
176
     1
 90
        6
176
     1
 90
        2
176
     1
 62
     7
176
     1
 90
        5
176
     1
 90
        0
176
     1
 90
        0
176
     1
290
     0
176
     1
 90
        1
176
     1
 40
0.0
176
     1
 90
        0
176
     1
290
     0
176
     1
290
     1
176
     1
290
     1
176
     1
290
     0
176
     1
290
     0
176
     1
290
     0
176
     1
290
     0
176
     1
290
     0
176
     1
290
     0
176
     1
 90
       50
176
     1
 40
0.0
176
     1
 40
1.0
176
     1
 90
        0
176
     1
 62
    18
420
        0
176
     1
 90
       50
176
     1
 90
        3
176
     1
 62
     5
420
      255
176
     1
290
     0
176
     1
 90
       50
176
     1
 90
       50
176
     1
 90
       50
176
     1
290
     0
176
     1
 90
       50
176
     1
 62
   256
176
     0
 40
1.0
176
     0
 90
        2
176
     1
  1
strokes_ogs.tif
176
     1
290
     0
176
     1
 40
1.0
176
     1
 40
1.0
176
     1
  0
VISUALSTYLE
  5
2A
102
{ACAD_REACTORS
330
29
102
}
330
29
100
AcDbVisualStyle
  2
Flat
 70
     0
177
     3
291
     1
 70
    58
 90
        2
176
     1
 90
        1
176
     1
 90
        1
176
     1
 90
        2
176
     1
 40
0.6
176
     1
 40
30.0
176
     1
 62
     7
420
 16777215
176
     1
 90
        0
176
     1
 90
        0
176
     1
 62
     7
176
     1
 62
   257
176
     1
 90
        1
176
     1
 90
        1
176
     1
 40
1.0
176
     1
 90
        8
176
     1
 62
     7
176
     1
 40
1.0
176
     1
 90
        1
176
     1
 90
        6
176
     1
 90
        2
176
     1
 62
     7
176
     1
 90
        5
176
     1
 90
        0
176
     1
 90
        0
176
     1
290
     0
176
     1
 90
       13
176
     1
 40
0.0
176
     1
 90
        0
176
     1
290
     0
176
     1
290
     1
176
     1
290
     1
176
     1
290
     0
176
     1
290
     0
176
     1
290
     0
176
     1
290
     0
176
     1
290
     0
176
     1
290
     0
176
     1
 90
       50
176
     1
 40
0.0
176
     1
 40
1.0
176
     1
 90
        0
176
     1
 62
    18
420
        0
176
     1
 90
       50
176
     1
 90
        3
176
     1
 62
     5
420
      255
176
     1
290
     0
176
     1
 90
       50
176
     1
 90
       50
176
     1
 90
       50
176
     1
290
     0
176
     1
 90
       50
176
     1
 62
   256
176
     0
 40
1.0
176
     0
 90
        2
176
     1
  1
strokes_ogs.tif
176
     1
290
     0
176
     1
 40
1.0
176
     1
 40
1.0
176
     1
  0
VISUALSTYLE
  5
2B
102
{ACAD_REACTORS
330
29
102
}
330
29
100
AcDbVisualStyle
  2
FlatWithEdges
 70
     1
177
     3
291
     1
 70
    58
 90
        2
176
     1
 90
        1
176
     1
 90
        1
176
     1
 90
        2
176
     1
 40
0.6
176
     1
 40
30.0
176
     1
 62
     7
420
 16777215
176
     1
 90
        1
176
     1
 90
        0
176
     1
 62
     7
176
     1
 62
   257
176
     1
 90
        1
176
     1
 90
        1
176
     1
 40
1.0
176
     1
 90
        0
176
     1
 62
   257
176
     1
 40
1.0
176
     1
 90
        1
176
     1
 90
        6
176
     1
 90
        2
176
     1
 62
     7
176
     1
 90
        5
176
     1
 90
        0
176
     1
 90
        0
176
     1
290
     0
176
     1
 90
       13
176
     1
 40
0.0
176
     1
 90
        0
176
     1
290
     0
176
     1
290
     1
176
     1
290
     1
176
     1
290
     0
176
     1
290
     0
176
     1
290
     0
176
     1
290
     0
176
     1
290
     0
176
     1
290
     0
176
     1
 90
       50
176
     1
 40
0.0
176
     1
 40
1.0
176
     1
 90
        0
176
     1
 62
    18
420
        0
176
     1
 90
       50
176
     1
 90
        3
176
     1
 62
     5
420
      255
176
     1
290
     0
176
     1
 90
       50
176
     1
 90
       50
176
     1
 90
       50
176
     1
290
     0
176
     1
 90
       50
176
     1
 62
   256
176
     0
 40
1.0
176
     0
 90
        2
176
     1
  1
strokes_ogs.tif
176
     1
290
     0
176
     1
 40
1.0
176
     1
 40
1.0
176
     1
  0
VISUALSTYLE
  5
2C
102
{ACAD_REACTORS
330
29
102
}
330
29
100
AcDbVisualStyle
  2
Gouraud
 70
     2
177
     3
291
     1
 70
    58
 90
        2
176
     1
 90
        2
176
     1
 90
        1
176
     1
 90
        2
176
     1
 40
0.6
176
     1
 40
30.0
176
     1
 62
     7
420
 16777215
176
     1
 90
        0
176
     1
 90
        0
176
     1
 62
     7
176
     1
 62
   257
176
     1
 90
        1
176
     1
 90
        1
176
     1
 40
1.0
176
     1
 90
        0
176
     1
 62
     7
176
     1
 40
1.0
176
     1
 90
        1
176
     1
 90
        6
176
     1
 90
        2
176
     1
 62
     7
176
     1
 90
        5
176
     1
 90
        0
176
     1
 90
        0
176
     1
290
     0
176
     1
 90
       13
176
     1
 40
0.0
176
     1
 90
        0
176
     1
290
     0
176
     1
290
     1
176
     1
290
     1
176
     1
290
     0
176
     1
290
     0
176
     1
290
     0
176
     1
290
     0
176
     1
290
     0
176
     1
290
     0
176
     1
 90
       50
176
     1
 40
0.0
176
     1
 40
1.0
176
     1
 90
        0
176
     1
 62
    18
420
        0
176
     1
 90
       50
176
     1
 90
        3
176
     1
 62
     5
420
      255
176
     1
290
     0
176
     1
 90
       50
176
     1
 90
       50
176
     1
 90
       50
176
     1
290
     0
176
     1
 90
       50
176
     1
 62
   256
176
     0
 40
1.0
176
     0
 90
        2
176
     1
  1
strokes_ogs.tif
176
     1
290
     0
176
     1
 40
1.0
176
     1
 40
1.0
176
     1
  0
VISUALSTYLE
  5
2D
102
{ACAD_REACTORS
330
29
102
}
330
29
100
AcDbVisualStyle
  2
GouraudWithEdges
 70
     3
177
     3
291
     1
 70
    58
 90
        2
176
     1
 90
        2
176
     1
 90
        1
176
     1
 90
        2
176
     1
 40
0.6
176
     1
 40
30.0
176
     1
 62
     7
420
 16777215
176
     1
 90
        1
176
     1
 90
        0
176
     1
 62
     7
176
     1
 62
   257
176
     1
 90
        1
176
     1
 90
        1
176
     1
 40
1.0
176
     1
 90
        0
176
     1
 62
   257
176
     1
 40
1.0
176
     1
 90
        1
176
     1
 90
        6
176
     1
 90
        2
176
     1
 62
     7
176
     1
 90
        5
176
     1
 90
        0
176
     1
 90
        0
176
     1
290
     0
176
     1
 90
       13
176
     1
 40
0.0
176
     1
 90
        0
176
     1
290
     0
176
     1
290
     1
176
     1
290
     1
176
     1
290
     0
176
     1
290
     0
176
     1
290
     0
176
     1
290
     0
176
     1
290
     0
176
     1
290
     0
176
     1
 90
       50
176
     1
 40
0.0
176
     1
 40
1.0
176
     1
 90
        0
176
     1
 62
    18
420
        0
176
     1
 90
       50
176
     1
 90
        3
176
     1
 62
     5
420
      255
176
     1
290
     0
176
     1
 90
       50
176
     1
 90
       50
176
     1
 90
       50
176
     1
290
     0
176
     1
 90
       50
176
     1
 62
   256
176
     0
 40
1.0
176
     0
 90
        2
176
     1
  1
strokes_ogs.tif
176
     1
290
     0
176
     1
 40
1.0
176
     1
 40
1.0
176
     1
  0
VISUALSTYLE
  5
31
102
{ACAD_REACTORS
330
29
102
}
330
29
100
AcDbVisualStyle
  2
Hidden
 70
     6
177
     3
291
     0
 70
    58
 90
        1
176
     1
 90
        2
176
     1
 90
        2
176
     1
 90
        0
176
     1
 40
0.6
176
     1
 40
30.0
176
     1
 62
     7
420
 16777215
176
     1
 90
        2
176
     1
 90
        2
176
     1
 62
     7
176
     1
 62
   257
176
     1
 90
        2
176
     1
 90
        1
176
     1
 40
40.0
176
     1
 90
        0
176
     1
 62
   257
176
     1
 40
1.0
176
     1
 90
        1
176
     1
 90
        6
176
     1
 90
        2
176
     1
 62
     7
176
     1
 90
        3
176
     1
 90
        0
176
     1
 90
        0
176
     1
290
     0
176
     1
 90
        1
176
     1
 40
0.0
176
     1
 90
        0
176
     1
290
     0
176
     1
290
     1
176
     1
290
     1
176
     1
290
     0
176
     1
290
     0
176
     1
290
     0
176
     1
290
     0
176
     1
290
     0
176
     1
290
     0
176
     1
 90
       50
176
     1
 40
0.0
176
     1
 40
1.0
176
     1
 90
        0
176
     1
 62
    18
420
        0
176
     1
 90
       50
176
     1
 90
        3
176
     1
 62
     5
420
      255
176
     1
290
     0
176
     1
 90
       50
176
     1
 90
       50
176
     1
 90
       50
176
     1
290
     0
176
     1
 90
       50
176
     1
 62
   256
176
     0
 40
1.0
176
     0
 90
        2
176
     1
  1
strokes_ogs.tif
176
     1
290
     0
176
     1
 40
1.0
176
     1
 40
1.0
176
     1
  0
VISUALSTYLE
  5
3F
102
{ACAD_REACTORS
330
29
102
}
330
29
100
AcDbVisualStyle
  2
JitterOff
 70
    20
177
     3
291
     1
 70
    58
 90
        2
176
     0
 90
        2
176
     0
 90
        0
176
     0
 90
        0
176
     0
 40
0.6
176
     0
 40
30.0
176
     0
 62
     7
420
 16777215
176
     0
 90
        1
176
     0
 90
        4
176
     0
 62
     7
176
     0
 62
   257
176
     0
 90
        1
176
     0
 90
        1
176
     0
 40
1.0
176
     0
 90
       10
176
     2
 62
     7
176
     0
 40
1.0
176
     0
 90
        1
176
     0
 90
        6
176
     0
 90
        2
176
     0
 62
     7
176
     0
 90
        5
176
     0
 90
        0
176
     0
 90
        0
176
     0
290
     0
176
     0
 90
        1
176
     0
 40
0.0
176
     0
 90
        0
176
     0
290
     0
176
     0
290
     1
176
     0
290
     1
176
     0
290
     0
176
     0
290
     0
176
     0
290
     0
176
     0
290
     0
176
     0
290
     0
176
     0
290
     0
176
     0
 90
       50
176
     0
 40
0.0
176
     0
 40
1.0
176
     0
 90
        0
176
     0
 62
    18
420
        0
176
     0
 90
       50
176
     0
 90
        3
176
     0
 62
     5
420
      255
176
     0
290
     0
176
     0
 90
       50
176
     0
 90
       50
176
     0
 90
       50
176
     0
290
     0
176
     0
 90
       50
176
     0
 62
   256
176
     0
 40
1.0
176
     0
 90
        2
176
     0
  1
strokes_ogs.tif
176
     0
290
     0
176
     0
 40
1.0
176
     0
 40
1.0
176
     0
  0
VISUALSTYLE
  5
37
102
{ACAD_REACTORS
330
29
102
}
330
29
100
AcDbVisualStyle
  2
Linepattern
 70
    14
177
     3
291
     1
 70
    58
 90
        2
176
     1
 90
        2
176
     1
 90
        0
176
     1
 90
        0
176
     1
 40
0.6
176
     1
 40
30.0
176
     1
 62
     7
420
 16777215
176
     1
 90
        1
176
     1
 90
        4
176
     1
 62
     7
176
     1
 62
   257
176
     1
 90
        7
176
     1
 90
        7
176
     1
 40
1.0
176
     1
 90
        8
176
     1
 62
     7
176
     1
 40
1.0
176
     1
 90
        1
176
     1
 90
        6
176
     1
 90
        2
176
     1
 62
     7
176
     1
 90
        5
176
     1
 90
        0
176
     1
 90
        0
176
     1
290
     0
176
     1
 90
        1
176
     1
 40
0.0
176
     1
 90
        0
176
     1
290
     0
176
     1
290
     1
176
     1
290
     1
176
     1
290
     0
176
     1
290
     0
176
     1
290
     0
176
     1
290
     0
176
     1
290
     0
176
     1
290
     0
176
     1
 90
       50
176
     1
 40
0.0
176
     1
 40
1.0
176
     1
 90
        0
176
     1
 62
    18
420
        0
176
     1
 90
       50
176
     1
 90
        3
176
     1
 62
     5
420
      255
176
     1
290
     0
176
     1
 90
       50
176
     1
 90
       50
176
     1
 90
       50
176
     1
290
     0
176
     1
 90
       50
176
     1
 62
   256
176
     0
 40
1.0
176
     0
 90
        2
176
     1
  1
strokes_ogs.tif
176
     1
290
     0
176
     1
 40
1.0
176
     1
 40
1.0
176
     1
  0
VISUALSTYLE
  5
40
102
{ACAD_REACTORS
330
29
102
}
330
29
100
AcDbVisualStyle
  2
OverhangOff
 70
    21
177
     3
291
     1
 70
    58
 90
        2
176
     0
 90
        2
176
     0
 90
        0
176
     0
 90
        0
176
     0
 40
0.6
176
     0
 40
30.0
176
     0
 62
     7
420
 16777215
176
     0
 90
        1
176
     0
 90
        4
176
     0
 62
     7
176
     0
 62
   257
176
     0
 90
        1
176
     0
 90
        1
176
     0
 40
1.0
176
     0
 90
        9
176
     2
 62
     7
176
     0
 40
1.0
176
     0
 90
        1
176
     0
 90
        6
176
     0
 90
        2
176
     0
 62
     7
176
     0
 90
        5
176
     0
 90
        0
176
     0
 90
        0
176
     0
290
     0
176
     0
 90
        1
176
     0
 40
0.0
176
     0
 90
        0
176
     0
290
     0
176
     0
290
     1
176
     0
290
     1
176
     0
290
     0
176
     0
290
     0
176
     0
290
     0
176
     0
290
     0
176
     0
290
     0
176
     0
290
     0
176
     0
 90
       50
176
     0
 40
0.0
176
     0
 40
1.0
176
     0
 90
        0
176
     0
 62
    18
420
        0
176
     0
 90
       50
176
     0
 90
        3
176
     0
 62
     5
420
      255
176
     0
290
     0
176
     0
 90
       50
176
     0
 90
       50
176
     0
 90
       50
176
     0
290
     0
176
     0
 90
       50
176
     0
 62
   256
176
     0
 40
1.0
176
     0
 90
        2
176
     0
  1
strokes_ogs.tif
176
     0
290
     0
176
     0
 40
1.0
176
     0
 40
1.0
176
     0
  0
VISUALSTYLE
  5
33
102
{ACAD_REACTORS
330
29
102
}
330
29
100
AcDbVisualStyle
  2
Realistic
 70
     8
177
     3
291
     0
 70
    58
 90
        2
176
     1
 90
        3
176
     1
 90
        0
176
     1
 90
        2
176
     1
 40
0.6
176
     1
 40
30.0
176
     1
 62
     7
420
 16777215
176
     1
 90
        0
176
     1
 90
        0
176
     1
 62
     7
176
     1
 62
   257
176
     1
 90
        1
176
     1
 90
        1
176
     1
 40
1.0
176
     1
 90
        8
176
     1
 62
   257
176
     1
 40
1.0
176
     1
 90
        1
176
     1
 90
        6
176
     1
 90
        2
176
     1
 62
     7
176
     1
 90
        3
176
     1
 90
        0
176
     1
 90
        0
176
     1
290
     0
176
     1
 90
       13
176
     1
 40
0.0
176
     1
 90
        0
176
     1
290
     0
176
     1
290
     1
176
     1
290
     1
176
     1
290
     0
176
     1
290
     0
176
     1
290
     0
176
     1
290
     0
176
     1
290
     0
176
     1
290
     0
176
     1
 90
       50
176
     1
 40
0.0
176
     1
 40
1.0
176
     1
 90
        0
176
     1
 62
    18
420
        0
176
     1
 90
       50
176
     1
 90
        3
176
     1
 62
     5
420
      255
176
     1
290
     0
176
     1
 90
       50
176
     1
 90
       50
176
     1
 90
       50
176
     1
290
     0
176
     1
 90
       50
176
     1
 62
   256
176
     0
 40
1.0
176
     0
 90
        2
176
     1
  1
strokes_ogs.tif
176
     1
290
     0
176
     1
 40
1.0
176
     1
 40
1.0
176
     1
  0
VISUALSTYLE
  5
3E
102
{ACAD_REACTORS
330
29
102
}
330
29
100
AcDbVisualStyle
  2
Shaded
 70
    27
177
     3
291
     0
 70
    58
 90
        2
176
     1
 90
        2
176
     1
 90
        1
176
     1
 90
        2
176
     1
 40
0.6
176
     1
 40
30.0
176
     1
 62
     7
420
 16777215
176
     1
 90
        0
176
     1
 90
        4
176
     1
 62
     7
176
     1
 62
   257
176
     1
 90
        1
176
     1
 90
        1
176
     1
 40
1.0
176
     1
 90
        8
176
     1
 62
   257
176
     1
 40
1.0
176
     1
 90
        1
176
     1
 90
        6
176
     1
 90
        2
176
     1
 62
     8
420
  7895160
176
     1
 90
        3
176
     1
 90
        0
176
     1
 90
        0
176
     1
290
     0
176
     1
 90
        5
176
     1
 40
0.0
176
     1
 90
        0
176
     1
290
     0
176
     1
290
     1
176
     1
290
     1
176
     1
290
     0
176
     1
290
     0
176
     1
290
     0
176
     1
290
     0
176
     1
290
     0
176
     1
290
     0
176
     1
 90
       50
176
     1
 40
0.0
176
     1
 40
1.0
176
     1
 90
        0
176
     1
 62
    18
420
        0
176
     1
 90
       50
176
     1
 90
        3
176
     1
 62
     5
420
      255
176
     1
290
     0
176
     1
 90
       50
176
     1
 90
       50
176
     1
 90
       50
176
     1
290
     0
176
     1
 90
       50
176
     1
 62
   256
176
     0
 40
1.0
176
     0
 90
        2
176
     1
  1
strokes_ogs.tif
176
     1
290
     0
176
     1
 40
1.0
176
     1
 40
1.0
176
     1
  0
VISUALSTYLE
  5
3D
102
{ACAD_REACTORS
330
29
102
}
330
29
100
AcDbVisualStyle
  2
Shaded with edges
 70
    26
177
     3
291
     0
 70
    58
 90
        2
176
     1
 90
        2
176
     1
 90
        1
176
     1
 90
        2
176
     1
 40
0.6
176
     1
 40
30.0
176
     1
 62
     7
420
 16777215
176
     1
 90
        1
176
     1
 90
        2
176
     1
 62
     7
176
     1
 62
   257
176
     1
 90
        2
176
     1
 90
        1
176
     1
 40
1.0
176
     1
 90
        8
176
     1
 62
   257
176
     1
 40
1.0
176
     1
 90
        1
176
     1
 90
        6
176
     1
 90
        2
176
     1
 62
     7
176
     1
 90
        3
176
     1
 90
        0
176
     1
 90
        0
176
     1
290
     0
176
     1
 90
        5
176
     1
 40
0.0
176
     1
 90
        0
176
     1
290
     0
176
     1
290
     1
176
     1
290
     1
176
     1
290
     0
176
     1
290
     0
176
     1
290
     0
176
     1
290
     0
176
     1
290
     0
176
     1
290
     0
176
     1
 90
       50
176
     1
 40
0.0
176
     1
 40
1.0
176
     1
 90
        0
176
     1
 62
    18
420
        0
176
     1
 90
       50
176
     1
 90
        3
176
     1
 62
     5
420
      255
176
     1
290
     0
176
     1
 90
       50
176
     1
 90
       50
176
     1
 90
       50
176
     1
290
     0
176
     1
 90
       50
176
     1
 62
   256
176
     0
 40
1.0
176
     0
 90
        2
176
     1
  1
strokes_ogs.tif
176
     1
290
     0
176
     1
 40
1.0
176
     1
 40
1.0
176
     1
  0
VISUALSTYLE
  5
3A
102
{ACAD_REACTORS
330
29
102
}
330
29
100
AcDbVisualStyle
  2
Shades of Gray
 70
    23
177
     3
291
     0
 70
    58
 90
        2
176
     1
 90
        2
176
     1
 90
        3
176
     1
 90
        0
176
     1
 40
0.6
176
     1
 40
30.0
176
     1
 62
     7
420
 16777215
176
     1
 90
        2
176
     1
 90
        2
176
     1
 62
     7
176
     1
 62
     7
176
     1
 90
        1
176
     1
 90
        1
176
     1
 40
40.0
176
     1
 90
        8
176
     1
 62
     7
176
     1
 40
1.0
176
     1
 90
        1
176
     1
 90
        6
176
     1
 90
        2
176
     1
 62
     7
176
     1
 90
        3
176
     1
 90
        0
176
     1
 90
        0
176
     1
290
     0
176
     1
 90
        1
176
     1
 40
0.0
176
     1
 90
        0
176
     1
290
     0
176
     1
290
     1
176
     1
290
     1
176
     1
290
     0
176
     1
290
     0
176
     1
290
     0
176
     1
290
     0
176
     1
290
     0
176
     1
290
     0
176
     1
 90
       50
176
     1
 40
0.0
176
     1
 40
1.0
176
     1
 90
        0
176
     1
 62
    18
420
        0
176
     1
 90
       50
176
     1
 90
        3
176
     1
 62
     5
420
      255
176
     1
290
     0
176
     1
 90
       50
176
     1
 90
       50
176
     1
 90
       50
176
     1
290
     0
176
     1
 90
       50
176
     1
 62
   256
176
     0
 40
1.0
176
     0
 90
        2
176
     1
  1
strokes_ogs.tif
176
     1
290
     0
176
     1
 40
1.0
176
     1
 40
1.0
176
     1
  0
VISUALSTYLE
  5
3B
102
{ACAD_REACTORS
330
29
102
}
330
29
100
AcDbVisualStyle
  2
Sketchy
 70
    24
177
     3
291
     0
 70
    58
 90
        1
176
     1
 90
        2
176
     1
 90
        2
176
     1
 90
        0
176
     1
 40
0.6
176
     1
 40
30.0
176
     1
 62
     7
420
 16777215
176
     1
 90
        2
176
     1
 90
        2
176
     1
 62
     7
176
     1
 62
     7
176
     1
 90
        1
176
     1
 90
        1
176
     1
 40
40.0
176
     1
 90
       11
176
     1
 62
     7
176
     1
 40
1.0
176
     1
 90
        1
176
     1
 90
        6
176
     1
 90
        2
176
     1
 62
     7
176
     1
 90
        6
176
     1
 90
        0
176
     1
 90
        0
176
     1
290
     0
176
     1
 90
        1
176
     1
 40
0.0
176
     1
 90
        0
176
     1
290
     0
176
     1
290
     1
176
     1
290
     1
176
     1
290
     0
176
     1
290
     0
176
     1
290
     0
176
     1
290
     0
176
     1
290
     0
176
     1
290
     0
176
     1
 90
       50
176
     1
 40
0.0
176
     1
 40
1.0
176
     1
 90
        0
176
     1
 62
    18
420
        0
176
     1
 90
       50
176
     1
 90
        3
176
     1
 62
     5
420
      255
176
     1
290
     0
176
     1
 90
       50
176
     1
 90
       50
176
     1
 90
       50
176
     1
290
     0
176
     1
 90
       50
176
     1
 62
   256
176
     0
 40
1.0
176
     0
 90
        2
176
     1
  1
strokes_ogs.tif
176
     1
290
     0
176
     1
 40
1.0
176
     1
 40
1.0
176
     1
  0
VISUALSTYLE
  5
36
102
{ACAD_REACTORS
330
29
102
}
330
29
100
AcDbVisualStyle
  2
Thicken
 70
    13
177
     3
291
     1
 70
    58
 90
        2
176
     1
 90
        2
176
     1
 90
        0
176
     1
 90
        0
176
     1
 40
0.6
176
     1
 40
30.0
176
     1
 62
     7
420
 16777215
176
     1
 90
        1
176
     1
 90
        4
176
     1
 62
     7
176
     1
 62
   257
176
     1
 90
        1
176
     1
 90
        1
176
     1
 40
1.0
176
     1
 90
       12
176
     1
 62
     7
176
     1
 40
1.0
176
     1
 90
        1
176
     1
 90
        6
176
     1
 90
        2
176
     1
 62
     7
176
     1
 90
        5
176
     1
 90
        0
176
     1
 90
        0
176
     1
290
     0
176
     1
 90
        1
176
     1
 40
0.0
176
     1
 90
        0
176
     1
290
     0
176
     1
290
     1
176
     1
290
     1
176
     1
290
     0
176
     1
290
     0
176
     1
290
     0
176
     1
290
     0
176
     1
290
     0
176
     1
290
     0
176
     1
 90
       50
176
     1
 40
0.0
176
     1
 40
1.0
176
     1
 90
        0
176
     1
 62
    18
420
        0
176
     1
 90
       50
176
     1
 90
        3
176
     1
 62
     5
420
      255
176
     1
290
     0
176
     1
 90
       50
176
     1
 90
       50
176
     1
 90
       50
176
     1
290
     0
176
     1
 90
       50
176
     1
 62
   256
176
     0
 40
1.0
176
     0
 90
        2
176
     1
  1
strokes_ogs.tif
176
     1
290
     0
176
     1
 40
1.0
176
     1
 40
1.0
176
     1
  0
VISUALSTYLE
  5
30
102
{ACAD_REACTORS
330
29
102
}
330
29
100
AcDbVisualStyle
  2
Wireframe
 70
     5
177
     3
291
     0
 70
    58
 90
        0
176
     1
 90
        2
176
     1
 90
        0
176
     1
 90
        0
176
     1
 40
0.6
176
     1
 40
30.0
176
     1
 62
     7
420
 16777215
176
     1
 90
        1
176
     1
 90
        4
176
     1
 62
     7
176
     1
 62
   257
176
     1
 90
        1
176
     1
 90
        1
176
     1
 40
1.0
176
     1
 90
        0
176
     1
 62
   257
176
     1
 40
1.0
176
     1
 90
        1
176
     1
 90
        6
176
     1
 90
        2
176
     1
 62
     7
176
     1
 90
        3
176
     1
 90
        0
176
     1
 90
        0
176
     1
290
     0
176
     1
 90
        1
176
     1
 40
0.0
176
     1
 90
        0
176
     1
290
     0
176
     1
290
     1
176
     1
290
     1
176
     1
290
     0
176
     1
290
     0
176
     1
290
     0
176
     1
290
     0
176
     1
290
     0
176
     1
290
     0
176
     1
 90
       50
176
     1
 40
0.0
176
     1
 40
1.0
176
     1
 90
        0
176
     1
 62
    18
420
        0
176
     1
 90
       50
176
     1
 90
        3
176
     1
 62
     5
420
      255
176
     1
290
     0
176
     1
 90
       50
176
     1
 90
       50
176
     1
 90
       50
176
     1
290
     0
176
     1
 90
       50
176
     1
 62
   256
176
     0
 40
1.0
176
     0
 90
        2
176
     1
  1
strokes_ogs.tif
176
     1
290
     0
176
     1
 40
1.0
176
     1
 40
1.0
176
     1
  0
VISUALSTYLE
  5
3C
102
{ACAD_REACTORS
330
29
102
}
330
29
100
AcDbVisualStyle
  2
X-Ray
 70
    25
177
     3
291
     0
 70
    58
 90
        2
176
     1
 90
        2
176
     1
 90
        1
176
     1
 90
        1
176
     1
 40
0.5
176
     1
 40
30.0
176
     1
 62
     7
420
 16777215
176
     1
 90
        1
176
     1
 90
        0
176
     1
 62
     7
176
     1
 62
   257
176
     1
 90
        1
176
     1
 90
        1
176
     1
 40
1.0
176
     1
 90
        8
176
     1
 62
     7
176
     1
 40
1.0
176
     1
 90
        1
176
     1
 90
        6
176
     1
 90
        2
176
     1
 62
     7
176
     1
 90
        3
176
     1
 90
        0
176
     1
 90
        0
176
     1
290
     0
176
     1
 90
       13
176
     1
 40
0.0
176
     1
 90
        0
176
     1
290
     0
176
     1
290
     1
176
     1
290
     1
176
     1
290
     0
176
     1
290
     0
176
     1
290
     0
176
     1
290
     0
176
     1
290
     0
176
     1
290
     0
176
     1
 90
       50
176
     1
 40
0.0
176
     1
 40
1.0
176
     1
 90
        0
176
     1
 62
    18
420
        0
176
     1
 90
       50
176
     1
 90
        3
176
     1
 62
     5
420
      255
176
     1
290
     0
176
     1
 90
       50
176
     1
 90
       50
176
     1
 90
       50
176
     1
290
     0
176
     1
 90
       50
176
     1
 62
   256
176
     0
 40
1.0
176
     0
 90
        2
176
     1
  1
strokes_ogs.tif
176
     1
290
     0
176
     1
 40
1.0
176
     1
 40
1.0
176
     1
  0
DICTIONARYVAR
  5
30F
102
{ACAD_REACTORS
330
30A
102
}
330
30A
100
DictionaryVariables
280
     0
  1
1:1
  0
DICTIONARYVAR
  5
30C
102
{ACAD_REACTORS
330
30A
102
}
330
30A
100
DictionaryVariables
280
     0
  1
STANDARD
  0
DICTIONARYVAR
  5
30B
102
{ACAD_REACTORS
330
30A
102
}
330
30A
100
DictionaryVariables
280
     0
  1
STANDARD
  0
DICTIONARYVAR
  5
30D
102
{ACAD_REACTORS
330
30A
102
}
330
30A
100
DictionaryVariables
280
     0
  1
Imperial24
  0
DICTIONARYVAR
  5
30E
102
{ACAD_REACTORS
330
30A
102
}
330
30A
100
DictionaryVariables
280
     0
  1
Imperial24
  0
DICTIONARY
  5
1A
330
19
100
AcDbDictionary
280
     1
281
     1
  3
BUMPTILE
360
1C
  3
DIFFUSETILE
360
1B
  3
OPACITYTILE
360
1F
  3
REFLECTIONTILE
360
1E
  3
REFRACTIONTILE
360
20
  3
SPECULARTILE
360
1D
  0
DICTIONARY
  5
12
330
11
100
AcDbDictionary
280
     1
281
     1
  3
BUMPTILE
360
14
  3
DIFFUSETILE
360
13
  3
OPACITYTILE
360
17
  3
REFLECTIONTILE
360
16
  3
REFRACTIONTILE
360
18
  3
SPECULARTILE
360
15
  0
DICTIONARY
  5
22
330
21
100
AcDbDictionary
280
     1
281
     1
  3
BUMPTILE
360
24
  3
DIFFUSETILE
360
23
  3
OPACITYTILE
360
27
  3
REFLECTIONTILE
360
26
  3
REFRACTIONTILE
360
28
  3
SPECULARTILE
360
25
  0
DICTIONARY
  5
310
330
65
100
AcDbDictionary
280
     1
281
     1
  3
ACAD_ROUNDTRIP_2008_TABLESTYLE_CELLSTYLEMAP
360
311
  0
XRECORD
  5
1C
102
{ACAD_REACTORS
330
1A
102
}
330
1A
100
AcDbXrecord
280
     1
270
     1
271
     1
  0
XRECORD
  5
1B
102
{ACAD_REACTORS
330
1A
102
}
330
1A
100
AcDbXrecord
280
     1
270
     1
271
     1
  0
XRECORD
  5
1F
102
{ACAD_REACTORS
330
1A
102
}
330
1A
100
AcDbXrecord
280
     1
270
     1
271
     1
  0
XRECORD
  5
1E
102
{ACAD_REACTORS
330
1A
102
}
330
1A
100
AcDbXrecord
280
     1
270
     1
271
     1
  0
XRECORD
  5
20
102
{ACAD_REACTORS
330
1A
102
}
330
1A
100
AcDbXrecord
280
     1
270
     1
271
     1
  0
XRECORD
  5
1D
102
{ACAD_REACTORS
330
1A
102
}
330
1A
100
AcDbXrecord
280
     1
270
     1
271
     1
  0
XRECORD
  5
14
102
{ACAD_REACTORS
330
12
102
}
330
12
100
AcDbXrecord
280
     1
270
     1
271
     1
  0
XRECORD
  5
13
102
{ACAD_REACTORS
330
12
102
}
330
12
100
AcDbXrecord
280
     1
270
     1
271
     1
  0
XRECORD
  5
17
102
{ACAD_REACTORS
330
12
102
}
330
12
100
AcDbXrecord
280
     1
270
     1
271
     1
  0
XRECORD
  5
16
102
{ACAD_REACTORS
330
12
102
}
330
12
100
AcDbXrecord
280
     1
270
     1
271
     1
  0
XRECORD
  5
18
102
{ACAD_REACTORS
330
12
102
}
330
12
100
AcDbXrecord
280
     1
270
     1
271
     1
  0
XRECORD
  5
15
102
{ACAD_REACTORS
330
12
102
}
330
12
100
AcDbXrecord
280
     1
270
     1
271
     1
  0
XRECORD
  5
24
102
{ACAD_REACTORS
330
22
102
}
330
22
100
AcDbXrecord
280
     1
270
     1
271
     1
  0
XRECORD
  5
23
102
{ACAD_REACTORS
330
22
102
}
330
22
100
AcDbXrecord
280
     1
270
     1
271
     1
  0
XRECORD
  5
27
102
{ACAD_REACTORS
330
22
102
}
330
22
100
AcDbXrecord
280
     1
270
     1
271
     1
  0
XRECORD
  5
26
102
{ACAD_REACTORS
330
22
102
}
330
22
100
AcDbXrecord
280
     1
270
     1
271
     1
  0
XRECORD
  5
28
102
{ACAD_REACTORS
330
22
102
}
330
22
100
AcDbXrecord
280
     1
270
     1
271
     1
  0
XRECORD
  5
25
102
{ACAD_REACTORS
330
22
102
}
330
22
100
AcDbXrecord
280
     1
270
     1
271
     1
  0
CELLSTYLEMAP
  5
311
102
{ACAD_REACTORS
330
310
102
}
330
310
100
AcDbCellStyleMap
 90
        3
300
CELLSTYLE
  1
TABLEFORMAT_BEGIN
 90
        5
170
     1
 91
        0
 92
    32768
 62
   257
 93
        1
300
CONTENTFORMAT
  1
CONTENTFORMAT_BEGIN
 90
        0
 91
        0
 92
      512
 93
        0
300

 40
0.0
140
1.0
 94
        5
 62
     0
340
55
144
0.25
309
CONTENTFORMAT_END
171
     0
 94
        0
309
TABLEFORMAT_END
  1
CELLSTYLE_BEGIN
 90
        1
 91
        1
300
_TITLE
309
CELLSTYLE_END
300
CELLSTYLE
  1
TABLEFORMAT_BEGIN
 90
        5
170
     1
 91
        0
 92
        0
 62
   257
 93
        1
300
CONTENTFORMAT
  1
CONTENTFORMAT_BEGIN
 90
        0
 91
        0
 92
      512
 93
        0
300

 40
0.0
140
1.0
 94
        5
 62
     0
340
55
144
0.18
309
CONTENTFORMAT_END
171
     0
 94
        0
309
TABLEFORMAT_END
  1
CELLSTYLE_BEGIN
 90
        2
 91
        1
300
_HEADER
309
CELLSTYLE_END
300
CELLSTYLE
  1
TABLEFORMAT_BEGIN
 90
        5
170
     1
 91
        0
 92
        0
 62
   257
 93
        1
300
CONTENTFORMAT
  1
CONTENTFORMAT_BEGIN
 90
        0
 91
        0
 92
      512
 93
        0
300

 40
0.0
140
1.0
 94
        2
 62
     0
340
55
144
0.18
309
CONTENTFORMAT_END
171
     0
 94
        0
309
TABLEFORMAT_END
  1
CELLSTYLE_BEGIN
 90
        3
 91
        2
300
_DATA
309
CELLSTYLE_END
  0
ENDSEC
  0
EOF
