  0
SECTION
  2
HEADER
  9
$ACADVER
  1
AC1032
  9
$ACADMAINTVER
 90
      251
  9
$DWGCODEPAGE
  3
ANSI_1252
  9
$REQUIREDVERSIONS
160
                 0
  9
$INSBASE
 10
0.0
 20
0.0
 30
0.0
  9
$EXTMIN
 10
1.000000000000000E+20
 20
1.000000000000000E+20
 30
1.000000000000000E+20
  9
$EXTMAX
 10
-1.000000000000000E+20
 20
-1.000000000000000E+20
 30
-1.000000000000000E+20
  9
$LIMMIN
 10
0.0
 20
0.0
  9
$LIMMAX
 10
12.0
 20
9.0
  9
$ORTHOMODE
 70
     0
  9
$REGENMODE
 70
     1
  9
$FILLMODE
 70
     1
  9
$QTEXTMODE
 70
     0
  9
$MIRRTEXT
 70
     0
  9
$LTSCALE
 40
1.0
  9
$ATTMODE
 70
     1
  9
$TEXTSIZE
 40
0.2
  9
$TRACEWID
 40
0.05
  9
$TEXTSTYLE
  7
Standard
  9
$CLAYER
  8
0
  9
$CELTYPE
  6
ByLayer
  9
$CECOLOR
 62
   256
  9
$CELTSCALE
 40
1.0
  9
$DISPSILH
 70
     0
  9
$DIMSCALE
 40
1.0
  9
$DIMASZ
 40
0.18
  9
$DIMEXO
 40
0.0625
  9
$DIMDLI
 40
0.38
  9
$DIMRND
 40
0.0
  9
$DIMDLE
 40
0.0
  9
$DIMEXE
 40
0.18
  9
$DIMTP
 40
0.0
  9
$DIMTM
 40
0.0
  9
$DIMTXT
 40
0.18
  9
$DIMCEN
 40
0.09
  9
$DIMTSZ
 40
0.0
  9
$DIMTOL
 70
     0
  9
$DIMLIM
 70
     0
  9
$DIMTIH
 70
     1
  9
$DIMTOH
 70
     1
  9
$DIMSE1
 70
     0
  9
$DIMSE2
 70
     0
  9
$DIMTAD
 70
     0
  9
$DIMZIN
 70
     0
  9
$DIMBLK
  1

  9
$DIMASO
 70
     1
  9
$DIMSHO
 70
     1
  9
$DIMPOST
  1

  9
$DIMAPOST
  1

  9
$DIMALT
 70
     0
  9
$DIMALTD
 70
     2
  9
$DIMALTF
 40
25.4
  9
$DIMLFAC
 40
1.0
  9
$DIMTOFL
 70
     0
  9
$DIMTVP
 40
0.0
  9
$DIMTIX
 70
     0
  9
$DIMSOXD
 70
     0
  9
$DIMSAH
 70
     0
  9
$DIMBLK1
  1

  9
$DIMBLK2
  1

  9
$DIMSTYLE
  2
Standard
  9
$DIMCLRD
 70
     0
  9
$DIMCLRE
 70
     0
  9
$DIMCLRT
 70
     0
  9
$DIMTFAC
 40
1.0
  9
$DIMGAP
 40
0.09
  9
$DIMJUST
 70
     0
  9
$DIMSD1
 70
     0
  9
$DIMSD2
 70
     0
  9
$DIMTOLJ
 70
     1
  9
$DIMTZIN
 70
     0
  9
$DIMALTZ
 70
     0
  9
$DIMALTTZ
 70
     0
  9
$DIMUPT
 70
     0
  9
$DIMDEC
 70
     4
  9
$DIMTDEC
 70
     4
  9
$DIMALTU
 70
     2
  9
$DIMALTTD
 70
     2
  9
$DIMTXSTY
  7
Standard
  9
$DIMAUNIT
 70
     0
  9
$DIMADEC
 70
     0
  9
$DIMALTRND
 40
0.0
  9
$DIMAZIN
 70
     0
  9
$DIMDSEP
 70
    46
  9
$DIMATFIT
 70
     3
  9
$DIMFRAC
 70
     0
  9
$DIMLDRBLK
  1

  9
$DIMLUNIT
 70
     2
  9
$DIMLWD
 70
    -2
  9
$DIMLWE
 70
    -2
  9
$DIMTMOVE
 70
     0
  9
$DIMFXL
 40
1.0
  9
$DIMFXLON
 70
     0
  9
$DIMJOGANG
 40
0.7853981633974483
  9
$DIMTFILL
 70
     0
  9
$DIMTFILLCLR
 70
     0
  9
$DIMARCSYM
 70
     0
  9
$DIMLTYPE
  6

  9
$DIMLTEX1
  6

  9
$DIMLTEX2
  6

  9
$DIMTXTDIRECTION
 70
     0
  9
$LUNITS
 70
     2
  9
$LUPREC
 70
     4
  9
$SKETCHINC
 40
0.1
  9
$FILLETRAD
 40
0.0
  9
$AUNITS
 70
     0
  9
$AUPREC
 70
     0
  9
$MENU
  1
.
  9
$ELEVATION
 40
0.0
  9
$PELEVATION
 40
0.0
  9
$THICKNESS
 40
0.0
  9
$LIMCHECK
 70
     0
  9
$CHAMFERA
 40
0.0
  9
$CHAMFERB
 40
0.0
  9
$CHAMFERC
 40
0.0
  9
$CHAMFERD
 40
0.0
  9
$SKPOLY
 70
     0
  9
$TDCREATE
 40
2459963.400821759
  9
$TDUCREATE
 40
2459963.359155093
  9
$TDUPDATE
 40
2459963.400821759
  9
$TDUUPDATE
 40
2459963.359155093
  9
$TDINDWG
 40
0.0000000000
  9
$TDUSRTIMER
 40
0.0000000000
  9
$USRTIMER
 70
     1
  9
$ANGBASE
 50
0.0
  9
$ANGDIR
 70
     0
  9
$PDMODE
 70
     0
  9
$PDSIZE
 40
0.0
  9
$PLINEWID
 40
0.0
  9
$SPLFRAME
 70
     0
  9
$SPLINETYPE
 70
     6
  9
$SPLINESEGS
 70
     8
  9
$HANDSEED
  5
258
  9
$SURFTAB1
 70
     6
  9
$SURFTAB2
 70
     6
  9
$SURFTYPE
 70
     6
  9
$SURFU
 70
     6
  9
$SURFV
 70
     6
  9
$UCSBASE
  2

  9
$UCSNAME
  2

  9
$UCSORG
 10
0.0
 20
0.0
 30
0.0
  9
$UCSXDIR
 10
1.0
 20
0.0
 30
0.0
  9
$UCSYDIR
 10
0.0
 20
1.0
 30
0.0
  9
$UCSORTHOREF
  2

  9
$UCSORTHOVIEW
 70
     0
  9
$UCSORGTOP
 10
0.0
 20
0.0
 30
0.0
  9
$UCSORGBOTTOM
 10
0.0
 20
0.0
 30
0.0
  9
$UCSORGLEFT
 10
0.0
 20
0.0
 30
0.0
  9
$UCSORGRIGHT
 10
0.0
 20
0.0
 30
0.0
  9
$UCSORGFRONT
 10
0.0
 20
0.0
 30
0.0
  9
$UCSORGBACK
 10
0.0
 20
0.0
 30
0.0
  9
$PUCSBASE
  2

  9
$PUCSNAME
  2

  9
$PUCSORG
 10
0.0
 20
0.0
 30
0.0
  9
$PUCSXDIR
 10
1.0
 20
0.0
 30
0.0
  9
$PUCSYDIR
 10
0.0
 20
1.0
 30
0.0
  9
$PUCSORTHOREF
  2

  9
$PUCSORTHOVIEW
 70
     0
  9
$PUCSORGTOP
 10
0.0
 20
0.0
 30
0.0
  9
$PUCSORGBOTTOM
 10
0.0
 20
0.0
 30
0.0
  9
$PUCSORGLEFT
 10
0.0
 20
0.0
 30
0.0
  9
$PUCSORGRIGHT
 10
0.0
 20
0.0
 30
0.0
  9
$PUCSORGFRONT
 10
0.0
 20
0.0
 30
0.0
  9
$PUCSORGBACK
 10
0.0
 20
0.0
 30
0.0
  9
$USERI1
 70
     0
  9
$USERI2
 70
     0
  9
$USERI3
 70
     0
  9
$USERI4
 70
     0
  9
$USERI5
 70
     0
  9
$USERR1
 40
0.0
  9
$USERR2
 40
0.0
  9
$USERR3
 40
0.0
  9
$USERR4
 40
0.0
  9
$USERR5
 40
0.0
  9
$WORLDVIEW
 70
     1
  9
$SHADEDGE
 70
     3
  9
$SHADEDIF
 70
    70
  9
$TILEMODE
 70
     1
  9
$MAXACTVP
 70
    64
  9
$PINSBASE
 10
0.0
 20
0.0
 30
0.0
  9
$PLIMCHECK
 70
     0
  9
$PEXTMIN
 10
1.000000000000000E+20
 20
1.000000000000000E+20
 30
1.000000000000000E+20
  9
$PEXTMAX
 10
-1.000000000000000E+20
 20
-1.000000000000000E+20
 30
-1.000000000000000E+20
  9
$PLIMMIN
 10
0.0
 20
0.0
  9
$PLIMMAX
 10
12.0
 20
9.0
  9
$UNITMODE
 70
     0
  9
$VISRETAIN
 70
     1
  9
$PLINEGEN
 70
     0
  9
$PSLTSCALE
 70
     1
  9
$TREEDEPTH
 70
  3020
  9
$CMLSTYLE
  2
Standard
  9
$CMLJUST
 70
     0
  9
$CMLSCALE
 40
1.0
  9
$PROXYGRAPHICS
 70
     1
  9
$MEASUREMENT
 70
     0
  9
$CELWEIGHT
370
    -1
  9
$ENDCAPS
280
     0
  9
$JOINSTYLE
280
     0
  9
$LWDISPLAY
290
     1
  9
$INSUNITS
 70
     4
  9
$HYPERLINKBASE
  1

  9
$STYLESHEET
  1

  9
$XEDIT
290
     1
  9
$CEPSNTYPE
380
     0
  9
$PSTYLEMODE
290
     1
  9
$FINGERPRINTGUID
  2
{0F3EBFA2-D880-8E4A-A362-AE2CDF975217}
  9
$VERSIONGUID
  2
{191F8C1B-0E7B-F84C-9813-58991849C968}
  9
$EXTNAMES
290
     1
  9
$PSVPSCALE
 40
0.0
  9
$OLESTARTUP
290
     0
  9
$SORTENTS
280
   127
  9
$INDEXCTL
280
     0
  9
$HIDETEXT
280
     1
  9
$XCLIPFRAME
280
     2
  9
$HALOGAP
280
     0
  9
$OBSCOLOR
 70
   257
  9
$OBSLTYPE
280
     0
  9
$INTERSECTIONDISPLAY
280
     0
  9
$INTERSECTIONCOLOR
 70
   257
  9
$DIMASSOC
280
     2
  9
$PROJECTNAME
  1

  9
$CAMERADISPLAY
290
     0
  9
$LENSLENGTH
 40
50.0
  9
$CAMERAHEIGHT
 40
0.0
  9
$STEPSPERSEC
 40
2.0
  9
$STEPSIZE
 40
6.0
  9
$3DDWFPREC
 40
2.0
  9
$PSOLWIDTH
 40
0.25
  9
$PSOLHEIGHT
 40
4.0
  9
$LOFTANG1
 40
1.570796326794896
  9
$LOFTANG2
 40
1.570796326794896
  9
$LOFTMAG1
 40
0.0
  9
$LOFTMAG2
 40
0.0
  9
$LOFTPARAM
 70
     7
  9
$LOFTNORMALS
280
     1
  9
$LATITUDE
 40
37.795
  9
$LONGITUDE
 40
-122.394
  9
$NORTHDIRECTION
 40
0.0
  9
$TIMEZONE
 70
 -8000
  9
$LIGHTGLYPHDISPLAY
280
     1
  9
$TILEMODELIGHTSYNCH
280
     1
  9
$CMATERIAL
347
11
  9
$SOLIDHIST
280
     0
  9
$SHOWHIST
280
     1
  9
$DWFFRAME
280
     2
  9
$DGNFRAME
280
     0
  9
$REALWORLDSCALE
290
     1
  9
$INTERFERECOLOR
 62
     1
  9
$INTERFEREOBJVS
345
33
  9
$INTERFEREVPVS
346
30
  9
$CSHADOW
280
     0
  9
$SHADOWPLANELOCATION
 40
0.0
  0
ENDSEC
  0
SECTION
  2
CLASSES
  0
CLASS
  1
ACDBDICTIONARYWDFLT
  2
AcDbDictionaryWithDefault
  3
ObjectDBX Classes
 90
        0
 91
        1
280
     0
281
     0
  0
CLASS
  1
MATERIAL
  2
AcDbMaterial
  3
ObjectDBX Classes
 90
     1153
 91
        3
280
     0
281
     0
  0
CLASS
  1
VISUALSTYLE
  2
AcDbVisualStyle
  3
ObjectDBX Classes
 90
     4095
 91
       24
280
     0
281
     0
  0
CLASS
  1
SCALE
  2
AcDbScale
  3
ObjectDBX Classes
 90
     1153
 91
       17
280
     0
281
     0
  0
CLASS
  1
TABLESTYLE
  2
AcDbTableStyle
  3
ObjectDBX Classes
 90
     4095
 91
        1
280
     0
281
     0
  0
CLASS
  1
MLEADERSTYLE
  2
AcDbMLeaderStyle
  3
ACDB_MLEADERSTYLE_CLASS
 90
     4095
 91
        1
280
     0
281
     0
  0
CLASS
  1
ACDBSECTIONVIEWSTYLE
  2
AcDbSectionViewStyle
  3
ObjectDBX Classes
 90
     1025
 91
        1
280
     0
281
     0
  0
CLASS
  1
ACDBDETAILVIEWSTYLE
  2
AcDbDetailViewStyle
  3
ObjectDBX Classes
 90
     1025
 91
        1
280
     0
281
     0
  0
CLASS
  1
DICTIONARYVAR
  2
AcDbDictionaryVar
  3
ObjectDBX Classes
 90
        0
 91
        5
280
     0
281
     0
  0
CLASS
  1
CELLSTYLEMAP
  2
AcDbCellStyleMap
  3
ObjectDBX Classes
 90
     1152
 91
        1
280
     0
281
     0
  0
ENDSEC
  0
SECTION
  2
TABLES
  0
TABLE
  2
VPORT
  5
8
330
0
100
AcDbSymbolTable
 70
     1
  0
VPORT
  5
57
330
8
100
AcDbSymbolTableRecord
100
AcDbViewportTableRecord
  2
*Active
 70
     0
 10
0.0
 20
0.0
 11
1.0
 21
1.0
 12
0.0
 22
0.0
 13
0.0
 23
0.0
 14
1.0
 24
1.0
 15
0.0
 25
0.0
 16
0.0
 26
0.0
 36
1.0
 17
105.0000721959721
 27
148.5000416295418
 37
0.0
 40
89.75999997755987
 41
1.0
 42
50.0
 43
0.0
 44
0.0
 50
0.0
 51
0.0
 71
     0
 72
   100
 73
     1
 74
     1
 75
     0
 76
     0
 77
     0
 78
     0
281
     0
 65
     1
110
0.0
120
0.0
130
0.0
111
1.0
121
0.0
131
0.0
112
0.0
122
1.0
132
0.0
 79
     0
146
0.0
 60
     3
 61
     5
292
     1
282
     1
141
0.0
142
0.0
 63
   250
421
  3355443
  0
ENDTAB
  0
TABLE
  2
LTYPE
  5
5
330
0
100
AcDbSymbolTable
 70
     3
  0
LTYPE
  5
5B
330
5
100
AcDbSymbolTableRecord
100
AcDbLinetypeTableRecord
  2
ByBlock
 70
     0
  3

 72
    65
 73
     0
 40
0.0
  0
LTYPE
  5
5C
330
5
100
AcDbSymbolTableRecord
100
AcDbLinetypeTableRecord
  2
ByLayer
 70
     0
  3

 72
    65
 73
     0
 40
0.0
  0
LTYPE
  5
5D
330
5
100
AcDbSymbolTableRecord
100
AcDbLinetypeTableRecord
  2
Continuous
 70
     0
  3
Solid line
 72
    65
 73
     0
 40
0.0
  0
LTYPE
  5
17B
330
5
100
AcDbSymbolTableRecord
100
AcDbLinetypeTableRecord
  2
AI-Linetype-0
 70
     0
  3
Adobe Illustrator Linetype No. 0
 72
    65
 73
     2
 40
1.411111110758333
 49
0.7055555553791667
 74
     0
 49
-0.7055555553791667
 74
     0
  0
LTYPE
  5
17D
330
5
100
AcDbSymbolTableRecord
100
AcDbLinetypeTableRecord
  2
AI-Linetype-1
 70
     0
  3
Adobe Illustrator Linetype No. 1
 72
    65
 73
     2
 40
1.411111110758333
 49
0.7055555553791667
 74
     0
 49
-0.7055555553791667
 74
     0
  0
ENDTAB
  0
TABLE
  2
LAYER
  5
2
330
0
100
AcDbSymbolTable
 70
     3
  0
LAYER
  5
54
330
2
100
AcDbSymbolTableRecord
100
AcDbLayerTableRecord
  2
0
 70
     0
 62
     7
  6
Continuous
370
    -3
390
F
347
21
348
0
  0
LAYER
  5
78
330
2
100
AcDbSymbolTableRecord
100
AcDbLayerTableRecord
  2
Sichtbar (ANSI)
 70
     0
 62
     7
  6
Continuous
370
     0
390
F
347
21
348
0
  0
LAYER
  5
79
330
2
100
AcDbSymbolTableRecord
100
AcDbLayerTableRecord
  2
Sichtbar schmal (ANSI)
 70
     0
 62
     7
  6
Continuous
370
     0
390
F
347
21
348
0
  0
ENDTAB
  0
TABLE
  2
STYLE
  5
3
330
0
100
AcDbSymbolTable
 70
     2
  0
STYLE
  5
55
330
3
100
AcDbSymbolTableRecord
100
AcDbTextStyleTableRecord
  2
Standard
 70
     0
 40
0.0
 41
1.0
 50
0.0
 71
     0
 42
0.2
  3
txt
  4

  0
STYLE
  5
5A
330
3
100
AcDbSymbolTableRecord
100
AcDbTextStyleTableRecord
  2
Annotative
 70
     0
 40
0.0
 41
1.0
 50
0.0
 71
     0
 42
0.2
  3
txt
  4

1001
AcadAnnotative
1000
AnnotativeData
1002
{
1070
     1
1070
     1
1002
}
  0
ENDTAB
  0
TABLE
  2
VIEW
  5
6
330
0
100
AcDbSymbolTable
 70
     0
  0
ENDTAB
  0
TABLE
  2
UCS
  5
7
330
0
100
AcDbSymbolTable
 70
     0
  0
ENDTAB
  0
TABLE
  2
APPID
  5
9
330
0
100
AcDbSymbolTable
 70
     2
  0
APPID
  5
56
330
9
100
AcDbSymbolTableRecord
100
AcDbRegAppTableRecord
  2
ACAD
 70
     0
  0
APPID
  5
5E
330
9
100
AcDbSymbolTableRecord
100
AcDbRegAppTableRecord
  2
AcadAnnotative
 70
     0
  0
ENDTAB
  0
TABLE
  2
DIMSTYLE
  5
A
330
0
100
AcDbSymbolTable
 70
     2
100
AcDbDimStyleTable
 71
     0
  0
DIMSTYLE
105
58
330
A
100
AcDbSymbolTableRecord
100
AcDbDimStyleTableRecord
  2
Standard
 70
     0
340
55
  0
DIMSTYLE
105
59
330
A
100
AcDbSymbolTableRecord
100
AcDbDimStyleTableRecord
  2
Annotative
 70
     0
340
55
1001
AcadAnnotative
1000
AnnotativeData
1002
{
1070
     1
1070
     1
1002
}
  0
ENDTAB
  0
TABLE
  2
BLOCK_RECORD
  5
1
330
0
100
AcDbSymbolTable
 70
    50
  0
BLOCK_RECORD
  5
70
330
1
100
AcDbSymbolTableRecord
100
AcDbBlockTableRecord
  2
*Model_Space
340
73
 70
     0
280
     1
281
     0
  0
BLOCK_RECORD
  5
6C
330
1
100
AcDbSymbolTableRecord
100
AcDbBlockTableRecord
  2
*Paper_Space
340
6F
 70
     0
280
     1
281
     0
  0
BLOCK_RECORD
  5
74
330
1
100
AcDbSymbolTableRecord
100
AcDbBlockTableRecord
  2
*Paper_Space0
340
77
 70
     0
280
     1
281
     0
  0
BLOCK_RECORD
  5
7A
330
1
100
AcDbSymbolTableRecord
100
AcDbBlockTableRecord
  2
Block_0
340
0
102
{BLKREFS
331
7B
102
}
 70
     0
280
     1
281
     0
  0
BLOCK_RECORD
  5
86
330
1
100
AcDbSymbolTableRecord
100
AcDbBlockTableRecord
  2
Block_1
340
0
102
{BLKREFS
331
87
102
}
 70
     0
280
     1
281
     0
  0
BLOCK_RECORD
  5
BC
330
1
100
AcDbSymbolTableRecord
100
AcDbBlockTableRecord
  2
Block_2
340
0
102
{BLKREFS
331
BD
102
}
 70
     0
280
     1
281
     0
  0
BLOCK_RECORD
  5
126
330
1
100
AcDbSymbolTableRecord
100
AcDbBlockTableRecord
  2
Block_3
340
0
102
{BLKREFS
331
127
102
}
 70
     0
280
     1
281
     0
  0
BLOCK_RECORD
  5
12A
330
1
100
AcDbSymbolTableRecord
100
AcDbBlockTableRecord
  2
Block_4
340
0
102
{BLKREFS
331
12B
102
}
 70
     0
280
     1
281
     0
  0
BLOCK_RECORD
  5
136
330
1
100
AcDbSymbolTableRecord
100
AcDbBlockTableRecord
  2
Block_5
340
0
102
{BLKREFS
331
137
102
}
 70
     0
280
     1
281
     0
  0
BLOCK_RECORD
  5
13A
330
1
100
AcDbSymbolTableRecord
100
AcDbBlockTableRecord
  2
Block_6
340
0
102
{BLKREFS
331
13B
102
}
 70
     0
280
     1
281
     0
  0
BLOCK_RECORD
  5
13F
330
1
100
AcDbSymbolTableRecord
100
AcDbBlockTableRecord
  2
Block_7
340
0
102
{BLKREFS
331
140
102
}
 70
     0
280
     1
281
     0
  0
BLOCK_RECORD
  5
145
330
1
100
AcDbSymbolTableRecord
100
AcDbBlockTableRecord
  2
Block_8
340
0
102
{BLKREFS
331
146
102
}
 70
     0
280
     1
281
     0
  0
BLOCK_RECORD
  5
14D
330
1
100
AcDbSymbolTableRecord
100
AcDbBlockTableRecord
  2
Block_9
340
0
102
{BLKREFS
331
14E
102
}
 70
     0
280
     1
281
     0
  0
BLOCK_RECORD
  5
151
330
1
100
AcDbSymbolTableRecord
100
AcDbBlockTableRecord
  2
Block_10
340
0
102
{BLKREFS
331
152
102
}
 70
     0
280
     1
281
     0
  0
BLOCK_RECORD
  5
159
330
1
100
AcDbSymbolTableRecord
100
AcDbBlockTableRecord
  2
Block_11
340
0
102
{BLKREFS
331
15A
102
}
 70
     0
280
     1
281
     0
  0
BLOCK_RECORD
  5
15D
330
1
100
AcDbSymbolTableRecord
100
AcDbBlockTableRecord
  2
Block_12
340
0
102
{BLKREFS
331
15E
102
}
 70
     0
280
     1
281
     0
  0
BLOCK_RECORD
  5
162
330
1
100
AcDbSymbolTableRecord
100
AcDbBlockTableRecord
  2
Block_13
340
0
102
{BLKREFS
331
163
102
}
 70
     0
280
     1
281
     0
  0
BLOCK_RECORD
  5
168
330
1
100
AcDbSymbolTableRecord
100
AcDbBlockTableRecord
  2
Block_14
340
0
102
{BLKREFS
331
169
102
}
 70
     0
280
     1
281
     0
  0
BLOCK_RECORD
  5
16E
330
1
100
AcDbSymbolTableRecord
100
AcDbBlockTableRecord
  2
Block_15
340
0
102
{BLKREFS
331
16F
102
}
 70
     0
280
     1
281
     0
  0
BLOCK_RECORD
  5
172
330
1
100
AcDbSymbolTableRecord
100
AcDbBlockTableRecord
  2
Block_16
340
0
102
{BLKREFS
331
173
102
}
 70
     0
280
     1
281
     0
  0
BLOCK_RECORD
  5
17E
330
1
100
AcDbSymbolTableRecord
100
AcDbBlockTableRecord
  2
Block_17
340
0
102
{BLKREFS
331
17F
102
}
 70
     0
280
     1
281
     0
  0
BLOCK_RECORD
  5
182
330
1
100
AcDbSymbolTableRecord
100
AcDbBlockTableRecord
  2
Block_18
340
0
102
{BLKREFS
331
183
102
}
 70
     0
280
     1
281
     0
  0
BLOCK_RECORD
  5
187
330
1
100
AcDbSymbolTableRecord
100
AcDbBlockTableRecord
  2
Block_19
340
0
102
{BLKREFS
331
188
102
}
 70
     0
280
     1
281
     0
  0
BLOCK_RECORD
  5
18D
330
1
100
AcDbSymbolTableRecord
100
AcDbBlockTableRecord
  2
Block_20
340
0
102
{BLKREFS
331
18E
102
}
 70
     0
280
     1
281
     0
  0
BLOCK_RECORD
  5
198
330
1
100
AcDbSymbolTableRecord
100
AcDbBlockTableRecord
  2
Block_21
340
0
102
{BLKREFS
331
199
102
}
 70
     0
280
     1
281
     0
  0
BLOCK_RECORD
  5
19D
330
1
100
AcDbSymbolTableRecord
100
AcDbBlockTableRecord
  2
Block_22
340
0
102
{BLKREFS
331
19E
102
}
 70
     0
280
     1
281
     0
  0
BLOCK_RECORD
  5
1A1
330
1
100
AcDbSymbolTableRecord
100
AcDbBlockTableRecord
  2
Block_23
340
0
102
{BLKREFS
331
1A2
102
}
 70
     0
280
     1
281
     0
  0
BLOCK_RECORD
  5
1A9
330
1
100
AcDbSymbolTableRecord
100
AcDbBlockTableRecord
  2
Block_24
340
0
102
{BLKREFS
331
1AA
102
}
 70
     0
280
     1
281
     0
  0
BLOCK_RECORD
  5
1AD
330
1
100
AcDbSymbolTableRecord
100
AcDbBlockTableRecord
  2
Block_25
340
0
102
{BLKREFS
331
1AE
102
}
 70
     0
280
     1
281
     0
  0
BLOCK_RECORD
  5
1B9
330
1
100
AcDbSymbolTableRecord
100
AcDbBlockTableRecord
  2
Block_26
340
0
102
{BLKREFS
331
1BA
102
}
 70
     0
280
     1
281
     0
  0
BLOCK_RECORD
  5
1BD
330
1
100
AcDbSymbolTableRecord
100
AcDbBlockTableRecord
  2
Block_27
340
0
102
{BLKREFS
331
1BE
102
}
 70
     0
280
     1
281
     0
  0
BLOCK_RECORD
  5
1C2
330
1
100
AcDbSymbolTableRecord
100
AcDbBlockTableRecord
  2
Block_28
340
0
102
{BLKREFS
331
1C3
102
}
 70
     0
280
     1
281
     0
  0
BLOCK_RECORD
  5
1C8
330
1
100
AcDbSymbolTableRecord
100
AcDbBlockTableRecord
  2
Block_29
340
0
102
{BLKREFS
331
1C9
102
}
 70
     0
280
     1
281
     0
  0
BLOCK_RECORD
  5
1CF
330
1
100
AcDbSymbolTableRecord
100
AcDbBlockTableRecord
  2
Block_30
340
0
102
{BLKREFS
331
1D0
102
}
 70
     0
280
     1
281
     0
  0
BLOCK_RECORD
  5
1D3
330
1
100
AcDbSymbolTableRecord
100
AcDbBlockTableRecord
  2
Block_31
340
0
102
{BLKREFS
331
1D4
102
}
 70
     0
280
     1
281
     0
  0
BLOCK_RECORD
  5
1D8
330
1
100
AcDbSymbolTableRecord
100
AcDbBlockTableRecord
  2
Block_32
340
0
102
{BLKREFS
331
1D9
102
}
 70
     0
280
     1
281
     0
  0
BLOCK_RECORD
  5
1E5
330
1
100
AcDbSymbolTableRecord
100
AcDbBlockTableRecord
  2
Block_33
340
0
102
{BLKREFS
331
1E6
102
}
 70
     0
280
     1
281
     0
  0
BLOCK_RECORD
  5
1E9
330
1
100
AcDbSymbolTableRecord
100
AcDbBlockTableRecord
  2
Block_34
340
0
102
{BLKREFS
331
1EA
102
}
 70
     0
280
     1
281
     0
  0
BLOCK_RECORD
  5
1EE
330
1
100
AcDbSymbolTableRecord
100
AcDbBlockTableRecord
  2
Block_35
340
0
102
{BLKREFS
331
1EF
102
}
 70
     0
280
     1
281
     0
  0
BLOCK_RECORD
  5
1F4
330
1
100
AcDbSymbolTableRecord
100
AcDbBlockTableRecord
  2
Block_36
340
0
102
{BLKREFS
331
1F5
102
}
 70
     0
280
     1
281
     0
  0
BLOCK_RECORD
  5
1FA
330
1
100
AcDbSymbolTableRecord
100
AcDbBlockTableRecord
  2
Block_37
340
0
102
{BLKREFS
331
1FB
102
}
 70
     0
280
     1
281
     0
  0
BLOCK_RECORD
  5
20A
330
1
100
AcDbSymbolTableRecord
100
AcDbBlockTableRecord
  2
Block_38
340
0
102
{BLKREFS
331
20B
102
}
 70
     0
280
     1
281
     0
  0
BLOCK_RECORD
  5
20E
330
1
100
AcDbSymbolTableRecord
100
AcDbBlockTableRecord
  2
Block_39
340
0
102
{BLKREFS
331
20F
102
}
 70
     0
280
     1
281
     0
  0
BLOCK_RECORD
  5
216
330
1
100
AcDbSymbolTableRecord
100
AcDbBlockTableRecord
  2
Block_40
340
0
102
{BLKREFS
331
217
102
}
 70
     0
280
     1
281
     0
  0
BLOCK_RECORD
  5
225
330
1
100
AcDbSymbolTableRecord
100
AcDbBlockTableRecord
  2
Block_41
340
0
102
{BLKREFS
331
226
102
}
 70
     0
280
     1
281
     0
  0
BLOCK_RECORD
  5
229
330
1
100
AcDbSymbolTableRecord
100
AcDbBlockTableRecord
  2
Block_42
340
0
102
{BLKREFS
331
22A
102
}
 70
     0
280
     1
281
     0
  0
BLOCK_RECORD
  5
22E
330
1
100
AcDbSymbolTableRecord
100
AcDbBlockTableRecord
  2
Block_43
340
0
102
{BLKREFS
331
22F
102
}
 70
     0
280
     1
281
     0
  0
BLOCK_RECORD
  5
234
330
1
100
AcDbSymbolTableRecord
100
AcDbBlockTableRecord
  2
Block_44
340
0
102
{BLKREFS
331
235
102
}
 70
     0
280
     1
281
     0
  0
BLOCK_RECORD
  5
23A
330
1
100
AcDbSymbolTableRecord
100
AcDbBlockTableRecord
  2
Block_45
340
0
102
{BLKREFS
331
23B
102
}
 70
     0
280
     1
281
     0
  0
BLOCK_RECORD
  5
23E
330
1
100
AcDbSymbolTableRecord
100
AcDbBlockTableRecord
  2
Block_46
340
0
102
{BLKREFS
331
23F
102
}
 70
     0
280
     1
281
     0
  0
BLOCK_RECORD
  5
243
330
1
100
AcDbSymbolTableRecord
100
AcDbBlockTableRecord
  2
Block_47
340
0
102
{BLKREFS
331
244
102
}
 70
     0
280
     1
281
     0
  0
BLOCK_RECORD
  5
249
330
1
100
AcDbSymbolTableRecord
100
AcDbBlockTableRecord
  2
Block_48
340
0
102
{BLKREFS
331
24A
102
}
 70
     0
280
     1
281
     0
  0
ENDTAB
  0
ENDSEC
  0
SECTION
  2
BLOCKS
  0
BLOCK
  5
71
330
70
100
AcDbEntity
  8
0
100
AcDbBlockBegin
  2
*Model_Space
 70
     0
 10
0.0
 20
0.0
 30
0.0
  3
*Model_Space
  1

  0
ENDBLK
  5
72
330
70
100
AcDbEntity
  8
0
100
AcDbBlockEnd
  0
BLOCK
  5
6D
330
6C
100
AcDbEntity
 67
     1
  8
0
100
AcDbBlockBegin
  2
*Paper_Space
 70
     0
 10
0.0
 20
0.0
 30
0.0
  3
*Paper_Space
  1

  0
ENDBLK
  5
6E
330
6C
100
AcDbEntity
 67
     1
  8
0
100
AcDbBlockEnd
  0
BLOCK
  5
75
330
74
100
AcDbEntity
 67
     1
  8
0
100
AcDbBlockBegin
  2
*Paper_Space0
 70
     0
 10
0.0
 20
0.0
 30
0.0
  3
*Paper_Space0
  1

  0
ENDBLK
  5
76
330
74
100
AcDbEntity
 67
     1
  8
0
100
AcDbBlockEnd
  0
BLOCK
  5
7C
330
7A
100
AcDbEntity
  8
0
100
AcDbBlockBegin
  2
Block_0
 70
     0
 10
0.0
 20
0.0
 30
0.0
  3
Block_0
  1

  0
SPLINE
  5
7E
330
7A
100
AcDbEntity
  8
Sichtbar schmal (ANSI)
100
AcDbSpline
210
0.0
220
0.0
230
1.0
 70
     8
 71
     3
 72
    38
 73
    34
 74
     0
 42
0.0000000001
 43
0.0000000001
 40
0.0
 40
0.0
 40
0.0
 40
0.0
 40
1.0
 40
1.0
 40
1.0
 40
2.0
 40
2.0
 40
2.0
 40
3.0
 40
3.0
 40
3.0
 40
4.0
 40
4.0
 40
4.0
 40
5.0
 40
5.0
 40
5.0
 40
6.0
 40
6.0
 40
6.0
 40
7.0
 40
7.0
 40
7.0
 40
8.0
 40
8.0
 40
8.0
 40
9.0
 40
9.0
 40
9.0
 40
10.0
 40
10.0
 40
10.0
 40
11.0
 40
11.0
 40
11.0
 40
11.0
 10
107.873904202896
 20
183.9522648710003
 30
0.0
 10
107.873904202896
 20
183.9522648710003
 30
0.0
 10
108.2238870812656
 20
183.9522648710003
 30
0.0
 10
108.2238870812656
 20
183.9522648710003
 30
0.0
 10
108.2238870812656
 20
183.9522648710003
 30
0.0
 10
108.2238870812656
 20
182.3824513084447
 30
0.0
 10
108.2238870812656
 20
182.3824513084447
 30
0.0
 10
108.2238870812656
 20
182.3824513084447
 30
0.0
 10
108.2238870812656
 20
182.2249921441597
 30
0.0
 10
108.2238870812656
 20
182.2249921441597
 30
0.0
 10
108.2238870812656
 20
182.0743690306073
 30
0.0
 10
107.9888480733499
 20
181.9522648715004
 30
0.0
 10
107.6989127637106
 20
181.9522648715004
 30
0.0
 10
107.6989127637106
 20
181.9522648715004
 30
0.0
 10
73.92556500108932
 20
181.9522648715004
 30
0.0
 10
73.92556500108932
 20
181.9522648715004
 30
0.0
 10
73.63562969145196
 20
181.9522648715004
 30
0.0
 10
73.40059068353491
 20
182.0743690306073
 30
0.0
 10
73.40059068353491
 20
182.2249921441597
 30
0.0
 10
73.40059068353491
 20
182.2249921441597
 30
0.0
 10
73.40059068353491
 20
182.3824513084447
 30
0.0
 10
73.40059068353491
 20
182.3824513084447
 30
0.0
 10
73.40059068353491
 20
182.3824513084447
 30
0.0
 10
73.40059068353491
 20
183.9522648710003
 30
0.0
 10
73.40059068353491
 20
183.9522648710003
 30
0.0
 10
73.40059068353491
 20
183.9522648710003
 30
0.0
 10
73.75057356190421
 20
183.9522648710003
 30
0.0
 10
73.75057356190421
 20
183.9522648710003
 30
0.0
 10
73.75057356190421
 20
183.9522648710003
 30
0.0
 10
73.76807270582351
 20
183.9522648710003
 30
0.0
 10
73.76807270582351
 20
183.9522648710003
 30
0.0
 10
73.76807270582351
 20
183.9522648710003
 30
0.0
 10
107.8564050589767
 20
183.9522648710003
 30
0.0
 10
107.8564050589767
 20
183.9522648710003
 30
0.0
  0
HATCH
  5
7F
330
7A
100
AcDbEntity
  8
Sichtbar schmal (ANSI)
 62
   254
420
 14606046
440
 33554687
100
AcDbHatch
 10
0.0
 20
0.0
 30
0.0
210
0.0
220
0.0
230
1.0
  2
SOLID
 70
     1
 71
     1
 91
        1
 92
        1
 93
        2
 72
     4
 94
        3
 73
     0
 74
     0
 95
       38
 96
       34
 40
0.0
 40
0.0
 40
0.0
 40
0.0
 40
1.0
 40
1.0
 40
1.0
 40
2.0
 40
2.0
 40
2.0
 40
3.0
 40
3.0
 40
3.0
 40
4.0
 40
4.0
 40
4.0
 40
5.0
 40
5.0
 40
5.0
 40
6.0
 40
6.0
 40
6.0
 40
7.0
 40
7.0
 40
7.0
 40
8.0
 40
8.0
 40
8.0
 40
9.0
 40
9.0
 40
9.0
 40
10.0
 40
10.0
 40
10.0
 40
11.0
 40
11.0
 40
11.0
 40
11.0
 10
107.873904202896
 20
183.9522648710003
 10
107.873904202896
 20
183.9522648710003
 10
108.2238870812656
 20
183.9522648710003
 10
108.2238870812656
 20
183.9522648710003
 10
108.2238870812656
 20
183.9522648710003
 10
108.2238870812656
 20
182.3824513084447
 10
108.2238870812656
 20
182.3824513084447
 10
108.2238870812656
 20
182.3824513084447
 10
108.2238870812656
 20
182.2249921441597
 10
108.2238870812656
 20
182.2249921441597
 10
108.2238870812656
 20
182.0743690306073
 10
107.9888480733499
 20
181.9522648715004
 10
107.6989127637106
 20
181.9522648715004
 10
107.6989127637106
 20
181.9522648715004
 10
73.92556500108932
 20
181.9522648715004
 10
73.92556500108932
 20
181.9522648715004
 10
73.63562969145196
 20
181.9522648715004
 10
73.40059068353491
 20
182.0743690306073
 10
73.40059068353491
 20
182.2249921441597
 10
73.40059068353491
 20
182.2249921441597
 10
73.40059068353491
 20
182.3824513084447
 10
73.40059068353491
 20
182.3824513084447
 10
73.40059068353491
 20
182.3824513084447
 10
73.40059068353491
 20
183.9522648710003
 10
73.40059068353491
 20
183.9522648710003
 10
73.40059068353491
 20
183.9522648710003
 10
73.75057356190421
 20
183.9522648710003
 10
73.75057356190421
 20
183.9522648710003
 10
73.75057356190421
 20
183.9522648710003
 10
73.76807270582351
 20
183.9522648710003
 10
73.76807270582351
 20
183.9522648710003
 10
73.76807270582351
 20
183.9522648710003
 10
107.8564050589767
 20
183.9522648710003
 10
107.8564050589767
 20
183.9522648710003
 97
        0
 72
     1
 10
107.8564050589767
 20
183.9522648710003
 11
107.873904202896
 21
183.9522648710003
 97
        0
 75
     2
 76
     1
 98
        1
 10
0.0
 20
0.0
450
        0
451
        0
460
0.0
461
0.0
452
        0
462
0.0
453
        0
470

  0
ENDBLK
  5
7D
330
7A
100
AcDbEntity
  8
0
100
AcDbBlockEnd
  0
BLOCK
  5
88
330
86
100
AcDbEntity
  8
0
100
AcDbBlockBegin
  2
Block_1
 70
     0
 10
0.0
 20
0.0
 30
0.0
  3
Block_1
  1

  0
LWPOLYLINE
  5
8A
330
86
100
AcDbEntity
  8
Sichtbar schmal (ANSI)
 62
    18
420
        0
370
     5
100
AcDbPolyline
 90
        4
 70
     1
 43
0.0
 10
108.9928168052894
 20
159.3650415913305
 10
72.6552037490479
 20
159.3650415913305
 10
72.6552037490479
 20
123.0274285350864
 10
108.9928168052894
 20
123.0274285350864
  0
ENDBLK
  5
89
330
86
100
AcDbEntity
  8
0
100
AcDbBlockEnd
  0
BLOCK
  5
BE
330
BC
100
AcDbEntity
  8
0
100
AcDbBlockBegin
  2
Block_2
 70
     0
 10
0.0
 20
0.0
 30
0.0
  3
Block_2
  1

  0
LINE
  5
C0
330
BC
100
AcDbEntity
  8
Sichtbar schmal (ANSI)
 62
    18
420
        0
370
     5
100
AcDbLine
 10
108.9329382609793
 20
167.4488026406158
 30
0.0
 11
108.9329382609793
 21
167.809179316911
 31
0.0
  0
LINE
  5
C1
330
BC
100
AcDbEntity
  8
Sichtbar schmal (ANSI)
 62
    18
420
        0
370
     5
100
AcDbLine
 10
109.1131265991257
 20
167.809179316911
 30
0.0
 11
109.1131265991257
 21
183.9360355811002
 31
0.0
  0
LINE
  5
C2
330
BC
100
AcDbEntity
  8
Sichtbar schmal (ANSI)
 62
    18
420
        0
370
     5
100
AcDbLine
 10
109.1131265991257
 20
167.4488026406158
 30
0.0
 11
109.1131265991257
 21
167.809179316911
 31
0.0
  0
LINE
  5
C3
330
BC
100
AcDbEntity
  8
Sichtbar schmal (ANSI)
 62
    18
420
        0
370
     5
100
AcDbLine
 10
109.1131265991257
 20
183.9360355811002
 30
0.0
 11
108.7527499228317
 21
183.9360355811002
 31
0.0
  0
LINE
  5
C4
330
BC
100
AcDbEntity
  8
Sichtbar schmal (ANSI)
 62
    18
420
        0
370
     5
100
AcDbLine
 10
73.04331204639007
 20
167.809179316911
 30
0.0
 11
72.89527063150494
 21
167.809179316911
 31
0.0
  0
LINE
  5
C5
330
BC
100
AcDbEntity
  8
Sichtbar schmal (ANSI)
 62
    18
420
        0
370
     5
100
AcDbLine
 10
73.04331204639007
 20
167.809179316911
 30
0.0
 11
73.04331204639007
 21
167.0884259643213
 31
0.0
  0
LINE
  5
C6
330
BC
100
AcDbEntity
  8
Sichtbar schmal (ANSI)
 62
    18
420
        0
370
     5
100
AcDbLine
 10
73.04331204639007
 20
167.0884259643213
 30
0.0
 11
77.18764382377931
 21
167.0884259643213
 31
0.0
  0
LINE
  5
C7
330
BC
100
AcDbEntity
  8
Sichtbar schmal (ANSI)
 62
    18
420
        0
370
     5
100
AcDbLine
 10
77.18764382377931
 20
167.0884259643213
 30
0.0
 11
77.18764382377931
 21
167.809179316911
 31
0.0
  0
LINE
  5
C8
330
BC
100
AcDbEntity
  8
Sichtbar schmal (ANSI)
 62
    18
420
        0
370
     5
100
AcDbLine
 10
77.36783216192626
 20
167.809179316911
 30
0.0
 11
77.18764382377931
 21
167.809179316911
 31
0.0
  0
LINE
  5
C9
330
BC
100
AcDbEntity
  8
Sichtbar schmal (ANSI)
 62
    18
420
        0
370
     5
100
AcDbLine
 10
77.36783216192626
 20
167.6289909787634
 30
0.0
 11
77.36783216192626
 21
167.809179316911
 31
0.0
  0
SPLINE
  5
CA
330
BC
100
AcDbEntity
  8
Sichtbar schmal (ANSI)
 62
    18
420
        0
370
     5
100
AcDbSpline
210
0.0
220
0.0
230
1.0
 70
     8
 71
     3
 72
    11
 73
     7
 74
     0
 42
0.0000000001
 43
0.0000000001
 40
0.0
 40
0.0
 40
0.0
 40
0.0
 40
1.0
 40
1.0
 40
1.0
 40
2.0
 40
2.0
 40
2.0
 40
2.0
 10
91.13843198053762
 20
167.6289909787602
 30
0.0
 10
91.01901365503215
 20
167.8004924917654
 30
0.0
 10
90.78317652876979
 20
167.8427142574938
 30
0.0
 10
90.61167501576166
 20
167.7232959319893
 30
0.0
 10
90.57490456007258
 20
167.6976922730505
 30
0.0
 10
90.54297372147463
 20
167.6657614344518
 30
0.0
 10
90.51737006253578
 20
167.6289909787634
 30
0.0
  0
LINE
  5
CB
330
BC
100
AcDbEntity
  8
Sichtbar schmal (ANSI)
 62
    18
420
        0
370
     5
100
AcDbLine
 10
104.2879698811455
 20
167.809179316911
 30
0.0
 11
104.2879698811455
 21
167.6289909787634
 31
0.0
  0
LINE
  5
CC
330
BC
100
AcDbEntity
  8
Sichtbar schmal (ANSI)
 62
    18
420
        0
370
     5
100
AcDbLine
 10
104.4681582192924
 20
167.809179316911
 30
0.0
 11
104.2879698811455
 21
167.809179316911
 31
0.0
  0
LINE
  5
CD
330
BC
100
AcDbEntity
  8
Sichtbar schmal (ANSI)
 62
    18
420
        0
370
     5
100
AcDbLine
 10
104.4681582192924
 20
167.809179316911
 30
0.0
 11
104.4681582192924
 21
167.0884259643213
 31
0.0
  0
LINE
  5
CE
330
BC
100
AcDbEntity
  8
Sichtbar schmal (ANSI)
 62
    18
420
        0
370
     5
100
AcDbLine
 10
104.4681582192924
 20
167.0884259643213
 30
0.0
 11
108.6124899966817
 21
167.0884259643213
 31
0.0
  0
LINE
  5
CF
330
BC
100
AcDbEntity
  8
Sichtbar schmal (ANSI)
 62
    18
420
        0
370
     5
100
AcDbLine
 10
108.6124899966817
 20
167.0884259643213
 30
0.0
 11
108.6124899966817
 21
167.809179316911
 31
0.0
  0
LINE
  5
D0
330
BC
100
AcDbEntity
  8
Sichtbar schmal (ANSI)
 62
    18
420
        0
370
     5
100
AcDbLine
 10
108.7527499228317
 20
167.809179316911
 30
0.0
 11
108.6124899966817
 21
167.809179316911
 31
0.0
  0
SPLINE
  5
D1
330
BC
100
AcDbEntity
  8
Sichtbar schmal (ANSI)
 62
    18
420
        0
370
     5
100
AcDbSpline
210
0.0
220
0.0
230
1.0
 70
     8
 71
     3
 72
    11
 73
     7
 74
     0
 42
0.0000000001
 43
0.0000000001
 40
0.0
 40
0.0
 40
0.0
 40
0.0
 40
1.0
 40
1.0
 40
1.0
 40
2.0
 40
2.0
 40
2.0
 40
2.0
 10
97.75225187893425
 20
168.2254020000719
 30
0.0
 10
98.76631932919247
 20
168.2701838721367
 30
0.0
 10
99.55208054251542
 20
169.1285508456622
 30
0.0
 10
99.50729867044932
 20
170.1426182959185
 30
0.0
 10
99.4652868572016
 20
171.0939588803207
 30
0.0
 10
98.7035924633345
 20
171.8556532741871
 30
0.0
 10
97.75225187893425
 20
171.8976650874349
 30
0.0
  0
SPLINE
  5
D2
330
BC
100
AcDbEntity
  8
Sichtbar schmal (ANSI)
 62
    18
420
        0
370
     5
100
AcDbSpline
210
0.0
220
0.0
230
1.0
 70
     8
 71
     3
 72
    11
 73
     7
 74
     0
 42
0.0000000001
 43
0.0000000001
 40
0.0
 40
0.0
 40
0.0
 40
0.0
 40
1.0
 40
1.0
 40
1.0
 40
2.0
 40
2.0
 40
2.0
 40
2.0
 10
102.4551675045807
 20
172.7989592915302
 30
0.0
 10
101.1921171884301
 20
172.7541774194647
 30
0.0
 10
100.2045154822741
 20
171.6939699531052
 30
0.0
 10
100.249297354339
 20
170.4309196369553
 30
0.0
 10
100.2918508629955
 20
169.2307191968142
 30
0.0
 10
101.2549670644415
 20
168.2676029953714
 30
0.0
 10
102.4551675045807
 20
168.2250494867139
 30
0.0
  0
SPLINE
  5
D3
330
BC
100
AcDbEntity
  8
Sichtbar schmal (ANSI)
 62
    18
420
        0
370
     5
100
AcDbSpline
210
0.0
220
0.0
230
1.0
 70
     8
 71
     3
 72
    11
 73
     7
 74
     0
 42
0.0000000001
 43
0.0000000001
 40
0.0
 40
0.0
 40
0.0
 40
0.0
 40
1.0
 40
1.0
 40
1.0
 40
2.0
 40
2.0
 40
2.0
 40
2.0
 10
102.6173370089129
 20
168.2250494867139
 30
0.0
 10
103.8803873250647
 20
168.2698313587787
 30
0.0
 10
104.8679890312204
 20
169.3300388251356
 30
0.0
 10
104.8232071591562
 20
170.5930891412888
 30
0.0
 10
104.7806536504974
 20
171.7932895814267
 30
0.0
 10
103.8175374490527
 20
172.7564057828733
 30
0.0
 10
102.6173370089129
 20
172.7989592915302
 30
0.0
  0
LINE
  5
D4
330
BC
100
AcDbEntity
  8
Sichtbar schmal (ANSI)
 62
    18
420
        0
370
     5
100
AcDbLine
 10
97.53602587315777
 20
169.3407801911623
 30
0.0
 11
97.8063083803795
 21
169.3407801911623
 31
0.0
  0
LINE
  5
D5
330
BC
100
AcDbEntity
  8
Sichtbar schmal (ANSI)
 62
    18
420
        0
370
     5
100
AcDbLine
 10
97.53602587315777
 20
170.7822868963418
 30
0.0
 11
97.53602587315777
 21
169.3407801911623
 31
0.0
  0
LINE
  5
D6
330
BC
100
AcDbEntity
  8
Sichtbar schmal (ANSI)
 62
    18
420
        0
370
     5
100
AcDbLine
 10
97.8063083803795
 20
170.7822868963418
 30
0.0
 11
97.53602587315777
 21
170.7822868963418
 31
0.0
  0
LINE
  5
D7
330
BC
100
AcDbEntity
  8
Sichtbar schmal (ANSI)
 62
    18
420
        0
370
     5
100
AcDbLine
 10
97.8063083803795
 20
169.3407801911623
 30
0.0
 11
97.8063083803795
 21
170.7822868963418
 31
0.0
  0
LINE
  5
D8
330
BC
100
AcDbEntity
  8
Sichtbar schmal (ANSI)
 62
    18
420
        0
370
     5
100
AcDbLine
 10
102.401111003137
 20
169.791251036532
 30
0.0
 11
102.6713935103578
 21
169.791251036532
 31
0.0
  0
LINE
  5
D9
330
BC
100
AcDbEntity
  8
Sichtbar schmal (ANSI)
 62
    18
420
        0
370
     5
100
AcDbLine
 10
102.401111003137
 20
171.2327577417115
 30
0.0
 11
102.401111003137
 21
169.791251036532
 31
0.0
  0
LINE
  5
DA
330
BC
100
AcDbEntity
  8
Sichtbar schmal (ANSI)
 62
    18
420
        0
370
     5
100
AcDbLine
 10
102.6713935103578
 20
171.2327577417115
 30
0.0
 11
102.401111003137
 21
171.2327577417115
 31
0.0
  0
LINE
  5
DB
330
BC
100
AcDbEntity
  8
Sichtbar schmal (ANSI)
 62
    18
420
        0
370
     5
100
AcDbLine
 10
102.6713935103578
 20
169.791251036532
 30
0.0
 11
102.6713935103578
 21
171.2327577417115
 31
0.0
  0
SPLINE
  5
DC
330
BC
100
AcDbEntity
  8
Sichtbar schmal (ANSI)
 62
    18
420
        0
370
     5
100
AcDbSpline
210
0.0
220
0.0
230
1.0
 70
     8
 71
     3
 72
    11
 73
     7
 74
     0
 42
0.0000000001
 43
0.0000000001
 40
0.0
 40
0.0
 40
0.0
 40
0.0
 40
1.0
 40
1.0
 40
1.0
 40
2.0
 40
2.0
 40
2.0
 40
2.0
 10
84.05793817973497
 20
168.2254020000719
 30
0.0
 10
85.07200562999321
 20
168.2701838721367
 30
0.0
 10
85.8577668433149
 20
169.1285508456622
 30
0.0
 10
85.81298497125004
 20
170.1426182959185
 30
0.0
 10
85.7709731580017
 20
171.0939588803207
 30
0.0
 10
85.00927876413587
 20
171.8556532741871
 30
0.0
 10
84.05793817973497
 20
171.8976650874349
 30
0.0
  0
SPLINE
  5
DD
330
BC
100
AcDbEntity
  8
Sichtbar schmal (ANSI)
 62
    18
420
        0
370
     5
100
AcDbSpline
210
0.0
220
0.0
230
1.0
 70
     8
 71
     3
 72
    11
 73
     7
 74
     0
 42
0.0000000001
 43
0.0000000001
 40
0.0
 40
0.0
 40
0.0
 40
0.0
 40
1.0
 40
1.0
 40
1.0
 40
2.0
 40
2.0
 40
2.0
 40
2.0
 10
83.89576867540183
 20
171.8976650874349
 30
0.0
 10
82.88170122514392
 20
171.85288321537
 30
0.0
 10
82.09594001182223
 20
170.9945162418445
 30
0.0
 10
82.14072188388707
 20
169.9804487915857
 30
0.0
 10
82.18273369713479
 20
169.0291082071857
 30
0.0
 10
82.94442809100125
 20
168.2674138133199
 30
0.0
 10
83.89576867540183
 20
168.2254020000719
 30
0.0
  0
SPLINE
  5
DE
330
BC
100
AcDbEntity
  8
Sichtbar schmal (ANSI)
 62
    18
420
        0
370
     5
100
AcDbSpline
210
0.0
220
0.0
230
1.0
 70
     8
 71
     3
 72
    11
 73
     7
 74
     0
 42
0.0000000001
 43
0.0000000001
 40
0.0
 40
0.0
 40
0.0
 40
0.0
 40
1.0
 40
1.0
 40
1.0
 40
2.0
 40
2.0
 40
2.0
 40
2.0
 10
79.19285304975632
 20
168.2250494867139
 30
0.0
 10
80.45590336590592
 20
168.2698313587787
 30
0.0
 10
81.44350507206382
 20
169.3300388251356
 30
0.0
 10
81.39872319999772
 20
170.5930891412888
 30
0.0
 10
81.35616969134115
 20
171.7932895814267
 30
0.0
 10
80.39305348989648
 20
172.7564057828733
 30
0.0
 10
79.19285304975632
 20
172.7989592915302
 30
0.0
  0
SPLINE
  5
DF
330
BC
100
AcDbEntity
  8
Sichtbar schmal (ANSI)
 62
    18
420
        0
370
     5
100
AcDbSpline
210
0.0
220
0.0
230
1.0
 70
     8
 71
     3
 72
    11
 73
     7
 74
     0
 42
0.0000000001
 43
0.0000000001
 40
0.0
 40
0.0
 40
0.0
 40
0.0
 40
1.0
 40
1.0
 40
1.0
 40
2.0
 40
2.0
 40
2.0
 40
2.0
 10
79.03068354542284
 20
172.7989592915302
 30
0.0
 10
77.76763322927293
 20
172.7541774194647
 30
0.0
 10
76.78003152311534
 20
171.6939699531052
 30
0.0
 10
76.82481339518147
 20
170.4309196369553
 30
0.0
 10
76.86736690383835
 20
169.2307191968142
 30
0.0
 10
77.83048310528302
 20
168.2676029953714
 30
0.0
 10
79.03068354542284
 20
168.2250494867139
 30
0.0
  0
LINE
  5
E0
330
BC
100
AcDbEntity
  8
Sichtbar schmal (ANSI)
 62
    18
420
        0
370
     5
100
AcDbLine
 10
84.11199468117798
 20
169.3407801911623
 30
0.0
 11
84.11199468117798
 21
170.7822868963418
 31
0.0
  0
LINE
  5
E1
330
BC
100
AcDbEntity
  8
Sichtbar schmal (ANSI)
 62
    18
420
        0
370
     5
100
AcDbLine
 10
83.84171217395723
 20
169.3407801911623
 30
0.0
 11
84.11199468117798
 21
169.3407801911623
 31
0.0
  0
LINE
  5
E2
330
BC
100
AcDbEntity
  8
Sichtbar schmal (ANSI)
 62
    18
420
        0
370
     5
100
AcDbLine
 10
83.84171217395723
 20
170.7822868963418
 30
0.0
 11
83.84171217395723
 21
169.3407801911623
 31
0.0
  0
LINE
  5
E3
330
BC
100
AcDbEntity
  8
Sichtbar schmal (ANSI)
 62
    18
420
        0
370
     5
100
AcDbLine
 10
84.11199468117798
 20
170.7822868963418
 30
0.0
 11
83.84171217395723
 21
170.7822868963418
 31
0.0
  0
LINE
  5
E4
330
BC
100
AcDbEntity
  8
Sichtbar schmal (ANSI)
 62
    18
420
        0
370
     5
100
AcDbLine
 10
79.24690955119932
 20
169.791251036532
 30
0.0
 11
79.24690955119932
 21
171.2327577417115
 31
0.0
  0
LINE
  5
E5
330
BC
100
AcDbEntity
  8
Sichtbar schmal (ANSI)
 62
    18
420
        0
370
     5
100
AcDbLine
 10
78.97662704397856
 20
169.791251036532
 30
0.0
 11
79.24690955119932
 21
169.791251036532
 31
0.0
  0
LINE
  5
E6
330
BC
100
AcDbEntity
  8
Sichtbar schmal (ANSI)
 62
    18
420
        0
370
     5
100
AcDbLine
 10
78.97662704397856
 20
171.2327577417115
 30
0.0
 11
78.97662704397856
 21
169.791251036532
 31
0.0
  0
LINE
  5
E7
330
BC
100
AcDbEntity
  8
Sichtbar schmal (ANSI)
 62
    18
420
        0
370
     5
100
AcDbLine
 10
79.24690955119932
 20
171.2327577417115
 30
0.0
 11
78.97662704397856
 21
171.2327577417115
 31
0.0
  0
SPLINE
  5
E8
330
BC
100
AcDbEntity
  8
Sichtbar schmal (ANSI)
 62
    18
420
        0
370
     5
100
AcDbSpline
210
0.0
220
0.0
230
1.0
 70
     8
 71
     3
 72
    11
 73
     7
 74
     0
 42
0.0000000001
 43
0.0000000001
 40
0.0
 40
0.0
 40
0.0
 40
0.0
 40
1.0
 40
1.0
 40
1.0
 40
2.0
 40
2.0
 40
2.0
 40
2.0
 10
97.59008237460141
 20
171.8976650874349
 30
0.0
 10
96.57601492434318
 20
171.85288321537
 30
0.0
 10
95.79025371102181
 20
170.9945162418445
 30
0.0
 10
95.83503558308569
 20
169.9804487915857
 30
0.0
 10
95.87704739633471
 20
169.0291082071857
 30
0.0
 10
96.63874179020051
 20
168.2674138133199
 30
0.0
 10
97.59008237460141
 20
168.2254020000719
 30
0.0
  0
LINE
  5
E9
330
BC
100
AcDbEntity
  8
Sichtbar schmal (ANSI)
 62
    18
420
        0
370
     5
100
AcDbLine
 10
72.89527063150494
 20
183.9360355811002
 30
0.0
 11
72.53489395521039
 21
183.9360355811002
 31
0.0
  0
LINE
  5
EA
330
BC
100
AcDbEntity
  8
Sichtbar schmal (ANSI)
 62
    18
420
        0
370
     5
100
AcDbLine
 10
72.53489395521039
 20
167.809179316911
 30
0.0
 11
72.53489395521039
 21
167.4488026406158
 31
0.0
  0
LINE
  5
EB
330
BC
100
AcDbEntity
  8
Sichtbar schmal (ANSI)
 62
    18
420
        0
370
     5
100
AcDbLine
 10
72.53489395521039
 20
167.809179316911
 30
0.0
 11
72.53489395521039
 21
183.9360355811002
 31
0.0
  0
LINE
  5
EC
330
BC
100
AcDbEntity
  8
Sichtbar schmal (ANSI)
 62
    18
420
        0
370
     5
100
AcDbLine
 10
72.71508229335734
 20
167.809179316911
 30
0.0
 11
72.71508229335734
 21
167.4488026406158
 31
0.0
  0
SPLINE
  5
ED
330
BC
100
AcDbEntity
  8
Sichtbar schmal (ANSI)
 62
    18
420
        0
370
     5
100
AcDbSpline
210
0.0
220
0.0
230
1.0
 70
     8
 71
     3
 72
     8
 73
     4
 74
     0
 42
0.0000000001
 43
0.0000000001
 40
0.0
 40
0.0
 40
0.0
 40
0.0
 40
1.0
 40
1.0
 40
1.0
 40
1.0
 10
72.71508229335734
 20
167.4488026406158
 30
0.0
 10
72.71508229335734
 20
167.3492873693599
 30
0.0
 10
72.79575536024903
 20
167.2686143024682
 30
0.0
 10
72.89527063150494
 20
167.2686143024682
 30
0.0
  0
SPLINE
  5
EE
330
BC
100
AcDbEntity
  8
Sichtbar schmal (ANSI)
 62
    18
420
        0
370
     5
100
AcDbSpline
210
0.0
220
0.0
230
1.0
 70
     8
 71
     3
 72
     8
 73
     4
 74
     0
 42
0.0000000001
 43
0.0000000001
 40
0.0
 40
0.0
 40
0.0
 40
0.0
 40
1.0
 40
1.0
 40
1.0
 40
1.0
 10
72.53489395521039
 20
167.4488026406158
 30
0.0
 10
72.53489395521039
 20
167.2497720981027
 30
0.0
 10
72.69624008899377
 20
167.0884259643213
 30
0.0
 10
72.89527063150494
 20
167.0884259643213
 30
0.0
  0
LINE
  5
EF
330
BC
100
AcDbEntity
  8
Sichtbar schmal (ANSI)
 62
    18
420
        0
370
     5
100
AcDbLine
 10
72.89527063150494
 20
167.0884259643213
 30
0.0
 11
73.04331204639007
 21
167.0884259643213
 31
0.0
  0
LINE
  5
F0
330
BC
100
AcDbEntity
  8
Sichtbar schmal (ANSI)
 62
    18
420
        0
370
     5
100
AcDbLine
 10
77.18764382377931
 20
167.0884259643213
 30
0.0
 11
90.63106526654978
 21
167.0884259643213
 31
0.0
  0
LINE
  5
F1
330
BC
100
AcDbEntity
  8
Sichtbar schmal (ANSI)
 62
    18
420
        0
370
     5
100
AcDbLine
 10
72.89527063150494
 20
167.2686143024682
 30
0.0
 11
73.04331204639007
 21
167.2686143024682
 31
0.0
  0
LINE
  5
F2
330
BC
100
AcDbEntity
  8
Sichtbar schmal (ANSI)
 62
    18
420
        0
370
     5
100
AcDbLine
 10
77.18764382377931
 20
167.2686143024682
 30
0.0
 11
77.36783216192626
 21
167.2686143024682
 31
0.0
  0
LINE
  5
F3
330
BC
100
AcDbEntity
  8
Sichtbar schmal (ANSI)
 62
    18
420
        0
370
     5
100
AcDbLine
 10
90.4867403908068
 20
167.2686143024682
 30
0.0
 11
90.63106526654978
 21
167.2686143024682
 31
0.0
  0
LINE
  5
F4
330
BC
100
AcDbEntity
  8
Sichtbar schmal (ANSI)
 62
    18
420
        0
370
     5
100
AcDbLine
 10
90.63106526654978
 20
167.2686143024682
 30
0.0
 11
90.81125360469705
 21
167.2686143024682
 31
0.0
  0
LINE
  5
F5
330
BC
100
AcDbEntity
  8
Sichtbar schmal (ANSI)
 62
    18
420
        0
370
     5
100
AcDbLine
 10
90.81125360469705
 20
167.0884259643213
 30
0.0
 11
90.63106526654978
 21
167.0884259643213
 31
0.0
  0
LINE
  5
F6
330
BC
100
AcDbEntity
  8
Sichtbar schmal (ANSI)
 62
    18
420
        0
370
     5
100
AcDbLine
 10
90.81125360469705
 20
167.0884259643213
 30
0.0
 11
90.81125360469705
 21
167.2686143024682
 31
0.0
  0
LINE
  5
F7
330
BC
100
AcDbEntity
  8
Sichtbar schmal (ANSI)
 62
    18
420
        0
370
     5
100
AcDbLine
 10
72.53489395521039
 20
167.809179316911
 30
0.0
 11
72.89527063150494
 21
167.809179316911
 31
0.0
  0
LINE
  5
F8
330
BC
100
AcDbEntity
  8
Sichtbar schmal (ANSI)
 62
    18
420
        0
370
     5
100
AcDbLine
 10
104.2879698811455
 20
167.2686143024682
 30
0.0
 11
91.17223116513228
 21
167.2686143024682
 31
0.0
  0
LINE
  5
F9
330
BC
100
AcDbEntity
  8
Sichtbar schmal (ANSI)
 62
    18
420
        0
370
     5
100
AcDbLine
 10
90.48357087794238
 20
167.2686143024682
 30
0.0
 11
90.4867403908068
 21
167.2686143024682
 31
0.0
  0
LINE
  5
FA
330
BC
100
AcDbEntity
  8
Sichtbar schmal (ANSI)
 62
    18
420
        0
370
     5
100
AcDbLine
 10
90.81125360469705
 20
167.2686143024682
 30
0.0
 11
90.83676694964029
 21
167.2686143024682
 31
0.0
  0
LINE
  5
FB
330
BC
100
AcDbEntity
  8
Sichtbar schmal (ANSI)
 62
    18
420
        0
370
     5
100
AcDbLine
 10
91.1661276968992
 20
167.2686143024682
 30
0.0
 11
91.17223116512811
 21
167.2686143024682
 31
0.0
  0
LINE
  5
FC
330
BC
100
AcDbEntity
  8
Sichtbar schmal (ANSI)
 62
    18
420
        0
370
     5
100
AcDbLine
 10
90.48357087794238
 20
167.2686143024682
 30
0.0
 11
77.36783216192626
 21
167.2686143024682
 31
0.0
  0
SPLINE
  5
FD
330
BC
100
AcDbEntity
  8
Sichtbar schmal (ANSI)
 62
    18
420
        0
370
     5
100
AcDbSpline
210
0.0
220
0.0
230
1.0
 70
     8
 71
     3
 72
    62
 73
    58
 74
     0
 42
0.0000000001
 43
0.0000000001
 40
0.0
 40
0.0
 40
0.0
 40
0.0
 40
1.0
 40
1.0
 40
1.0
 40
2.0
 40
2.0
 40
2.0
 40
3.0
 40
3.0
 40
3.0
 40
4.0
 40
4.0
 40
4.0
 40
5.0
 40
5.0
 40
5.0
 40
6.0
 40
6.0
 40
6.0
 40
7.0
 40
7.0
 40
7.0
 40
8.0
 40
8.0
 40
8.0
 40
9.0
 40
9.0
 40
9.0
 40
10.0
 40
10.0
 40
10.0
 40
11.0
 40
11.0
 40
11.0
 40
12.0
 40
12.0
 40
12.0
 40
13.0
 40
13.0
 40
13.0
 40
14.0
 40
14.0
 40
14.0
 40
15.0
 40
15.0
 40
15.0
 40
16.0
 40
16.0
 40
16.0
 40
17.0
 40
17.0
 40
17.0
 40
18.0
 40
18.0
 40
18.0
 40
19.0
 40
19.0
 40
19.0
 40
19.0
 10
91.20629653164616
 20
167.3444155458797
 30
0.0
 10
91.20629653164616
 20
167.3479740386666
 30
0.0
 10
91.2062384888746
 20
167.3516432849864
 30
0.0
 10
91.20612245066221
 20
167.3554187672831
 30
0.0
 10
91.20600641245109
 20
167.3591942495773
 30
0.0
 10
91.20583237879984
 20
167.3630759475321
 30
0.0
 10
91.20560008665254
 20
167.3670601819669
 30
0.0
 10
91.20536779450459
 20
167.3710444164016
 30
0.0
 10
91.20507724386063
 20
167.3751312430427
 30
0.0
 10
91.2047282488294
 20
167.3793133543209
 30
0.0
 10
91.20437925379624
 20
167.3834954655991
 30
0.0
 10
91.20397181437713
 20
167.3877727992927
 30
0.0
 10
91.20350523443894
 20
167.3921417776206
 30
0.0
 10
91.20303865450139
 20
167.3965107559501
 30
0.0
 10
91.20251293404415
 20
167.4009714094486
 30
0.0
 10
91.20192729194526
 20
167.4055177749248
 30
0.0
 10
91.20134164984378
 20
167.4100641404033
 30
0.0
 10
91.20069608610066
 20
167.4146962092717
 30
0.0
 10
91.19998993403006
 20
167.4194085585218
 30
0.0
 10
91.19928378195977
 20
167.4241209077755
 30
0.0
 10
91.19851704156392
 20
167.4289135223923
 30
0.0
 10
91.19768846803523
 20
167.4337820398277
 30
0.0
 10
91.19685989450752
 20
167.4386505572639
 30
0.0
 10
91.19596948784666
 20
167.4435950328466
 30
0.0
 10
91.19501674373529
 20
167.448605529028
 30
0.0
 10
91.19406399962389
 20
167.4536160252093
 30
0.0
 10
91.19304891806264
 20
167.4586924920029
 30
0.0
 10
91.19196973518191
 20
167.4638301582653
 30
0.0
 10
91.19089055230277
 20
167.468967824527
 30
0.0
 10
91.18974726810193
 20
167.4741667044465
 30
0.0
 10
91.18853809921882
 20
167.4794200802109
 30
0.0
 10
91.18732893033602
 20
167.4846734559763
 30
0.0
 10
91.18605387677032
 20
167.4899813208957
 30
0.0
 10
91.18471124910652
 20
167.4953378820347
 30
0.0
 10
91.18336862144269
 20
167.5006944431751
 30
0.0
 10
91.18195841967983
 20
167.5060997064904
 30
0.0
 10
91.18047867407296
 20
167.5115466084744
 30
0.0
 10
91.17899892846484
 20
167.5169935104581
 30
0.0
 10
91.17744963901271
 20
167.5224820759365
 30
0.0
 10
91.17582981427906
 20
167.5280007149773
 30
0.0
 10
91.17420998954605
 20
167.5335193540174
 30
0.0
 10
91.17251962953151
 20
167.5390680450133
 30
0.0
 10
91.1707558232945
 20
167.5446398522327
 30
0.0
 10
91.16899201705749
 20
167.5502116594521
 30
0.0
 10
91.16715476459736
 20
167.5558065784557
 30
0.0
 10
91.16524071123956
 20
167.5614185762411
 30
0.0
 10
91.16332665788014
 20
167.5670305740233
 30
0.0
 10
91.16133580362594
 20
167.5726596511596
 30
0.0
 10
91.15926508088314
 20
167.5782993293861
 30
0.0
 10
91.15719435814227
 20
167.5839390076116
 30
0.0
 10
91.15504376691182
 20
167.5895893001341
 30
0.0
 10
91.15281175967941
 20
167.595237450946
 30
0.0
 10
91.15057975244443
 20
167.6008856017559
 30
0.0
 10
91.14826632920618
 20
167.6065316166115
 30
0.0
 10
91.1458707108124
 20
167.6121606697621
 30
0.0
 10
91.14347509241831
 20
167.6177897229165
 30
0.0
 10
91.14099727886612
 20
167.6234018084601
 30
0.0
 10
91.13843198054308
 20
167.6289909787634
 30
0.0
  0
SPLINE
  5
FE
330
BC
100
AcDbEntity
  8
Sichtbar schmal (ANSI)
 62
    18
420
        0
370
     5
100
AcDbSpline
210
0.0
220
0.0
230
1.0
 70
     8
 71
     3
 72
    47
 73
    43
 74
     0
 42
0.0000000001
 43
0.0000000001
 40
0.0
 40
0.0
 40
0.0
 40
0.0
 40
1.0
 40
1.0
 40
1.0
 40
2.0
 40
2.0
 40
2.0
 40
3.0
 40
3.0
 40
3.0
 40
4.0
 40
4.0
 40
4.0
 40
5.0
 40
5.0
 40
5.0
 40
6.0
 40
6.0
 40
6.0
 40
7.0
 40
7.0
 40
7.0
 40
8.0
 40
8.0
 40
8.0
 40
9.0
 40
9.0
 40
9.0
 40
10.0
 40
10.0
 40
10.0
 40
11.0
 40
11.0
 40
11.0
 40
12.0
 40
12.0
 40
12.0
 40
13.0
 40
13.0
 40
13.0
 40
14.0
 40
14.0
 40
14.0
 40
14.0
 10
91.17223116513228
 20
167.2686143024682
 30
0.0
 10
91.17391988596642
 20
167.2686143024682
 30
0.0
 10
91.17553819693716
 20
167.2687459003964
 30
0.0
 10
91.17708867286964
 20
167.2690098282121
 30
0.0
 10
91.17863914880116
 20
167.2692737560264
 30
0.0
 10
91.18012178969344
 20
167.2696700222665
 30
0.0
 10
91.181538538042
 20
167.2701988822427
 30
0.0
 10
91.18295528639311
 20
167.2707277422167
 30
0.0
 10
91.1843061422005
 20
167.2713891994112
 30
0.0
 10
91.18559254785665
 20
167.2721829673963
 30
0.0
 10
91.18687895351344
 20
167.2729767353809
 30
0.0
 10
91.18810090901611
 20
167.2739028099014
 30
0.0
 10
91.18926000992653
 20
167.274960431953
 30
0.0
 10
91.19041911083726
 20
167.2760180540072
 30
0.0
 10
91.19151535715415
 20
167.2772071966077
 30
0.0
 10
91.19255051497317
 20
167.2785271051975
 30
0.0
 10
91.19358567279121
 20
167.2798470137853
 30
0.0
 10
91.19455974211106
 20
167.2812977293187
 30
0.0
 10
91.19547362502071
 20
167.2828774702157
 30
0.0
 10
91.19638750793194
 20
167.2844572111126
 30
0.0
 10
91.19724120443171
 20
167.2861659520055
 30
0.0
 10
91.19803576537915
 20
167.2880018999482
 30
0.0
 10
91.19883032632467
 20
167.2898378478884
 30
0.0
 10
91.19956575171755
 20
167.2918009833048
 30
0.0
 10
91.20024322370477
 20
167.293889718198
 30
0.0
 10
91.20092069569295
 20
167.2959784530898
 30
0.0
 10
91.20154021427481
 20
167.2981928362814
 30
0.0
 10
91.20210233740349
 20
167.3005296718899
 30
0.0
 10
91.20266446053348
 20
167.3028665074977
 30
0.0
 10
91.20316918820641
 20
167.3053257542425
 30
0.0
 10
91.203617185091
 20
167.3079049969218
 30
0.0
 10
91.20406518197366
 20
167.3104842396011
 30
0.0
 10
91.20445644806762
 20
167.3131834781386
 30
0.0
 10
91.20479148644218
 20
167.3160001155397
 30
0.0
 10
91.20512652481833
 20
167.3188167529409
 30
0.0
 10
91.20540533547698
 20
167.3217508251758
 30
0.0
 10
91.20562824167468
 20
167.3247980764204
 30
0.0
 10
91.20585114787173
 20
167.3278453276665
 30
0.0
 10
91.2060181496059
 20
167.3310057147072
 30
0.0
 10
91.20612949555093
 20
167.3342764170284
 30
0.0
 10
91.20624084149406
 20
167.3375471193482
 30
0.0
 10
91.20629653164616
 20
167.3409281585423
 30
0.0
 10
91.20629653164616
 20
167.3444155458797
 30
0.0
  0
SPLINE
  5
FF
330
BC
100
AcDbEntity
  8
Sichtbar schmal (ANSI)
 62
    18
420
        0
370
     5
100
AcDbSpline
210
0.0
220
0.0
230
1.0
 70
     8
 71
     3
 72
    47
 73
    43
 74
     0
 42
0.0000000001
 43
0.0000000001
 40
0.0
 40
0.0
 40
0.0
 40
0.0
 40
1.0
 40
1.0
 40
1.0
 40
2.0
 40
2.0
 40
2.0
 40
3.0
 40
3.0
 40
3.0
 40
4.0
 40
4.0
 40
4.0
 40
5.0
 40
5.0
 40
5.0
 40
6.0
 40
6.0
 40
6.0
 40
7.0
 40
7.0
 40
7.0
 40
8.0
 40
8.0
 40
8.0
 40
9.0
 40
9.0
 40
9.0
 40
10.0
 40
10.0
 40
10.0
 40
11.0
 40
11.0
 40
11.0
 40
12.0
 40
12.0
 40
12.0
 40
13.0
 40
13.0
 40
13.0
 40
14.0
 40
14.0
 40
14.0
 40
14.0
 10
90.44950551142562
 20
167.3444155458797
 30
0.0
 10
90.44950551142562
 20
167.3409281585423
 30
0.0
 10
90.44956120157772
 20
167.3375471193482
 30
0.0
 10
90.44967254752179
 20
167.3342764170284
 30
0.0
 10
90.44978389346525
 20
167.3310057147072
 30
0.0
 10
90.44995089520263
 20
167.3278453276665
 30
0.0
 10
90.45017380139839
 20
167.3247980764204
 30
0.0
 10
90.45039670759416
 20
167.3217508251758
 30
0.0
 10
90.45067551825026
 20
167.3188167529409
 30
0.0
 10
90.45101055662703
 20
167.3160001155397
 30
0.0
 10
90.45134559500288
 20
167.3131834781386
 30
0.0
 10
90.45173686109876
 20
167.3104842396011
 30
0.0
 10
90.45218485798207
 20
167.3079049969218
 30
0.0
 10
90.45263285486537
 20
167.3053257542425
 30
0.0
 10
90.45313758253511
 20
167.3028665074977
 30
0.0
 10
90.45369970566186
 20
167.3005296718899
 30
0.0
 10
90.45426182878799
 20
167.2981928362814
 30
0.0
 10
90.45488134737082
 20
167.2959784530898
 30
0.0
 10
90.4555588193577
 20
167.293889718198
 30
0.0
 10
90.45623629134588
 20
167.2918009833048
 30
0.0
 10
90.45697171673941
 20
167.2898378478884
 30
0.0
 10
90.45776627768814
 20
167.2880018999482
 30
0.0
 10
90.45856083863816
 20
167.2861659520055
 30
0.0
 10
90.45941453514208
 20
167.2844572111126
 30
0.0
 10
90.46032841805237
 20
167.2828774702157
 30
0.0
 10
90.46124230096168
 20
167.2812977293187
 30
0.0
 10
90.46221637027736
 20
167.2798470137853
 30
0.0
 10
90.46325152809572
 20
167.2785271051975
 30
0.0
 10
90.4642866859128
 20
167.2772071966077
 30
0.0
 10
90.46538293223131
 20
167.2760180540072
 30
0.0
 10
90.46654203314044
 20
167.274960431953
 30
0.0
 10
90.4677011340515
 20
167.2739028099014
 30
0.0
 10
90.46892308955481
 20
167.2729767353809
 30
0.0
 10
90.47020949521064
 20
167.2721829673963
 30
0.0
 10
90.47149590086487
 20
167.2713891994112
 30
0.0
 10
90.47284675667354
 20
167.2707277422167
 30
0.0
 10
90.47426350502467
 20
167.2701988822427
 30
0.0
 10
90.47568025337513
 20
167.2696700222665
 30
0.0
 10
90.47716289426743
 20
167.2692737560264
 30
0.0
 10
90.47871337019959
 20
167.2690098282121
 30
0.0
 10
90.48026384613109
 20
167.2687459003964
 30
0.0
 10
90.48188215710185
 20
167.2686143024682
 30
0.0
 10
90.48357087794238
 20
167.2686143024682
 30
0.0
  0
SPLINE
  5
100
330
BC
100
AcDbEntity
  8
Sichtbar schmal (ANSI)
 62
    18
420
        0
370
     5
100
AcDbSpline
210
0.0
220
0.0
230
1.0
 70
     8
 71
     3
 72
    62
 73
    58
 74
     0
 42
0.0000000001
 43
0.0000000001
 40
0.0
 40
0.0
 40
0.0
 40
0.0
 40
1.0
 40
1.0
 40
1.0
 40
2.0
 40
2.0
 40
2.0
 40
3.0
 40
3.0
 40
3.0
 40
4.0
 40
4.0
 40
4.0
 40
5.0
 40
5.0
 40
5.0
 40
6.0
 40
6.0
 40
6.0
 40
7.0
 40
7.0
 40
7.0
 40
8.0
 40
8.0
 40
8.0
 40
9.0
 40
9.0
 40
9.0
 40
10.0
 40
10.0
 40
10.0
 40
11.0
 40
11.0
 40
11.0
 40
12.0
 40
12.0
 40
12.0
 40
13.0
 40
13.0
 40
13.0
 40
14.0
 40
14.0
 40
14.0
 40
15.0
 40
15.0
 40
15.0
 40
16.0
 40
16.0
 40
16.0
 40
17.0
 40
17.0
 40
17.0
 40
18.0
 40
18.0
 40
18.0
 40
19.0
 40
19.0
 40
19.0
 40
19.0
 10
90.51737006253578
 20
167.6289909787634
 30
0.0
 10
90.51480476421144
 20
167.6234018084601
 30
0.0
 10
90.51232695066087
 20
167.6177897229165
 30
0.0
 10
90.50993133226516
 20
167.6121606697621
 30
0.0
 10
90.50753571386946
 20
167.6065316166115
 30
0.0
 10
90.50522229063057
 20
167.6008856017559
 30
0.0
 10
90.50299028339365
 20
167.595237450946
 30
0.0
 10
90.50075827615675
 20
167.5895893001341
 30
0.0
 10
90.49860768492438
 20
167.5839390076116
 30
0.0
 10
90.49653696218221
 20
167.5782993293861
 30
0.0
 10
90.49446623944005
 20
167.5726596511596
 30
0.0
 10
90.49247538518939
 20
167.5670305740233
 30
0.0
 10
90.49056133183352
 20
167.5614185762411
 30
0.0
 10
90.48864727847698
 20
167.5558065784557
 30
0.0
 10
90.48681002601396
 20
167.5502116594521
 30
0.0
 10
90.48504621977761
 20
167.5446398522327
 30
0.0
 10
90.48328241353996
 20
167.5390680450133
 30
0.0
 10
90.48159205352895
 20
167.5335193540174
 30
0.0
 10
90.47997222879692
 20
167.5280007149773
 30
0.0
 10
90.47835240406293
 20
167.5224820759365
 30
0.0
 10
90.47680311460856
 20
167.5169935104581
 30
0.0
 10
90.4753233690017
 20
167.5115466084744
 30
0.0
 10
90.47384362339291
 20
167.5060997064904
 30
0.0
 10
90.47243342163358
 20
167.5006944431751
 30
0.0
 10
90.47109079396976
 20
167.4953378820347
 30
0.0
 10
90.46974816630532
 20
167.4899813208957
 30
0.0
 10
90.46847311273671
 20
167.4846734559763
 30
0.0
 10
90.46726394385457
 20
167.4794200802109
 30
0.0
 10
90.46605477497015
 20
167.4741667044465
 30
0.0
 10
90.46491149077157
 20
167.468967824527
 30
0.0
 10
90.46383230789084
 20
167.4638301582653
 30
0.0
 10
90.46275312501011
 20
167.4586924920029
 30
0.0
 10
90.46173804344789
 20
167.4536160252093
 30
0.0
 10
90.4607852993365
 20
167.448605529028
 30
0.0
 10
90.45983255522672
 20
167.4435950328466
 30
0.0
 10
90.45894214856714
 20
167.4386505572639
 30
0.0
 10
90.45811357503911
 20
167.4337820398277
 30
0.0
 10
90.45728500151172
 20
167.4289135223923
 30
0.0
 10
90.45651826111491
 20
167.4241209077755
 30
0.0
 10
90.455812109043
 20
167.4194085585218
 30
0.0
 10
90.45510595697113
 20
167.4146962092717
 30
0.0
 10
90.45446039322383
 20
167.4100641404033
 30
0.0
 10
90.45387475112107
 20
167.4055177749248
 30
0.0
 10
90.45328910901865
 20
167.4009714094486
 30
0.0
 10
90.4527633885614
 20
167.3965107559501
 30
0.0
 10
90.45229680862643
 20
167.3921417776206
 30
0.0
 10
90.45183022869114
 20
167.3877727992927
 30
0.0
 10
90.45142278927682
 20
167.3834954655991
 30
0.0
 10
90.45107379424495
 20
167.3793133543209
 30
0.0
 10
90.45072479921373
 20
167.3751312430427
 30
0.0
 10
90.45043424856526
 20
167.3710444164016
 30
0.0
 10
90.45020195641411
 20
167.3670601819669
 30
0.0
 10
90.44996966426554
 20
167.3630759475321
 30
0.0
 10
90.44979563061298
 20
167.3591942495773
 30
0.0
 10
90.44967959240219
 20
167.3554187672831
 30
0.0
 10
90.44956355419206
 20
167.3516432849864
 30
0.0
 10
90.44950551142562
 20
167.3479740386666
 30
0.0
 10
90.44950551142562
 20
167.3444155458797
 30
0.0
  0
LINE
  5
101
330
BC
100
AcDbEntity
  8
Sichtbar schmal (ANSI)
 62
    18
420
        0
370
     5
100
AcDbLine
 10
108.7527499228317
 20
167.809179316911
 30
0.0
 11
109.1131265991257
 21
167.809179316911
 31
0.0
  0
SPLINE
  5
102
330
BC
100
AcDbEntity
  8
Sichtbar schmal (ANSI)
 62
    18
420
        0
370
     5
100
AcDbSpline
210
0.0
220
0.0
230
1.0
 70
     8
 71
     3
 72
     8
 73
     4
 74
     0
 42
0.0000000001
 43
0.0000000001
 40
0.0
 40
0.0
 40
0.0
 40
0.0
 40
1.0
 40
1.0
 40
1.0
 40
1.0
 10
108.7527499228317
 20
167.2686143024682
 30
0.0
 10
108.8522651940877
 20
167.2686143024682
 30
0.0
 10
108.9329382609793
 20
167.3492873693599
 30
0.0
 10
108.9329382609793
 20
167.4488026406158
 30
0.0
  0
SPLINE
  5
103
330
BC
100
AcDbEntity
  8
Sichtbar schmal (ANSI)
 62
    18
420
        0
370
     5
100
AcDbSpline
210
0.0
220
0.0
230
1.0
 70
     8
 71
     3
 72
     8
 73
     4
 74
     0
 42
0.0000000001
 43
0.0000000001
 40
0.0
 40
0.0
 40
0.0
 40
0.0
 40
1.0
 40
1.0
 40
1.0
 40
1.0
 10
108.7527499228317
 20
167.0884259643213
 30
0.0
 10
108.9517804653435
 20
167.0884259643213
 30
0.0
 10
109.1131265991257
 20
167.2497720981027
 30
0.0
 10
109.1131265991257
 20
167.4488026406158
 30
0.0
  0
LINE
  5
104
330
BC
100
AcDbEntity
  8
Sichtbar schmal (ANSI)
 62
    18
420
        0
370
     5
100
AcDbLine
 10
90.83676694964029
 20
167.2686143024682
 30
0.0
 11
91.01695528778821
 21
167.2686143024682
 31
0.0
  0
LINE
  5
105
330
BC
100
AcDbEntity
  8
Sichtbar schmal (ANSI)
 62
    18
420
        0
370
     5
100
AcDbLine
 10
91.01695528778821
 20
167.2686143024682
 30
0.0
 11
91.1661276968992
 21
167.2686143024682
 31
0.0
  0
LINE
  5
106
330
BC
100
AcDbEntity
  8
Sichtbar schmal (ANSI)
 62
    18
420
        0
370
     5
100
AcDbLine
 10
104.2879698811455
 20
167.2686143024682
 30
0.0
 11
104.4681582192924
 21
167.2686143024682
 31
0.0
  0
LINE
  5
107
330
BC
100
AcDbEntity
  8
Sichtbar schmal (ANSI)
 62
    18
420
        0
370
     5
100
AcDbLine
 10
108.6124899966817
 20
167.2686143024682
 30
0.0
 11
108.7527499228317
 21
167.2686143024682
 31
0.0
  0
LINE
  5
108
330
BC
100
AcDbEntity
  8
Sichtbar schmal (ANSI)
 62
    18
420
        0
370
     5
100
AcDbLine
 10
91.01695528778821
 20
167.0884259643213
 30
0.0
 11
104.4681582192924
 21
167.0884259643213
 31
0.0
  0
LINE
  5
109
330
BC
100
AcDbEntity
  8
Sichtbar schmal (ANSI)
 62
    18
420
        0
370
     5
100
AcDbLine
 10
108.6124899966817
 20
167.0884259643213
 30
0.0
 11
108.7527499228317
 21
167.0884259643213
 31
0.0
  0
LINE
  5
10A
330
BC
100
AcDbEntity
  8
Sichtbar schmal (ANSI)
 62
    18
420
        0
370
     5
100
AcDbLine
 10
91.01695528778821
 20
167.0884259643213
 30
0.0
 11
90.83676694964029
 21
167.0884259643213
 31
0.0
  0
LINE
  5
10B
330
BC
100
AcDbEntity
  8
Sichtbar schmal (ANSI)
 62
    18
420
        0
370
     5
100
AcDbLine
 10
90.83676694964029
 20
167.0884259643213
 30
0.0
 11
90.83676694964029
 21
167.2686143024682
 31
0.0
  0
LINE
  5
10C
330
BC
100
AcDbEntity
  8
Sichtbar schmal (ANSI)
 62
    18
420
        0
370
     5
100
AcDbLine
 10
78.01261943481707
 20
166.908237626139
 30
0.0
 11
79.12978713147783
 21
166.908237626139
 31
0.0
  0
LINE
  5
10D
330
BC
100
AcDbEntity
  8
Sichtbar schmal (ANSI)
 62
    18
420
        0
370
     5
100
AcDbLine
 10
77.85044993055802
 20
167.0704071305071
 30
0.0
 11
77.85044993055802
 21
167.0884259643213
 31
0.0
  0
LINE
  5
10E
330
BC
100
AcDbEntity
  8
Sichtbar schmal (ANSI)
 62
    18
420
        0
370
     5
100
AcDbLine
 10
79.29195663573686
 20
167.0704071305071
 30
0.0
 11
79.29195663573686
 21
167.0884259643213
 31
0.0
  0
SPLINE
  5
10F
330
BC
100
AcDbEntity
  8
Sichtbar schmal (ANSI)
 62
    18
420
        0
370
     5
100
AcDbSpline
210
0.0
220
0.0
230
1.0
 70
     8
 71
     3
 72
     8
 73
     4
 74
     0
 42
0.0000000001
 43
0.0000000001
 40
0.0
 40
0.0
 40
0.0
 40
0.0
 40
1.0
 40
1.0
 40
1.0
 40
1.0
 10
79.12978713148295
 20
166.908237626139
 30
0.0
 10
79.21935087561712
 20
166.9082376262353
 30
0.0
 10
79.29195663577215
 20
166.9808433864683
 30
0.0
 10
79.29195663577215
 20
167.0704071306008
 30
0.0
  0
SPLINE
  5
110
330
BC
100
AcDbEntity
  8
Sichtbar schmal (ANSI)
 62
    18
420
        0
370
     5
100
AcDbSpline
210
0.0
220
0.0
230
1.0
 70
     8
 71
     3
 72
     8
 73
     4
 74
     0
 42
0.0000000001
 43
0.0000000001
 40
0.0
 40
0.0
 40
0.0
 40
0.0
 40
1.0
 40
1.0
 40
1.0
 40
1.0
 10
77.85044993052209
 20
167.0704071306008
 30
0.0
 10
77.85044993052209
 20
166.9808433864654
 30
0.0
 10
77.92305569068034
 20
166.9082376262321
 30
0.0
 10
78.01261943481707
 20
166.908237626139
 30
0.0
  0
LINE
  5
111
330
BC
100
AcDbEntity
  8
Sichtbar schmal (ANSI)
 62
    18
420
        0
370
     5
100
AcDbLine
 10
102.5182334228585
 20
166.908237626139
 30
0.0
 11
103.6354011195193
 21
166.908237626139
 31
0.0
  0
LINE
  5
112
330
BC
100
AcDbEntity
  8
Sichtbar schmal (ANSI)
 62
    18
420
        0
370
     5
100
AcDbLine
 10
102.3560639185992
 20
167.0704071305071
 30
0.0
 11
102.3560639185992
 21
167.0884259643213
 31
0.0
  0
LINE
  5
113
330
BC
100
AcDbEntity
  8
Sichtbar schmal (ANSI)
 62
    18
420
        0
370
     5
100
AcDbLine
 10
103.7975706237787
 20
167.0704071305071
 30
0.0
 11
103.7975706237787
 21
167.0884259643213
 31
0.0
  0
SPLINE
  5
114
330
BC
100
AcDbEntity
  8
Sichtbar schmal (ANSI)
 62
    18
420
        0
370
     5
100
AcDbSpline
210
0.0
220
0.0
230
1.0
 70
     8
 71
     3
 72
     8
 73
     4
 74
     0
 42
0.0000000001
 43
0.0000000001
 40
0.0
 40
0.0
 40
0.0
 40
0.0
 40
1.0
 40
1.0
 40
1.0
 40
1.0
 10
103.6354011195251
 20
166.908237626139
 30
0.0
 10
103.7249648636586
 20
166.9082376262353
 30
0.0
 10
103.7975706238143
 20
166.9808433864683
 30
0.0
 10
103.7975706238143
 20
167.0704071306008
 30
0.0
  0
SPLINE
  5
115
330
BC
100
AcDbEntity
  8
Sichtbar schmal (ANSI)
 62
    18
420
        0
370
     5
100
AcDbSpline
210
0.0
220
0.0
230
1.0
 70
     8
 71
     3
 72
     8
 73
     4
 74
     0
 42
0.0000000001
 43
0.0000000001
 40
0.0
 40
0.0
 40
0.0
 40
0.0
 40
1.0
 40
1.0
 40
1.0
 40
1.0
 10
102.3560639185642
 20
167.0704071306008
 30
0.0
 10
102.3560639185642
 20
166.9808433864654
 30
0.0
 10
102.4286696787218
 20
166.9082376262321
 30
0.0
 10
102.5182334228585
 20
166.908237626139
 30
0.0
  0
LINE
  5
116
330
BC
100
AcDbEntity
  8
Sichtbar schmal (ANSI)
 62
    18
420
        0
370
     5
100
AcDbLine
 10
109.3653902725323
 20
167.6289909787634
 30
0.0
 11
109.1131265991257
 21
167.6289909787634
 31
0.0
  0
LINE
  5
117
330
BC
100
AcDbEntity
  8
Sichtbar schmal (ANSI)
 62
    18
420
        0
370
     5
100
AcDbLine
 10
108.9149194271646
 20
167.6289909787634
 30
0.0
 11
108.9329382609793
 21
167.6289909787634
 31
0.0
  0
LINE
  5
118
330
BC
100
AcDbEntity
  8
Sichtbar schmal (ANSI)
 62
    18
420
        0
370
     5
100
AcDbLine
 10
108.9149194271646
 20
167.6289909787634
 30
0.0
 11
108.6446369199432
 21
167.6289909787634
 31
0.0
  0
LINE
  5
119
330
BC
100
AcDbEntity
  8
Sichtbar schmal (ANSI)
 62
    18
420
        0
370
     5
100
AcDbLine
 10
108.6124899966817
 20
167.6289909787634
 30
0.0
 11
108.6446369199432
 21
167.6289909787634
 31
0.0
  0
LINE
  5
11A
330
BC
100
AcDbEntity
  8
Sichtbar schmal (ANSI)
 62
    18
420
        0
370
     5
100
AcDbLine
 10
109.1131265991257
 20
167.809179316911
 30
0.0
 11
109.3653902725323
 21
167.809179316911
 31
0.0
  0
LINE
  5
11B
330
BC
100
AcDbEntity
  8
Sichtbar schmal (ANSI)
 62
    18
420
        0
370
     5
100
AcDbLine
 10
109.3653902725323
 20
167.809179316911
 30
0.0
 11
109.3653902725323
 21
167.6289909787634
 31
0.0
  0
LINE
  5
11C
330
BC
100
AcDbEntity
  8
Sichtbar schmal (ANSI)
 62
    18
420
        0
370
     5
100
AcDbLine
 10
73.00338363439253
 20
167.6289909787634
 30
0.0
 11
73.04331204639007
 21
167.6289909787634
 31
0.0
  0
LINE
  5
11D
330
BC
100
AcDbEntity
  8
Sichtbar schmal (ANSI)
 62
    18
420
        0
370
     5
100
AcDbLine
 10
73.00338363439253
 20
167.6289909787634
 30
0.0
 11
72.73310112717242
 21
167.6289909787634
 31
0.0
  0
LINE
  5
11E
330
BC
100
AcDbEntity
  8
Sichtbar schmal (ANSI)
 62
    18
420
        0
370
     5
100
AcDbLine
 10
72.71508229335734
 20
167.6289909787634
 30
0.0
 11
72.73310112717242
 21
167.6289909787634
 31
0.0
  0
LINE
  5
11F
330
BC
100
AcDbEntity
  8
Sichtbar schmal (ANSI)
 62
    18
420
        0
370
     5
100
AcDbLine
 10
72.53489395521039
 20
167.6289909787634
 30
0.0
 11
72.28263028180376
 21
167.6289909787634
 31
0.0
  0
LINE
  5
120
330
BC
100
AcDbEntity
  8
Sichtbar schmal (ANSI)
 62
    18
420
        0
370
     5
100
AcDbLine
 10
72.28263028180376
 20
167.809179316911
 30
0.0
 11
72.53489395521039
 21
167.809179316911
 31
0.0
  0
LINE
  5
121
330
BC
100
AcDbEntity
  8
Sichtbar schmal (ANSI)
 62
    18
420
        0
370
     5
100
AcDbLine
 10
72.28263028180376
 20
167.809179316911
 30
0.0
 11
72.28263028180376
 21
167.6289909787634
 31
0.0
  0
LINE
  5
122
330
BC
100
AcDbEntity
  8
Sichtbar schmal (ANSI)
 62
    18
420
        0
370
     5
100
AcDbLine
 10
72.89527063150494
 20
167.809179316911
 30
0.0
 11
72.89527063150494
 21
183.9360355811002
 31
0.0
  0
LINE
  5
123
330
BC
100
AcDbEntity
  8
Sichtbar schmal (ANSI)
 62
    18
420
        0
370
     5
100
AcDbLine
 10
90.51737006253578
 20
167.6289909787634
 30
0.0
 11
77.36783216192626
 21
167.6289909787634
 31
0.0
  0
LINE
  5
124
330
BC
100
AcDbEntity
  8
Sichtbar schmal (ANSI)
 62
    18
420
        0
370
     5
100
AcDbLine
 10
104.2879698811455
 20
167.6289909787634
 30
0.0
 11
91.13843198054308
 21
167.6289909787634
 31
0.0
  0
LINE
  5
125
330
BC
100
AcDbEntity
  8
Sichtbar schmal (ANSI)
 62
    18
420
        0
370
     5
100
AcDbLine
 10
108.7527499228317
 20
167.809179316911
 30
0.0
 11
108.7527499228317
 21
183.9360355811002
 31
0.0
  0
ENDBLK
  5
BF
330
BC
100
AcDbEntity
  8
0
100
AcDbBlockEnd
  0
BLOCK
  5
128
330
126
100
AcDbEntity
  8
0
100
AcDbBlockBegin
  2
Block_3
 70
     0
 10
0.0
 20
0.0
 30
0.0
  3
Block_3
  1

  0
INSERT
  5
12B
330
126
100
AcDbEntity
  8
Sichtbar schmal (ANSI)
100
AcDbBlockReference
  2
Block_4
 10
0.0
 20
0.0
 30
0.0
  0
ENDBLK
  5
129
330
126
100
AcDbEntity
  8
0
100
AcDbBlockEnd
  0
BLOCK
  5
12C
330
12A
100
AcDbEntity
  8
0
100
AcDbBlockBegin
  2
Block_4
 70
     0
 10
0.0
 20
0.0
 30
0.0
  3
Block_4
  1

  0
SPLINE
  5
12E
330
12A
100
AcDbEntity
  8
Sichtbar schmal (ANSI)
100
AcDbSpline
210
0.0
220
0.0
230
1.0
 70
     9
 71
     3
 72
    17
 73
    13
 74
     0
 42
0.0000000001
 43
0.0000000001
 40
0.0
 40
0.0
 40
0.0
 40
0.0
 40
1.0
 40
1.0
 40
1.0
 40
2.0
 40
2.0
 40
2.0
 40
3.0
 40
3.0
 40
3.0
 40
4.0
 40
4.0
 40
4.0
 40
4.0
 10
90.07443302869667
 20
109.8175862355664
 30
0.0
 10
90.33402097351025
 20
109.8175862355664
 30
0.0
 10
90.47785371001943
 20
110.0232584360358
 30
0.0
 10
90.47785371001943
 20
110.260281005421
 30
0.0
 10
90.47785371001943
 20
110.5086723899075
 30
0.0
 10
90.34814586499978
 20
110.7143445903769
 30
0.0
 10
90.07443302869667
 20
110.7143445903769
 30
0.0
 10
89.8065768547185
 20
110.7143445903769
 30
0.0
 10
89.65981578704685
 20
110.5141845426839
 30
0.0
 10
89.65981578704685
 20
110.2630370818092
 30
0.0
 10
89.65981578704685
 20
110.0149902068712
 30
0.0
 10
89.81208900749491
 20
109.8175862355664
 30
0.0
 10
90.07443302869667
 20
109.8175862355664
 30
0.0
  0
SPLINE
  5
12F
330
12A
100
AcDbEntity
  8
Sichtbar schmal (ANSI)
100
AcDbSpline
210
0.0
220
0.0
230
1.0
 70
     9
 71
     3
 72
    35
 73
    31
 74
     0
 42
0.0000000001
 43
0.0000000001
 40
0.0
 40
0.0
 40
0.0
 40
0.0
 40
1.0
 40
1.0
 40
1.0
 40
2.0
 40
2.0
 40
2.0
 40
3.0
 40
3.0
 40
3.0
 40
4.0
 40
4.0
 40
4.0
 40
5.0
 40
5.0
 40
5.0
 40
6.0
 40
6.0
 40
6.0
 40
7.0
 40
7.0
 40
7.0
 40
8.0
 40
8.0
 40
8.0
 40
9.0
 40
9.0
 40
9.0
 40
10.0
 40
10.0
 40
10.0
 40
10.0
 10
89.37490639041669
 20
110.5679280322538
 30
0.0
 10
89.37490639041669
 20
111.1177652716997
 30
0.0
 10
89.54130450235426
 20
111.6396972377151
 30
0.0
 10
90.11112329561459
 20
111.6396972377151
 30
0.0
 10
90.44116344310152
 20
111.6396972377151
 30
0.0
 10
90.644251821957
 20
111.4564181578998
 30
0.0
 10
90.67525768132425
 20
111.129134086801
 30
0.0
 10
90.67525768132425
 20
111.129134086801
 30
0.0
 10
90.43547903555085
 20
111.129134086801
 30
0.0
 10
90.43547903555085
 20
111.129134086801
 30
0.0
 10
90.41291366012247
 20
111.3096570902281
 30
0.0
 10
90.29164629904167
 20
111.4281683749207
 30
0.0
 10
90.09992673528753
 20
111.4281683749207
 30
0.0
 10
89.69374997757658
 20
111.4281683749207
 30
0.0
 10
89.62312552012894
 20
110.976860866353
 30
0.0
 10
89.61468503619007
 20
110.6692138395202
 30
0.0
 10
89.61468503619007
 20
110.6692138395202
 30
0.0
 10
89.62036944374075
 20
110.6637016867438
 30
0.0
 10
89.62036944374075
 20
110.6637016867438
 30
0.0
 10
89.73319632088267
 20
110.8469807665591
 30
0.0
 10
89.90235050920844
 20
110.9258734531713
 30
0.0
 10
90.11956377955344
 20
110.9258734531713
 30
0.0
 10
90.50317516183602
 20
110.9258734531713
 30
0.0
 10
90.73175724728235
 20
110.6468207188661
 30
0.0
 10
90.73175724728235
 20
110.2771619732987
 30
0.0
 10
90.73175724728235
 20
109.983984347504
 30
0.0
 10
90.56811521173298
 20
109.6060573727721
 30
0.0
 10
90.0632364683696
 20
109.6060573727721
 30
0.0
 10
89.4680962232927
 20
109.6060573727721
 30
0.0
 10
89.37490639041669
 20
110.1503824594415
 30
0.0
 10
89.37490639041669
 20
110.5679280322538
 30
0.0
  0
HATCH
  5
130
330
12A
100
AcDbEntity
  8
Sichtbar schmal (ANSI)
 62
   250
420
  2039067
440
 33554687
100
AcDbHatch
 10
0.0
 20
0.0
 30
0.0
210
0.0
220
0.0
230
1.0
  2
SOLID
 70
     1
 71
     1
 91
        2
 92
        1
 93
        1
 72
     4
 94
        3
 73
     0
 74
     0
 95
       17
 96
       13
 40
0.0
 40
0.0
 40
0.0
 40
0.0
 40
1.0
 40
1.0
 40
1.0
 40
2.0
 40
2.0
 40
2.0
 40
3.0
 40
3.0
 40
3.0
 40
4.0
 40
4.0
 40
4.0
 40
4.0
 10
90.07443302869667
 20
109.8175862355664
 10
90.33402097351025
 20
109.8175862355664
 10
90.47785371001943
 20
110.0232584360358
 10
90.47785371001943
 20
110.260281005421
 10
90.47785371001943
 20
110.5086723899075
 10
90.34814586499978
 20
110.7143445903769
 10
90.07443302869667
 20
110.7143445903769
 10
89.8065768547185
 20
110.7143445903769
 10
89.65981578704685
 20
110.5141845426839
 10
89.65981578704685
 20
110.2630370818092
 10
89.65981578704685
 20
110.0149902068712
 10
89.81208900749491
 20
109.8175862355664
 10
90.07443302869667
 20
109.8175862355664
 97
        0
 97
        1
330
12E
 92
        1
 93
        1
 72
     4
 94
        3
 73
     0
 74
     0
 95
       35
 96
       31
 40
0.0
 40
0.0
 40
0.0
 40
0.0
 40
1.0
 40
1.0
 40
1.0
 40
2.0
 40
2.0
 40
2.0
 40
3.0
 40
3.0
 40
3.0
 40
4.0
 40
4.0
 40
4.0
 40
5.0
 40
5.0
 40
5.0
 40
6.0
 40
6.0
 40
6.0
 40
7.0
 40
7.0
 40
7.0
 40
8.0
 40
8.0
 40
8.0
 40
9.0
 40
9.0
 40
9.0
 40
10.0
 40
10.0
 40
10.0
 40
10.0
 10
89.37490639041669
 20
110.5679280322538
 10
89.37490639041669
 20
111.1177652716997
 10
89.54130450235426
 20
111.6396972377151
 10
90.11112329561459
 20
111.6396972377151
 10
90.44116344310152
 20
111.6396972377151
 10
90.644251821957
 20
111.4564181578998
 10
90.67525768132425
 20
111.129134086801
 10
90.67525768132425
 20
111.129134086801
 10
90.43547903555085
 20
111.129134086801
 10
90.43547903555085
 20
111.129134086801
 10
90.41291366012247
 20
111.3096570902281
 10
90.29164629904167
 20
111.4281683749207
 10
90.09992673528753
 20
111.4281683749207
 10
89.69374997757658
 20
111.4281683749207
 10
89.62312552012894
 20
110.976860866353
 10
89.61468503619007
 20
110.6692138395202
 10
89.61468503619007
 20
110.6692138395202
 10
89.62036944374075
 20
110.6637016867438
 10
89.62036944374075
 20
110.6637016867438
 10
89.73319632088267
 20
110.8469807665591
 10
89.90235050920844
 20
110.9258734531713
 10
90.11956377955344
 20
110.9258734531713
 10
90.50317516183602
 20
110.9258734531713
 10
90.73175724728235
 20
110.6468207188661
 10
90.73175724728235
 20
110.2771619732987
 10
90.73175724728235
 20
109.983984347504
 10
90.56811521173298
 20
109.6060573727721
 10
90.0632364683696
 20
109.6060573727721
 10
89.4680962232927
 20
109.6060573727721
 10
89.37490639041669
 20
110.1503824594415
 10
89.37490639041669
 20
110.5679280322538
 97
        0
 97
        1
330
12F
 75
     2
 76
     1
 98
        1
 10
0.0
 20
0.0
450
        0
451
        0
460
0.0
461
0.0
452
        0
462
0.0
453
        0
470

  0
SPLINE
  5
131
330
12A
100
AcDbEntity
  8
Sichtbar schmal (ANSI)
100
AcDbSpline
210
0.0
220
0.0
230
1.0
 70
    11
 71
     3
 72
    17
 73
    13
 74
     0
 42
0.0000000001
 43
0.0000000001
 40
0.0
 40
0.0
 40
0.0
 40
0.0
 40
1.0
 40
1.0
 40
1.0
 40
2.0
 40
2.0
 40
2.0
 40
3.0
 40
3.0
 40
3.0
 40
4.0
 40
4.0
 40
4.0
 40
4.0
 10
91.7931911662878
 20
110.3195366477673
 30
0.0
 10
91.7931911662878
 20
110.3195366477673
 30
0.0
 10
91.7931911662878
 20
111.2982882751268
 30
0.0
 10
91.7931911662878
 20
111.2982882751268
 30
0.0
 10
91.7931911662878
 20
111.2982882751268
 30
0.0
 10
91.78750675873715
 20
111.2982882751268
 30
0.0
 10
91.78750675873715
 20
111.2982882751268
 30
0.0
 10
91.78750675873715
 20
111.2982882751268
 30
0.0
 10
91.12191431098688
 20
110.3195366477673
 30
0.0
 10
91.12191431098688
 20
110.3195366477673
 30
0.0
 10
91.12191431098688
 20
110.3195366477673
 30
0.0
 10
91.7931911662878
 20
110.3195366477673
 30
0.0
 10
91.7931911662878
 20
110.3195366477673
 30
0.0
  0
SPLINE
  5
132
330
12A
100
AcDbEntity
  8
Sichtbar schmal (ANSI)
100
AcDbSpline
210
0.0
220
0.0
230
1.0
 70
    11
 71
     3
 72
    38
 73
    34
 74
     0
 42
0.0000000001
 43
0.0000000001
 40
0.0
 40
0.0
 40
0.0
 40
0.0
 40
1.0
 40
1.0
 40
1.0
 40
2.0
 40
2.0
 40
2.0
 40
3.0
 40
3.0
 40
3.0
 40
4.0
 40
4.0
 40
4.0
 40
5.0
 40
5.0
 40
5.0
 40
6.0
 40
6.0
 40
6.0
 40
7.0
 40
7.0
 40
7.0
 40
8.0
 40
8.0
 40
8.0
 40
9.0
 40
9.0
 40
9.0
 40
10.0
 40
10.0
 40
10.0
 40
11.0
 40
11.0
 40
11.0
 40
11.0
 10
90.91589760096894
 20
110.3395182015818
 30
0.0
 10
90.91589760096894
 20
110.3395182015818
 30
0.0
 10
91.82712535681753
 20
111.6396972377151
 30
0.0
 10
91.82712535681753
 20
111.6396972377151
 30
0.0
 10
91.82712535681753
 20
111.6396972377151
 30
0.0
 10
92.01884492057168
 20
111.6396972377151
 30
0.0
 10
92.01884492057168
 20
111.6396972377151
 30
0.0
 10
92.01884492057168
 20
111.6396972377151
 30
0.0
 10
92.01884492057168
 20
110.3195366477673
 30
0.0
 10
92.01884492057168
 20
110.3195366477673
 30
0.0
 10
92.01884492057168
 20
110.3195366477673
 30
0.0
 10
92.28962942571232
 20
110.3195366477673
 30
0.0
 10
92.28962942571232
 20
110.3195366477673
 30
0.0
 10
92.28962942571232
 20
110.3195366477673
 30
0.0
 10
92.28962942571232
 20
110.108007784973
 30
0.0
 10
92.28962942571232
 20
110.108007784973
 30
0.0
 10
92.28962942571232
 20
110.108007784973
 30
0.0
 10
92.01884492057168
 20
110.108007784973
 30
0.0
 10
92.01884492057168
 20
110.108007784973
 30
0.0
 10
92.01884492057168
 20
110.108007784973
 30
0.0
 10
92.01884492057168
 20
109.6398193085275
 30
0.0
 10
92.01884492057168
 20
109.6398193085275
 30
0.0
 10
92.01884492057168
 20
109.6398193085275
 30
0.0
 10
91.7931911662878
 20
109.6398193085275
 30
0.0
 10
91.7931911662878
 20
109.6398193085275
 30
0.0
 10
91.7931911662878
 20
109.6398193085275
 30
0.0
 10
91.7931911662878
 20
110.108007784973
 30
0.0
 10
91.7931911662878
 20
110.108007784973
 30
0.0
 10
91.7931911662878
 20
110.108007784973
 30
0.0
 10
90.91589760096894
 20
110.108007784973
 30
0.0
 10
90.91589760096894
 20
110.108007784973
 30
0.0
 10
90.91589760096894
 20
110.108007784973
 30
0.0
 10
90.91589760096894
 20
110.3395182015818
 30
0.0
 10
90.91589760096894
 20
110.3395182015818
 30
0.0
  0
HATCH
  5
133
330
12A
100
AcDbEntity
  8
Sichtbar schmal (ANSI)
 62
   250
420
  2039067
440
 33554687
100
AcDbHatch
 10
0.0
 20
0.0
 30
0.0
210
0.0
220
0.0
230
1.0
  2
SOLID
 70
     1
 71
     1
 91
        2
 92
        1
 93
        1
 72
     4
 94
        3
 73
     0
 74
     0
 95
       17
 96
       13
 40
0.0
 40
0.0
 40
0.0
 40
0.0
 40
1.0
 40
1.0
 40
1.0
 40
2.0
 40
2.0
 40
2.0
 40
3.0
 40
3.0
 40
3.0
 40
4.0
 40
4.0
 40
4.0
 40
4.0
 10
91.7931911662878
 20
110.3195366477673
 10
91.7931911662878
 20
110.3195366477673
 10
91.7931911662878
 20
111.2982882751268
 10
91.7931911662878
 20
111.2982882751268
 10
91.7931911662878
 20
111.2982882751268
 10
91.78750675873715
 20
111.2982882751268
 10
91.78750675873715
 20
111.2982882751268
 10
91.78750675873715
 20
111.2982882751268
 10
91.12191431098688
 20
110.3195366477673
 10
91.12191431098688
 20
110.3195366477673
 10
91.12191431098688
 20
110.3195366477673
 10
91.7931911662878
 20
110.3195366477673
 10
91.7931911662878
 20
110.3195366477673
 97
        0
 97
        1
330
131
 92
        1
 93
        1
 72
     4
 94
        3
 73
     0
 74
     0
 95
       38
 96
       34
 40
0.0
 40
0.0
 40
0.0
 40
0.0
 40
1.0
 40
1.0
 40
1.0
 40
2.0
 40
2.0
 40
2.0
 40
3.0
 40
3.0
 40
3.0
 40
4.0
 40
4.0
 40
4.0
 40
5.0
 40
5.0
 40
5.0
 40
6.0
 40
6.0
 40
6.0
 40
7.0
 40
7.0
 40
7.0
 40
8.0
 40
8.0
 40
8.0
 40
9.0
 40
9.0
 40
9.0
 40
10.0
 40
10.0
 40
10.0
 40
11.0
 40
11.0
 40
11.0
 40
11.0
 10
90.91589760096894
 20
110.3395182015818
 10
90.91589760096894
 20
110.3395182015818
 10
91.82712535681753
 20
111.6396972377151
 10
91.82712535681753
 20
111.6396972377151
 10
91.82712535681753
 20
111.6396972377151
 10
92.01884492057168
 20
111.6396972377151
 10
92.01884492057168
 20
111.6396972377151
 10
92.01884492057168
 20
111.6396972377151
 10
92.01884492057168
 20
110.3195366477673
 10
92.01884492057168
 20
110.3195366477673
 10
92.01884492057168
 20
110.3195366477673
 10
92.28962942571232
 20
110.3195366477673
 10
92.28962942571232
 20
110.3195366477673
 10
92.28962942571232
 20
110.3195366477673
 10
92.28962942571232
 20
110.108007784973
 10
92.28962942571232
 20
110.108007784973
 10
92.28962942571232
 20
110.108007784973
 10
92.01884492057168
 20
110.108007784973
 10
92.01884492057168
 20
110.108007784973
 10
92.01884492057168
 20
110.108007784973
 10
92.01884492057168
 20
109.6398193085275
 10
92.01884492057168
 20
109.6398193085275
 10
92.01884492057168
 20
109.6398193085275
 10
91.7931911662878
 20
109.6398193085275
 10
91.7931911662878
 20
109.6398193085275
 10
91.7931911662878
 20
109.6398193085275
 10
91.7931911662878
 20
110.108007784973
 10
91.7931911662878
 20
110.108007784973
 10
91.7931911662878
 20
110.108007784973
 10
90.91589760096894
 20
110.108007784973
 10
90.91589760096894
 20
110.108007784973
 10
90.91589760096894
 20
110.108007784973
 10
90.91589760096894
 20
110.3395182015818
 10
90.91589760096894
 20
110.3395182015818
 97
        0
 97
        1
330
132
 75
     2
 76
     1
 98
        1
 10
0.0
 20
0.0
450
        0
451
        0
460
0.0
461
0.0
452
        0
462
0.0
453
        0
470

  0
ENDBLK
  5
12D
330
12A
100
AcDbEntity
  8
0
100
AcDbBlockEnd
  0
BLOCK
  5
138
330
136
100
AcDbEntity
  8
0
100
AcDbBlockBegin
  2
Block_5
 70
     0
 10
0.0
 20
0.0
 30
0.0
  3
Block_5
  1

  0
INSERT
  5
13B
330
136
100
AcDbEntity
  8
Sichtbar schmal (ANSI)
100
AcDbBlockReference
  2
Block_6
 10
0.0
 20
0.0
 30
0.0
  0
ENDBLK
  5
139
330
136
100
AcDbEntity
  8
0
100
AcDbBlockEnd
  0
BLOCK
  5
13C
330
13A
100
AcDbEntity
  8
0
100
AcDbBlockBegin
  2
Block_6
 70
     0
 10
0.0
 20
0.0
 30
0.0
  3
Block_6
  1

  0
LINE
  5
13E
330
13A
100
AcDbEntity
  8
Sichtbar schmal (ANSI)
 62
    18
420
        0
370
     5
100
AcDbLine
 10
85.88168722760727
 20
112.6548592179843
 30
0.0
 11
95.76633366203934
 21
112.6548592179843
 31
0.0
  0
INSERT
  5
140
330
13A
100
AcDbEntity
  8
Sichtbar schmal (ANSI)
100
AcDbBlockReference
  2
Block_7
 10
0.0
 20
0.0
 30
0.0
  0
INSERT
  5
146
330
13A
100
AcDbEntity
  8
Sichtbar schmal (ANSI)
100
AcDbBlockReference
  2
Block_8
 10
0.0
 20
0.0
 30
0.0
  0
ENDBLK
  5
13D
330
13A
100
AcDbEntity
  8
0
100
AcDbBlockEnd
  0
BLOCK
  5
141
330
13F
100
AcDbEntity
  8
0
100
AcDbBlockBegin
  2
Block_7
 70
     0
 10
0.0
 20
0.0
 30
0.0
  3
Block_7
  1

  0
LWPOLYLINE
  5
143
330
13F
100
AcDbEntity
  8
Sichtbar schmal (ANSI)
100
AcDbPolyline
 90
        3
 70
     1
 43
0.0
 10
86.51414216315911
 20
112.4335441308272
 10
84.83296248116536
 20
112.6541701988872
 10
86.51414216315911
 20
112.876163539218
  0
HATCH
  5
144
330
13F
100
AcDbEntity
  8
Sichtbar schmal (ANSI)
 62
    18
420
        0
440
 33554687
100
AcDbHatch
 10
0.0
 20
0.0
 30
0.0
210
0.0
220
0.0
230
1.0
  2
SOLID
 70
     1
 71
     1
 91
        1
 92
        1
 93
        3
 72
     1
 10
86.51414216315911
 20
112.4335441308272
 11
84.83296248116536
 21
112.6541701988872
 72
     1
 10
84.83296248116536
 20
112.6541701988872
 11
86.51414216315911
 21
112.876163539218
 72
     1
 10
86.51414216315911
 20
112.876163539218
 11
86.51414216315911
 21
112.4335441308272
 97
        1
330
143
 75
     2
 76
     1
 98
        1
 10
0.0
 20
0.0
450
        0
451
        0
460
0.0
461
0.0
452
        0
462
0.0
453
        0
470

  0
ENDBLK
  5
142
330
13F
100
AcDbEntity
  8
0
100
AcDbBlockEnd
  0
BLOCK
  5
147
330
145
100
AcDbEntity
  8
0
100
AcDbBlockBegin
  2
Block_8
 70
     0
 10
0.0
 20
0.0
 30
0.0
  3
Block_8
  1

  0
LWPOLYLINE
  5
149
330
145
100
AcDbEntity
  8
Sichtbar schmal (ANSI)
100
AcDbPolyline
 90
        3
 70
     1
 43
0.0
 10
95.13387872648781
 20
112.4335441308272
 10
96.81505302551954
 20
112.6541701988872
 10
95.13387872648781
 20
112.876163539218
  0
HATCH
  5
14A
330
145
100
AcDbEntity
  8
Sichtbar schmal (ANSI)
 62
    18
420
        0
440
 33554687
100
AcDbHatch
 10
0.0
 20
0.0
 30
0.0
210
0.0
220
0.0
230
1.0
  2
SOLID
 70
     1
 71
     1
 91
        1
 92
        1
 93
        3
 72
     1
 10
95.13387872648781
 20
112.4335441308272
 11
96.81505302551954
 21
112.6541701988872
 72
     1
 10
96.81505302551954
 20
112.6541701988872
 11
95.13387872648781
 21
112.876163539218
 72
     1
 10
95.13387872648781
 20
112.876163539218
 11
95.13387872648781
 21
112.4335441308272
 97
        1
330
149
 75
     2
 76
     1
 98
        1
 10
0.0
 20
0.0
450
        0
451
        0
460
0.0
461
0.0
452
        0
462
0.0
453
        0
470

  0
ENDBLK
  5
148
330
145
100
AcDbEntity
  8
0
100
AcDbBlockEnd
  0
BLOCK
  5
14F
330
14D
100
AcDbEntity
  8
0
100
AcDbBlockBegin
  2
Block_9
 70
     0
 10
0.0
 20
0.0
 30
0.0
  3
Block_9
  1

  0
INSERT
  5
152
330
14D
100
AcDbEntity
  8
Sichtbar schmal (ANSI)
100
AcDbBlockReference
  2
Block_10
 10
0.0
 20
0.0
 30
0.0
  0
ENDBLK
  5
150
330
14D
100
AcDbEntity
  8
0
100
AcDbBlockEnd
  0
BLOCK
  5
153
330
151
100
AcDbEntity
  8
0
100
AcDbBlockBegin
  2
Block_10
 70
     0
 10
0.0
 20
0.0
 30
0.0
  3
Block_10
  1

  0
SPLINE
  5
155
330
151
100
AcDbEntity
  8
Sichtbar schmal (ANSI)
100
AcDbSpline
210
0.0
220
0.0
230
1.0
 70
     9
 71
     3
 72
    26
 73
    22
 74
     0
 42
0.0000000001
 43
0.0000000001
 40
0.0
 40
0.0
 40
0.0
 40
0.0
 40
1.0
 40
1.0
 40
1.0
 40
2.0
 40
2.0
 40
2.0
 40
3.0
 40
3.0
 40
3.0
 40
4.0
 40
4.0
 40
4.0
 40
5.0
 40
5.0
 40
5.0
 40
6.0
 40
6.0
 40
6.0
 40
7.0
 40
7.0
 40
7.0
 40
7.0
 10
135.6520127699064
 20
174.911976410265
 30
0.0
 10
135.6520127699064
 20
174.911976410265
 30
0.0
 10
135.6520127699064
 20
173.8627725802322
 30
0.0
 10
135.6520127699064
 20
173.8627725802322
 30
0.0
 10
135.6520127699064
 20
173.8627725802322
 30
0.0
 10
135.4263590156226
 20
173.8627725802322
 30
0.0
 10
135.4263590156226
 20
173.8627725802322
 30
0.0
 10
135.4263590156226
 20
173.8627725802322
 30
0.0
 10
135.4263590156226
 20
175.1574394635891
 30
0.0
 10
135.4263590156226
 20
175.1574394635891
 30
0.0
 10
135.4263590156226
 20
175.1574394635891
 30
0.0
 10
135.6323757256405
 20
175.1574394635891
 30
0.0
 10
135.6323757256405
 20
175.1574394635891
 30
0.0
 10
136.0299397446383
 20
174.7540187822663
 30
0.0
 10
136.769257235773
 20
174.4269069659419
 30
0.0
 10
137.3924750090546
 20
174.390216699024
 30
0.0
 10
137.3924750090546
 20
174.390216699024
 30
0.0
 10
137.3924750090546
 20
174.1221882702715
 30
0.0
 10
137.3924750090546
 20
174.1221882702715
 30
0.0
 10
136.715513746203
 20
174.1673190211283
 30
0.0
 10
136.0950520493096
 20
174.4916747610646
 30
0.0
 10
135.6520127699064
 20
174.911976410265
 30
0.0
  0
HATCH
  5
156
330
151
100
AcDbEntity
  8
Sichtbar schmal (ANSI)
 62
   250
420
  2039067
440
 33554687
100
AcDbHatch
 10
0.0
 20
0.0
 30
0.0
210
0.0
220
0.0
230
1.0
  2
SOLID
 70
     1
 71
     1
 91
        1
 92
        1
 93
        1
 72
     4
 94
        3
 73
     0
 74
     0
 95
       26
 96
       22
 40
0.0
 40
0.0
 40
0.0
 40
0.0
 40
1.0
 40
1.0
 40
1.0
 40
2.0
 40
2.0
 40
2.0
 40
3.0
 40
3.0
 40
3.0
 40
4.0
 40
4.0
 40
4.0
 40
5.0
 40
5.0
 40
5.0
 40
6.0
 40
6.0
 40
6.0
 40
7.0
 40
7.0
 40
7.0
 40
7.0
 10
135.6520127699064
 20
174.911976410265
 10
135.6520127699064
 20
174.911976410265
 10
135.6520127699064
 20
173.8627725802322
 10
135.6520127699064
 20
173.8627725802322
 10
135.6520127699064
 20
173.8627725802322
 10
135.4263590156226
 20
173.8627725802322
 10
135.4263590156226
 20
173.8627725802322
 10
135.4263590156226
 20
173.8627725802322
 10
135.4263590156226
 20
175.1574394635891
 10
135.4263590156226
 20
175.1574394635891
 10
135.4263590156226
 20
175.1574394635891
 10
135.6323757256405
 20
175.1574394635891
 10
135.6323757256405
 20
175.1574394635891
 10
136.0299397446383
 20
174.7540187822663
 10
136.769257235773
 20
174.4269069659419
 10
137.3924750090546
 20
174.390216699024
 10
137.3924750090546
 20
174.390216699024
 10
137.3924750090546
 20
174.1221882702715
 10
137.3924750090546
 20
174.1221882702715
 10
136.715513746203
 20
174.1673190211283
 10
136.0950520493096
 20
174.4916747610646
 10
135.6520127699064
 20
174.911976410265
 97
        0
 97
        1
330
155
 75
     2
 76
     1
 98
        1
 10
0.0
 20
0.0
450
        0
451
        0
460
0.0
461
0.0
452
        0
462
0.0
453
        0
470

  0
SPLINE
  5
157
330
151
100
AcDbEntity
  8
Sichtbar schmal (ANSI)
100
AcDbSpline
210
0.0
220
0.0
230
1.0
 70
     9
 71
     3
 72
    26
 73
    22
 74
     0
 42
0.0000000001
 43
0.0000000001
 40
0.0
 40
0.0
 40
0.0
 40
0.0
 40
1.0
 40
1.0
 40
1.0
 40
2.0
 40
2.0
 40
2.0
 40
3.0
 40
3.0
 40
3.0
 40
4.0
 40
4.0
 40
4.0
 40
5.0
 40
5.0
 40
5.0
 40
6.0
 40
6.0
 40
6.0
 40
7.0
 40
7.0
 40
7.0
 40
7.0
 10
135.6520127699064
 20
176.4812174037963
 30
0.0
 10
135.6520127699064
 20
176.4812174037963
 30
0.0
 10
135.6520127699064
 20
175.4320135737635
 30
0.0
 10
135.6520127699064
 20
175.4320135737635
 30
0.0
 10
135.6520127699064
 20
175.4320135737635
 30
0.0
 10
135.4263590156226
 20
175.4320135737635
 30
0.0
 10
135.4263590156226
 20
175.4320135737635
 30
0.0
 10
135.4263590156226
 20
175.4320135737635
 30
0.0
 10
135.4263590156226
 20
176.7266804571204
 30
0.0
 10
135.4263590156226
 20
176.7266804571204
 30
0.0
 10
135.4263590156226
 20
176.7266804571204
 30
0.0
 10
135.6323757256405
 20
176.7266804571204
 30
0.0
 10
135.6323757256405
 20
176.7266804571204
 30
0.0
 10
136.0299397446383
 20
176.3232597757976
 30
0.0
 10
136.769257235773
 20
175.9961479594732
 30
0.0
 10
137.3924750090546
 20
175.9594576925552
 30
0.0
 10
137.3924750090546
 20
175.9594576925552
 30
0.0
 10
137.3924750090546
 20
175.6914292638028
 30
0.0
 10
137.3924750090546
 20
175.6914292638028
 30
0.0
 10
136.715513746203
 20
175.7365600146596
 30
0.0
 10
136.0950520493096
 20
176.0609157545959
 30
0.0
 10
135.6520127699064
 20
176.4812174037963
 30
0.0
  0
HATCH
  5
158
330
151
100
AcDbEntity
  8
Sichtbar schmal (ANSI)
 62
   250
420
  2039067
440
 33554687
100
AcDbHatch
 10
0.0
 20
0.0
 30
0.0
210
0.0
220
0.0
230
1.0
  2
SOLID
 70
     1
 71
     1
 91
        1
 92
        1
 93
        1
 72
     4
 94
        3
 73
     0
 74
     0
 95
       26
 96
       22
 40
0.0
 40
0.0
 40
0.0
 40
0.0
 40
1.0
 40
1.0
 40
1.0
 40
2.0
 40
2.0
 40
2.0
 40
3.0
 40
3.0
 40
3.0
 40
4.0
 40
4.0
 40
4.0
 40
5.0
 40
5.0
 40
5.0
 40
6.0
 40
6.0
 40
6.0
 40
7.0
 40
7.0
 40
7.0
 40
7.0
 10
135.6520127699064
 20
176.4812174037963
 10
135.6520127699064
 20
176.4812174037963
 10
135.6520127699064
 20
175.4320135737635
 10
135.6520127699064
 20
175.4320135737635
 10
135.6520127699064
 20
175.4320135737635
 10
135.4263590156226
 20
175.4320135737635
 10
135.4263590156226
 20
175.4320135737635
 10
135.4263590156226
 20
175.4320135737635
 10
135.4263590156226
 20
176.7266804571204
 10
135.4263590156226
 20
176.7266804571204
 10
135.4263590156226
 20
176.7266804571204
 10
135.6323757256405
 20
176.7266804571204
 10
135.6323757256405
 20
176.7266804571204
 10
136.0299397446383
 20
176.3232597757976
 10
136.769257235773
 20
175.9961479594732
 10
137.3924750090546
 20
175.9594576925552
 10
137.3924750090546
 20
175.9594576925552
 10
137.3924750090546
 20
175.6914292638028
 10
137.3924750090546
 20
175.6914292638028
 10
136.715513746203
 20
175.7365600146596
 10
136.0950520493096
 20
176.0609157545959
 10
135.6520127699064
 20
176.4812174037963
 97
        0
 97
        1
330
157
 75
     2
 76
     1
 98
        1
 10
0.0
 20
0.0
450
        0
451
        0
460
0.0
461
0.0
452
        0
462
0.0
453
        0
470

  0
ENDBLK
  5
154
330
151
100
AcDbEntity
  8
0
100
AcDbBlockEnd
  0
BLOCK
  5
15B
330
159
100
AcDbEntity
  8
0
100
AcDbBlockBegin
  2
Block_11
 70
     0
 10
0.0
 20
0.0
 30
0.0
  3
Block_11
  1

  0
INSERT
  5
15E
330
159
100
AcDbEntity
  8
Sichtbar schmal (ANSI)
100
AcDbBlockReference
  2
Block_12
 10
0.0
 20
0.0
 30
0.0
  0
ENDBLK
  5
15C
330
159
100
AcDbEntity
  8
0
100
AcDbBlockEnd
  0
BLOCK
  5
15F
330
15D
100
AcDbEntity
  8
0
100
AcDbBlockBegin
  2
Block_12
 70
     0
 10
0.0
 20
0.0
 30
0.0
  3
Block_12
  1

  0
LINE
  5
161
330
15D
100
AcDbEntity
  8
Sichtbar schmal (ANSI)
 62
    18
420
        0
370
     5
100
AcDbLine
 10
134.9775169035115
 20
182.8873078630781
 30
0.0
 11
134.9775169035115
 21
167.9569638150257
 31
0.0
  0
INSERT
  5
163
330
15D
100
AcDbEntity
  8
Sichtbar schmal (ANSI)
100
AcDbBlockReference
  2
Block_13
 10
0.0
 20
0.0
 30
0.0
  0
INSERT
  5
169
330
15D
100
AcDbEntity
  8
Sichtbar schmal (ANSI)
100
AcDbBlockReference
  2
Block_14
 10
0.0
 20
0.0
 30
0.0
  0
ENDBLK
  5
160
330
15D
100
AcDbEntity
  8
0
100
AcDbBlockEnd
  0
BLOCK
  5
164
330
162
100
AcDbEntity
  8
0
100
AcDbBlockBegin
  2
Block_13
 70
     0
 10
0.0
 20
0.0
 30
0.0
  3
Block_13
  1

  0
LWPOLYLINE
  5
166
330
162
100
AcDbEntity
  8
Sichtbar schmal (ANSI)
100
AcDbPolyline
 90
        3
 70
     1
 43
0.0
 10
134.7562018163543
 20
182.2548529275265
 10
134.9768278844144
 20
183.9360379924817
 10
135.1988319906686
 20
182.2548529275265
  0
HATCH
  5
167
330
162
100
AcDbEntity
  8
Sichtbar schmal (ANSI)
 62
    18
420
        0
440
 33554687
100
AcDbHatch
 10
0.0
 20
0.0
 30
0.0
210
0.0
220
0.0
230
1.0
  2
SOLID
 70
     1
 71
     1
 91
        1
 92
        1
 93
        3
 72
     1
 10
134.7562018163543
 20
182.2548529275265
 11
134.9768278844144
 21
183.9360379924817
 72
     1
 10
134.9768278844144
 20
183.9360379924817
 11
135.1988319906686
 21
182.2548529275265
 72
     1
 10
135.1988319906686
 20
182.2548529275265
 11
134.7562018163543
 21
182.2548529275265
 97
        1
330
166
 75
     2
 76
     1
 98
        1
 10
0.0
 20
0.0
450
        0
451
        0
460
0.0
461
0.0
452
        0
462
0.0
453
        0
470

  0
ENDBLK
  5
165
330
162
100
AcDbEntity
  8
0
100
AcDbBlockEnd
  0
BLOCK
  5
16A
330
168
100
AcDbEntity
  8
0
100
AcDbBlockBegin
  2
Block_14
 70
     0
 10
0.0
 20
0.0
 30
0.0
  3
Block_14
  1

  0
LWPOLYLINE
  5
16C
330
168
100
AcDbEntity
  8
Sichtbar schmal (ANSI)
100
AcDbPolyline
 90
        3
 70
     1
 43
0.0
 10
134.7562018163543
 20
168.5894187505772
 10
134.9768278844144
 20
166.9082336856221
 10
135.1988319906686
 20
168.5894187505772
  0
HATCH
  5
16D
330
168
100
AcDbEntity
  8
Sichtbar schmal (ANSI)
 62
    18
420
        0
440
 33554687
100
AcDbHatch
 10
0.0
 20
0.0
 30
0.0
210
0.0
220
0.0
230
1.0
  2
SOLID
 70
     1
 71
     1
 91
        1
 92
        1
 93
        3
 72
     1
 10
134.7562018163543
 20
168.5894187505772
 11
134.9768278844144
 21
166.9082336856221
 72
     1
 10
134.9768278844144
 20
166.9082336856221
 11
135.1988319906686
 21
168.5894187505772
 72
     1
 10
135.1988319906686
 20
168.5894187505772
 11
134.7562018163543
 21
168.5894187505772
 97
        1
330
16C
 75
     2
 76
     1
 98
        1
 10
0.0
 20
0.0
450
        0
451
        0
460
0.0
461
0.0
452
        0
462
0.0
453
        0
470

  0
ENDBLK
  5
16B
330
168
100
AcDbEntity
  8
0
100
AcDbBlockEnd
  0
BLOCK
  5
170
330
16E
100
AcDbEntity
  8
0
100
AcDbBlockBegin
  2
Block_15
 70
     0
 10
0.0
 20
0.0
 30
0.0
  3
Block_15
  1

  0
INSERT
  5
173
330
16E
100
AcDbEntity
  8
Sichtbar schmal (ANSI)
100
AcDbBlockReference
  2
Block_16
 10
0.0
 20
0.0
 30
0.0
  0
ENDBLK
  5
171
330
16E
100
AcDbEntity
  8
0
100
AcDbBlockEnd
  0
BLOCK
  5
174
330
172
100
AcDbEntity
  8
0
100
AcDbBlockBegin
  2
Block_16
 70
     0
 10
0.0
 20
0.0
 30
0.0
  3
Block_16
  1

  0
SPLINE
  5
176
330
172
100
AcDbEntity
  8
Sichtbar schmal (ANSI)
100
AcDbSpline
210
0.0
220
0.0
230
1.0
 70
    11
 71
     3
 72
    26
 73
    22
 74
     0
 42
0.0000000001
 43
0.0000000001
 40
0.0
 40
0.0
 40
0.0
 40
0.0
 40
1.0
 40
1.0
 40
1.0
 40
2.0
 40
2.0
 40
2.0
 40
3.0
 40
3.0
 40
3.0
 40
4.0
 40
4.0
 40
4.0
 40
5.0
 40
5.0
 40
5.0
 40
6.0
 40
6.0
 40
6.0
 40
7.0
 40
7.0
 40
7.0
 40
7.0
 10
126.4253580413103
 20
177.2482679135872
 30
0.0
 10
126.4253580413103
 20
177.2482679135872
 30
0.0
 10
126.4253580413103
 20
176.7292642787343
 30
0.0
 10
126.4253580413103
 20
176.7292642787343
 30
0.0
 10
126.4253580413103
 20
176.7292642787343
 30
0.0
 10
126.2334662227819
 20
176.7292642787343
 30
0.0
 10
126.2334662227819
 20
176.7292642787343
 30
0.0
 10
126.2334662227819
 20
177.0028048602632
 30
0.0
 10
126.1628417653343
 20
177.2510239899754
 30
0.0
 10
125.8582953244382
 20
177.3045952247711
 30
0.0
 10
125.8582953244382
 20
177.3045952247711
 30
0.0
 10
125.8582953244382
 20
177.4878743045863
 30
0.0
 10
125.8582953244382
 20
177.4878743045863
 30
0.0
 10
125.8582953244382
 20
177.4878743045863
 30
0.0
 10
127.8581732536257
 20
177.4878743045863
 30
0.0
 10
127.8581732536257
 20
177.4878743045863
 30
0.0
 10
127.8581732536257
 20
177.4878743045863
 30
0.0
 10
127.8581732536257
 20
177.2482679135872
 30
0.0
 10
127.8581732536257
 20
177.2482679135872
 30
0.0
 10
127.8581732536257
 20
177.2482679135872
 30
0.0
 10
126.4253580413103
 20
177.2482679135872
 30
0.0
 10
126.4253580413103
 20
177.2482679135872
 30
0.0
  0
HATCH
  5
177
330
172
100
AcDbEntity
  8
Sichtbar schmal (ANSI)
 62
   250
420
  2039067
440
 33554687
100
AcDbHatch
 10
0.0
 20
0.0
 30
0.0
210
0.0
220
0.0
230
1.0
  2
SOLID
 70
     1
 71
     1
 91
        1
 92
        1
 93
        1
 72
     4
 94
        3
 73
     0
 74
     0
 95
       26
 96
       22
 40
0.0
 40
0.0
 40
0.0
 40
0.0
 40
1.0
 40
1.0
 40
1.0
 40
2.0
 40
2.0
 40
2.0
 40
3.0
 40
3.0
 40
3.0
 40
4.0
 40
4.0
 40
4.0
 40
5.0
 40
5.0
 40
5.0
 40
6.0
 40
6.0
 40
6.0
 40
7.0
 40
7.0
 40
7.0
 40
7.0
 10
126.4253580413103
 20
177.2482679135872
 10
126.4253580413103
 20
177.2482679135872
 10
126.4253580413103
 20
176.7292642787343
 10
126.4253580413103
 20
176.7292642787343
 10
126.4253580413103
 20
176.7292642787343
 10
126.2334662227819
 20
176.7292642787343
 10
126.2334662227819
 20
176.7292642787343
 10
126.2334662227819
 20
177.0028048602632
 10
126.1628417653343
 20
177.2510239899754
 10
125.8582953244382
 20
177.3045952247711
 10
125.8582953244382
 20
177.3045952247711
 10
125.8582953244382
 20
177.4878743045863
 10
125.8582953244382
 20
177.4878743045863
 10
125.8582953244382
 20
177.4878743045863
 10
127.8581732536257
 20
177.4878743045863
 10
127.8581732536257
 20
177.4878743045863
 10
127.8581732536257
 20
177.4878743045863
 10
127.8581732536257
 20
177.2482679135872
 10
127.8581732536257
 20
177.2482679135872
 10
127.8581732536257
 20
177.2482679135872
 10
126.4253580413103
 20
177.2482679135872
 10
126.4253580413103
 20
177.2482679135872
 97
        0
 97
        1
330
176
 75
     2
 76
     1
 98
        1
 10
0.0
 20
0.0
450
        0
451
        0
460
0.0
461
0.0
452
        0
462
0.0
453
        0
470

  0
SPLINE
  5
178
330
172
100
AcDbEntity
  8
Sichtbar schmal (ANSI)
100
AcDbSpline
210
0.0
220
0.0
230
1.0
 70
     9
 71
     3
 72
    53
 73
    49
 74
     0
 42
0.0000000001
 43
0.0000000001
 40
0.0
 40
0.0
 40
0.0
 40
0.0
 40
1.0
 40
1.0
 40
1.0
 40
2.0
 40
2.0
 40
2.0
 40
3.0
 40
3.0
 40
3.0
 40
4.0
 40
4.0
 40
4.0
 40
5.0
 40
5.0
 40
5.0
 40
6.0
 40
6.0
 40
6.0
 40
7.0
 40
7.0
 40
7.0
 40
8.0
 40
8.0
 40
8.0
 40
9.0
 40
9.0
 40
9.0
 40
10.0
 40
10.0
 40
10.0
 40
11.0
 40
11.0
 40
11.0
 40
12.0
 40
12.0
 40
12.0
 40
13.0
 40
13.0
 40
13.0
 40
14.0
 40
14.0
 40
14.0
 40
15.0
 40
15.0
 40
15.0
 40
16.0
 40
16.0
 40
16.0
 40
16.0
 10
127.3193603197326
 20
178.3913505955931
 30
0.0
 10
127.5253770297506
 20
178.4054754870826
 30
0.0
 10
127.6804063265868
 20
178.5718735990202
 30
0.0
 10
127.6804063265868
 20
178.8116522447936
 30
0.0
 10
127.6804063265868
 20
179.0400620754657
 30
0.0
 10
127.5226209533624
 20
179.2347099703823
 30
0.0
 10
127.206705697365
 20
179.2347099703823
 30
0.0
 10
126.9441894213889
 20
179.2347099703823
 30
0.0
 10
126.752642112409
 20
179.0541869669552
 30
0.0
 10
126.752642112409
 20
178.7834024618146
 30
0.0
 10
126.752642112409
 20
178.6282009102041
 30
0.0
 10
126.8287787226331
 20
178.5041774727351
 30
0.0
 10
126.9414333450007
 20
178.4111598946333
 30
0.0
 10
126.9414333450007
 20
178.4111598946333
 30
0.0
 10
126.9300645298994
 20
178.2051431846154
 30
0.0
 10
126.9300645298994
 20
178.2051431846154
 30
0.0
 10
126.9300645298994
 20
178.2051431846154
 30
0.0
 10
125.8920572601936
 20
178.3913505955931
 30
0.0
 10
125.8920572601936
 20
178.3913505955931
 30
0.0
 10
125.8920572601936
 20
178.3913505955931
 30
0.0
 10
125.8920572601936
 20
179.3785427068915
 30
0.0
 10
125.8920572601936
 20
179.3785427068915
 30
0.0
 10
125.8920572601936
 20
179.3785427068915
 30
0.0
 10
126.103586122988
 20
179.3785427068915
 30
0.0
 10
126.103586122988
 20
179.3785427068915
 30
0.0
 10
126.103586122988
 20
179.3785427068915
 30
0.0
 10
126.103586122988
 20
178.5718735990202
 30
0.0
 10
126.103586122988
 20
178.5718735990202
 30
0.0
 10
126.103586122988
 20
178.5718735990202
 30
0.0
 10
126.6792615785732
 20
178.4647311294289
 30
0.0
 10
126.6792615785732
 20
178.4647311294289
 30
0.0
 10
126.6792615785732
 20
178.4647311294289
 30
0.0
 10
126.6847737313496
 20
178.4704155369796
 30
0.0
 10
126.6847737313496
 20
178.4704155369796
 30
0.0
 10
126.585899490923
 20
178.5577487075307
 30
0.0
 10
126.5407687400662
 20
178.7072658515905
 30
0.0
 10
126.5407687400662
 20
178.8426581041609
 30
0.0
 10
126.5407687400662
 20
179.1980197034644
 30
0.0
 10
126.76642249435
 20
179.4886135076452
 30
0.0
 10
127.2263427416309
 20
179.4886135076452
 30
0.0
 10
127.564995627831
 20
179.4886135076452
 30
0.0
 10
127.8919351893812
 20
179.2545192694225
 30
0.0
 10
127.8919351893812
 20
178.7890868693652
 30
0.0
 10
127.8919351893812
 20
178.4421657540006
 30
0.0
 10
127.6804063265868
 20
178.1600124337586
 30
0.0
 10
127.3193603197326
 20
178.1515719498197
 30
0.0
 10
127.3193603197326
 20
178.1515719498197
 30
0.0
 10
127.3193603197326
 20
178.3913505955931
 30
0.0
 10
127.3193603197326
 20
178.3913505955931
 30
0.0
  0
HATCH
  5
179
330
172
100
AcDbEntity
  8
Sichtbar schmal (ANSI)
 62
   250
420
  2039067
440
 33554687
100
AcDbHatch
 10
0.0
 20
0.0
 30
0.0
210
0.0
220
0.0
230
1.0
  2
SOLID
 70
     1
 71
     1
 91
        1
 92
        1
 93
        1
 72
     4
 94
        3
 73
     0
 74
     0
 95
       53
 96
       49
 40
0.0
 40
0.0
 40
0.0
 40
0.0
 40
1.0
 40
1.0
 40
1.0
 40
2.0
 40
2.0
 40
2.0
 40
3.0
 40
3.0
 40
3.0
 40
4.0
 40
4.0
 40
4.0
 40
5.0
 40
5.0
 40
5.0
 40
6.0
 40
6.0
 40
6.0
 40
7.0
 40
7.0
 40
7.0
 40
8.0
 40
8.0
 40
8.0
 40
9.0
 40
9.0
 40
9.0
 40
10.0
 40
10.0
 40
10.0
 40
11.0
 40
11.0
 40
11.0
 40
12.0
 40
12.0
 40
12.0
 40
13.0
 40
13.0
 40
13.0
 40
14.0
 40
14.0
 40
14.0
 40
15.0
 40
15.0
 40
15.0
 40
16.0
 40
16.0
 40
16.0
 40
16.0
 10
127.3193603197326
 20
178.3913505955931
 10
127.5253770297506
 20
178.4054754870826
 10
127.6804063265868
 20
178.5718735990202
 10
127.6804063265868
 20
178.8116522447936
 10
127.6804063265868
 20
179.0400620754657
 10
127.5226209533624
 20
179.2347099703823
 10
127.206705697365
 20
179.2347099703823
 10
126.9441894213889
 20
179.2347099703823
 10
126.752642112409
 20
179.0541869669552
 10
126.752642112409
 20
178.7834024618146
 10
126.752642112409
 20
178.6282009102041
 10
126.8287787226331
 20
178.5041774727351
 10
126.9414333450007
 20
178.4111598946333
 10
126.9414333450007
 20
178.4111598946333
 10
126.9300645298994
 20
178.2051431846154
 10
126.9300645298994
 20
178.2051431846154
 10
126.9300645298994
 20
178.2051431846154
 10
125.8920572601936
 20
178.3913505955931
 10
125.8920572601936
 20
178.3913505955931
 10
125.8920572601936
 20
178.3913505955931
 10
125.8920572601936
 20
179.3785427068915
 10
125.8920572601936
 20
179.3785427068915
 10
125.8920572601936
 20
179.3785427068915
 10
126.103586122988
 20
179.3785427068915
 10
126.103586122988
 20
179.3785427068915
 10
126.103586122988
 20
179.3785427068915
 10
126.103586122988
 20
178.5718735990202
 10
126.103586122988
 20
178.5718735990202
 10
126.103586122988
 20
178.5718735990202
 10
126.6792615785732
 20
178.4647311294289
 10
126.6792615785732
 20
178.4647311294289
 10
126.6792615785732
 20
178.4647311294289
 10
126.6847737313496
 20
178.4704155369796
 10
126.6847737313496
 20
178.4704155369796
 10
126.585899490923
 20
178.5577487075307
 10
126.5407687400662
 20
178.7072658515905
 10
126.5407687400662
 20
178.8426581041609
 10
126.5407687400662
 20
179.1980197034644
 10
126.76642249435
 20
179.4886135076452
 10
127.2263427416309
 20
179.4886135076452
 10
127.564995627831
 20
179.4886135076452
 10
127.8919351893812
 20
179.2545192694225
 10
127.8919351893812
 20
178.7890868693652
 10
127.8919351893812
 20
178.4421657540006
 10
127.6804063265868
 20
178.1600124337586
 10
127.3193603197326
 20
178.1515719498197
 10
127.3193603197326
 20
178.1515719498197
 10
127.3193603197326
 20
178.3913505955931
 10
127.3193603197326
 20
178.3913505955931
 97
        0
 97
        1
330
178
 75
     2
 76
     1
 98
        1
 10
0.0
 20
0.0
450
        0
451
        0
460
0.0
461
0.0
452
        0
462
0.0
453
        0
470

  0
ENDBLK
  5
175
330
172
100
AcDbEntity
  8
0
100
AcDbBlockEnd
  0
BLOCK
  5
180
330
17E
100
AcDbEntity
  8
0
100
AcDbBlockBegin
  2
Block_17
 70
     0
 10
0.0
 20
0.0
 30
0.0
  3
Block_17
  1

  0
INSERT
  5
183
330
17E
100
AcDbEntity
  8
Sichtbar schmal (ANSI)
100
AcDbBlockReference
  2
Block_18
 10
0.0
 20
0.0
 30
0.0
  0
ENDBLK
  5
181
330
17E
100
AcDbEntity
  8
0
100
AcDbBlockEnd
  0
BLOCK
  5
184
330
182
100
AcDbEntity
  8
0
100
AcDbBlockBegin
  2
Block_18
 70
     0
 10
0.0
 20
0.0
 30
0.0
  3
Block_18
  1

  0
LINE
  5
186
330
182
100
AcDbEntity
  8
Sichtbar schmal (ANSI)
 62
    18
420
        0
370
     5
100
AcDbLine
 10
124.8937224181852
 20
176.0059987793763
 30
0.0
 11
124.8937224181852
 21
180.9035357552841
 31
0.0
  0
INSERT
  5
188
330
182
100
AcDbEntity
  8
Sichtbar schmal (ANSI)
100
AcDbBlockReference
  2
Block_19
 10
0.0
 20
0.0
 30
0.0
  0
ENDBLK
  5
185
330
182
100
AcDbEntity
  8
0
100
AcDbBlockEnd
  0
BLOCK
  5
189
330
187
100
AcDbEntity
  8
0
100
AcDbBlockBegin
  2
Block_19
 70
     0
 10
0.0
 20
0.0
 30
0.0
  3
Block_19
  1

  0
LWPOLYLINE
  5
18B
330
187
100
AcDbEntity
  8
Sichtbar schmal (ANSI)
100
AcDbPolyline
 90
        3
 70
     1
 43
0.0
 10
125.1150375053423
 20
180.2710915856559
 10
124.8944114372822
 20
181.9522658846877
 10
124.6724073310281
 20
180.2710915856559
  0
HATCH
  5
18C
330
187
100
AcDbEntity
  8
Sichtbar schmal (ANSI)
 62
    18
420
        0
440
 33554687
100
AcDbHatch
 10
0.0
 20
0.0
 30
0.0
210
0.0
220
0.0
230
1.0
  2
SOLID
 70
     1
 71
     1
 91
        1
 92
        1
 93
        3
 72
     1
 10
125.1150375053423
 20
180.2710915856559
 11
124.8944114372822
 21
181.9522658846877
 72
     1
 10
124.8944114372822
 20
181.9522658846877
 11
124.6724073310281
 21
180.2710915856559
 72
     1
 10
124.6724073310281
 20
180.2710915856559
 11
125.1150375053423
 21
180.2710915856559
 97
        1
330
18B
 75
     2
 76
     1
 98
        1
 10
0.0
 20
0.0
450
        0
451
        0
460
0.0
461
0.0
452
        0
462
0.0
453
        0
470

  0
ENDBLK
  5
18A
330
187
100
AcDbEntity
  8
0
100
AcDbBlockEnd
  0
BLOCK
  5
18F
330
18D
100
AcDbEntity
  8
0
100
AcDbBlockBegin
  2
Block_20
 70
     0
 10
0.0
 20
0.0
 30
0.0
  3
Block_20
  1

  0
LINE
  5
191
330
18D
100
AcDbEntity
  8
Sichtbar schmal (ANSI)
 62
    18
420
        0
370
     5
100
AcDbLine
 10
109.1133633338189
 20
183.9522648710003
 30
0.0
 11
72.53489395521039
 21
183.9522648710003
 31
0.0
  0
LINE
  5
192
330
18D
100
AcDbEntity
  8
Sichtbar schmal (ANSI)
 62
    18
420
        0
370
     5
100
AcDbLine
 10
72.53489395521039
 20
181.2623063224497
 30
0.0
 11
72.53489395521039
 21
183.9522648710003
 31
0.0
  0
LINE
  5
193
330
18D
100
AcDbEntity
  8
Sichtbar schmal (ANSI)
 62
    18
420
        0
370
     5
100
AcDbLine
 10
109.1133633338189
 20
181.2623063224497
 30
0.0
 11
109.1133633338189
 21
183.9522648710003
 31
0.0
  0
LINE
  5
194
330
18D
100
AcDbEntity
  8
Sichtbar schmal (ANSI)
 62
    18
420
        0
370
     5
100
AcDbLine
 10
72.53489395521039
 20
181.2526993276353
 30
0.0
 11
72.53489395521039
 21
181.2623063224497
 31
0.0
  0
SPLINE
  5
195
330
18D
100
AcDbEntity
  8
Sichtbar schmal (ANSI)
 62
    18
420
        0
370
     5
100
AcDbSpline
210
0.0
220
0.0
230
1.0
 70
     8
 71
     3
 72
     8
 73
     4
 74
     0
 42
0.0000000001
 43
0.0000000001
 40
0.0
 40
0.0
 40
0.0
 40
0.0
 40
1.0
 40
1.0
 40
1.0
 40
1.0
 10
72.53489395521039
 20
181.2526993276353
 30
0.0
 10
72.53489395521039
 20
181.2504899249786
 30
0.0
 10
72.53496913551415
 20
181.2482811798285
 30
0.0
 10
72.53511936200175
 20
181.2460770325496
 30
0.0
  0
LINE
  5
196
330
18D
100
AcDbEntity
  8
Sichtbar schmal (ANSI)
 62
    18
420
        0
370
     5
100
AcDbLine
 10
109.1133633338189
 20
181.2526993276353
 30
0.0
 11
109.1133633338189
 21
181.2623063224497
 31
0.0
  0
SPLINE
  5
197
330
18D
100
AcDbEntity
  8
Sichtbar schmal (ANSI)
 62
    18
420
        0
370
     5
100
AcDbSpline
210
0.0
220
0.0
230
1.0
 70
     8
 71
     3
 72
     8
 73
     4
 74
     0
 42
0.0000000001
 43
0.0000000001
 40
0.0
 40
0.0
 40
0.0
 40
0.0
 40
1.0
 40
1.0
 40
1.0
 40
1.0
 10
109.1131379270272
 20
181.2460770325496
 30
0.0
 10
109.1132881535158
 20
181.2482811798285
 30
0.0
 10
109.1133633338189
 20
181.2504899249786
 30
0.0
 10
109.1133633338189
 20
181.2526993276353
 30
0.0
  0
ENDBLK
  5
190
330
18D
100
AcDbEntity
  8
0
100
AcDbBlockEnd
  0
BLOCK
  5
19A
330
198
100
AcDbEntity
  8
0
100
AcDbBlockBegin
  2
Block_21
 70
     0
 10
0.0
 20
0.0
 30
0.0
  3
Block_21
  1

  0
LWPOLYLINE
  5
19C
330
198
100
AcDbEntity
  8
Sichtbar schmal (ANSI)
 62
    18
420
        0
370
     5
100
AcDbPolyline
 90
        6
 70
     0
 43
0.0
 10
96.81505776310816
 20
123.4310149334638
 10
108.5892311038524
 20
123.4310149334638
 10
108.5892311038524
 20
158.9614551929532
 10
73.05878945048459
 20
158.9614551929532
 10
73.05878945048459
 20
123.4310149334638
 10
84.8329615128569
 20
123.4310149334638
  0
ENDBLK
  5
19B
330
198
100
AcDbEntity
  8
0
100
AcDbBlockEnd
  0
BLOCK
  5
19F
330
19D
100
AcDbEntity
  8
0
100
AcDbBlockBegin
  2
Block_22
 70
     0
 10
0.0
 20
0.0
 30
0.0
  3
Block_22
  1

  0
INSERT
  5
1A2
330
19D
100
AcDbEntity
  8
Sichtbar schmal (ANSI)
100
AcDbBlockReference
  2
Block_23
 10
0.0
 20
0.0
 30
0.0
  0
ENDBLK
  5
1A0
330
19D
100
AcDbEntity
  8
0
100
AcDbBlockEnd
  0
BLOCK
  5
1A3
330
1A1
100
AcDbEntity
  8
0
100
AcDbBlockBegin
  2
Block_23
 70
     0
 10
0.0
 20
0.0
 30
0.0
  3
Block_23
  1

  0
SPLINE
  5
1A5
330
1A1
100
AcDbEntity
  8
Sichtbar schmal (ANSI)
100
AcDbSpline
210
0.0
220
0.0
230
1.0
 70
     9
 71
     3
 72
    41
 73
    37
 74
     0
 42
0.0000000001
 43
0.0000000001
 40
0.0
 40
0.0
 40
0.0
 40
0.0
 40
1.0
 40
1.0
 40
1.0
 40
2.0
 40
2.0
 40
2.0
 40
3.0
 40
3.0
 40
3.0
 40
4.0
 40
4.0
 40
4.0
 40
5.0
 40
5.0
 40
5.0
 40
6.0
 40
6.0
 40
6.0
 40
7.0
 40
7.0
 40
7.0
 40
8.0
 40
8.0
 40
8.0
 40
9.0
 40
9.0
 40
9.0
 40
10.0
 40
10.0
 40
10.0
 40
11.0
 40
11.0
 40
11.0
 40
12.0
 40
12.0
 40
12.0
 40
12.0
 10
127.0403075854274
 20
169.5319430457246
 30
0.0
 10
126.8287787226331
 20
169.8704236771504
 30
0.0
 10
126.7102674379405
 20
170.0423339418644
 30
0.0
 10
126.4308701940867
 20
170.0423339418644
 30
0.0
 10
126.213829178516
 20
170.0423339418644
 30
0.0
 10
126.0698241872325
 20
169.867495345988
 30
0.0
 10
126.0698241872325
 20
169.6559664831936
 30
0.0
 10
126.0698241872325
 20
169.3767414941141
 30
0.0
 10
126.3264838008836
 20
169.2582302094215
 30
0.0
 10
126.566262446657
 20
169.2666706933604
 30
0.0
 10
126.566262446657
 20
169.2666706933604
 30
0.0
 10
126.566262446657
 20
169.0270643023613
 30
0.0
 10
126.566262446657
 20
169.0270643023613
 30
0.0
 10
126.1600856889461
 20
169.0043266721586
 30
0.0
 10
125.8582953244382
 20
169.2470336490945
 30
0.0
 10
125.8582953244382
 20
169.6700913746832
 30
0.0
 10
125.8582953244382
 20
170.0170124900478
 30
0.0
 10
126.0615559580679
 20
170.2962374791273
 30
0.0
 10
126.4336262704749
 20
170.2962374791273
 30
0.0
 10
126.7864040481645
 20
170.2962374791273
 30
0.0
 10
126.9610703892666
 20
170.0593871645164
 30
0.0
 10
127.1192002720396
 20
169.8111680348041
 30
0.0
 10
127.2687174160995
 20
169.5629489050919
 30
0.0
 10
127.4013535922816
 20
169.2949204763395
 30
0.0
 10
127.6466443908314
 20
169.2497897254827
 30
0.0
 10
127.6466443908314
 20
169.2497897254827
 30
0.0
 10
127.6466443908314
 20
170.2766004348614
 30
0.0
 10
127.6466443908314
 20
170.2766004348614
 30
0.0
 10
127.6466443908314
 20
170.2766004348614
 30
0.0
 10
127.8581732536257
 20
170.2766004348614
 30
0.0
 10
127.8581732536257
 20
170.2766004348614
 30
0.0
 10
127.8581732536257
 20
170.2766004348614
 30
0.0
 10
127.8581732536257
 20
168.9705647364032
 30
0.0
 10
127.8581732536257
 20
168.9705647364032
 30
0.0
 10
127.3872287007921
 20
169.0072550033211
 30
0.0
 10
127.2094617737532
 20
169.2497897254827
 30
0.0
 10
127.0403075854274
 20
169.5319430457246
 30
0.0
  0
HATCH
  5
1A6
330
1A1
100
AcDbEntity
  8
Sichtbar schmal (ANSI)
 62
   250
420
  2039067
440
 33554687
100
AcDbHatch
 10
0.0
 20
0.0
 30
0.0
210
0.0
220
0.0
230
1.0
  2
SOLID
 70
     1
 71
     1
 91
        1
 92
        1
 93
        1
 72
     4
 94
        3
 73
     0
 74
     0
 95
       41
 96
       37
 40
0.0
 40
0.0
 40
0.0
 40
0.0
 40
1.0
 40
1.0
 40
1.0
 40
2.0
 40
2.0
 40
2.0
 40
3.0
 40
3.0
 40
3.0
 40
4.0
 40
4.0
 40
4.0
 40
5.0
 40
5.0
 40
5.0
 40
6.0
 40
6.0
 40
6.0
 40
7.0
 40
7.0
 40
7.0
 40
8.0
 40
8.0
 40
8.0
 40
9.0
 40
9.0
 40
9.0
 40
10.0
 40
10.0
 40
10.0
 40
11.0
 40
11.0
 40
11.0
 40
12.0
 40
12.0
 40
12.0
 40
12.0
 10
127.0403075854274
 20
169.5319430457246
 10
126.8287787226331
 20
169.8704236771504
 10
126.7102674379405
 20
170.0423339418644
 10
126.4308701940867
 20
170.0423339418644
 10
126.213829178516
 20
170.0423339418644
 10
126.0698241872325
 20
169.867495345988
 10
126.0698241872325
 20
169.6559664831936
 10
126.0698241872325
 20
169.3767414941141
 10
126.3264838008836
 20
169.2582302094215
 10
126.566262446657
 20
169.2666706933604
 10
126.566262446657
 20
169.2666706933604
 10
126.566262446657
 20
169.0270643023613
 10
126.566262446657
 20
169.0270643023613
 10
126.1600856889461
 20
169.0043266721586
 10
125.8582953244382
 20
169.2470336490945
 10
125.8582953244382
 20
169.6700913746832
 10
125.8582953244382
 20
170.0170124900478
 10
126.0615559580679
 20
170.2962374791273
 10
126.4336262704749
 20
170.2962374791273
 10
126.7864040481645
 20
170.2962374791273
 10
126.9610703892666
 20
170.0593871645164
 10
127.1192002720396
 20
169.8111680348041
 10
127.2687174160995
 20
169.5629489050919
 10
127.4013535922816
 20
169.2949204763395
 10
127.6466443908314
 20
169.2497897254827
 10
127.6466443908314
 20
169.2497897254827
 10
127.6466443908314
 20
170.2766004348614
 10
127.6466443908314
 20
170.2766004348614
 10
127.6466443908314
 20
170.2766004348614
 10
127.8581732536257
 20
170.2766004348614
 10
127.8581732536257
 20
170.2766004348614
 10
127.8581732536257
 20
170.2766004348614
 10
127.8581732536257
 20
168.9705647364032
 10
127.8581732536257
 20
168.9705647364032
 10
127.3872287007921
 20
169.0072550033211
 10
127.2094617737532
 20
169.2497897254827
 10
127.0403075854274
 20
169.5319430457246
 97
        0
 97
        1
330
1A5
 75
     2
 76
     1
 98
        1
 10
0.0
 20
0.0
450
        0
451
        0
460
0.0
461
0.0
452
        0
462
0.0
453
        0
470

  0
SPLINE
  5
1A7
330
1A1
100
AcDbEntity
  8
Sichtbar schmal (ANSI)
100
AcDbSpline
210
0.0
220
0.0
230
1.0
 70
     9
 71
     3
 72
    53
 73
    49
 74
     0
 42
0.0000000001
 43
0.0000000001
 40
0.0
 40
0.0
 40
0.0
 40
0.0
 40
1.0
 40
1.0
 40
1.0
 40
2.0
 40
2.0
 40
2.0
 40
3.0
 40
3.0
 40
3.0
 40
4.0
 40
4.0
 40
4.0
 40
5.0
 40
5.0
 40
5.0
 40
6.0
 40
6.0
 40
6.0
 40
7.0
 40
7.0
 40
7.0
 40
8.0
 40
8.0
 40
8.0
 40
9.0
 40
9.0
 40
9.0
 40
10.0
 40
10.0
 40
10.0
 40
11.0
 40
11.0
 40
11.0
 40
12.0
 40
12.0
 40
12.0
 40
13.0
 40
13.0
 40
13.0
 40
14.0
 40
14.0
 40
14.0
 40
15.0
 40
15.0
 40
15.0
 40
16.0
 40
16.0
 40
16.0
 40
16.0
 10
127.3193603197326
 20
170.8104179803008
 30
0.0
 10
127.5253770297506
 20
170.8245428717904
 30
0.0
 10
127.6804063265868
 20
170.990940983728
 30
0.0
 10
127.6804063265868
 20
171.2307196295013
 30
0.0
 10
127.6804063265868
 20
171.4591294601734
 30
0.0
 10
127.5226209533624
 20
171.65377735509
 30
0.0
 10
127.206705697365
 20
171.65377735509
 30
0.0
 10
126.9441894213889
 20
171.65377735509
 30
0.0
 10
126.752642112409
 20
171.4732543516629
 30
0.0
 10
126.752642112409
 20
171.2024698465223
 30
0.0
 10
126.752642112409
 20
171.0472682949118
 30
0.0
 10
126.8287787226331
 20
170.9232448574428
 30
0.0
 10
126.9414333450007
 20
170.830227279341
 30
0.0
 10
126.9414333450007
 20
170.830227279341
 30
0.0
 10
126.9300645298994
 20
170.6242105693231
 30
0.0
 10
126.9300645298994
 20
170.6242105693231
 30
0.0
 10
126.9300645298994
 20
170.6242105693231
 30
0.0
 10
125.8920572601936
 20
170.8104179803008
 30
0.0
 10
125.8920572601936
 20
170.8104179803008
 30
0.0
 10
125.8920572601936
 20
170.8104179803008
 30
0.0
 10
125.8920572601936
 20
171.7976100915992
 30
0.0
 10
125.8920572601936
 20
171.7976100915992
 30
0.0
 10
125.8920572601936
 20
171.7976100915992
 30
0.0
 10
126.103586122988
 20
171.7976100915992
 30
0.0
 10
126.103586122988
 20
171.7976100915992
 30
0.0
 10
126.103586122988
 20
171.7976100915992
 30
0.0
 10
126.103586122988
 20
170.990940983728
 30
0.0
 10
126.103586122988
 20
170.990940983728
 30
0.0
 10
126.103586122988
 20
170.990940983728
 30
0.0
 10
126.6792615785732
 20
170.8837985141367
 30
0.0
 10
126.6792615785732
 20
170.8837985141367
 30
0.0
 10
126.6792615785732
 20
170.8837985141367
 30
0.0
 10
126.6847737313496
 20
170.8894829216873
 30
0.0
 10
126.6847737313496
 20
170.8894829216873
 30
0.0
 10
126.585899490923
 20
170.9768160922384
 30
0.0
 10
126.5407687400662
 20
171.1263332362983
 30
0.0
 10
126.5407687400662
 20
171.2617254888686
 30
0.0
 10
126.5407687400662
 20
171.6170870881721
 30
0.0
 10
126.76642249435
 20
171.9076808923529
 30
0.0
 10
127.2263427416309
 20
171.9076808923529
 30
0.0
 10
127.564995627831
 20
171.9076808923529
 30
0.0
 10
127.8919351893812
 20
171.6735866541302
 30
0.0
 10
127.8919351893812
 20
171.208154254073
 30
0.0
 10
127.8919351893812
 20
170.8612331387083
 30
0.0
 10
127.6804063265868
 20
170.5790798184663
 30
0.0
 10
127.3193603197326
 20
170.5706393345275
 30
0.0
 10
127.3193603197326
 20
170.5706393345275
 30
0.0
 10
127.3193603197326
 20
170.8104179803008
 30
0.0
 10
127.3193603197326
 20
170.8104179803008
 30
0.0
  0
HATCH
  5
1A8
330
1A1
100
AcDbEntity
  8
Sichtbar schmal (ANSI)
 62
   250
420
  2039067
440
 33554687
100
AcDbHatch
 10
0.0
 20
0.0
 30
0.0
210
0.0
220
0.0
230
1.0
  2
SOLID
 70
     1
 71
     1
 91
        1
 92
        1
 93
        1
 72
     4
 94
        3
 73
     0
 74
     0
 95
       53
 96
       49
 40
0.0
 40
0.0
 40
0.0
 40
0.0
 40
1.0
 40
1.0
 40
1.0
 40
2.0
 40
2.0
 40
2.0
 40
3.0
 40
3.0
 40
3.0
 40
4.0
 40
4.0
 40
4.0
 40
5.0
 40
5.0
 40
5.0
 40
6.0
 40
6.0
 40
6.0
 40
7.0
 40
7.0
 40
7.0
 40
8.0
 40
8.0
 40
8.0
 40
9.0
 40
9.0
 40
9.0
 40
10.0
 40
10.0
 40
10.0
 40
11.0
 40
11.0
 40
11.0
 40
12.0
 40
12.0
 40
12.0
 40
13.0
 40
13.0
 40
13.0
 40
14.0
 40
14.0
 40
14.0
 40
15.0
 40
15.0
 40
15.0
 40
16.0
 40
16.0
 40
16.0
 40
16.0
 10
127.3193603197326
 20
170.8104179803008
 10
127.5253770297506
 20
170.8245428717904
 10
127.6804063265868
 20
170.990940983728
 10
127.6804063265868
 20
171.2307196295013
 10
127.6804063265868
 20
171.4591294601734
 10
127.5226209533624
 20
171.65377735509
 10
127.206705697365
 20
171.65377735509
 10
126.9441894213889
 20
171.65377735509
 10
126.752642112409
 20
171.4732543516629
 10
126.752642112409
 20
171.2024698465223
 10
126.752642112409
 20
171.0472682949118
 10
126.8287787226331
 20
170.9232448574428
 10
126.9414333450007
 20
170.830227279341
 10
126.9414333450007
 20
170.830227279341
 10
126.9300645298994
 20
170.6242105693231
 10
126.9300645298994
 20
170.6242105693231
 10
126.9300645298994
 20
170.6242105693231
 10
125.8920572601936
 20
170.8104179803008
 10
125.8920572601936
 20
170.8104179803008
 10
125.8920572601936
 20
170.8104179803008
 10
125.8920572601936
 20
171.7976100915992
 10
125.8920572601936
 20
171.7976100915992
 10
125.8920572601936
 20
171.7976100915992
 10
126.103586122988
 20
171.7976100915992
 10
126.103586122988
 20
171.7976100915992
 10
126.103586122988
 20
171.7976100915992
 10
126.103586122988
 20
170.990940983728
 10
126.103586122988
 20
170.990940983728
 10
126.103586122988
 20
170.990940983728
 10
126.6792615785732
 20
170.8837985141367
 10
126.6792615785732
 20
170.8837985141367
 10
126.6792615785732
 20
170.8837985141367
 10
126.6847737313496
 20
170.8894829216873
 10
126.6847737313496
 20
170.8894829216873
 10
126.585899490923
 20
170.9768160922384
 10
126.5407687400662
 20
171.1263332362983
 10
126.5407687400662
 20
171.2617254888686
 10
126.5407687400662
 20
171.6170870881721
 10
126.76642249435
 20
171.9076808923529
 10
127.2263427416309
 20
171.9076808923529
 10
127.564995627831
 20
171.9076808923529
 10
127.8919351893812
 20
171.6735866541302
 10
127.8919351893812
 20
171.208154254073
 10
127.8919351893812
 20
170.8612331387083
 10
127.6804063265868
 20
170.5790798184663
 10
127.3193603197326
 20
170.5706393345275
 10
127.3193603197326
 20
170.5706393345275
 10
127.3193603197326
 20
170.8104179803008
 10
127.3193603197326
 20
170.8104179803008
 97
        0
 97
        1
330
1A7
 75
     2
 76
     1
 98
        1
 10
0.0
 20
0.0
450
        0
451
        0
460
0.0
461
0.0
452
        0
462
0.0
453
        0
470

  0
ENDBLK
  5
1A4
330
1A1
100
AcDbEntity
  8
0
100
AcDbBlockEnd
  0
BLOCK
  5
1AB
330
1A9
100
AcDbEntity
  8
0
100
AcDbBlockBegin
  2
Block_24
 70
     0
 10
0.0
 20
0.0
 30
0.0
  3
Block_24
  1

  0
INSERT
  5
1AE
330
1A9
100
AcDbEntity
  8
Sichtbar schmal (ANSI)
100
AcDbBlockReference
  2
Block_25
 10
0.0
 20
0.0
 30
0.0
  0
ENDBLK
  5
1AC
330
1A9
100
AcDbEntity
  8
0
100
AcDbBlockEnd
  0
BLOCK
  5
1AF
330
1AD
100
AcDbEntity
  8
0
100
AcDbBlockBegin
  2
Block_25
 70
     0
 10
0.0
 20
0.0
 30
0.0
  3
Block_25
  1

  0
SPLINE
  5
1B1
330
1AD
100
AcDbEntity
  8
Sichtbar schmal (ANSI)
100
AcDbSpline
210
0.0
220
0.0
230
1.0
 70
     9
 71
     3
 72
    41
 73
    37
 74
     0
 42
0.0000000001
 43
0.0000000001
 40
0.0
 40
0.0
 40
0.0
 40
0.0
 40
1.0
 40
1.0
 40
1.0
 40
2.0
 40
2.0
 40
2.0
 40
3.0
 40
3.0
 40
3.0
 40
4.0
 40
4.0
 40
4.0
 40
5.0
 40
5.0
 40
5.0
 40
6.0
 40
6.0
 40
6.0
 40
7.0
 40
7.0
 40
7.0
 40
8.0
 40
8.0
 40
8.0
 40
9.0
 40
9.0
 40
9.0
 40
10.0
 40
10.0
 40
10.0
 40
11.0
 40
11.0
 40
11.0
 40
12.0
 40
12.0
 40
12.0
 40
12.0
 10
121.2949218446762
 20
174.7030313690846
 30
0.0
 10
121.0833929818819
 20
175.0415120005104
 30
0.0
 10
120.9648816971893
 20
175.2134222652244
 30
0.0
 10
120.6854844533356
 20
175.2134222652244
 30
0.0
 10
120.4684434377648
 20
175.2134222652244
 30
0.0
 10
120.3244384464814
 20
175.038583669348
 30
0.0
 10
120.3244384464814
 20
174.8270548065536
 30
0.0
 10
120.3244384464814
 20
174.5478298174741
 30
0.0
 10
120.5810980601325
 20
174.4293185327815
 30
0.0
 10
120.8208767059059
 20
174.4377590167204
 30
0.0
 10
120.8208767059059
 20
174.4377590167204
 30
0.0
 10
120.8208767059059
 20
174.1981526257213
 30
0.0
 10
120.8208767059059
 20
174.1981526257213
 30
0.0
 10
120.4146999481949
 20
174.1754149955186
 30
0.0
 10
120.112909583687
 20
174.4181219724545
 30
0.0
 10
120.112909583687
 20
174.8411796980432
 30
0.0
 10
120.112909583687
 20
175.1881008134078
 30
0.0
 10
120.3161702173168
 20
175.4673258024873
 30
0.0
 10
120.6882405297238
 20
175.4673258024873
 30
0.0
 10
121.0410183074133
 20
175.4673258024873
 30
0.0
 10
121.2156846485155
 20
175.2304754878764
 30
0.0
 10
121.3738145312885
 20
174.9822563581641
 30
0.0
 10
121.5233316753483
 20
174.7340372284519
 30
0.0
 10
121.6559678515304
 20
174.4660087996994
 30
0.0
 10
121.9012586500802
 20
174.4208780488427
 30
0.0
 10
121.9012586500802
 20
174.4208780488427
 30
0.0
 10
121.9012586500802
 20
175.4476887582214
 30
0.0
 10
121.9012586500802
 20
175.4476887582214
 30
0.0
 10
121.9012586500802
 20
175.4476887582214
 30
0.0
 10
122.1127875128746
 20
175.4476887582214
 30
0.0
 10
122.1127875128746
 20
175.4476887582214
 30
0.0
 10
122.1127875128746
 20
175.4476887582214
 30
0.0
 10
122.1127875128746
 20
174.1416530597632
 30
0.0
 10
122.1127875128746
 20
174.1416530597632
 30
0.0
 10
121.6418429600409
 20
174.1783433266811
 30
0.0
 10
121.464076033002
 20
174.4208780488427
 30
0.0
 10
121.2949218446762
 20
174.7030313690846
 30
0.0
  0
HATCH
  5
1B2
330
1AD
100
AcDbEntity
  8
Sichtbar schmal (ANSI)
 62
   250
420
  2039067
440
 33554687
100
AcDbHatch
 10
0.0
 20
0.0
 30
0.0
210
0.0
220
0.0
230
1.0
  2
SOLID
 70
     1
 71
     1
 91
        1
 92
        1
 93
        1
 72
     4
 94
        3
 73
     0
 74
     0
 95
       41
 96
       37
 40
0.0
 40
0.0
 40
0.0
 40
0.0
 40
1.0
 40
1.0
 40
1.0
 40
2.0
 40
2.0
 40
2.0
 40
3.0
 40
3.0
 40
3.0
 40
4.0
 40
4.0
 40
4.0
 40
5.0
 40
5.0
 40
5.0
 40
6.0
 40
6.0
 40
6.0
 40
7.0
 40
7.0
 40
7.0
 40
8.0
 40
8.0
 40
8.0
 40
9.0
 40
9.0
 40
9.0
 40
10.0
 40
10.0
 40
10.0
 40
11.0
 40
11.0
 40
11.0
 40
12.0
 40
12.0
 40
12.0
 40
12.0
 10
121.2949218446762
 20
174.7030313690846
 10
121.0833929818819
 20
175.0415120005104
 10
120.9648816971893
 20
175.2134222652244
 10
120.6854844533356
 20
175.2134222652244
 10
120.4684434377648
 20
175.2134222652244
 10
120.3244384464814
 20
175.038583669348
 10
120.3244384464814
 20
174.8270548065536
 10
120.3244384464814
 20
174.5478298174741
 10
120.5810980601325
 20
174.4293185327815
 10
120.8208767059059
 20
174.4377590167204
 10
120.8208767059059
 20
174.4377590167204
 10
120.8208767059059
 20
174.1981526257213
 10
120.8208767059059
 20
174.1981526257213
 10
120.4146999481949
 20
174.1754149955186
 10
120.112909583687
 20
174.4181219724545
 10
120.112909583687
 20
174.8411796980432
 10
120.112909583687
 20
175.1881008134078
 10
120.3161702173168
 20
175.4673258024873
 10
120.6882405297238
 20
175.4673258024873
 10
121.0410183074133
 20
175.4673258024873
 10
121.2156846485155
 20
175.2304754878764
 10
121.3738145312885
 20
174.9822563581641
 10
121.5233316753483
 20
174.7340372284519
 10
121.6559678515304
 20
174.4660087996994
 10
121.9012586500802
 20
174.4208780488427
 10
121.9012586500802
 20
174.4208780488427
 10
121.9012586500802
 20
175.4476887582214
 10
121.9012586500802
 20
175.4476887582214
 10
121.9012586500802
 20
175.4476887582214
 10
122.1127875128746
 20
175.4476887582214
 10
122.1127875128746
 20
175.4476887582214
 10
122.1127875128746
 20
175.4476887582214
 10
122.1127875128746
 20
174.1416530597632
 10
122.1127875128746
 20
174.1416530597632
 10
121.6418429600409
 20
174.1783433266811
 10
121.464076033002
 20
174.4208780488427
 10
121.2949218446762
 20
174.7030313690846
 97
        0
 97
        1
330
1B1
 75
     2
 76
     1
 98
        1
 10
0.0
 20
0.0
450
        0
451
        0
460
0.0
461
0.0
452
        0
462
0.0
453
        0
470

  0
SPLINE
  5
1B3
330
1AD
100
AcDbEntity
  8
Sichtbar schmal (ANSI)
100
AcDbSpline
210
0.0
220
0.0
230
1.0
 70
     9
 71
     3
 72
    17
 73
    13
 74
     0
 42
0.0000000001
 43
0.0000000001
 40
0.0
 40
0.0
 40
0.0
 40
0.0
 40
1.0
 40
1.0
 40
1.0
 40
2.0
 40
2.0
 40
2.0
 40
3.0
 40
3.0
 40
3.0
 40
4.0
 40
4.0
 40
4.0
 40
4.0
 10
121.1285237327387
 20
176.8389905699395
 30
0.0
 10
120.8322455210072
 20
176.8389905699395
 30
0.0
 10
120.3244384464814
 20
176.8362344935513
 30
0.0
 10
120.3244384464814
 20
176.4271294046779
 30
0.0
 10
120.3244384464814
 20
176.0181965705788
 30
0.0
 10
120.8322455210072
 20
176.0154404941905
 30
0.0
 10
121.1285237327387
 20
176.0154404941905
 30
0.0
 10
121.4272135113098
 20
176.0154404941905
 30
0.0
 10
121.9350205858357
 20
176.0181965705788
 30
0.0
 10
121.9350205858357
 20
176.4271294046779
 30
0.0
 10
121.9350205858357
 20
176.8362344935513
 30
0.0
 10
121.4272135113098
 20
176.8389905699395
 30
0.0
 10
121.1285237327387
 20
176.8389905699395
 30
0.0
  0
SPLINE
  5
1B4
330
1AD
100
AcDbEntity
  8
Sichtbar schmal (ANSI)
100
AcDbSpline
210
0.0
220
0.0
230
1.0
 70
     9
 71
     3
 72
    17
 73
    13
 74
     0
 42
0.0000000001
 43
0.0000000001
 40
0.0
 40
0.0
 40
0.0
 40
0.0
 40
1.0
 40
1.0
 40
1.0
 40
2.0
 40
2.0
 40
2.0
 40
3.0
 40
3.0
 40
3.0
 40
4.0
 40
4.0
 40
4.0
 40
4.0
 10
121.1312798091269
 20
175.7615369569276
 30
0.0
 10
120.6909966061119
 20
175.7615369569276
 30
0.0
 10
120.112909583687
 20
175.8009833002338
 30
0.0
 10
120.112909583687
 20
176.4271294046779
 30
0.0
 10
120.112909583687
 20
177.0534477638963
 30
0.0
 10
120.6909966061119
 20
177.0928941072025
 30
0.0
 10
121.1312798091269
 20
177.0928941072025
 30
0.0
 10
121.5712185025933
 20
177.0928941072025
 30
0.0
 10
122.14654944863
 20
177.0534477638963
 30
0.0
 10
122.14654944863
 20
176.4271294046779
 30
0.0
 10
122.14654944863
 20
175.8009833002338
 30
0.0
 10
121.5712185025933
 20
175.7615369569276
 30
0.0
 10
121.1312798091269
 20
175.7615369569276
 30
0.0
  0
HATCH
  5
1B5
330
1AD
100
AcDbEntity
  8
Sichtbar schmal (ANSI)
 62
   250
420
  2039067
440
 33554687
100
AcDbHatch
 10
0.0
 20
0.0
 30
0.0
210
0.0
220
0.0
230
1.0
  2
SOLID
 70
     1
 71
     1
 91
        2
 92
        1
 93
        1
 72
     4
 94
        3
 73
     0
 74
     0
 95
       17
 96
       13
 40
0.0
 40
0.0
 40
0.0
 40
0.0
 40
1.0
 40
1.0
 40
1.0
 40
2.0
 40
2.0
 40
2.0
 40
3.0
 40
3.0
 40
3.0
 40
4.0
 40
4.0
 40
4.0
 40
4.0
 10
121.1285237327387
 20
176.8389905699395
 10
120.8322455210072
 20
176.8389905699395
 10
120.3244384464814
 20
176.8362344935513
 10
120.3244384464814
 20
176.4271294046779
 10
120.3244384464814
 20
176.0181965705788
 10
120.8322455210072
 20
176.0154404941905
 10
121.1285237327387
 20
176.0154404941905
 10
121.4272135113098
 20
176.0154404941905
 10
121.9350205858357
 20
176.0181965705788
 10
121.9350205858357
 20
176.4271294046779
 10
121.9350205858357
 20
176.8362344935513
 10
121.4272135113098
 20
176.8389905699395
 10
121.1285237327387
 20
176.8389905699395
 97
        0
 97
        1
330
1B3
 92
        1
 93
        1
 72
     4
 94
        3
 73
     0
 74
     0
 95
       17
 96
       13
 40
0.0
 40
0.0
 40
0.0
 40
0.0
 40
1.0
 40
1.0
 40
1.0
 40
2.0
 40
2.0
 40
2.0
 40
3.0
 40
3.0
 40
3.0
 40
4.0
 40
4.0
 40
4.0
 40
4.0
 10
121.1312798091269
 20
175.7615369569276
 10
120.6909966061119
 20
175.7615369569276
 10
120.112909583687
 20
175.8009833002338
 10
120.112909583687
 20
176.4271294046779
 10
120.112909583687
 20
177.0534477638963
 10
120.6909966061119
 20
177.0928941072025
 10
121.1312798091269
 20
177.0928941072025
 10
121.5712185025933
 20
177.0928941072025
 10
122.14654944863
 20
177.0534477638963
 10
122.14654944863
 20
176.4271294046779
 10
122.14654944863
 20
175.8009833002338
 10
121.5712185025933
 20
175.7615369569276
 10
121.1312798091269
 20
175.7615369569276
 97
        0
 97
        1
330
1B4
 75
     2
 76
     1
 98
        1
 10
0.0
 20
0.0
450
        0
451
        0
460
0.0
461
0.0
452
        0
462
0.0
453
        0
470

  0
ENDBLK
  5
1B0
330
1AD
100
AcDbEntity
  8
0
100
AcDbBlockEnd
  0
BLOCK
  5
1BB
330
1B9
100
AcDbEntity
  8
0
100
AcDbBlockBegin
  2
Block_26
 70
     0
 10
0.0
 20
0.0
 30
0.0
  3
Block_26
  1

  0
INSERT
  5
1BE
330
1B9
100
AcDbEntity
  8
Sichtbar schmal (ANSI)
100
AcDbBlockReference
  2
Block_27
 10
0.0
 20
0.0
 30
0.0
  0
ENDBLK
  5
1BC
330
1B9
100
AcDbEntity
  8
0
100
AcDbBlockEnd
  0
BLOCK
  5
1BF
330
1BD
100
AcDbEntity
  8
0
100
AcDbBlockBegin
  2
Block_27
 70
     0
 10
0.0
 20
0.0
 30
0.0
  3
Block_27
  1

  0
LINE
  5
1C1
330
1BD
100
AcDbEntity
  8
Sichtbar schmal (ANSI)
 62
    18
420
        0
370
     5
100
AcDbLine
 10
124.8937224181852
 20
169.273776202799
 30
0.0
 11
124.8937224181852
 21
171.7499170509753
 31
0.0
  0
INSERT
  5
1C3
330
1BD
100
AcDbEntity
  8
Sichtbar schmal (ANSI)
100
AcDbBlockReference
  2
Block_28
 10
0.0
 20
0.0
 30
0.0
  0
INSERT
  5
1C9
330
1BD
100
AcDbEntity
  8
Sichtbar schmal (ANSI)
100
AcDbBlockReference
  2
Block_29
 10
0.0
 20
0.0
 30
0.0
  0
ENDBLK
  5
1C0
330
1BD
100
AcDbEntity
  8
0
100
AcDbBlockEnd
  0
BLOCK
  5
1C4
330
1C2
100
AcDbEntity
  8
0
100
AcDbBlockBegin
  2
Block_28
 70
     0
 10
0.0
 20
0.0
 30
0.0
  3
Block_28
  1

  0
LWPOLYLINE
  5
1C6
330
1C2
100
AcDbEntity
  8
Sichtbar schmal (ANSI)
100
AcDbPolyline
 90
        3
 70
     1
 43
0.0
 10
125.1150375053423
 20
169.9062311383503
 10
124.8944114372822
 20
168.2250460733951
 10
124.6724073310281
 20
169.9062311383503
  0
HATCH
  5
1C7
330
1C2
100
AcDbEntity
  8
Sichtbar schmal (ANSI)
 62
    18
420
        0
440
 33554687
100
AcDbHatch
 10
0.0
 20
0.0
 30
0.0
210
0.0
220
0.0
230
1.0
  2
SOLID
 70
     1
 71
     1
 91
        1
 92
        1
 93
        3
 72
     1
 10
125.1150375053423
 20
169.9062311383503
 11
124.8944114372822
 21
168.2250460733951
 72
     1
 10
124.8944114372822
 20
168.2250460733951
 11
124.6724073310281
 21
169.9062311383503
 72
     1
 10
124.6724073310281
 20
169.9062311383503
 11
125.1150375053423
 21
169.9062311383503
 97
        1
330
1C6
 75
     2
 76
     1
 98
        1
 10
0.0
 20
0.0
450
        0
451
        0
460
0.0
461
0.0
452
        0
462
0.0
453
        0
470

  0
ENDBLK
  5
1C5
330
1C2
100
AcDbEntity
  8
0
100
AcDbBlockEnd
  0
BLOCK
  5
1CA
330
1C8
100
AcDbEntity
  8
0
100
AcDbBlockBegin
  2
Block_29
 70
     0
 10
0.0
 20
0.0
 30
0.0
  3
Block_29
  1

  0
LWPOLYLINE
  5
1CC
330
1C8
100
AcDbEntity
  8
Sichtbar schmal (ANSI)
100
AcDbPolyline
 90
        3
 70
     1
 43
0.0
 10
125.1150375053423
 20
171.1174621154237
 10
124.8944114372822
 20
172.7986364144555
 10
124.6724073310281
 20
171.1174621154237
  0
HATCH
  5
1CD
330
1C8
100
AcDbEntity
  8
Sichtbar schmal (ANSI)
 62
    18
420
        0
440
 33554687
100
AcDbHatch
 10
0.0
 20
0.0
 30
0.0
210
0.0
220
0.0
230
1.0
  2
SOLID
 70
     1
 71
     1
 91
        1
 92
        1
 93
        3
 72
     1
 10
125.1150375053423
 20
171.1174621154237
 11
124.8944114372822
 21
172.7986364144555
 72
     1
 10
124.8944114372822
 20
172.7986364144555
 11
124.6724073310281
 21
171.1174621154237
 72
     1
 10
124.6724073310281
 20
171.1174621154237
 11
125.1150375053423
 21
171.1174621154237
 97
        1
330
1CC
 75
     2
 76
     1
 98
        1
 10
0.0
 20
0.0
450
        0
451
        0
460
0.0
461
0.0
452
        0
462
0.0
453
        0
470

  0
ENDBLK
  5
1CB
330
1C8
100
AcDbEntity
  8
0
100
AcDbBlockEnd
  0
BLOCK
  5
1D1
330
1CF
100
AcDbEntity
  8
0
100
AcDbBlockBegin
  2
Block_30
 70
     0
 10
0.0
 20
0.0
 30
0.0
  3
Block_30
  1

  0
INSERT
  5
1D4
330
1CF
100
AcDbEntity
  8
Sichtbar schmal (ANSI)
100
AcDbBlockReference
  2
Block_31
 10
0.0
 20
0.0
 30
0.0
  0
ENDBLK
  5
1D2
330
1CF
100
AcDbEntity
  8
0
100
AcDbBlockEnd
  0
BLOCK
  5
1D5
330
1D3
100
AcDbEntity
  8
0
100
AcDbBlockBegin
  2
Block_31
 70
     0
 10
0.0
 20
0.0
 30
0.0
  3
Block_31
  1

  0
LINE
  5
1D7
330
1D3
100
AcDbEntity
  8
Sichtbar schmal (ANSI)
 62
    18
420
        0
370
     5
100
AcDbLine
 10
119.4206391777729
 20
172.9353744074497
 30
0.0
 11
119.4206391777729
 21
177.292106753637
 31
0.0
  0
INSERT
  5
1D9
330
1D3
100
AcDbEntity
  8
Sichtbar schmal (ANSI)
100
AcDbBlockReference
  2
Block_32
 10
0.0
 20
0.0
 30
0.0
  0
ENDBLK
  5
1D6
330
1D3
100
AcDbEntity
  8
0
100
AcDbBlockEnd
  0
BLOCK
  5
1DA
330
1D8
100
AcDbEntity
  8
0
100
AcDbBlockBegin
  2
Block_32
 70
     0
 10
0.0
 20
0.0
 30
0.0
  3
Block_32
  1

  0
LWPOLYLINE
  5
1DC
330
1D8
100
AcDbEntity
  8
Sichtbar schmal (ANSI)
100
AcDbPolyline
 90
        3
 70
     1
 43
0.0
 10
119.6419434990066
 20
173.5678293430016
 10
119.4213174309465
 20
171.8866442780461
 10
119.1993240906157
 20
173.5678293430016
  0
HATCH
  5
1DD
330
1D8
100
AcDbEntity
  8
Sichtbar schmal (ANSI)
 62
    18
420
        0
440
 33554687
100
AcDbHatch
 10
0.0
 20
0.0
 30
0.0
210
0.0
220
0.0
230
1.0
  2
SOLID
 70
     1
 71
     1
 91
        1
 92
        1
 93
        3
 72
     1
 10
119.6419434990066
 20
173.5678293430016
 11
119.4213174309465
 21
171.8866442780461
 72
     1
 10
119.4213174309465
 20
171.8866442780461
 11
119.1993240906157
 21
173.5678293430016
 72
     1
 10
119.1993240906157
 20
173.5678293430016
 11
119.6419434990066
 21
173.5678293430016
 97
        1
330
1DC
 75
     2
 76
     1
 98
        1
 10
0.0
 20
0.0
450
        0
451
        0
460
0.0
461
0.0
452
        0
462
0.0
453
        0
470

  0
ENDBLK
  5
1DB
330
1D8
100
AcDbEntity
  8
0
100
AcDbBlockEnd
  0
BLOCK
  5
1E7
330
1E5
100
AcDbEntity
  8
0
100
AcDbBlockBegin
  2
Block_33
 70
     0
 10
0.0
 20
0.0
 30
0.0
  3
Block_33
  1

  0
INSERT
  5
1EA
330
1E5
100
AcDbEntity
  8
Sichtbar schmal (ANSI)
100
AcDbBlockReference
  2
Block_34
 10
0.0
 20
0.0
 30
0.0
  0
ENDBLK
  5
1E8
330
1E5
100
AcDbEntity
  8
0
100
AcDbBlockEnd
  0
BLOCK
  5
1EB
330
1E9
100
AcDbEntity
  8
0
100
AcDbBlockBegin
  2
Block_34
 70
     0
 10
0.0
 20
0.0
 30
0.0
  3
Block_34
  1

  0
LINE
  5
1ED
330
1E9
100
AcDbEntity
  8
Sichtbar schmal (ANSI)
 62
    18
420
        0
370
     5
100
AcDbLine
 10
128.8507913903133
 20
124.8215369018458
 30
0.0
 11
128.8507913903133
 21
157.5709375623325
 31
0.0
  0
INSERT
  5
1EF
330
1E9
100
AcDbEntity
  8
Sichtbar schmal (ANSI)
100
AcDbBlockReference
  2
Block_35
 10
0.0
 20
0.0
 30
0.0
  0
INSERT
  5
1F5
330
1E9
100
AcDbEntity
  8
Sichtbar schmal (ANSI)
100
AcDbBlockReference
  2
Block_36
 10
0.0
 20
0.0
 30
0.0
  0
ENDBLK
  5
1EC
330
1E9
100
AcDbEntity
  8
0
100
AcDbBlockEnd
  0
BLOCK
  5
1F0
330
1EE
100
AcDbEntity
  8
0
100
AcDbBlockBegin
  2
Block_35
 70
     0
 10
0.0
 20
0.0
 30
0.0
  3
Block_35
  1

  0
LWPOLYLINE
  5
1F2
330
1EE
100
AcDbEntity
  8
Sichtbar schmal (ANSI)
100
AcDbPolyline
 90
        3
 70
     1
 43
0.0
 10
129.0720957115471
 20
125.4539918373973
 10
128.851469643487
 20
123.7728175383656
 10
128.6294763031562
 20
125.4539918373973
  0
HATCH
  5
1F3
330
1EE
100
AcDbEntity
  8
Sichtbar schmal (ANSI)
 62
    18
420
        0
440
 33554687
100
AcDbHatch
 10
0.0
 20
0.0
 30
0.0
210
0.0
220
0.0
230
1.0
  2
SOLID
 70
     1
 71
     1
 91
        1
 92
        1
 93
        3
 72
     1
 10
129.0720957115471
 20
125.4539918373973
 11
128.851469643487
 21
123.7728175383656
 72
     1
 10
128.851469643487
 20
123.7728175383656
 11
128.6294763031562
 21
125.4539918373973
 72
     1
 10
128.6294763031562
 20
125.4539918373973
 11
129.0720957115471
 21
125.4539918373973
 97
        1
330
1F2
 75
     2
 76
     1
 98
        1
 10
0.0
 20
0.0
450
        0
451
        0
460
0.0
461
0.0
452
        0
462
0.0
453
        0
470

  0
ENDBLK
  5
1F1
330
1EE
100
AcDbEntity
  8
0
100
AcDbBlockEnd
  0
BLOCK
  5
1F6
330
1F4
100
AcDbEntity
  8
0
100
AcDbBlockBegin
  2
Block_36
 70
     0
 10
0.0
 20
0.0
 30
0.0
  3
Block_36
  1

  0
LWPOLYLINE
  5
1F8
330
1F4
100
AcDbEntity
  8
Sichtbar schmal (ANSI)
100
AcDbPolyline
 90
        3
 70
     1
 43
0.0
 10
129.0720957115471
 20
156.938482626781
 10
128.8514804094104
 20
158.6196569258127
 10
128.6294763031562
 20
156.938482626781
  0
HATCH
  5
1F9
330
1F4
100
AcDbEntity
  8
Sichtbar schmal (ANSI)
 62
    18
420
        0
440
 33554687
100
AcDbHatch
 10
0.0
 20
0.0
 30
0.0
210
0.0
220
0.0
230
1.0
  2
SOLID
 70
     1
 71
     1
 91
        1
 92
        1
 93
        3
 72
     1
 10
129.0720957115471
 20
156.938482626781
 11
128.8514804094104
 21
158.6196569258127
 72
     1
 10
128.8514804094104
 20
158.6196569258127
 11
128.6294763031562
 21
156.938482626781
 72
     1
 10
128.6294763031562
 20
156.938482626781
 11
129.0720957115471
 21
156.938482626781
 97
        1
330
1F8
 75
     2
 76
     1
 98
        1
 10
0.0
 20
0.0
450
        0
451
        0
460
0.0
461
0.0
452
        0
462
0.0
453
        0
470

  0
ENDBLK
  5
1F7
330
1F4
100
AcDbEntity
  8
0
100
AcDbBlockEnd
  0
BLOCK
  5
1FC
330
1FA
100
AcDbEntity
  8
0
100
AcDbBlockBegin
  2
Block_37
 70
     0
 10
0.0
 20
0.0
 30
0.0
  3
Block_37
  1

  0
SPLINE
  5
1FE
330
1FA
100
AcDbEntity
  8
Sichtbar schmal (ANSI)
100
AcDbSpline
210
0.0
220
0.0
230
1.0
 70
    11
 71
     3
 72
    17
 73
    13
 74
     0
 42
0.0000000001
 43
0.0000000001
 40
0.0
 40
0.0
 40
0.0
 40
0.0
 40
1.0
 40
1.0
 40
1.0
 40
2.0
 40
2.0
 40
2.0
 40
3.0
 40
3.0
 40
3.0
 40
4.0
 40
4.0
 40
4.0
 40
4.0
 10
131.6377875104933
 20
139.17565643222
 30
0.0
 10
131.6377875104933
 20
139.17565643222
 30
0.0
 10
129.9762179579573
 20
139.17565643222
 30
0.0
 10
129.9762179579573
 20
139.17565643222
 30
0.0
 10
129.9762179579573
 20
139.17565643222
 30
0.0
 10
129.9762179579573
 20
137.5171839916443
 30
0.0
 10
129.9762179579573
 20
137.5171839916443
 30
0.0
 10
129.9762179579573
 20
137.5171839916443
 30
0.0
 10
131.6377875104933
 20
137.5171839916443
 30
0.0
 10
131.6377875104933
 20
137.5171839916443
 30
0.0
 10
131.6377875104933
 20
137.5171839916443
 30
0.0
 10
131.6377875104933
 20
139.17565643222
 30
0.0
 10
131.6377875104933
 20
139.17565643222
 30
0.0
  0
SPLINE
  5
1FF
330
1FA
100
AcDbEntity
  8
Sichtbar schmal (ANSI)
100
AcDbSpline
210
0.0
220
0.0
230
1.0
 70
    11
 71
     3
 72
    17
 73
    13
 74
     0
 42
0.0000000001
 43
0.0000000001
 40
0.0
 40
0.0
 40
0.0
 40
0.0
 40
1.0
 40
1.0
 40
1.0
 40
2.0
 40
2.0
 40
2.0
 40
3.0
 40
3.0
 40
3.0
 40
4.0
 40
4.0
 40
4.0
 40
4.0
 10
129.7505642036734
 20
137.2884331254001
 30
0.0
 10
129.7505642036734
 20
137.2884331254001
 30
0.0
 10
129.7505642036734
 20
139.4013101865038
 30
0.0
 10
129.7505642036734
 20
139.4013101865038
 30
0.0
 10
129.7505642036734
 20
139.4013101865038
 30
0.0
 10
131.8661973411654
 20
139.4013101865038
 30
0.0
 10
131.8661973411654
 20
139.4013101865038
 30
0.0
 10
131.8661973411654
 20
139.4013101865038
 30
0.0
 10
131.8661973411654
 20
137.2884331254001
 30
0.0
 10
131.8661973411654
 20
137.2884331254001
 30
0.0
 10
131.8661973411654
 20
137.2884331254001
 30
0.0
 10
129.7505642036734
 20
137.2884331254001
 30
0.0
 10
129.7505642036734
 20
137.2884331254001
 30
0.0
  0
HATCH
  5
200
330
1FA
100
AcDbEntity
  8
Sichtbar schmal (ANSI)
 62
    18
420
        0
440
 33554687
100
AcDbHatch
 10
0.0
 20
0.0
 30
0.0
210
0.0
220
0.0
230
1.0
  2
SOLID
 70
     1
 71
     1
 91
        2
 92
        1
 93
        1
 72
     4
 94
        3
 73
     0
 74
     0
 95
       17
 96
       13
 40
0.0
 40
0.0
 40
0.0
 40
0.0
 40
1.0
 40
1.0
 40
1.0
 40
2.0
 40
2.0
 40
2.0
 40
3.0
 40
3.0
 40
3.0
 40
4.0
 40
4.0
 40
4.0
 40
4.0
 10
131.6377875104933
 20
139.17565643222
 10
131.6377875104933
 20
139.17565643222
 10
129.9762179579573
 20
139.17565643222
 10
129.9762179579573
 20
139.17565643222
 10
129.9762179579573
 20
139.17565643222
 10
129.9762179579573
 20
137.5171839916443
 10
129.9762179579573
 20
137.5171839916443
 10
129.9762179579573
 20
137.5171839916443
 10
131.6377875104933
 20
137.5171839916443
 10
131.6377875104933
 20
137.5171839916443
 10
131.6377875104933
 20
137.5171839916443
 10
131.6377875104933
 20
139.17565643222
 10
131.6377875104933
 20
139.17565643222
 97
        0
 97
        1
330
1FE
 92
        1
 93
        1
 72
     4
 94
        3
 73
     0
 74
     0
 95
       17
 96
       13
 40
0.0
 40
0.0
 40
0.0
 40
0.0
 40
1.0
 40
1.0
 40
1.0
 40
2.0
 40
2.0
 40
2.0
 40
3.0
 40
3.0
 40
3.0
 40
4.0
 40
4.0
 40
4.0
 40
4.0
 10
129.7505642036734
 20
137.2884331254001
 10
129.7505642036734
 20
137.2884331254001
 10
129.7505642036734
 20
139.4013101865038
 10
129.7505642036734
 20
139.4013101865038
 10
129.7505642036734
 20
139.4013101865038
 10
131.8661973411654
 20
139.4013101865038
 10
131.8661973411654
 20
139.4013101865038
 10
131.8661973411654
 20
139.4013101865038
 10
131.8661973411654
 20
137.2884331254001
 10
131.8661973411654
 20
137.2884331254001
 10
131.8661973411654
 20
137.2884331254001
 10
129.7505642036734
 20
137.2884331254001
 10
129.7505642036734
 20
137.2884331254001
 97
        0
 97
        1
330
1FF
 75
     2
 76
     1
 98
        1
 10
0.0
 20
0.0
450
        0
451
        0
460
0.0
461
0.0
452
        0
462
0.0
453
        0
470

  0
SPLINE
  5
201
330
1FA
100
AcDbEntity
  8
Sichtbar schmal (ANSI)
100
AcDbSpline
210
0.0
220
0.0
230
1.0
 70
    11
 71
     3
 72
    26
 73
    22
 74
     0
 42
0.0000000001
 43
0.0000000001
 40
0.0
 40
0.0
 40
0.0
 40
0.0
 40
1.0
 40
1.0
 40
1.0
 40
2.0
 40
2.0
 40
2.0
 40
3.0
 40
3.0
 40
3.0
 40
4.0
 40
4.0
 40
4.0
 40
5.0
 40
5.0
 40
5.0
 40
6.0
 40
6.0
 40
6.0
 40
7.0
 40
7.0
 40
7.0
 40
7.0
 10
130.43338212885
 20
140.9543592312545
 30
0.0
 10
130.43338212885
 20
140.9543592312545
 30
0.0
 10
130.43338212885
 20
140.4351833416273
 30
0.0
 10
130.43338212885
 20
140.4351833416273
 30
0.0
 10
130.43338212885
 20
140.4351833416273
 30
0.0
 10
130.2414903103215
 20
140.4351833416273
 30
0.0
 10
130.2414903103215
 20
140.4351833416273
 30
0.0
 10
130.2414903103215
 20
140.7087239231561
 30
0.0
 10
130.1708658528739
 20
140.9571153076426
 30
0.0
 10
129.8663194119779
 20
141.010514287664
 30
0.0
 10
129.8663194119779
 20
141.010514287664
 30
0.0
 10
129.8663194119779
 20
141.1941378770278
 30
0.0
 10
129.8663194119779
 20
141.1941378770278
 30
0.0
 10
129.8663194119779
 20
141.1941378770278
 30
0.0
 10
131.8661973411654
 20
141.1941378770278
 30
0.0
 10
131.8661973411654
 20
141.1941378770278
 30
0.0
 10
131.8661973411654
 20
141.1941378770278
 30
0.0
 10
131.8661973411654
 20
140.9543592312545
 30
0.0
 10
131.8661973411654
 20
140.9543592312545
 30
0.0
 10
131.8661973411654
 20
140.9543592312545
 30
0.0
 10
130.43338212885
 20
140.9543592312545
 30
0.0
 10
130.43338212885
 20
140.9543592312545
 30
0.0
  0
HATCH
  5
202
330
1FA
100
AcDbEntity
  8
Sichtbar schmal (ANSI)
 62
   250
420
  2039067
440
 33554687
100
AcDbHatch
 10
0.0
 20
0.0
 30
0.0
210
0.0
220
0.0
230
1.0
  2
SOLID
 70
     1
 71
     1
 91
        1
 92
        1
 93
        1
 72
     4
 94
        3
 73
     0
 74
     0
 95
       26
 96
       22
 40
0.0
 40
0.0
 40
0.0
 40
0.0
 40
1.0
 40
1.0
 40
1.0
 40
2.0
 40
2.0
 40
2.0
 40
3.0
 40
3.0
 40
3.0
 40
4.0
 40
4.0
 40
4.0
 40
5.0
 40
5.0
 40
5.0
 40
6.0
 40
6.0
 40
6.0
 40
7.0
 40
7.0
 40
7.0
 40
7.0
 10
130.43338212885
 20
140.9543592312545
 10
130.43338212885
 20
140.9543592312545
 10
130.43338212885
 20
140.4351833416273
 10
130.43338212885
 20
140.4351833416273
 10
130.43338212885
 20
140.4351833416273
 10
130.2414903103215
 20
140.4351833416273
 10
130.2414903103215
 20
140.4351833416273
 10
130.2414903103215
 20
140.7087239231561
 10
130.1708658528739
 20
140.9571153076426
 10
129.8663194119779
 20
141.010514287664
 10
129.8663194119779
 20
141.010514287664
 10
129.8663194119779
 20
141.1941378770278
 10
129.8663194119779
 20
141.1941378770278
 10
129.8663194119779
 20
141.1941378770278
 10
131.8661973411654
 20
141.1941378770278
 10
131.8661973411654
 20
141.1941378770278
 10
131.8661973411654
 20
141.1941378770278
 10
131.8661973411654
 20
140.9543592312545
 10
131.8661973411654
 20
140.9543592312545
 10
131.8661973411654
 20
140.9543592312545
 10
130.43338212885
 20
140.9543592312545
 10
130.43338212885
 20
140.9543592312545
 97
        0
 97
        1
330
201
 75
     2
 76
     1
 98
        1
 10
0.0
 20
0.0
450
        0
451
        0
460
0.0
461
0.0
452
        0
462
0.0
453
        0
470

  0
SPLINE
  5
203
330
1FA
100
AcDbEntity
  8
Sichtbar schmal (ANSI)
100
AcDbSpline
210
0.0
220
0.0
230
1.0
 70
     9
 71
     3
 72
    17
 73
    13
 74
     0
 42
0.0000000001
 43
0.0000000001
 40
0.0
 40
0.0
 40
0.0
 40
0.0
 40
1.0
 40
1.0
 40
1.0
 40
2.0
 40
2.0
 40
2.0
 40
3.0
 40
3.0
 40
3.0
 40
4.0
 40
4.0
 40
4.0
 40
4.0
 10
131.6884304141265
 20
142.5518500077648
 30
0.0
 10
131.6884304141265
 20
142.7916286535382
 30
0.0
 10
131.5220323021889
 20
142.960782841864
 30
0.0
 10
131.2991346242933
 20
142.960782841864
 30
0.0
 10
131.0848496851107
 20
142.960782841864
 30
0.0
 10
130.9184515731731
 20
142.774403176112
 30
0.0
 10
130.9184515731731
 20
142.5490939313766
 30
0.0
 10
130.9184515731731
 20
142.3120713619914
 30
0.0
 10
131.067968717233
 20
142.1260362057879
 30
0.0
 10
131.3018907006815
 20
142.1260362057879
 30
0.0
 10
131.5416693464548
 20
142.1260362057879
 30
0.0
 10
131.6884304141265
 20
142.3034586232783
 30
0.0
 10
131.6884304141265
 20
142.5518500077648
 30
0.0
  0
SPLINE
  5
204
330
1FA
100
AcDbEntity
  8
Sichtbar schmal (ANSI)
100
AcDbSpline
210
0.0
220
0.0
230
1.0
 70
     9
 71
     3
 72
    17
 73
    13
 74
     0
 42
0.0000000001
 43
0.0000000001
 40
0.0
 40
0.0
 40
0.0
 40
0.0
 40
1.0
 40
1.0
 40
1.0
 40
2.0
 40
2.0
 40
2.0
 40
3.0
 40
3.0
 40
3.0
 40
4.0
 40
4.0
 40
4.0
 40
4.0
 10
130.385495301605
 20
142.8818901552517
 30
0.0
 10
130.1822346679752
 20
142.8818901552517
 30
0.0
 10
130.0778482747722
 20
142.7406412403565
 30
0.0
 10
130.0778482747722
 20
142.5463378549884
 30
0.0
 10
130.0778482747722
 20
142.3541015269115
 30
0.0
 10
130.1849907443635
 20
142.196316153687
 30
0.0
 10
130.385495301605
 20
142.196316153687
 30
0.0
 10
130.6025363171757
 20
142.196316153687
 30
0.0
 10
130.7069227103788
 20
142.3572021128482
 30
0.0
 10
130.7069227103788
 20
142.5518500077648
 30
0.0
 10
130.7069227103788
 20
142.7433973167447
 30
0.0
 10
130.5884114256862
 20
142.8818901552517
 30
0.0
 10
130.385495301605
 20
142.8818901552517
 30
0.0
  0
SPLINE
  5
205
330
1FA
100
AcDbEntity
  8
Sichtbar schmal (ANSI)
100
AcDbSpline
210
0.0
220
0.0
230
1.0
 70
     9
 71
     3
 72
    29
 73
    25
 74
     0
 42
0.0000000001
 43
0.0000000001
 40
0.0
 40
0.0
 40
0.0
 40
0.0
 40
1.0
 40
1.0
 40
1.0
 40
2.0
 40
2.0
 40
2.0
 40
3.0
 40
3.0
 40
3.0
 40
4.0
 40
4.0
 40
4.0
 40
5.0
 40
5.0
 40
5.0
 40
6.0
 40
6.0
 40
6.0
 40
7.0
 40
7.0
 40
7.0
 40
8.0
 40
8.0
 40
8.0
 40
8.0
 10
130.7916720593159
 20
142.2218098602779
 30
0.0
 10
130.7238036782565
 20
142.0523111624035
 30
0.0
 10
130.557405566319
 20
141.9424126164241
 30
0.0
 10
130.3768825628919
 20
141.9424126164241
 30
0.0
 10
130.0495984917931
 20
141.9424126164241
 30
0.0
 10
129.8663194119779
 20
142.2218098602779
 30
0.0
 10
129.8663194119779
 20
142.5291123775622
 30
0.0
 10
129.8663194119779
 20
142.9662949946403
 30
0.0
 10
130.1202229492407
 20
143.1354491829661
 30
0.0
 10
130.3768825628919
 20
143.1354491829661
 30
0.0
 10
130.557405566319
 20
143.1354491829661
 30
0.0
 10
130.7155354490919
 20
143.0255506369866
 30
0.0
 10
130.7916720593159
 20
142.8591525250491
 30
0.0
 10
130.86780866954
 20
143.0989311708225
 30
0.0
 10
131.0424750106421
 20
143.2146863791269
 30
0.0
 10
131.2908663951287
 20
143.2146863791269
 30
0.0
 10
131.6770615990252
 20
143.2146863791269
 30
0.0
 10
131.8999592769208
 20
142.9211642437836
 30
0.0
 10
131.8999592769208
 20
142.5518500077648
 30
0.0
 10
131.8999592769208
 20
142.1680663707079
 30
0.0
 10
131.6970431528396
 20
141.8717881589765
 30
0.0
 10
131.2908663951287
 20
141.8717881589765
 30
0.0
 10
131.0538438257434
 20
141.8717881589765
 30
0.0
 10
130.8705647459282
 20
141.996156105994
 30
0.0
 10
130.7916720593159
 20
142.2218098602779
 30
0.0
  0
HATCH
  5
206
330
1FA
100
AcDbEntity
  8
Sichtbar schmal (ANSI)
 62
   250
420
  2039067
440
 33554687
100
AcDbHatch
 10
0.0
 20
0.0
 30
0.0
210
0.0
220
0.0
230
1.0
  2
SOLID
 70
     1
 71
     1
 91
        3
 92
        1
 93
        1
 72
     4
 94
        3
 73
     0
 74
     0
 95
       17
 96
       13
 40
0.0
 40
0.0
 40
0.0
 40
0.0
 40
1.0
 40
1.0
 40
1.0
 40
2.0
 40
2.0
 40
2.0
 40
3.0
 40
3.0
 40
3.0
 40
4.0
 40
4.0
 40
4.0
 40
4.0
 10
131.6884304141265
 20
142.5518500077648
 10
131.6884304141265
 20
142.7916286535382
 10
131.5220323021889
 20
142.960782841864
 10
131.2991346242933
 20
142.960782841864
 10
131.0848496851107
 20
142.960782841864
 10
130.9184515731731
 20
142.774403176112
 10
130.9184515731731
 20
142.5490939313766
 10
130.9184515731731
 20
142.3120713619914
 10
131.067968717233
 20
142.1260362057879
 10
131.3018907006815
 20
142.1260362057879
 10
131.5416693464548
 20
142.1260362057879
 10
131.6884304141265
 20
142.3034586232783
 10
131.6884304141265
 20
142.5518500077648
 97
        0
 97
        1
330
203
 92
        1
 93
        1
 72
     4
 94
        3
 73
     0
 74
     0
 95
       17
 96
       13
 40
0.0
 40
0.0
 40
0.0
 40
0.0
 40
1.0
 40
1.0
 40
1.0
 40
2.0
 40
2.0
 40
2.0
 40
3.0
 40
3.0
 40
3.0
 40
4.0
 40
4.0
 40
4.0
 40
4.0
 10
130.385495301605
 20
142.8818901552517
 10
130.1822346679752
 20
142.8818901552517
 10
130.0778482747722
 20
142.7406412403565
 10
130.0778482747722
 20
142.5463378549884
 10
130.0778482747722
 20
142.3541015269115
 10
130.1849907443635
 20
142.196316153687
 10
130.385495301605
 20
142.196316153687
 10
130.6025363171757
 20
142.196316153687
 10
130.7069227103788
 20
142.3572021128482
 10
130.7069227103788
 20
142.5518500077648
 10
130.7069227103788
 20
142.7433973167447
 10
130.5884114256862
 20
142.8818901552517
 10
130.385495301605
 20
142.8818901552517
 97
        0
 97
        1
330
204
 92
        1
 93
        1
 72
     4
 94
        3
 73
     0
 74
     0
 95
       29
 96
       25
 40
0.0
 40
0.0
 40
0.0
 40
0.0
 40
1.0
 40
1.0
 40
1.0
 40
2.0
 40
2.0
 40
2.0
 40
3.0
 40
3.0
 40
3.0
 40
4.0
 40
4.0
 40
4.0
 40
5.0
 40
5.0
 40
5.0
 40
6.0
 40
6.0
 40
6.0
 40
7.0
 40
7.0
 40
7.0
 40
8.0
 40
8.0
 40
8.0
 40
8.0
 10
130.7916720593159
 20
142.2218098602779
 10
130.7238036782565
 20
142.0523111624035
 10
130.557405566319
 20
141.9424126164241
 10
130.3768825628919
 20
141.9424126164241
 10
130.0495984917931
 20
141.9424126164241
 10
129.8663194119779
 20
142.2218098602779
 10
129.8663194119779
 20
142.5291123775622
 10
129.8663194119779
 20
142.9662949946403
 10
130.1202229492407
 20
143.1354491829661
 10
130.3768825628919
 20
143.1354491829661
 10
130.557405566319
 20
143.1354491829661
 10
130.7155354490919
 20
143.0255506369866
 10
130.7916720593159
 20
142.8591525250491
 10
130.86780866954
 20
143.0989311708225
 10
131.0424750106421
 20
143.2146863791269
 10
131.2908663951287
 20
143.2146863791269
 10
131.6770615990252
 20
143.2146863791269
 10
131.8999592769208
 20
142.9211642437836
 10
131.8999592769208
 20
142.5518500077648
 10
131.8999592769208
 20
142.1680663707079
 10
131.6970431528396
 20
141.8717881589765
 10
131.2908663951287
 20
141.8717881589765
 10
131.0538438257434
 20
141.8717881589765
 10
130.8705647459282
 20
141.996156105994
 10
130.7916720593159
 20
142.2218098602779
 97
        0
 97
        1
330
205
 75
     2
 76
     1
 98
        1
 10
0.0
 20
0.0
450
        0
451
        0
460
0.0
461
0.0
452
        0
462
0.0
453
        0
470

  0
SPLINE
  5
207
330
1FA
100
AcDbEntity
  8
Sichtbar schmal (ANSI)
100
AcDbSpline
210
0.0
220
0.0
230
1.0
 70
     9
 71
     3
 72
    17
 73
    13
 74
     0
 42
0.0000000001
 43
0.0000000001
 40
0.0
 40
0.0
 40
0.0
 40
0.0
 40
1.0
 40
1.0
 40
1.0
 40
2.0
 40
2.0
 40
2.0
 40
3.0
 40
3.0
 40
3.0
 40
4.0
 40
4.0
 40
4.0
 40
4.0
 10
130.5350124456648
 20
144.4817924986018
 30
0.0
 10
130.2893771375665
 20
144.4817924986018
 30
0.0
 10
130.0778482747722
 20
144.3381320168668
 30
0.0
 10
130.0778482747722
 20
144.0704480976629
 30
0.0
 10
130.0778482747722
 20
143.7851941914843
 30
0.0
 10
130.3062581054442
 20
143.678051721893
 30
0.0
 10
130.5518934135426
 20
143.678051721893
 30
0.0
 10
130.7689344291133
 20
143.678051721893
 30
0.0
 10
130.9749511391312
 20
143.8416937574423
 30
0.0
 10
130.9749511391312
 20
144.0732041740511
 30
0.0
 10
130.9749511391312
 20
144.3240071253773
 30
0.0
 10
130.7716905055015
 20
144.4817924986018
 30
0.0
 10
130.5350124456648
 20
144.4817924986018
 30
0.0
  0
SPLINE
  5
208
330
1FA
100
AcDbEntity
  8
Sichtbar schmal (ANSI)
100
AcDbSpline
210
0.0
220
0.0
230
1.0
 70
     9
 71
     3
 72
    35
 73
    31
 74
     0
 42
0.0000000001
 43
0.0000000001
 40
0.0
 40
0.0
 40
0.0
 40
0.0
 40
1.0
 40
1.0
 40
1.0
 40
2.0
 40
2.0
 40
2.0
 40
3.0
 40
3.0
 40
3.0
 40
4.0
 40
4.0
 40
4.0
 40
5.0
 40
5.0
 40
5.0
 40
6.0
 40
6.0
 40
6.0
 40
7.0
 40
7.0
 40
7.0
 40
8.0
 40
8.0
 40
8.0
 40
9.0
 40
9.0
 40
9.0
 40
10.0
 40
10.0
 40
10.0
 40
10.0
 10
131.3838839732304
 20
143.706301504872
 30
0.0
 10
131.578531868147
 20
143.725938549138
 30
0.0
 10
131.6884304141265
 20
143.8813123555227
 30
0.0
 10
131.6884304141265
 20
144.0732041740511
 30
0.0
 10
131.6884304141265
 20
144.3663817998459
 30
0.0
 10
131.4345268768636
 20
144.5100422815808
 30
0.0
 10
130.9156954967849
 20
144.5245116826189
 30
0.0
 10
130.9156954967849
 20
144.5245116826189
 30
0.0
 10
130.90983883446
 20
144.5186550202939
 30
0.0
 10
130.90983883446
 20
144.5186550202939
 30
0.0
 10
131.0793375323343
 20
144.4283935185804
 30
0.0
 10
131.1864800019256
 20
144.25097110109
 30
0.0
 10
131.1864800019256
 20
144.0559786966249
 30
0.0
 10
131.1864800019256
 20
143.6470458625257
 30
0.0
 10
130.9129394203968
 20
143.42414818463
 30
0.0
 10
130.5177869682386
 20
143.42414818463
 30
0.0
 10
130.1343478407303
 20
143.42414818463
 30
0.0
 10
129.8663194119779
 20
143.6949326897707
 30
0.0
 10
129.8663194119779
 20
144.0814724032157
 30
0.0
 10
129.8663194119779
 20
144.4538872251712
 30
0.0
 10
130.0664794596709
 20
144.7670464047805
 30
0.0
 10
130.8226779186832
 20
144.7670464047805
 30
0.0
 10
131.5137640730243
 20
144.7670464047805
 30
0.0
 10
131.8999592769208
 20
144.5582736183743
 30
0.0
 10
131.8999592769208
 20
144.0732041740511
 30
0.0
 10
131.8999592769208
 20
143.7373073642393
 30
0.0
 10
131.7280490122069
 20
143.4975287184659
 30
0.0
 10
131.3838839732304
 20
143.4665228590986
 30
0.0
 10
131.3838839732304
 20
143.4665228590986
 30
0.0
 10
131.3838839732304
 20
143.706301504872
 30
0.0
 10
131.3838839732304
 20
143.706301504872
 30
0.0
  0
HATCH
  5
209
330
1FA
100
AcDbEntity
  8
Sichtbar schmal (ANSI)
 62
   250
420
  2039067
440
 33554687
100
AcDbHatch
 10
0.0
 20
0.0
 30
0.0
210
0.0
220
0.0
230
1.0
  2
SOLID
 70
     1
 71
     1
 91
        2
 92
        1
 93
        1
 72
     4
 94
        3
 73
     0
 74
     0
 95
       17
 96
       13
 40
0.0
 40
0.0
 40
0.0
 40
0.0
 40
1.0
 40
1.0
 40
1.0
 40
2.0
 40
2.0
 40
2.0
 40
3.0
 40
3.0
 40
3.0
 40
4.0
 40
4.0
 40
4.0
 40
4.0
 10
130.5350124456648
 20
144.4817924986018
 10
130.2893771375665
 20
144.4817924986018
 10
130.0778482747722
 20
144.3381320168668
 10
130.0778482747722
 20
144.0704480976629
 10
130.0778482747722
 20
143.7851941914843
 10
130.3062581054442
 20
143.678051721893
 10
130.5518934135426
 20
143.678051721893
 10
130.7689344291133
 20
143.678051721893
 10
130.9749511391312
 20
143.8416937574423
 10
130.9749511391312
 20
144.0732041740511
 10
130.9749511391312
 20
144.3240071253773
 10
130.7716905055015
 20
144.4817924986018
 10
130.5350124456648
 20
144.4817924986018
 97
        0
 97
        1
330
207
 92
        1
 93
        1
 72
     4
 94
        3
 73
     0
 74
     0
 95
       35
 96
       31
 40
0.0
 40
0.0
 40
0.0
 40
0.0
 40
1.0
 40
1.0
 40
1.0
 40
2.0
 40
2.0
 40
2.0
 40
3.0
 40
3.0
 40
3.0
 40
4.0
 40
4.0
 40
4.0
 40
5.0
 40
5.0
 40
5.0
 40
6.0
 40
6.0
 40
6.0
 40
7.0
 40
7.0
 40
7.0
 40
8.0
 40
8.0
 40
8.0
 40
9.0
 40
9.0
 40
9.0
 40
10.0
 40
10.0
 40
10.0
 40
10.0
 10
131.3838839732304
 20
143.706301504872
 10
131.578531868147
 20
143.725938549138
 10
131.6884304141265
 20
143.8813123555227
 10
131.6884304141265
 20
144.0732041740511
 10
131.6884304141265
 20
144.3663817998459
 10
131.4345268768636
 20
144.5100422815808
 10
130.9156954967849
 20
144.5245116826189
 10
130.9156954967849
 20
144.5245116826189
 10
130.90983883446
 20
144.5186550202939
 10
130.90983883446
 20
144.5186550202939
 10
131.0793375323343
 20
144.4283935185804
 10
131.1864800019256
 20
144.25097110109
 10
131.1864800019256
 20
144.0559786966249
 10
131.1864800019256
 20
143.6470458625257
 10
130.9129394203968
 20
143.42414818463
 10
130.5177869682386
 20
143.42414818463
 10
130.1343478407303
 20
143.42414818463
 10
129.8663194119779
 20
143.6949326897707
 10
129.8663194119779
 20
144.0814724032157
 10
129.8663194119779
 20
144.4538872251712
 10
130.0664794596709
 20
144.7670464047805
 10
130.8226779186832
 20
144.7670464047805
 10
131.5137640730243
 20
144.7670464047805
 10
131.8999592769208
 20
144.5582736183743
 10
131.8999592769208
 20
144.0732041740511
 10
131.8999592769208
 20
143.7373073642393
 10
131.7280490122069
 20
143.4975287184659
 10
131.3838839732304
 20
143.4665228590986
 10
131.3838839732304
 20
143.4665228590986
 10
131.3838839732304
 20
143.706301504872
 10
131.3838839732304
 20
143.706301504872
 97
        0
 97
        1
330
208
 75
     2
 76
     1
 98
        1
 10
0.0
 20
0.0
450
        0
451
        0
460
0.0
461
0.0
452
        0
462
0.0
453
        0
470

  0
ENDBLK
  5
1FD
330
1FA
100
AcDbEntity
  8
0
100
AcDbBlockEnd
  0
BLOCK
  5
20C
330
20A
100
AcDbEntity
  8
0
100
AcDbBlockBegin
  2
Block_38
 70
     0
 10
0.0
 20
0.0
 30
0.0
  3
Block_38
  1

  0
INSERT
  5
20F
330
20A
100
AcDbEntity
  8
Sichtbar schmal (ANSI)
100
AcDbBlockReference
  2
Block_39
 10
0.0
 20
0.0
 30
0.0
  0
ENDBLK
  5
20D
330
20A
100
AcDbEntity
  8
0
100
AcDbBlockEnd
  0
BLOCK
  5
210
330
20E
100
AcDbEntity
  8
0
100
AcDbBlockBegin
  2
Block_39
 70
     0
 10
0.0
 20
0.0
 30
0.0
  3
Block_39
  1

  0
SPLINE
  5
212
330
20E
100
AcDbEntity
  8
Sichtbar schmal (ANSI)
100
AcDbSpline
210
0.0
220
0.0
230
1.0
 70
     9
 71
     3
 72
    62
 73
    58
 74
     0
 42
0.0000000001
 43
0.0000000001
 40
0.0
 40
0.0
 40
0.0
 40
0.0
 40
1.0
 40
1.0
 40
1.0
 40
2.0
 40
2.0
 40
2.0
 40
3.0
 40
3.0
 40
3.0
 40
4.0
 40
4.0
 40
4.0
 40
5.0
 40
5.0
 40
5.0
 40
6.0
 40
6.0
 40
6.0
 40
7.0
 40
7.0
 40
7.0
 40
8.0
 40
8.0
 40
8.0
 40
9.0
 40
9.0
 40
9.0
 40
10.0
 40
10.0
 40
10.0
 40
11.0
 40
11.0
 40
11.0
 40
12.0
 40
12.0
 40
12.0
 40
13.0
 40
13.0
 40
13.0
 40
14.0
 40
14.0
 40
14.0
 40
15.0
 40
15.0
 40
15.0
 40
16.0
 40
16.0
 40
16.0
 40
17.0
 40
17.0
 40
17.0
 40
18.0
 40
18.0
 40
18.0
 40
19.0
 40
19.0
 40
19.0
 40
19.0
 10
121.7248697612354
 20
125.6302300033146
 30
0.0
 10
121.9842854512747
 20
125.6388427420278
 30
0.0
 10
122.1648084547018
 20
125.7825032237627
 30
0.0
 10
122.1648084547018
 20
126.05638831484
 30
0.0
 10
122.1648084547018
 20
126.2903102982885
 30
0.0
 10
122.0180473870302
 20
126.4908148555301
 30
0.0
 10
121.7786132508053
 20
126.4908148555301
 30
0.0
 10
121.5274657899306
 20
126.4908148555301
 30
0.0
 10
121.3948296137485
 20
126.3016791133898
 30
0.0
 10
121.3948296137485
 20
126.0650010535532
 30
0.0
 10
121.3948296137485
 20
126.0140136403715
 30
0.0
 10
121.3975856901367
 20
125.9661268131265
 30
0.0
 10
121.4034423524616
 20
125.9209960622697
 30
0.0
 10
121.4034423524616
 20
125.9209960622697
 30
0.0
 10
121.2001817188319
 20
125.9209960622697
 30
0.0
 10
121.2001817188319
 20
125.9209960622697
 30
0.0
 10
121.2029377952201
 20
125.9406331065357
 30
0.0
 10
121.2029377952201
 20
125.9575140744134
 30
0.0
 10
121.2029377952201
 20
125.9747395518396
 30
0.0
 10
121.2029377952201
 20
125.9747395518396
 30
0.0
 10
121.2029377952201
 20
126.0253824554728
 30
0.0
 10
121.2029377952201
 20
126.0253824554728
 30
0.0
 10
121.2029377952201
 20
126.228298579554
 30
0.0
 10
121.0902831728524
 20
126.4060655065929
 30
0.0
 10
120.8759982336699
 20
126.4060655065929
 30
0.0
 10
120.664124861327
 20
126.4060655065929
 30
0.0
 10
120.5542263153475
 20
126.2537922861449
 30
0.0
 10
120.5542263153475
 20
126.0505316525151
 30
0.0
 10
120.5542263153475
 20
125.7911159624758
 30
0.0
 10
120.7543863630406
 20
125.6729491873317
 30
0.0
 10
120.9886528560375
 20
125.6729491873317
 30
0.0
 10
120.9886528560375
 20
125.6729491873317
 30
0.0
 10
120.9886528560375
 20
125.4331705415584
 30
0.0
 10
120.9886528560375
 20
125.4331705415584
 30
0.0
 10
120.6079698049174
 20
125.4469509234994
 30
0.0
 10
120.3426974525532
 20
125.6502115571291
 30
0.0
 10
120.3426974525532
 20
126.0505316525151
 30
0.0
 10
120.3426974525532
 20
126.3977972774283
 30
0.0
 10
120.5090955644908
 20
126.6599690438558
 30
0.0
 10
120.8787543100581
 20
126.6599690438558
 30
0.0
 10
121.056521237097
 20
126.6599690438558
 30
0.0
 10
121.2056938716083
 20
126.538701682775
 30
0.0
 10
121.2763183290559
 20
126.3833278763903
 30
0.0
 10
121.2763183290559
 20
126.3833278763903
 30
0.0
 10
121.2818304818323
 20
126.3833278763903
 30
0.0
 10
121.2818304818323
 20
126.3833278763903
 30
0.0
 10
121.3355739714022
 20
126.6289631844886
 30
0.0
 10
121.5274657899306
 20
126.7443738832444
 30
0.0
 10
121.767244435704
 20
126.7443738832444
 30
0.0
 10
122.1648084547018
 20
126.7443738832444
 30
0.0
 10
122.3763373174962
 20
126.4315592131838
 30
0.0
 10
122.3763373174962
 20
126.05638831484
 30
0.0
 10
122.3763373174962
 20
125.6502115571291
 30
0.0
 10
122.1396592576595
 20
125.3821831283767
 30
0.0
 10
121.7248697612354
 20
125.3904513575412
 30
0.0
 10
121.7248697612354
 20
125.3904513575412
 30
0.0
 10
121.7248697612354
 20
125.6302300033146
 30
0.0
 10
121.7248697612354
 20
125.6302300033146
 30
0.0
  0
HATCH
  5
213
330
20E
100
AcDbEntity
  8
Sichtbar schmal (ANSI)
 62
   250
420
  2039067
440
 33554687
100
AcDbHatch
 10
0.0
 20
0.0
 30
0.0
210
0.0
220
0.0
230
1.0
  2
SOLID
 70
     1
 71
     1
 91
        1
 92
        1
 93
        1
 72
     4
 94
        3
 73
     0
 74
     0
 95
       62
 96
       58
 40
0.0
 40
0.0
 40
0.0
 40
0.0
 40
1.0
 40
1.0
 40
1.0
 40
2.0
 40
2.0
 40
2.0
 40
3.0
 40
3.0
 40
3.0
 40
4.0
 40
4.0
 40
4.0
 40
5.0
 40
5.0
 40
5.0
 40
6.0
 40
6.0
 40
6.0
 40
7.0
 40
7.0
 40
7.0
 40
8.0
 40
8.0
 40
8.0
 40
9.0
 40
9.0
 40
9.0
 40
10.0
 40
10.0
 40
10.0
 40
11.0
 40
11.0
 40
11.0
 40
12.0
 40
12.0
 40
12.0
 40
13.0
 40
13.0
 40
13.0
 40
14.0
 40
14.0
 40
14.0
 40
15.0
 40
15.0
 40
15.0
 40
16.0
 40
16.0
 40
16.0
 40
17.0
 40
17.0
 40
17.0
 40
18.0
 40
18.0
 40
18.0
 40
19.0
 40
19.0
 40
19.0
 40
19.0
 10
121.7248697612354
 20
125.6302300033146
 10
121.9842854512747
 20
125.6388427420278
 10
122.1648084547018
 20
125.7825032237627
 10
122.1648084547018
 20
126.05638831484
 10
122.1648084547018
 20
126.2903102982885
 10
122.0180473870302
 20
126.4908148555301
 10
121.7786132508053
 20
126.4908148555301
 10
121.5274657899306
 20
126.4908148555301
 10
121.3948296137485
 20
126.3016791133898
 10
121.3948296137485
 20
126.0650010535532
 10
121.3948296137485
 20
126.0140136403715
 10
121.3975856901367
 20
125.9661268131265
 10
121.4034423524616
 20
125.9209960622697
 10
121.4034423524616
 20
125.9209960622697
 10
121.2001817188319
 20
125.9209960622697
 10
121.2001817188319
 20
125.9209960622697
 10
121.2029377952201
 20
125.9406331065357
 10
121.2029377952201
 20
125.9575140744134
 10
121.2029377952201
 20
125.9747395518396
 10
121.2029377952201
 20
125.9747395518396
 10
121.2029377952201
 20
126.0253824554728
 10
121.2029377952201
 20
126.0253824554728
 10
121.2029377952201
 20
126.228298579554
 10
121.0902831728524
 20
126.4060655065929
 10
120.8759982336699
 20
126.4060655065929
 10
120.664124861327
 20
126.4060655065929
 10
120.5542263153475
 20
126.2537922861449
 10
120.5542263153475
 20
126.0505316525151
 10
120.5542263153475
 20
125.7911159624758
 10
120.7543863630406
 20
125.6729491873317
 10
120.9886528560375
 20
125.6729491873317
 10
120.9886528560375
 20
125.6729491873317
 10
120.9886528560375
 20
125.4331705415584
 10
120.9886528560375
 20
125.4331705415584
 10
120.6079698049174
 20
125.4469509234994
 10
120.3426974525532
 20
125.6502115571291
 10
120.3426974525532
 20
126.0505316525151
 10
120.3426974525532
 20
126.3977972774283
 10
120.5090955644908
 20
126.6599690438558
 10
120.8787543100581
 20
126.6599690438558
 10
121.056521237097
 20
126.6599690438558
 10
121.2056938716083
 20
126.538701682775
 10
121.2763183290559
 20
126.3833278763903
 10
121.2763183290559
 20
126.3833278763903
 10
121.2818304818323
 20
126.3833278763903
 10
121.2818304818323
 20
126.3833278763903
 10
121.3355739714022
 20
126.6289631844886
 10
121.5274657899306
 20
126.7443738832444
 10
121.767244435704
 20
126.7443738832444
 10
122.1648084547018
 20
126.7443738832444
 10
122.3763373174962
 20
126.4315592131838
 10
122.3763373174962
 20
126.05638831484
 10
122.3763373174962
 20
125.6502115571291
 10
122.1396592576595
 20
125.3821831283767
 10
121.7248697612354
 20
125.3904513575412
 10
121.7248697612354
 20
125.3904513575412
 10
121.7248697612354
 20
125.6302300033146
 10
121.7248697612354
 20
125.6302300033146
 97
        0
 97
        1
330
212
 75
     2
 76
     1
 98
        1
 10
0.0
 20
0.0
450
        0
451
        0
460
0.0
461
0.0
452
        0
462
0.0
453
        0
470

  0
SPLINE
  5
214
330
20E
100
AcDbEntity
  8
Sichtbar schmal (ANSI)
100
AcDbSpline
210
0.0
220
0.0
230
1.0
 70
     9
 71
     3
 72
    53
 73
    49
 74
     0
 42
0.0000000001
 43
0.0000000001
 40
0.0
 40
0.0
 40
0.0
 40
0.0
 40
1.0
 40
1.0
 40
1.0
 40
2.0
 40
2.0
 40
2.0
 40
3.0
 40
3.0
 40
3.0
 40
4.0
 40
4.0
 40
4.0
 40
5.0
 40
5.0
 40
5.0
 40
6.0
 40
6.0
 40
6.0
 40
7.0
 40
7.0
 40
7.0
 40
8.0
 40
8.0
 40
8.0
 40
9.0
 40
9.0
 40
9.0
 40
10.0
 40
10.0
 40
10.0
 40
11.0
 40
11.0
 40
11.0
 40
12.0
 40
12.0
 40
12.0
 40
13.0
 40
13.0
 40
13.0
 40
14.0
 40
14.0
 40
14.0
 40
15.0
 40
15.0
 40
15.0
 40
16.0
 40
16.0
 40
16.0
 40
16.0
 10
121.8037624478476
 20
127.2135958883355
 30
0.0
 10
122.0097791578656
 20
127.2280652893735
 30
0.0
 10
122.1648084547018
 20
127.3941188917626
 30
0.0
 10
122.1648084547018
 20
127.633897537536
 30
0.0
 10
122.1648084547018
 20
127.8626518777565
 30
0.0
 10
122.0070230814774
 20
128.0569552631246
 30
0.0
 10
121.69110782548
 20
128.0569552631246
 30
0.0
 10
121.4285915495039
 20
128.0569552631246
 30
0.0
 10
121.2370442405241
 20
127.8764322596975
 30
0.0
 10
121.2370442405241
 20
127.6056477545569
 30
0.0
 10
121.2370442405241
 20
127.4506184577206
 30
0.0
 10
121.3131808507481
 20
127.3265950202517
 30
0.0
 10
121.4258354731157
 20
127.2335774421499
 30
0.0
 10
121.4258354731157
 20
127.2335774421499
 30
0.0
 10
121.4144666580144
 20
127.027560732132
 30
0.0
 10
121.4144666580144
 20
127.027560732132
 30
0.0
 10
121.4144666580144
 20
127.027560732132
 30
0.0
 10
120.3764593883086
 20
127.2135958883355
 30
0.0
 10
120.3764593883086
 20
127.2135958883355
 30
0.0
 10
120.3764593883086
 20
127.2135958883355
 30
0.0
 10
120.3764593883086
 20
128.2009602544081
 30
0.0
 10
120.3764593883086
 20
128.2009602544081
 30
0.0
 10
120.3764593883086
 20
128.2009602544081
 30
0.0
 10
120.587988251103
 20
128.2009602544081
 30
0.0
 10
120.587988251103
 20
128.2009602544081
 30
0.0
 10
120.587988251103
 20
128.2009602544081
 30
0.0
 10
120.587988251103
 20
127.3941188917626
 30
0.0
 10
120.587988251103
 20
127.3941188917626
 30
0.0
 10
120.587988251103
 20
127.3941188917626
 30
0.0
 10
121.1636637066882
 20
127.2873209317198
 30
0.0
 10
121.1636637066882
 20
127.2873209317198
 30
0.0
 10
121.1636637066882
 20
127.2873209317198
 30
0.0
 10
121.1691758594646
 20
127.2928330844962
 30
0.0
 10
121.1691758594646
 20
127.2928330844962
 30
0.0
 10
121.070301619038
 20
127.3803385098216
 30
0.0
 10
121.0251708681812
 20
127.5298556538814
 30
0.0
 10
121.0251708681812
 20
127.6649033969032
 30
0.0
 10
121.0251708681812
 20
128.020437250981
 30
0.0
 10
121.2508246224651
 20
128.3112033099361
 30
0.0
 10
121.7107448697459
 20
128.3112033099361
 30
0.0
 10
122.049397755946
 20
128.3112033099361
 30
0.0
 10
122.3763373174962
 20
128.0769368169391
 30
0.0
 10
122.3763373174962
 20
127.6115044168818
 30
0.0
 10
122.3763373174962
 20
127.2645833015172
 30
0.0
 10
122.1648084547018
 20
126.9824299812752
 30
0.0
 10
121.8037624478476
 20
126.9738172425621
 30
0.0
 10
121.8037624478476
 20
126.9738172425621
 30
0.0
 10
121.8037624478476
 20
127.2135958883355
 30
0.0
 10
121.8037624478476
 20
127.2135958883355
 30
0.0
  0
HATCH
  5
215
330
20E
100
AcDbEntity
  8
Sichtbar schmal (ANSI)
 62
   250
420
  2039067
440
 33554687
100
AcDbHatch
 10
0.0
 20
0.0
 30
0.0
210
0.0
220
0.0
230
1.0
  2
SOLID
 70
     1
 71
     1
 91
        1
 92
        1
 93
        1
 72
     4
 94
        3
 73
     0
 74
     0
 95
       53
 96
       49
 40
0.0
 40
0.0
 40
0.0
 40
0.0
 40
1.0
 40
1.0
 40
1.0
 40
2.0
 40
2.0
 40
2.0
 40
3.0
 40
3.0
 40
3.0
 40
4.0
 40
4.0
 40
4.0
 40
5.0
 40
5.0
 40
5.0
 40
6.0
 40
6.0
 40
6.0
 40
7.0
 40
7.0
 40
7.0
 40
8.0
 40
8.0
 40
8.0
 40
9.0
 40
9.0
 40
9.0
 40
10.0
 40
10.0
 40
10.0
 40
11.0
 40
11.0
 40
11.0
 40
12.0
 40
12.0
 40
12.0
 40
13.0
 40
13.0
 40
13.0
 40
14.0
 40
14.0
 40
14.0
 40
15.0
 40
15.0
 40
15.0
 40
16.0
 40
16.0
 40
16.0
 40
16.0
 10
121.8037624478476
 20
127.2135958883355
 10
122.0097791578656
 20
127.2280652893735
 10
122.1648084547018
 20
127.3941188917626
 10
122.1648084547018
 20
127.633897537536
 10
122.1648084547018
 20
127.8626518777565
 10
122.0070230814774
 20
128.0569552631246
 10
121.69110782548
 20
128.0569552631246
 10
121.4285915495039
 20
128.0569552631246
 10
121.2370442405241
 20
127.8764322596975
 10
121.2370442405241
 20
127.6056477545569
 10
121.2370442405241
 20
127.4506184577206
 10
121.3131808507481
 20
127.3265950202517
 10
121.4258354731157
 20
127.2335774421499
 10
121.4258354731157
 20
127.2335774421499
 10
121.4144666580144
 20
127.027560732132
 10
121.4144666580144
 20
127.027560732132
 10
121.4144666580144
 20
127.027560732132
 10
120.3764593883086
 20
127.2135958883355
 10
120.3764593883086
 20
127.2135958883355
 10
120.3764593883086
 20
127.2135958883355
 10
120.3764593883086
 20
128.2009602544081
 10
120.3764593883086
 20
128.2009602544081
 10
120.3764593883086
 20
128.2009602544081
 10
120.587988251103
 20
128.2009602544081
 10
120.587988251103
 20
128.2009602544081
 10
120.587988251103
 20
128.2009602544081
 10
120.587988251103
 20
127.3941188917626
 10
120.587988251103
 20
127.3941188917626
 10
120.587988251103
 20
127.3941188917626
 10
121.1636637066882
 20
127.2873209317198
 10
121.1636637066882
 20
127.2873209317198
 10
121.1636637066882
 20
127.2873209317198
 10
121.1691758594646
 20
127.2928330844962
 10
121.1691758594646
 20
127.2928330844962
 10
121.070301619038
 20
127.3803385098216
 10
121.0251708681812
 20
127.5298556538814
 10
121.0251708681812
 20
127.6649033969032
 10
121.0251708681812
 20
128.020437250981
 10
121.2508246224651
 20
128.3112033099361
 10
121.7107448697459
 20
128.3112033099361
 10
122.049397755946
 20
128.3112033099361
 10
122.3763373174962
 20
128.0769368169391
 10
122.3763373174962
 20
127.6115044168818
 10
122.3763373174962
 20
127.2645833015172
 10
122.1648084547018
 20
126.9824299812752
 10
121.8037624478476
 20
126.9738172425621
 10
121.8037624478476
 20
126.9738172425621
 10
121.8037624478476
 20
127.2135958883355
 10
121.8037624478476
 20
127.2135958883355
 97
        0
 97
        1
330
214
 75
     2
 76
     1
 98
        1
 10
0.0
 20
0.0
450
        0
451
        0
460
0.0
461
0.0
452
        0
462
0.0
453
        0
470

  0
ENDBLK
  5
211
330
20E
100
AcDbEntity
  8
0
100
AcDbBlockEnd
  0
BLOCK
  5
218
330
216
100
AcDbEntity
  8
0
100
AcDbBlockBegin
  2
Block_40
 70
     0
 10
0.0
 20
0.0
 30
0.0
  3
Block_40
  1

  0
SPLINE
  5
21A
330
216
100
AcDbEntity
  8
Sichtbar schmal (ANSI)
100
AcDbSpline
210
0.0
220
0.0
230
1.0
 70
    11
 71
     3
 72
    17
 73
    13
 74
     0
 42
0.0000000001
 43
0.0000000001
 40
0.0
 40
0.0
 40
0.0
 40
0.0
 40
1.0
 40
1.0
 40
1.0
 40
2.0
 40
2.0
 40
2.0
 40
3.0
 40
3.0
 40
3.0
 40
4.0
 40
4.0
 40
4.0
 40
4.0
 10
137.1644062228667
 20
139.1567084070511
 30
0.0
 10
137.1644062228667
 20
139.1567084070511
 30
0.0
 10
135.5028401353951
 20
139.1567084070511
 30
0.0
 10
135.5028401353951
 20
139.1567084070511
 30
0.0
 10
135.5028401353951
 20
139.1567084070511
 30
0.0
 10
135.5028401353951
 20
137.4978949309033
 30
0.0
 10
135.5028401353951
 20
137.4978949309033
 30
0.0
 10
135.5028401353951
 20
137.4978949309033
 30
0.0
 10
137.1644062228667
 20
137.4978949309033
 30
0.0
 10
137.1644062228667
 20
137.4978949309033
 30
0.0
 10
137.1644062228667
 20
137.4978949309033
 30
0.0
 10
137.1644062228667
 20
139.1567084070511
 30
0.0
 10
137.1644062228667
 20
139.1567084070511
 30
0.0
  0
SPLINE
  5
21B
330
216
100
AcDbEntity
  8
Sichtbar schmal (ANSI)
100
AcDbSpline
210
0.0
220
0.0
230
1.0
 70
    11
 71
     3
 72
    17
 73
    13
 74
     0
 42
0.0000000001
 43
0.0000000001
 40
0.0
 40
0.0
 40
0.0
 40
0.0
 40
1.0
 40
1.0
 40
1.0
 40
2.0
 40
2.0
 40
2.0
 40
3.0
 40
3.0
 40
3.0
 40
4.0
 40
4.0
 40
4.0
 40
4.0
 10
135.2771863811113
 20
137.2698296097798
 30
0.0
 10
135.2771863811113
 20
137.2698296097798
 30
0.0
 10
135.2771863811113
 20
139.382362161335
 30
0.0
 10
135.2771863811113
 20
139.382362161335
 30
0.0
 10
135.2771863811113
 20
139.382362161335
 30
0.0
 10
137.3928195186032
 20
139.382362161335
 30
0.0
 10
137.3928195186032
 20
139.382362161335
 30
0.0
 10
137.3928195186032
 20
139.382362161335
 30
0.0
 10
137.3928195186032
 20
137.2698296097798
 30
0.0
 10
137.3928195186032
 20
137.2698296097798
 30
0.0
 10
137.3928195186032
 20
137.2698296097798
 30
0.0
 10
135.2771863811113
 20
137.2698296097798
 30
0.0
 10
135.2771863811113
 20
137.2698296097798
 30
0.0
  0
HATCH
  5
21C
330
216
100
AcDbEntity
  8
Sichtbar schmal (ANSI)
 62
    18
420
        0
440
 33554687
100
AcDbHatch
 10
0.0
 20
0.0
 30
0.0
210
0.0
220
0.0
230
1.0
  2
SOLID
 70
     1
 71
     1
 91
        2
 92
        1
 93
        1
 72
     4
 94
        3
 73
     0
 74
     0
 95
       17
 96
       13
 40
0.0
 40
0.0
 40
0.0
 40
0.0
 40
1.0
 40
1.0
 40
1.0
 40
2.0
 40
2.0
 40
2.0
 40
3.0
 40
3.0
 40
3.0
 40
4.0
 40
4.0
 40
4.0
 40
4.0
 10
137.1644062228667
 20
139.1567084070511
 10
137.1644062228667
 20
139.1567084070511
 10
135.5028401353951
 20
139.1567084070511
 10
135.5028401353951
 20
139.1567084070511
 10
135.5028401353951
 20
139.1567084070511
 10
135.5028401353951
 20
137.4978949309033
 10
135.5028401353951
 20
137.4978949309033
 10
135.5028401353951
 20
137.4978949309033
 10
137.1644062228667
 20
137.4978949309033
 10
137.1644062228667
 20
137.4978949309033
 10
137.1644062228667
 20
137.4978949309033
 10
137.1644062228667
 20
139.1567084070511
 10
137.1644062228667
 20
139.1567084070511
 97
        0
 97
        1
330
21A
 92
        1
 93
        1
 72
     4
 94
        3
 73
     0
 74
     0
 95
       17
 96
       13
 40
0.0
 40
0.0
 40
0.0
 40
0.0
 40
1.0
 40
1.0
 40
1.0
 40
2.0
 40
2.0
 40
2.0
 40
3.0
 40
3.0
 40
3.0
 40
4.0
 40
4.0
 40
4.0
 40
4.0
 10
135.2771863811113
 20
137.2698296097798
 10
135.2771863811113
 20
137.2698296097798
 10
135.2771863811113
 20
139.382362161335
 10
135.2771863811113
 20
139.382362161335
 10
135.2771863811113
 20
139.382362161335
 10
137.3928195186032
 20
139.382362161335
 10
137.3928195186032
 20
139.382362161335
 10
137.3928195186032
 20
139.382362161335
 10
137.3928195186032
 20
137.2698296097798
 10
137.3928195186032
 20
137.2698296097798
 10
137.3928195186032
 20
137.2698296097798
 10
135.2771863811113
 20
137.2698296097798
 10
135.2771863811113
 20
137.2698296097798
 97
        0
 97
        1
330
21B
 75
     2
 76
     1
 98
        1
 10
0.0
 20
0.0
450
        0
451
        0
460
0.0
461
0.0
452
        0
462
0.0
453
        0
470

  0
SPLINE
  5
21D
330
216
100
AcDbEntity
  8
Sichtbar schmal (ANSI)
100
AcDbSpline
210
0.0
220
0.0
230
1.0
 70
    11
 71
     3
 72
    26
 73
    22
 74
     0
 42
0.0000000001
 43
0.0000000001
 40
0.0
 40
0.0
 40
0.0
 40
0.0
 40
1.0
 40
1.0
 40
1.0
 40
2.0
 40
2.0
 40
2.0
 40
3.0
 40
3.0
 40
3.0
 40
4.0
 40
4.0
 40
4.0
 40
5.0
 40
5.0
 40
5.0
 40
6.0
 40
6.0
 40
6.0
 40
7.0
 40
7.0
 40
7.0
 40
7.0
 10
135.9600043062878
 20
140.9354112060856
 30
0.0
 10
135.9600043062878
 20
140.9354112060856
 30
0.0
 10
135.9600043062878
 20
140.4165798260069
 30
0.0
 10
135.9600043062878
 20
140.4165798260069
 30
0.0
 10
135.9600043062878
 20
140.4165798260069
 30
0.0
 10
135.7681124877593
 20
140.4165798260069
 30
0.0
 10
135.7681124877593
 20
140.4165798260069
 30
0.0
 10
135.7681124877593
 20
140.6901204075358
 30
0.0
 10
135.6974880303117
 20
140.9381672824738
 30
0.0
 10
135.3929415894157
 20
140.9919107720437
 30
0.0
 10
135.3929415894157
 20
140.9919107720437
 30
0.0
 10
135.3929415894157
 20
141.175189851859
 30
0.0
 10
135.3929415894157
 20
141.175189851859
 30
0.0
 10
135.3929415894157
 20
141.175189851859
 30
0.0
 10
137.3928195186032
 20
141.175189851859
 30
0.0
 10
137.3928195186032
 20
141.175189851859
 30
0.0
 10
137.3928195186032
 20
141.175189851859
 30
0.0
 10
137.3928195186032
 20
140.9354112060856
 30
0.0
 10
137.3928195186032
 20
140.9354112060856
 30
0.0
 10
137.3928195186032
 20
140.9354112060856
 30
0.0
 10
135.9600043062878
 20
140.9354112060856
 30
0.0
 10
135.9600043062878
 20
140.9354112060856
 30
0.0
  0
HATCH
  5
21E
330
216
100
AcDbEntity
  8
Sichtbar schmal (ANSI)
 62
   250
420
  2039067
440
 33554687
100
AcDbHatch
 10
0.0
 20
0.0
 30
0.0
210
0.0
220
0.0
230
1.0
  2
SOLID
 70
     1
 71
     1
 91
        1
 92
        1
 93
        1
 72
     4
 94
        3
 73
     0
 74
     0
 95
       26
 96
       22
 40
0.0
 40
0.0
 40
0.0
 40
0.0
 40
1.0
 40
1.0
 40
1.0
 40
2.0
 40
2.0
 40
2.0
 40
3.0
 40
3.0
 40
3.0
 40
4.0
 40
4.0
 40
4.0
 40
5.0
 40
5.0
 40
5.0
 40
6.0
 40
6.0
 40
6.0
 40
7.0
 40
7.0
 40
7.0
 40
7.0
 10
135.9600043062878
 20
140.9354112060856
 10
135.9600043062878
 20
140.9354112060856
 10
135.9600043062878
 20
140.4165798260069
 10
135.9600043062878
 20
140.4165798260069
 10
135.9600043062878
 20
140.4165798260069
 10
135.7681124877593
 20
140.4165798260069
 10
135.7681124877593
 20
140.4165798260069
 10
135.7681124877593
 20
140.6901204075358
 10
135.6974880303117
 20
140.9381672824738
 10
135.3929415894157
 20
140.9919107720437
 10
135.3929415894157
 20
140.9919107720437
 10
135.3929415894157
 20
141.175189851859
 10
135.3929415894157
 20
141.175189851859
 10
135.3929415894157
 20
141.175189851859
 10
137.3928195186032
 20
141.175189851859
 10
137.3928195186032
 20
141.175189851859
 10
137.3928195186032
 20
141.175189851859
 10
137.3928195186032
 20
140.9354112060856
 10
137.3928195186032
 20
140.9354112060856
 10
137.3928195186032
 20
140.9354112060856
 10
135.9600043062878
 20
140.9354112060856
 10
135.9600043062878
 20
140.9354112060856
 97
        0
 97
        1
330
21D
 75
     2
 76
     1
 98
        1
 10
0.0
 20
0.0
450
        0
451
        0
460
0.0
461
0.0
452
        0
462
0.0
453
        0
470

  0
SPLINE
  5
21F
330
216
100
AcDbEntity
  8
Sichtbar schmal (ANSI)
100
AcDbSpline
210
0.0
220
0.0
230
1.0
 70
     9
 71
     3
 72
    17
 73
    13
 74
     0
 42
0.0000000001
 43
0.0000000001
 40
0.0
 40
0.0
 40
0.0
 40
0.0
 40
1.0
 40
1.0
 40
1.0
 40
2.0
 40
2.0
 40
2.0
 40
3.0
 40
3.0
 40
3.0
 40
4.0
 40
4.0
 40
4.0
 40
4.0
 10
136.0612901135541
 20
142.8936034799016
 30
0.0
 10
135.8159993150043
 20
142.8936034799016
 30
0.0
 10
135.60447045221
 20
142.7499429981667
 30
0.0
 10
135.60447045221
 20
142.4822590789628
 30
0.0
 10
135.60447045221
 20
142.1970051727841
 30
0.0
 10
135.832880282882
 20
142.0898627031928
 30
0.0
 10
136.0785155909804
 20
142.0898627031928
 30
0.0
 10
136.2955566065511
 20
142.0898627031928
 30
0.0
 10
136.501573316569
 20
142.2535047387422
 30
0.0
 10
136.501573316569
 20
142.4850151553509
 30
0.0
 10
136.501573316569
 20
142.7358181066771
 30
0.0
 10
136.2983126829393
 20
142.8936034799016
 30
0.0
 10
136.0612901135541
 20
142.8936034799016
 30
0.0
  0
SPLINE
  5
220
330
216
100
AcDbEntity
  8
Sichtbar schmal (ANSI)
100
AcDbSpline
210
0.0
220
0.0
230
1.0
 70
     9
 71
     3
 72
    35
 73
    31
 74
     0
 42
0.0000000001
 43
0.0000000001
 40
0.0
 40
0.0
 40
0.0
 40
0.0
 40
1.0
 40
1.0
 40
1.0
 40
2.0
 40
2.0
 40
2.0
 40
3.0
 40
3.0
 40
3.0
 40
4.0
 40
4.0
 40
4.0
 40
5.0
 40
5.0
 40
5.0
 40
6.0
 40
6.0
 40
6.0
 40
7.0
 40
7.0
 40
7.0
 40
8.0
 40
8.0
 40
8.0
 40
9.0
 40
9.0
 40
9.0
 40
10.0
 40
10.0
 40
10.0
 40
10.0
 10
136.9105061506682
 20
142.1181124861718
 30
0.0
 10
137.1051540455848
 20
142.1377495304378
 30
0.0
 10
137.2150525915643
 20
142.2931233368225
 30
0.0
 10
137.2150525915643
 20
142.4850151553509
 30
0.0
 10
137.2150525915643
 20
142.7781927811457
 30
0.0
 10
136.9611490543014
 20
142.9218532628806
 30
0.0
 10
136.4423176742227
 20
142.9363226639187
 30
0.0
 10
136.4423176742227
 20
142.9363226639187
 30
0.0
 10
136.4364610118978
 20
142.9304660015938
 30
0.0
 10
136.4364610118978
 20
142.9304660015938
 30
0.0
 10
136.6059597097721
 20
142.8402044998802
 30
0.0
 10
136.7131021793634
 20
142.6627820823898
 30
0.0
 10
136.7131021793634
 20
142.4677896779247
 30
0.0
 10
136.7131021793634
 20
142.0588568438255
 30
0.0
 10
136.4395615978345
 20
141.8359591659299
 30
0.0
 10
136.0444091456764
 20
141.8359591659299
 30
0.0
 10
135.6609700181681
 20
141.8359591659299
 30
0.0
 10
135.3929415894157
 20
142.1067436710705
 30
0.0
 10
135.3929415894157
 20
142.4932833845155
 30
0.0
 10
135.3929415894157
 20
142.8656982064711
 30
0.0
 10
135.5931016371086
 20
143.1788573860803
 30
0.0
 10
136.349300096121
 20
143.1788573860803
 30
0.0
 10
137.0403862504621
 20
143.1788573860803
 30
0.0
 10
137.4265814543586
 20
142.9700845996741
 30
0.0
 10
137.4265814543586
 20
142.4850151553509
 30
0.0
 10
137.4265814543586
 20
142.1491183455391
 30
0.0
 10
137.2546711896447
 20
141.9093396997657
 30
0.0
 10
136.9105061506682
 20
141.8783338403985
 30
0.0
 10
136.9105061506682
 20
141.8783338403985
 30
0.0
 10
136.9105061506682
 20
142.1181124861718
 30
0.0
 10
136.9105061506682
 20
142.1181124861718
 30
0.0
  0
HATCH
  5
221
330
216
100
AcDbEntity
  8
Sichtbar schmal (ANSI)
 62
   250
420
  2039067
440
 33554687
100
AcDbHatch
 10
0.0
 20
0.0
 30
0.0
210
0.0
220
0.0
230
1.0
  2
SOLID
 70
     1
 71
     1
 91
        2
 92
        1
 93
        1
 72
     4
 94
        3
 73
     0
 74
     0
 95
       17
 96
       13
 40
0.0
 40
0.0
 40
0.0
 40
0.0
 40
1.0
 40
1.0
 40
1.0
 40
2.0
 40
2.0
 40
2.0
 40
3.0
 40
3.0
 40
3.0
 40
4.0
 40
4.0
 40
4.0
 40
4.0
 10
136.0612901135541
 20
142.8936034799016
 10
135.8159993150043
 20
142.8936034799016
 10
135.60447045221
 20
142.7499429981667
 10
135.60447045221
 20
142.4822590789628
 10
135.60447045221
 20
142.1970051727841
 10
135.832880282882
 20
142.0898627031928
 10
136.0785155909804
 20
142.0898627031928
 10
136.2955566065511
 20
142.0898627031928
 10
136.501573316569
 20
142.2535047387422
 10
136.501573316569
 20
142.4850151553509
 10
136.501573316569
 20
142.7358181066771
 10
136.2983126829393
 20
142.8936034799016
 10
136.0612901135541
 20
142.8936034799016
 97
        0
 97
        1
330
21F
 92
        1
 93
        1
 72
     4
 94
        3
 73
     0
 74
     0
 95
       35
 96
       31
 40
0.0
 40
0.0
 40
0.0
 40
0.0
 40
1.0
 40
1.0
 40
1.0
 40
2.0
 40
2.0
 40
2.0
 40
3.0
 40
3.0
 40
3.0
 40
4.0
 40
4.0
 40
4.0
 40
5.0
 40
5.0
 40
5.0
 40
6.0
 40
6.0
 40
6.0
 40
7.0
 40
7.0
 40
7.0
 40
8.0
 40
8.0
 40
8.0
 40
9.0
 40
9.0
 40
9.0
 40
10.0
 40
10.0
 40
10.0
 40
10.0
 10
136.9105061506682
 20
142.1181124861718
 10
137.1051540455848
 20
142.1377495304378
 10
137.2150525915643
 20
142.2931233368225
 10
137.2150525915643
 20
142.4850151553509
 10
137.2150525915643
 20
142.7781927811457
 10
136.9611490543014
 20
142.9218532628806
 10
136.4423176742227
 20
142.9363226639187
 10
136.4423176742227
 20
142.9363226639187
 10
136.4364610118978
 20
142.9304660015938
 10
136.4364610118978
 20
142.9304660015938
 10
136.6059597097721
 20
142.8402044998802
 10
136.7131021793634
 20
142.6627820823898
 10
136.7131021793634
 20
142.4677896779247
 10
136.7131021793634
 20
142.0588568438255
 10
136.4395615978345
 20
141.8359591659299
 10
136.0444091456764
 20
141.8359591659299
 10
135.6609700181681
 20
141.8359591659299
 10
135.3929415894157
 20
142.1067436710705
 10
135.3929415894157
 20
142.4932833845155
 10
135.3929415894157
 20
142.8656982064711
 10
135.5931016371086
 20
143.1788573860803
 10
136.349300096121
 20
143.1788573860803
 10
137.0403862504621
 20
143.1788573860803
 10
137.4265814543586
 20
142.9700845996741
 10
137.4265814543586
 20
142.4850151553509
 10
137.4265814543586
 20
142.1491183455391
 10
137.2546711896447
 20
141.9093396997657
 10
136.9105061506682
 20
141.8783338403985
 10
136.9105061506682
 20
141.8783338403985
 10
136.9105061506682
 20
142.1181124861718
 10
136.9105061506682
 20
142.1181124861718
 97
        0
 97
        1
330
220
 75
     2
 76
     1
 98
        1
 10
0.0
 20
0.0
450
        0
451
        0
460
0.0
461
0.0
452
        0
462
0.0
453
        0
470

  0
SPLINE
  5
222
330
216
100
AcDbEntity
  8
Sichtbar schmal (ANSI)
100
AcDbSpline
210
0.0
220
0.0
230
1.0
 70
     9
 71
     3
 72
    17
 73
    13
 74
     0
 42
0.0000000001
 43
0.0000000001
 40
0.0
 40
0.0
 40
0.0
 40
0.0
 40
1.0
 40
1.0
 40
1.0
 40
2.0
 40
2.0
 40
2.0
 40
3.0
 40
3.0
 40
3.0
 40
4.0
 40
4.0
 40
4.0
 40
4.0
 10
136.0612901135541
 20
144.4631889829814
 30
0.0
 10
135.8159993150043
 20
144.4631889829814
 30
0.0
 10
135.60447045221
 20
144.319183991698
 30
0.0
 10
135.60447045221
 20
144.0511555629455
 30
0.0
 10
135.60447045221
 20
143.7665906758639
 30
0.0
 10
135.832880282882
 20
143.6591036967241
 30
0.0
 10
136.0785155909804
 20
143.6591036967241
 30
0.0
 10
136.2955566065511
 20
143.6591036967241
 30
0.0
 10
136.501573316569
 20
143.8227457322735
 30
0.0
 10
136.501573316569
 20
144.0539116393337
 30
0.0
 10
136.501573316569
 20
144.3050591002084
 30
0.0
 10
136.2983126829393
 20
144.4631889829814
 30
0.0
 10
136.0612901135541
 20
144.4631889829814
 30
0.0
  0
SPLINE
  5
223
330
216
100
AcDbEntity
  8
Sichtbar schmal (ANSI)
100
AcDbSpline
210
0.0
220
0.0
230
1.0
 70
     9
 71
     3
 72
    35
 73
    31
 74
     0
 42
0.0000000001
 43
0.0000000001
 40
0.0
 40
0.0
 40
0.0
 40
0.0
 40
1.0
 40
1.0
 40
1.0
 40
2.0
 40
2.0
 40
2.0
 40
3.0
 40
3.0
 40
3.0
 40
4.0
 40
4.0
 40
4.0
 40
5.0
 40
5.0
 40
5.0
 40
6.0
 40
6.0
 40
6.0
 40
7.0
 40
7.0
 40
7.0
 40
8.0
 40
8.0
 40
8.0
 40
9.0
 40
9.0
 40
9.0
 40
10.0
 40
10.0
 40
10.0
 40
10.0
 10
136.9105061506682
 20
143.6873534797032
 30
0.0
 10
137.1051540455848
 20
143.7073350335176
 30
0.0
 10
137.2150525915643
 20
143.8623643303538
 30
0.0
 10
137.2150525915643
 20
144.0539116393337
 30
0.0
 10
137.2150525915643
 20
144.347433774677
 30
0.0
 10
136.9611490543014
 20
144.4914387659605
 30
0.0
 10
136.4423176742227
 20
144.5052191479014
 30
0.0
 10
136.4423176742227
 20
144.5052191479014
 30
0.0
 10
136.4364610118978
 20
144.4997069951251
 30
0.0
 10
136.4364610118978
 20
144.4997069951251
 30
0.0
 10
136.6059597097721
 20
144.4094454934115
 30
0.0
 10
136.7131021793634
 20
144.2316785663726
 30
0.0
 10
136.7131021793634
 20
144.0373751810045
 30
0.0
 10
136.7131021793634
 20
143.6280978373569
 30
0.0
 10
136.4395615978345
 20
143.4055446690097
 30
0.0
 10
136.0444091456764
 20
143.4055446690097
 30
0.0
 10
135.6609700181681
 20
143.4055446690097
 30
0.0
 10
135.3929415894157
 20
143.6763291741503
 30
0.0
 10
135.3929415894157
 20
144.0625243780468
 30
0.0
 10
135.3929415894157
 20
144.4349392000024
 30
0.0
 10
135.5931016371086
 20
144.747753870063
 30
0.0
 10
136.349300096121
 20
144.747753870063
 30
0.0
 10
137.0403862504621
 20
144.747753870063
 30
0.0
 10
137.4265814543586
 20
144.5393255932054
 30
0.0
 10
137.4265814543586
 20
144.0539116393337
 30
0.0
 10
137.4265814543586
 20
143.7183593390704
 30
0.0
 10
137.2546711896447
 20
143.478580693297
 30
0.0
 10
136.9105061506682
 20
143.4475748339298
 30
0.0
 10
136.9105061506682
 20
143.4475748339298
 30
0.0
 10
136.9105061506682
 20
143.6873534797032
 30
0.0
 10
136.9105061506682
 20
143.6873534797032
 30
0.0
  0
HATCH
  5
224
330
216
100
AcDbEntity
  8
Sichtbar schmal (ANSI)
 62
   250
420
  2039067
440
 33554687
100
AcDbHatch
 10
0.0
 20
0.0
 30
0.0
210
0.0
220
0.0
230
1.0
  2
SOLID
 70
     1
 71
     1
 91
        2
 92
        1
 93
        1
 72
     4
 94
        3
 73
     0
 74
     0
 95
       17
 96
       13
 40
0.0
 40
0.0
 40
0.0
 40
0.0
 40
1.0
 40
1.0
 40
1.0
 40
2.0
 40
2.0
 40
2.0
 40
3.0
 40
3.0
 40
3.0
 40
4.0
 40
4.0
 40
4.0
 40
4.0
 10
136.0612901135541
 20
144.4631889829814
 10
135.8159993150043
 20
144.4631889829814
 10
135.60447045221
 20
144.319183991698
 10
135.60447045221
 20
144.0511555629455
 10
135.60447045221
 20
143.7665906758639
 10
135.832880282882
 20
143.6591036967241
 10
136.0785155909804
 20
143.6591036967241
 10
136.2955566065511
 20
143.6591036967241
 10
136.501573316569
 20
143.8227457322735
 10
136.501573316569
 20
144.0539116393337
 10
136.501573316569
 20
144.3050591002084
 10
136.2983126829393
 20
144.4631889829814
 10
136.0612901135541
 20
144.4631889829814
 97
        0
 97
        1
330
222
 92
        1
 93
        1
 72
     4
 94
        3
 73
     0
 74
     0
 95
       35
 96
       31
 40
0.0
 40
0.0
 40
0.0
 40
0.0
 40
1.0
 40
1.0
 40
1.0
 40
2.0
 40
2.0
 40
2.0
 40
3.0
 40
3.0
 40
3.0
 40
4.0
 40
4.0
 40
4.0
 40
5.0
 40
5.0
 40
5.0
 40
6.0
 40
6.0
 40
6.0
 40
7.0
 40
7.0
 40
7.0
 40
8.0
 40
8.0
 40
8.0
 40
9.0
 40
9.0
 40
9.0
 40
10.0
 40
10.0
 40
10.0
 40
10.0
 10
136.9105061506682
 20
143.6873534797032
 10
137.1051540455848
 20
143.7073350335176
 10
137.2150525915643
 20
143.8623643303538
 10
137.2150525915643
 20
144.0539116393337
 10
137.2150525915643
 20
144.347433774677
 10
136.9611490543014
 20
144.4914387659605
 10
136.4423176742227
 20
144.5052191479014
 10
136.4423176742227
 20
144.5052191479014
 10
136.4364610118978
 20
144.4997069951251
 10
136.4364610118978
 20
144.4997069951251
 10
136.6059597097721
 20
144.4094454934115
 10
136.7131021793634
 20
144.2316785663726
 10
136.7131021793634
 20
144.0373751810045
 10
136.7131021793634
 20
143.6280978373569
 10
136.4395615978345
 20
143.4055446690097
 10
136.0444091456764
 20
143.4055446690097
 10
135.6609700181681
 20
143.4055446690097
 10
135.3929415894157
 20
143.6763291741503
 10
135.3929415894157
 20
144.0625243780468
 10
135.3929415894157
 20
144.4349392000024
 10
135.5931016371086
 20
144.747753870063
 10
136.349300096121
 20
144.747753870063
 10
137.0403862504621
 20
144.747753870063
 10
137.4265814543586
 20
144.5393255932054
 10
137.4265814543586
 20
144.0539116393337
 10
137.4265814543586
 20
143.7183593390704
 10
137.2546711896447
 20
143.478580693297
 10
136.9105061506682
 20
143.4475748339298
 10
136.9105061506682
 20
143.4475748339298
 10
136.9105061506682
 20
143.6873534797032
 10
136.9105061506682
 20
143.6873534797032
 97
        0
 97
        1
330
223
 75
     2
 76
     1
 98
        1
 10
0.0
 20
0.0
450
        0
451
        0
460
0.0
461
0.0
452
        0
462
0.0
453
        0
470

  0
ENDBLK
  5
219
330
216
100
AcDbEntity
  8
0
100
AcDbBlockEnd
  0
BLOCK
  5
227
330
225
100
AcDbEntity
  8
0
100
AcDbBlockBegin
  2
Block_41
 70
     0
 10
0.0
 20
0.0
 30
0.0
  3
Block_41
  1

  0
INSERT
  5
22A
330
225
100
AcDbEntity
  8
Sichtbar schmal (ANSI)
100
AcDbBlockReference
  2
Block_42
 10
0.0
 20
0.0
 30
0.0
  0
ENDBLK
  5
228
330
225
100
AcDbEntity
  8
0
100
AcDbBlockEnd
  0
BLOCK
  5
22B
330
229
100
AcDbEntity
  8
0
100
AcDbBlockBegin
  2
Block_42
 70
     0
 10
0.0
 20
0.0
 30
0.0
  3
Block_42
  1

  0
LINE
  5
22D
330
229
100
AcDbEntity
  8
Sichtbar schmal (ANSI)
 62
    18
420
        0
370
     5
100
AcDbLine
 10
119.3274708767436
 20
129.1281215768759
 30
0.0
 11
119.3274708767436
 21
124.8215369018458
 31
0.0
  0
INSERT
  5
22F
330
229
100
AcDbEntity
  8
Sichtbar schmal (ANSI)
100
AcDbBlockReference
  2
Block_43
 10
0.0
 20
0.0
 30
0.0
  0
INSERT
  5
235
330
229
100
AcDbEntity
  8
Sichtbar schmal (ANSI)
100
AcDbBlockReference
  2
Block_44
 10
0.0
 20
0.0
 30
0.0
  0
ENDBLK
  5
22C
330
229
100
AcDbEntity
  8
0
100
AcDbBlockEnd
  0
BLOCK
  5
230
330
22E
100
AcDbEntity
  8
0
100
AcDbBlockBegin
  2
Block_43
 70
     0
 10
0.0
 20
0.0
 30
0.0
  3
Block_43
  1

  0
LWPOLYLINE
  5
232
330
22E
100
AcDbEntity
  8
Sichtbar schmal (ANSI)
100
AcDbPolyline
 90
        3
 70
     1
 43
0.0
 10
119.1061665555099
 20
128.4956666413244
 10
119.3267818576466
 20
130.1768517062795
 10
119.5487859639008
 20
128.4956666413244
  0
HATCH
  5
233
330
22E
100
AcDbEntity
  8
Sichtbar schmal (ANSI)
 62
    18
420
        0
440
 33554687
100
AcDbHatch
 10
0.0
 20
0.0
 30
0.0
210
0.0
220
0.0
230
1.0
  2
SOLID
 70
     1
 71
     1
 91
        1
 92
        1
 93
        3
 72
     1
 10
119.1061665555099
 20
128.4956666413244
 11
119.3267818576466
 21
130.1768517062795
 72
     1
 10
119.3267818576466
 20
130.1768517062795
 11
119.5487859639008
 21
128.4956666413244
 72
     1
 10
119.5487859639008
 20
128.4956666413244
 11
119.1061665555099
 21
128.4956666413244
 97
        1
330
232
 75
     2
 76
     1
 98
        1
 10
0.0
 20
0.0
450
        0
451
        0
460
0.0
461
0.0
452
        0
462
0.0
453
        0
470

  0
ENDBLK
  5
231
330
22E
100
AcDbEntity
  8
0
100
AcDbBlockEnd
  0
BLOCK
  5
236
330
234
100
AcDbEntity
  8
0
100
AcDbBlockBegin
  2
Block_44
 70
     0
 10
0.0
 20
0.0
 30
0.0
  3
Block_44
  1

  0
LWPOLYLINE
  5
238
330
234
100
AcDbEntity
  8
Sichtbar schmal (ANSI)
100
AcDbPolyline
 90
        3
 70
     1
 43
0.0
 10
119.1061665555099
 20
125.4539918373973
 10
119.3267818576466
 20
123.7728175383656
 10
119.5487859639008
 20
125.4539918373973
  0
HATCH
  5
239
330
234
100
AcDbEntity
  8
Sichtbar schmal (ANSI)
 62
    18
420
        0
440
 33554687
100
AcDbHatch
 10
0.0
 20
0.0
 30
0.0
210
0.0
220
0.0
230
1.0
  2
SOLID
 70
     1
 71
     1
 91
        1
 92
        1
 93
        3
 72
     1
 10
119.1061665555099
 20
125.4539918373973
 11
119.3267818576466
 21
123.7728175383656
 72
     1
 10
119.3267818576466
 20
123.7728175383656
 11
119.5487859639008
 21
125.4539918373973
 72
     1
 10
119.5487859639008
 20
125.4539918373973
 11
119.1061665555099
 21
125.4539918373973
 97
        1
330
238
 75
     2
 76
     1
 98
        1
 10
0.0
 20
0.0
450
        0
451
        0
460
0.0
461
0.0
452
        0
462
0.0
453
        0
470

  0
ENDBLK
  5
237
330
234
100
AcDbEntity
  8
0
100
AcDbBlockEnd
  0
BLOCK
  5
23C
330
23A
100
AcDbEntity
  8
0
100
AcDbBlockBegin
  2
Block_45
 70
     0
 10
0.0
 20
0.0
 30
0.0
  3
Block_45
  1

  0
INSERT
  5
23F
330
23A
100
AcDbEntity
  8
Sichtbar schmal (ANSI)
100
AcDbBlockReference
  2
Block_46
 10
0.0
 20
0.0
 30
0.0
  0
ENDBLK
  5
23D
330
23A
100
AcDbEntity
  8
0
100
AcDbBlockEnd
  0
BLOCK
  5
240
330
23E
100
AcDbEntity
  8
0
100
AcDbBlockBegin
  2
Block_46
 70
     0
 10
0.0
 20
0.0
 30
0.0
  3
Block_46
  1

  0
LINE
  5
242
330
23E
100
AcDbEntity
  8
Sichtbar schmal (ANSI)
 62
    18
420
        0
370
     5
100
AcDbLine
 10
134.5476335824926
 20
124.0761474299184
 30
0.0
 11
134.5476335824926
 21
158.2553703760178
 31
0.0
  0
INSERT
  5
244
330
23E
100
AcDbEntity
  8
Sichtbar schmal (ANSI)
100
AcDbBlockReference
  2
Block_47
 10
0.0
 20
0.0
 30
0.0
  0
INSERT
  5
24A
330
23E
100
AcDbEntity
  8
Sichtbar schmal (ANSI)
100
AcDbBlockReference
  2
Block_48
 10
0.0
 20
0.0
 30
0.0
  0
ENDBLK
  5
241
330
23E
100
AcDbEntity
  8
0
100
AcDbBlockEnd
  0
BLOCK
  5
245
330
243
100
AcDbEntity
  8
0
100
AcDbBlockBegin
  2
Block_47
 70
     0
 10
0.0
 20
0.0
 30
0.0
  3
Block_47
  1

  0
LWPOLYLINE
  5
247
330
243
100
AcDbEntity
  8
Sichtbar schmal (ANSI)
100
AcDbPolyline
 90
        3
 70
     1
 43
0.0
 10
134.7689379037264
 20
124.70860236547
 10
134.5483226015897
 20
123.0274280664382
 10
134.3263184953355
 20
124.70860236547
  0
HATCH
  5
248
330
243
100
AcDbEntity
  8
Sichtbar schmal (ANSI)
 62
    18
420
        0
440
 33554687
100
AcDbHatch
 10
0.0
 20
0.0
 30
0.0
210
0.0
220
0.0
230
1.0
  2
SOLID
 70
     1
 71
     1
 91
        1
 92
        1
 93
        3
 72
     1
 10
134.7689379037264
 20
124.70860236547
 11
134.5483226015897
 21
123.0274280664382
 72
     1
 10
134.5483226015897
 20
123.0274280664382
 11
134.3263184953355
 21
124.70860236547
 72
     1
 10
134.3263184953355
 20
124.70860236547
 11
134.7689379037264
 21
124.70860236547
 97
        1
330
247
 75
     2
 76
     1
 98
        1
 10
0.0
 20
0.0
450
        0
451
        0
460
0.0
461
0.0
452
        0
462
0.0
453
        0
470

  0
ENDBLK
  5
246
330
243
100
AcDbEntity
  8
0
100
AcDbBlockEnd
  0
BLOCK
  5
24B
330
249
100
AcDbEntity
  8
0
100
AcDbBlockBegin
  2
Block_48
 70
     0
 10
0.0
 20
0.0
 30
0.0
  3
Block_48
  1

  0
LWPOLYLINE
  5
24D
330
249
100
AcDbEntity
  8
Sichtbar schmal (ANSI)
100
AcDbPolyline
 90
        3
 70
     1
 43
0.0
 10
134.7689379037264
 20
157.6229154404662
 10
134.5483226015897
 20
159.304089739498
 10
134.3263184953355
 20
157.6229154404662
  0
HATCH
  5
24E
330
249
100
AcDbEntity
  8
Sichtbar schmal (ANSI)
 62
    18
420
        0
440
 33554687
100
AcDbHatch
 10
0.0
 20
0.0
 30
0.0
210
0.0
220
0.0
230
1.0
  2
SOLID
 70
     1
 71
     1
 91
        1
 92
        1
 93
        3
 72
     1
 10
134.7689379037264
 20
157.6229154404662
 11
134.5483226015897
 21
159.304089739498
 72
     1
 10
134.5483226015897
 20
159.304089739498
 11
134.3263184953355
 21
157.6229154404662
 72
     1
 10
134.3263184953355
 20
157.6229154404662
 11
134.7689379037264
 21
157.6229154404662
 97
        1
330
24D
 75
     2
 76
     1
 98
        1
 10
0.0
 20
0.0
450
        0
451
        0
460
0.0
461
0.0
452
        0
462
0.0
453
        0
470

  0
ENDBLK
  5
24C
330
249
100
AcDbEntity
  8
0
100
AcDbBlockEnd
  0
ENDSEC
  0
SECTION
  2
ENTITIES
  0
INSERT
  5
7B
330
70
100
AcDbEntity
  8
Sichtbar schmal (ANSI)
100
AcDbBlockReference
  2
Block_0
 10
0.0
 20
0.0
 30
0.0
  0
LINE
  5
80
330
70
100
AcDbEntity
  8
Sichtbar schmal (ANSI)
 62
    18
420
        0
370
     5
100
AcDbLine
 10
108.974182131926
 20
122.6547350678426
 30
0.0
 11
72.59122806752876
 21
122.6547350678426
 31
0.0
  0
LINE
  5
81
330
70
100
AcDbEntity
  8
Sichtbar schmal (ANSI)
 62
    18
420
        0
370
     5
100
AcDbLine
 10
72.5847041202062
 20
159.7377350585734
 30
0.0
 11
108.974182131926
 21
159.7377350585734
 31
0.0
  0
LINE
  5
82
330
70
100
AcDbEntity
  8
Sichtbar schmal (ANSI)
 62
    18
420
        0
370
     5
100
AcDbLine
 10
109.3655102725333
 20
122.6547350678426
 30
0.0
 11
109.3655102725333
 21
159.7377350585734
 31
0.0
  0
LINE
  5
83
330
70
100
AcDbEntity
  8
Sichtbar schmal (ANSI)
 62
    18
420
        0
370
     5
100
AcDbLine
 10
109.3655102725333
 20
122.6547350678426
 30
0.0
 11
108.974182131926
 21
122.6547350678426
 31
0.0
  0
LINE
  5
84
330
70
100
AcDbEntity
  8
Sichtbar schmal (ANSI)
 62
    18
420
        0
370
     5
100
AcDbLine
 10
109.3655102725333
 20
159.7377350585734
 30
0.0
 11
108.974182131926
 21
159.7377350585734
 31
0.0
  0
LINE
  5
85
330
70
100
AcDbEntity
  8
Sichtbar schmal (ANSI)
 62
    18
420
        0
370
     5
100
AcDbLine
 10
72.28251028180406
 20
122.6547350678426
 30
0.0
 11
72.28251028180406
 21
159.7377350585734
 31
0.0
  0
INSERT
  5
87
330
70
100
AcDbEntity
  8
Sichtbar schmal (ANSI)
100
AcDbBlockReference
  2
Block_1
 10
0.0
 20
0.0
 30
0.0
  0
LINE
  5
8B
330
70
100
AcDbEntity
  8
Sichtbar schmal (ANSI)
 62
    18
420
        0
370
     5
100
AcDbLine
 10
72.28251028180406
 20
159.7377350585734
 30
0.0
 11
72.5847041202062
 21
159.7377350585734
 31
0.0
  0
LINE
  5
8C
330
70
100
AcDbEntity
  8
Sichtbar schmal (ANSI)
 62
    18
420
        0
370
     5
100
AcDbLine
 10
72.28251028180406
 20
122.6547350678426
 30
0.0
 11
72.59122806752876
 21
122.6547350678426
 31
0.0
  0
LINE
  5
8D
330
70
100
AcDbEntity
  8
Sichtbar schmal (ANSI)
 62
    18
420
        0
370
     5
100
AcDbLine
 10
96.81505776310816
 20
123.0274285350864
 30
0.0
 11
96.81505776310816
 21
130.1458737594396
 31
0.0
  0
LINE
  5
8E
330
70
100
AcDbEntity
  8
Sichtbar schmal (ANSI)
 62
    18
420
        0
370
     5
100
AcDbLine
 10
108.2474298708018
 20
142.7335956155893
 30
0.0
 11
108.2474298708018
 21
139.6588745108306
 31
0.0
  0
LINE
  5
8F
330
70
100
AcDbEntity
  8
Sichtbar schmal (ANSI)
 62
    18
420
        0
370
     5
100
AcDbLine
 10
73.40059068353491
 20
142.7335956155893
 30
0.0
 11
73.40059068353491
 21
139.6588745108306
 31
0.0
  0
LINE
  5
90
330
70
100
AcDbEntity
  8
Sichtbar schmal (ANSI)
 62
    18
420
        0
370
     5
100
AcDbLine
 10
84.83296279122951
 20
123.0274285350864
 30
0.0
 11
84.83296279122951
 21
130.1458737594396
 31
0.0
  0
LINE
  5
91
330
70
100
AcDbEntity
  8
Sichtbar schmal (ANSI)
 62
    18
420
        0
370
     5
100
AcDbLine
 10
95.70629469805901
 20
130.1458737594396
 30
0.0
 11
84.83296279122951
 21
130.1458737594396
 31
0.0
  0
LINE
  5
92
330
70
100
AcDbEntity
  8
Sichtbar schmal (ANSI)
 62
    18
420
        0
370
     5
100
AcDbLine
 10
85.94172585627736
 20
130.5558365734064
 30
0.0
 11
85.94172585627736
 21
130.1458737594396
 31
0.0
  0
LINE
  5
93
330
70
100
AcDbEntity
  8
Sichtbar schmal (ANSI)
 62
    18
420
        0
370
     5
100
AcDbLine
 10
88.25242535318725
 20
130.5558365734064
 30
0.0
 11
85.94172585627736
 21
130.5558365734064
 31
0.0
  0
LINE
  5
94
330
70
100
AcDbEntity
  8
Sichtbar schmal (ANSI)
 62
    18
420
        0
370
     5
100
AcDbLine
 10
88.25242535318725
 20
130.1458737594396
 30
0.0
 11
88.25242535318725
 21
130.5558365734064
 31
0.0
  0
LINE
  5
95
330
70
100
AcDbEntity
  8
Sichtbar schmal (ANSI)
 62
    18
420
        0
370
     5
100
AcDbLine
 10
93.39559520114946
 20
130.1458737594396
 30
0.0
 11
93.06017108062988
 21
130.1458737594396
 31
0.0
  0
LINE
  5
96
330
70
100
AcDbEntity
  8
Sichtbar schmal (ANSI)
 62
    18
420
        0
370
     5
100
AcDbLine
 10
88.58784947370649
 20
130.1458737594396
 30
0.0
 11
88.25242535318725
 21
130.1458737594396
 31
0.0
  0
LINE
  5
97
330
70
100
AcDbEntity
  8
Sichtbar schmal (ANSI)
 62
    18
420
        0
370
     5
100
AcDbLine
 10
93.39559520114946
 20
130.5558365734064
 30
0.0
 11
93.39559520114946
 21
130.1458737594396
 31
0.0
  0
LINE
  5
98
330
70
100
AcDbEntity
  8
Sichtbar schmal (ANSI)
 62
    18
420
        0
370
     5
100
AcDbLine
 10
95.70629469805901
 20
130.5558365734064
 30
0.0
 11
93.39559520114946
 21
130.5558365734064
 31
0.0
  0
LINE
  5
99
330
70
100
AcDbEntity
  8
Sichtbar schmal (ANSI)
 62
    18
420
        0
370
     5
100
AcDbLine
 10
95.70629469805901
 20
130.1458737594396
 30
0.0
 11
95.70629469805901
 21
130.5558365734064
 31
0.0
  0
LINE
  5
9A
330
70
100
AcDbEntity
  8
Sichtbar schmal (ANSI)
 62
    18
420
        0
370
     5
100
AcDbLine
 10
96.81505776310816
 20
130.1458737594396
 30
0.0
 11
95.70629469805901
 21
130.1458737594396
 31
0.0
  0
LINE
  5
9B
330
70
100
AcDbEntity
  8
Sichtbar schmal (ANSI)
 62
    18
420
        0
370
     5
100
AcDbLine
 10
88.58784947370649
 20
130.4440285332349
 30
0.0
 11
88.58784947370649
 21
130.1458737594396
 31
0.0
  0
SPLINE
  5
9C
330
70
100
AcDbEntity
  8
Sichtbar schmal (ANSI)
 62
    18
420
        0
370
     5
100
AcDbSpline
210
0.0
220
0.0
230
1.0
 70
     8
 71
     3
 72
     8
 73
     4
 74
     0
 42
0.0000000001
 43
0.0000000001
 40
0.0
 40
0.0
 40
0.0
 40
0.0
 40
1.0
 40
1.0
 40
1.0
 40
1.0
 10
88.62511882043108
 20
130.4812978799592
 30
0.0
 10
88.60453552859913
 20
130.4812978799592
 30
0.0
 10
88.58784947370649
 20
130.4646118250665
 30
0.0
 10
88.58784947370649
 20
130.4440285332349
 30
0.0
  0
LINE
  5
9D
330
70
100
AcDbEntity
  8
Sichtbar schmal (ANSI)
 62
    18
420
        0
370
     5
100
AcDbLine
 10
88.62511882043108
 20
130.4812978799592
 30
0.0
 11
93.02290173390627
 21
130.4812978799592
 31
0.0
  0
SPLINE
  5
9E
330
70
100
AcDbEntity
  8
Sichtbar schmal (ANSI)
 62
    18
420
        0
370
     5
100
AcDbSpline
210
0.0
220
0.0
230
1.0
 70
     8
 71
     3
 72
     8
 73
     4
 74
     0
 42
0.0000000001
 43
0.0000000001
 40
0.0
 40
0.0
 40
0.0
 40
0.0
 40
1.0
 40
1.0
 40
1.0
 40
1.0
 10
93.06017108062988
 20
130.4440285332349
 30
0.0
 10
93.06017108062988
 20
130.4646118250665
 30
0.0
 10
93.04348502573727
 20
130.4812978799592
 30
0.0
 10
93.02290173390627
 20
130.4812978799592
 30
0.0
  0
LINE
  5
9F
330
70
100
AcDbEntity
  8
Sichtbar schmal (ANSI)
 62
    18
420
        0
370
     5
100
AcDbLine
 10
93.06017108062988
 20
130.4440285332349
 30
0.0
 11
93.06017108062988
 21
130.1458737594396
 31
0.0
  0
LINE
  5
A0
330
70
100
AcDbEntity
  8
Sichtbar schmal (ANSI)
 62
    18
420
        0
370
     5
100
AcDbLine
 10
97.15979922030623
 20
129.1366727767821
 30
0.0
 11
97.15979922030623
 21
129.1180388129594
 31
0.0
  0
LINE
  5
A1
330
70
100
AcDbEntity
  8
Sichtbar schmal (ANSI)
 62
    18
420
        0
370
     5
100
AcDbLine
 10
97.15979922030623
 20
123.7728154695741
 30
0.0
 11
97.15979922030623
 21
129.1180388129594
 31
0.0
  0
SPLINE
  5
A2
330
70
100
AcDbEntity
  8
Sichtbar schmal (ANSI)
 62
    18
420
        0
370
     5
100
AcDbSpline
210
0.0
220
0.0
230
1.0
 70
     8
 71
     3
 72
     8
 73
     4
 74
     0
 42
0.0000000001
 43
0.0000000001
 40
0.0
 40
0.0
 40
0.0
 40
0.0
 40
1.0
 40
1.0
 40
1.0
 40
1.0
 10
97.15979922030623
 20
129.1366727767731
 30
0.0
 10
97.15979922030623
 20
129.1571291703596
 30
0.0
 10
97.14331072053099
 20
129.1737621909481
 30
0.0
 10
97.12285510586184
 20
129.1739407043928
 30
0.0
  0
LINE
  5
A3
330
70
100
AcDbEntity
  8
Sichtbar schmal (ANSI)
 62
    18
420
        0
370
     5
100
AcDbLine
 10
97.12285510586184
 20
129.1739407043928
 30
0.0
 11
96.81505776310816
 21
129.17662681111
 31
0.0
  0
LINE
  5
A4
330
70
100
AcDbEntity
  8
Sichtbar schmal (ANSI)
 62
    18
420
        0
370
     5
100
AcDbLine
 10
84.48822133403016
 20
123.7728154695741
 30
0.0
 11
84.48822133403016
 21
129.1180388129594
 31
0.0
  0
LINE
  5
A5
330
70
100
AcDbEntity
  8
Sichtbar schmal (ANSI)
 62
    18
420
        0
370
     5
100
AcDbLine
 10
84.48822133403016
 20
129.1366727767821
 30
0.0
 11
84.48822133403016
 21
129.1180388129594
 31
0.0
  0
LINE
  5
A6
330
70
100
AcDbEntity
  8
Sichtbar schmal (ANSI)
 62
    18
420
        0
370
     5
100
AcDbLine
 10
84.52516544847453
 20
129.1739407043928
 30
0.0
 11
84.83296279122951
 21
129.17662681111
 31
0.0
  0
SPLINE
  5
A7
330
70
100
AcDbEntity
  8
Sichtbar schmal (ANSI)
 62
    18
420
        0
370
     5
100
AcDbSpline
210
0.0
220
0.0
230
1.0
 70
     8
 71
     3
 72
     8
 73
     4
 74
     0
 42
0.0000000001
 43
0.0000000001
 40
0.0
 40
0.0
 40
0.0
 40
0.0
 40
1.0
 40
1.0
 40
1.0
 40
1.0
 10
84.52516544847453
 20
129.1739407043928
 30
0.0
 10
84.50470983380606
 20
129.1737621909481
 30
0.0
 10
84.48822133403016
 20
129.1571291703596
 30
0.0
 10
84.48822133403016
 20
129.1366727767731
 30
0.0
  0
CIRCLE
  5
A8
330
70
100
AcDbEntity
  8
Sichtbar schmal (ANSI)
 62
    18
420
        0
370
     5
100
AcDbCircle
 10
94.55094494960407
 20
131.0403380808243
 30
0.0
 40
0.2702027637517279
  0
CIRCLE
  5
A9
330
70
100
AcDbEntity
  8
Sichtbar schmal (ANSI)
 62
    18
420
        0
370
     5
100
AcDbCircle
 10
87.09707560473264
 20
131.0403380808243
 30
0.0
 40
0.270202763751407
  0
LINE
  5
AA
330
70
100
AcDbEntity
  8
Sichtbar schmal (ANSI)
 62
    18
420
        0
370
     5
100
AcDbLine
 10
97.15979922030623
 20
123.7728154695741
 30
0.0
 11
108.2474298708018
 21
123.7728154695741
 31
0.0
  0
LINE
  5
AB
330
70
100
AcDbEntity
  8
Sichtbar schmal (ANSI)
 62
    18
420
        0
370
     5
100
AcDbLine
 10
108.2474298708018
 20
123.7728154695741
 30
0.0
 11
108.2474298708018
 21
139.6588745108306
 31
0.0
  0
LINE
  5
AC
330
70
100
AcDbEntity
  8
Sichtbar schmal (ANSI)
 62
    18
420
        0
370
     5
100
AcDbLine
 10
108.2474298708018
 20
142.7335956155893
 30
0.0
 11
108.2474298708018
 21
158.6196546568429
 31
0.0
  0
LINE
  5
AD
330
70
100
AcDbEntity
  8
Sichtbar schmal (ANSI)
 62
    18
420
        0
370
     5
100
AcDbLine
 10
108.2474298708018
 20
158.6196546568429
 30
0.0
 11
73.40059068353491
 21
158.6196546568429
 31
0.0
  0
LINE
  5
AE
330
70
100
AcDbEntity
  8
Sichtbar schmal (ANSI)
 62
    18
420
        0
370
     5
100
AcDbLine
 10
73.40059068353491
 20
142.7335956155893
 30
0.0
 11
73.40059068353491
 21
158.6196546568429
 31
0.0
  0
LINE
  5
AF
330
70
100
AcDbEntity
  8
Sichtbar schmal (ANSI)
 62
    18
420
        0
370
     5
100
AcDbLine
 10
73.40059068353491
 20
123.7728154695741
 30
0.0
 11
73.40059068353491
 21
139.6588745108306
 31
0.0
  0
LINE
  5
B0
330
70
100
AcDbEntity
  8
Sichtbar schmal (ANSI)
 62
    18
420
        0
370
     5
100
AcDbLine
 10
73.40059068353491
 20
123.7728154695741
 30
0.0
 11
84.48822133403016
 21
123.7728154695741
 31
0.0
  0
SPLINE
  5
B1
330
70
100
AcDbEntity
  8
Sichtbar schmal (ANSI)
 62
    18
420
        0
370
     5
100
AcDbSpline
210
0.0
220
0.0
230
1.0
 70
     8
 71
     3
 72
    11
 73
     7
 74
     0
 42
0.0000000001
 43
0.0000000001
 40
0.0
 40
0.0
 40
0.0
 40
0.0
 40
1.0
 40
1.0
 40
1.0
 40
2.0
 40
2.0
 40
2.0
 40
2.0
 10
85.25687399982917
 20
129.7871725549997
 30
0.0
 10
85.21571689251038
 20
129.7871757614749
 30
0.0
 10
85.18234986545797
 20
129.7538139331418
 30
0.0
 10
85.18234665898638
 20
129.7126568258217
 30
0.0
 10
85.18234665868607
 20
129.7126529552663
 30
0.0
 10
85.18234665868607
 20
129.7126490847123
 30
0.0
 10
85.18234665898638
 20
129.7126452141595
 30
0.0
  0
LINE
  5
B2
330
70
100
AcDbEntity
  8
Sichtbar schmal (ANSI)
 62
    18
420
        0
370
     5
100
AcDbLine
 10
85.18234665898638
 20
123.0274285350864
 30
0.0
 11
85.18234665898638
 21
129.7126452141595
 31
0.0
  0
LINE
  5
B3
330
70
100
AcDbEntity
  8
Sichtbar schmal (ANSI)
 62
    18
420
        0
370
     5
100
AcDbLine
 10
85.25687399982917
 20
129.7871725549997
 30
0.0
 11
96.39114655450722
 21
129.7871725549997
 31
0.0
  0
SPLINE
  5
B4
330
70
100
AcDbEntity
  8
Sichtbar schmal (ANSI)
 62
    18
420
        0
370
     5
100
AcDbSpline
210
0.0
220
0.0
230
1.0
 70
     8
 71
     3
 72
    11
 73
     7
 74
     0
 42
0.0000000001
 43
0.0000000001
 40
0.0
 40
0.0
 40
0.0
 40
0.0
 40
1.0
 40
1.0
 40
1.0
 40
2.0
 40
2.0
 40
2.0
 40
2.0
 10
96.46567389535
 20
129.7126452141595
 30
0.0
 10
96.46567710182193
 20
129.7538023214796
 30
0.0
 10
96.4323152734882
 20
129.7871693485284
 30
0.0
 10
96.39115816616877
 20
129.7871725549997
 30
0.0
 10
96.39115429561407
 20
129.7871725553039
 30
0.0
 10
96.39115042505935
 20
129.7871725553039
 30
0.0
 10
96.39114655450722
 20
129.7871725549997
 30
0.0
  0
LINE
  5
B5
330
70
100
AcDbEntity
  8
Sichtbar schmal (ANSI)
 62
    18
420
        0
370
     5
100
AcDbLine
 10
96.46567389535
 20
123.0274285350864
 30
0.0
 11
96.46567389535
 21
129.7126452141595
 31
0.0
  0
LINE
  5
B6
330
70
100
AcDbEntity
  8
Sichtbar schmal (ANSI)
 62
    18
420
        0
370
     5
100
AcDbLine
 10
93.43693436350447
 20
123.9364605524097
 30
0.0
 11
88.21108619083256
 21
123.9364605524097
 31
0.0
  0
SPLINE
  5
B7
330
70
100
AcDbEntity
  8
Sichtbar schmal (ANSI)
 62
    18
420
        0
370
     5
100
AcDbSpline
210
0.0
220
0.0
230
1.0
 70
     8
 71
     3
 72
    11
 73
     7
 74
     0
 42
0.0000000001
 43
0.0000000001
 40
0.0
 40
0.0
 40
0.0
 40
0.0
 40
1.0
 40
1.0
 40
1.0
 40
2.0
 40
2.0
 40
2.0
 40
2.0
 10
88.13655033559067
 20
124.0109964076542
 30
0.0
 10
88.1365496863844
 20
123.9698320406928
 30
0.0
 10
88.16991947288736
 20
123.9364612016154
 30
0.0
 10
88.21108383984782
 20
123.9364605524097
 30
0.0
 10
88.21108383984782
 20
123.9364605524097
 30
0.0
 10
88.21108619083256
 20
123.9364605524097
 30
0.0
 10
88.21108619083256
 20
123.9364605524097
 30
0.0
  0
LINE
  5
B8
330
70
100
AcDbEntity
  8
Sichtbar schmal (ANSI)
 62
    18
420
        0
370
     5
100
AcDbLine
 10
88.13655033559067
 20
127.8974985682
 30
0.0
 11
88.13655033559067
 21
124.0109964076542
 31
0.0
  0
LINE
  5
B9
330
70
100
AcDbEntity
  8
Sichtbar schmal (ANSI)
 62
    18
420
        0
370
     5
100
AcDbLine
 10
88.13655033559067
 20
127.8974985682
 30
0.0
 11
93.51147021874604
 21
127.8974985682
 31
0.0
  0
LINE
  5
BA
330
70
100
AcDbEntity
  8
Sichtbar schmal (ANSI)
 62
    18
420
        0
370
     5
100
AcDbLine
 10
93.51147021874604
 20
127.8974985682
 30
0.0
 11
93.51147021874604
 21
124.0109964076542
 31
0.0
  0
SPLINE
  5
BB
330
70
100
AcDbEntity
  8
Sichtbar schmal (ANSI)
 62
    18
420
        0
370
     5
100
AcDbSpline
210
0.0
220
0.0
230
1.0
 70
     8
 71
     3
 72
    11
 73
     7
 74
     0
 42
0.0000000001
 43
0.0000000001
 40
0.0
 40
0.0
 40
0.0
 40
0.0
 40
1.0
 40
1.0
 40
1.0
 40
2.0
 40
2.0
 40
2.0
 40
2.0
 10
93.43693436350447
 20
123.9364605524097
 30
0.0
 10
93.47809873046461
 20
123.9364599032028
 30
0.0
 10
93.51146956953945
 20
123.969829689709
 30
0.0
 10
93.51147021874604
 20
124.0109940566678
 30
0.0
 10
93.51147021874604
 20
124.0109940566678
 30
0.0
 10
93.51147021875791
 20
124.0109956239921
 30
0.0
 10
93.51147021875791
 20
124.0109956239921
 30
0.0
  0
INSERT
  5
BD
330
70
100
AcDbEntity
  8
Sichtbar schmal (ANSI)
100
AcDbBlockReference
  2
Block_2
 10
0.0
 20
0.0
 30
0.0
  0
INSERT
  5
127
330
70
100
AcDbEntity
  8
Sichtbar schmal (ANSI)
100
AcDbBlockReference
  2
Block_3
 10
0.0
 20
0.0
 30
0.0
  0
LINE
  5
134
330
70
100
AcDbEntity
  8
Sichtbar schmal (ANSI)
 62
    18
420
        0
370
     5
100
AcDbLine
 10
96.81505776310816
 20
123.0274285350864
 30
0.0
 11
96.81505776310816
 21
110.6548550708424
 31
0.0
  0
LINE
  5
135
330
70
100
AcDbEntity
  8
Sichtbar schmal (ANSI)
 62
    18
420
        0
370
     5
100
AcDbLine
 10
84.83296279122951
 20
123.0274285350864
 30
0.0
 11
84.83296279122951
 21
110.6548550708424
 31
0.0
  0
INSERT
  5
137
330
70
100
AcDbEntity
  8
Sichtbar schmal (ANSI)
100
AcDbBlockReference
  2
Block_5
 10
0.0
 20
0.0
 30
0.0
  0
LINE
  5
14B
330
70
100
AcDbEntity
  8
Sichtbar schmal (ANSI)
 62
    18
420
        0
370
     5
100
AcDbLine
 10
109.1133633338189
 20
183.9522648710003
 30
0.0
 11
136.9775174110891
 21
183.9522648710003
 31
0.0
  0
LINE
  5
14C
330
70
100
AcDbEntity
  8
Sichtbar schmal (ANSI)
 62
    18
420
        0
370
     5
100
AcDbLine
 10
103.6354011195193
 20
166.908237626139
 30
0.0
 11
136.9775174110891
 21
166.908237626139
 31
0.0
  0
INSERT
  5
14E
330
70
100
AcDbEntity
  8
Sichtbar schmal (ANSI)
100
AcDbBlockReference
  2
Block_9
 10
0.0
 20
0.0
 30
0.0
  0
INSERT
  5
15A
330
70
100
AcDbEntity
  8
Sichtbar schmal (ANSI)
100
AcDbBlockReference
  2
Block_11
 10
0.0
 20
0.0
 30
0.0
  0
INSERT
  5
16F
330
70
100
AcDbEntity
  8
Sichtbar schmal (ANSI)
100
AcDbBlockReference
  2
Block_15
 10
0.0
 20
0.0
 30
0.0
  0
LINE
  5
17A
330
70
100
AcDbEntity
  8
Sichtbar schmal (ANSI)
  6
AI-Linetype-0
 62
    18
420
        0
370
     5
100
AcDbLine
 10
107.6989127637106
 20
181.9522648715004
 30
0.0
 11
126.8937215274146
 21
181.9522648715004
 31
0.0
  0
LINE
  5
17C
330
70
100
AcDbEntity
  8
Sichtbar schmal (ANSI)
  6
AI-Linetype-1
 62
    18
420
        0
370
     5
100
AcDbLine
 10
124.8937215279138
 20
181.9522648715004
 30
0.0
 11
124.8937215279138
 21
183.9522648710003
 31
0.0
  0
INSERT
  5
17F
330
70
100
AcDbEntity
  8
Sichtbar schmal (ANSI)
100
AcDbBlockReference
  2
Block_17
 10
0.0
 20
0.0
 30
0.0
  0
INSERT
  5
18E
330
70
100
AcDbEntity
  8
Sichtbar schmal (ANSI)
100
AcDbBlockReference
  2
Block_20
 10
0.0
 20
0.0
 30
0.0
  0
INSERT
  5
199
330
70
100
AcDbEntity
  8
Sichtbar schmal (ANSI)
100
AcDbBlockReference
  2
Block_21
 10
0.0
 20
0.0
 30
0.0
  0
INSERT
  5
19E
330
70
100
AcDbEntity
  8
Sichtbar schmal (ANSI)
100
AcDbBlockReference
  2
Block_22
 10
0.0
 20
0.0
 30
0.0
  0
INSERT
  5
1AA
330
70
100
AcDbEntity
  8
Sichtbar schmal (ANSI)
100
AcDbBlockReference
  2
Block_24
 10
0.0
 20
0.0
 30
0.0
  0
LINE
  5
1B6
330
70
100
AcDbEntity
  8
Sichtbar schmal (ANSI)
 62
    18
420
        0
370
     5
100
AcDbLine
 10
102.924802655894
 20
172.7986363782816
 30
0.0
 11
126.8937215274146
 21
172.7986363782816
 31
0.0
  0
LINE
  5
1B7
330
70
100
AcDbEntity
  8
Sichtbar schmal (ANSI)
 62
    18
420
        0
370
     5
100
AcDbLine
 10
97.89751548513944
 20
171.8973363410015
 30
0.0
 11
121.420634283922
 21
171.8973363410015
 31
0.0
  0
LINE
  5
1B8
330
70
100
AcDbEntity
  8
Sichtbar schmal (ANSI)
 62
    18
420
        0
370
     5
100
AcDbLine
 10
97.89751548513944
 20
168.2250494867139
 30
0.0
 11
126.8937215274146
 21
168.2250494867139
 31
0.0
  0
INSERT
  5
1BA
330
70
100
AcDbEntity
  8
Sichtbar schmal (ANSI)
100
AcDbBlockReference
  2
Block_26
 10
0.0
 20
0.0
 30
0.0
  0
LINE
  5
1CE
330
70
100
AcDbEntity
  8
Sichtbar schmal (ANSI)
 62
    18
420
        0
370
     5
100
AcDbLine
 10
119.4206342844224
 20
168.2281931336471
 30
0.0
 11
119.4206342844224
 21
171.9080252402462
 31
0.0
  0
INSERT
  5
1D0
330
70
100
AcDbEntity
  8
Sichtbar schmal (ANSI)
100
AcDbBlockReference
  2
Block_30
 10
0.0
 20
0.0
 30
0.0
  0
LWPOLYLINE
  5
1DE
330
70
100
AcDbEntity
  8
Sichtbar schmal (ANSI)
 62
    18
420
        0
370
     5
100
AcDbPolyline
 90
        1
 70
     0
 43
0.0
 10
119.4206342844224
 20
171.8973363410015
  0
LWPOLYLINE
  5
1DF
330
70
100
AcDbEntity
  8
Sichtbar schmal (ANSI)
 62
    18
420
        0
370
     5
100
AcDbPolyline
 90
        1
 70
     0
 43
0.0
 10
121.420634283922
 20
171.8973363410015
  0
LINE
  5
1E0
330
70
100
AcDbEntity
  8
Sichtbar schmal (ANSI)
 62
    18
420
        0
370
     5
100
AcDbLine
 10
107.8803359702318
 20
158.6196564207317
 30
0.0
 11
130.9656888270372
 21
158.6196528929541
 31
0.0
  0
LINE
  5
1E1
330
70
100
AcDbEntity
  8
Sichtbar schmal (ANSI)
 62
    18
420
        0
370
     5
100
AcDbLine
 10
107.8803359702318
 20
123.7728172334629
 30
0.0
 11
130.9656888270372
 21
123.7728137056852
 31
0.0
  0
LINE
  5
1E2
330
70
100
AcDbEntity
  8
Sichtbar schmal (ANSI)
 62
    18
420
        0
370
     5
100
AcDbLine
 10
136.5476302321345
 20
159.3650415913305
 30
0.0
 11
108.965688832537
 21
159.3650415913305
 31
0.0
  0
LINE
  5
1E3
330
70
100
AcDbEntity
  8
Sichtbar schmal (ANSI)
 62
    18
420
        0
370
     5
100
AcDbLine
 10
136.5476302321345
 20
123.0274285350864
 30
0.0
 11
108.965688832537
 21
123.0274285350864
 31
0.0
  0
LINE
  5
1E4
330
70
100
AcDbEntity
  8
Sichtbar schmal (ANSI)
 62
    18
420
        0
370
     5
100
AcDbLine
 10
121.3274731169715
 20
130.1458737594396
 30
0.0
 11
95.70629469805934
 21
130.1458737594396
 31
0.0
  0
INSERT
  5
1E6
330
70
100
AcDbEntity
  8
Sichtbar schmal (ANSI)
100
AcDbBlockReference
  2
Block_33
 10
0.0
 20
0.0
 30
0.0
  0
INSERT
  5
1FB
330
70
100
AcDbEntity
  8
Sichtbar schmal (ANSI)
100
AcDbBlockReference
  2
Block_37
 10
0.0
 20
0.0
 30
0.0
  0
INSERT
  5
20B
330
70
100
AcDbEntity
  8
Sichtbar schmal (ANSI)
100
AcDbBlockReference
  2
Block_38
 10
0.0
 20
0.0
 30
0.0
  0
INSERT
  5
217
330
70
100
AcDbEntity
  8
Sichtbar schmal (ANSI)
100
AcDbBlockReference
  2
Block_40
 10
0.0
 20
0.0
 30
0.0
  0
INSERT
  5
226
330
70
100
AcDbEntity
  8
Sichtbar schmal (ANSI)
100
AcDbBlockReference
  2
Block_41
 10
0.0
 20
0.0
 30
0.0
  0
INSERT
  5
23B
330
70
100
AcDbEntity
  8
Sichtbar schmal (ANSI)
100
AcDbBlockReference
  2
Block_45
 10
0.0
 20
0.0
 30
0.0
  0
ENDSEC
  0
SECTION
  2
OBJECTS
  0
DICTIONARY
  5
C
330
0
100
AcDbDictionary
281
     1
  3
ACAD_COLOR
350
63
  3
ACAD_DETAILVIEWSTYLE
350
6A
  3
ACAD_GROUP
350
D
  3
ACAD_LAYOUT
350
62
  3
ACAD_MATERIAL
350
10
  3
ACAD_MLEADERSTYLE
350
66
  3
ACAD_MLINESTYLE
350
5F
  3
ACAD_PLOTSETTINGS
350
61
  3
ACAD_PLOTSTYLENAME
350
E
  3
ACAD_SCALELIST
350
42
  3
ACAD_SECTIONVIEWSTYLE
350
68
  3
ACAD_TABLESTYLE
350
64
  3
ACAD_VISUALSTYLE
350
29
  3
ACDB_RECOMPOSE_DATA
350
257
  3
AcDbVariableDictionary
350
24F
  0
DICTIONARY
  5
63
102
{ACAD_REACTORS
330
C
102
}
330
C
100
AcDbDictionary
281
     1
  0
DICTIONARY
  5
6A
102
{ACAD_REACTORS
330
C
102
}
330
C
100
AcDbDictionary
281
     1
  3
Imperial24
350
6B
  0
DICTIONARY
  5
D
102
{ACAD_REACTORS
330
C
102
}
330
C
100
AcDbDictionary
281
     1
  0
DICTIONARY
  5
62
102
{ACAD_REACTORS
330
C
102
}
330
C
100
AcDbDictionary
281
     1
  3
Layout1
350
6F
  3
Layout2
350
77
  3
Model
350
73
  0
DICTIONARY
  5
10
102
{ACAD_REACTORS
330
C
102
}
330
C
100
AcDbDictionary
281
     1
  3
ByBlock
350
19
  3
ByLayer
350
11
  3
Global
350
21
  0
DICTIONARY
  5
66
102
{ACAD_REACTORS
330
C
102
}
330
C
100
AcDbDictionary
281
     1
  3
Standard
350
67
  0
DICTIONARY
  5
5F
102
{ACAD_REACTORS
330
C
102
}
330
C
100
AcDbDictionary
281
     1
  3
Standard
350
60
  0
DICTIONARY
  5
61
102
{ACAD_REACTORS
330
C
102
}
330
C
100
AcDbDictionary
281
     1
  0
ACDBDICTIONARYWDFLT
  5
E
102
{ACAD_REACTORS
330
C
102
}
330
C
100
AcDbDictionary
281
     1
  3
Normal
350
F
100
AcDbDictionaryWithDefault
340
F
  0
DICTIONARY
  5
42
102
{ACAD_REACTORS
330
C
102
}
330
C
100
AcDbDictionary
281
     1
  3
A0
350
43
  3
A1
350
44
  3
A2
350
45
  3
A3
350
46
  3
A4
350
47
  3
A5
350
48
  3
A6
350
49
  3
A7
350
4A
  3
A8
350
4B
  3
A9
350
4C
  3
B0
350
4D
  3
B1
350
4E
  3
B2
350
4F
  3
B3
350
50
  3
B4
350
51
  3
B5
350
52
  3
B6
350
53
  0
DICTIONARY
  5
68
102
{ACAD_REACTORS
330
C
102
}
330
C
100
AcDbDictionary
281
     1
  3
Imperial24
350
69
  0
DICTIONARY
  5
64
102
{ACAD_REACTORS
330
C
102
}
330
C
100
AcDbDictionary
281
     1
  3
Standard
350
65
  0
DICTIONARY
  5
29
102
{ACAD_REACTORS
330
C
102
}
330
C
100
AcDbDictionary
281
     1
  3
2dWireframe
350
2F
  3
Basic
350
2E
  3
Brighten
350
35
  3
ColorChange
350
39
  3
Conceptual
350
32
  3
Dim
350
34
  3
EdgeColorOff
350
41
  3
Facepattern
350
38
  3
Flat
350
2A
  3
FlatWithEdges
350
2B
  3
Gouraud
350
2C
  3
GouraudWithEdges
350
2D
  3
Hidden
350
31
  3
JitterOff
350
3F
  3
Linepattern
350
37
  3
OverhangOff
350
40
  3
Realistic
350
33
  3
Shaded
350
3E
  3
Shaded with edges
350
3D
  3
Shades of Gray
350
3A
  3
Sketchy
350
3B
  3
Thicken
350
36
  3
Wireframe
350
30
  3
X-Ray
350
3C
  0
XRECORD
  5
257
102
{ACAD_REACTORS
330
C
102
}
330
C
100
AcDbXrecord
280
     1
 90
        1
330
65
  0
DICTIONARY
  5
24F
102
{ACAD_REACTORS
330
C
102
}
330
C
100
AcDbDictionary
281
     1
  3
CANNOSCALE
350
254
  3
CMLEADERSTYLE
350
251
  3
CTABLESTYLE
350
250
  3
CVIEWDETAILSTYLE
350
252
  3
CVIEWSECTIONSTYLE
350
253
  0
ACDBDETAILVIEWSTYLE
  5
6B
102
{ACAD_REACTORS
330
6A
102
}
330
6A
100
AcDbModelDocViewStyle
 70
     0
  3
Imperial24
290
     1
300
Imperial24
 90
        0
100
AcDbDetailViewStyle
 70
     0
 71
     0
 90
        3
 71
     1
340
55
 62
   256
 40
0.24
340
0
 62
   256
 40
0.24
300

 40
0.36
280
     3
 71
     2
340
5D
 90
       25
 62
   256
 71
     3
340
55
 62
   256
 40
0.24
 90
        1
 40
0.75
 90
        1
300
%<\AcVar ViewType \f "%tc1">% %<\AcVar ViewDetailId>%\PSCALE %<\AcVar ViewScale \f "%sn">%
 71
     4
340
5D
 90
       25
 62
   256
340
5D
 90
       25
 62
   256
280
     0
  0
LAYOUT
  5
6F
102
{ACAD_REACTORS
330
62
102
}
330
62
100
AcDbPlotSettings
  1

  2

  4

  6

 40
0.0
 41
0.0
 42
0.0
 43
0.0
 44
0.0
 45
0.0
 46
0.0
 47
0.0
 48
0.0
 49
0.0
140
0.0
141
0.0
142
1.0
143
1.0
 70
   688
 72
     0
 73
     0
 74
     5
  7

 75
    16
147
1.0
 76
     0
 77
     2
 78
   300
148
0.0
149
0.0
100
AcDbLayout
  1
Layout1
 70
     1
 71
     1
 10
0.0
 20
0.0
 11
12.0
 21
9.0
 12
0.0
 22
0.0
 32
0.0
 14
0.0
 24
0.0
 34
0.0
 15
0.0
 25
0.0
 35
0.0
146
0.0
 13
0.0
 23
0.0
 33
0.0
 16
1.0
 26
0.0
 36
0.0
 17
0.0
 27
1.0
 37
0.0
 76
     0
330
6C
  0
LAYOUT
  5
77
102
{ACAD_REACTORS
330
62
102
}
330
62
100
AcDbPlotSettings
  1

  2

  4

  6

 40
0.0
 41
0.0
 42
0.0
 43
0.0
 44
0.0
 45
0.0
 46
0.0
 47
0.0
 48
0.0
 49
0.0
140
0.0
141
0.0
142
1.0
143
1.0
 70
   688
 72
     0
 73
     0
 74
     5
  7

 75
    16
147
1.0
 76
     0
 77
     2
 78
   300
148
0.0
149
0.0
100
AcDbLayout
  1
Layout2
 70
     1
 71
     2
 10
0.0
 20
0.0
 11
12.0
 21
9.0
 12
0.0
 22
0.0
 32
0.0
 14
0.0
 24
0.0
 34
0.0
 15
0.0
 25
0.0
 35
0.0
146
0.0
 13
0.0
 23
0.0
 33
0.0
 16
1.0
 26
0.0
 36
0.0
 17
0.0
 27
1.0
 37
0.0
 76
     0
330
74
  0
LAYOUT
  5
73
102
{ACAD_REACTORS
330
62
102
}
330
62
100
AcDbPlotSettings
  1

  2

  4

  6

 40
0.0
 41
0.0
 42
0.0
 43
0.0
 44
0.0
 45
0.0
 46
0.0
 47
0.0
 48
0.0
 49
0.0
140
0.0
141
0.0
142
1.0
143
1.0
 70
  1712
 72
     0
 73
     0
 74
     0
  7

 75
     0
147
1.0
 76
     0
 77
     2
 78
   300
148
0.0
149
0.0
100
AcDbLayout
  1
Model
 70
     1
 71
     0
 10
0.0
 20
0.0
 11
12.0
 21
9.0
 12
0.0
 22
0.0
 32
0.0
 14
0.0
 24
0.0
 34
0.0
 15
0.0
 25
0.0
 35
0.0
146
0.0
 13
0.0
 23
0.0
 33
0.0
 16
1.0
 26
0.0
 36
0.0
 17
0.0
 27
1.0
 37
0.0
 76
     0
330
70
  0
MATERIAL
  5
19
102
{ACAD_XDICTIONARY
360
1A
102
}
102
{ACAD_REACTORS
330
10
102
}
330
10
100
AcDbMaterial
  1
ByBlock
 72
     0
 43
0.0208333333333333
 43
0.0
 43
0.0
 43
0.0
 43
0.0
 43
0.0208333333333333
 43
0.0
 43
0.0
 43
0.0
 43
0.0
 43
1.0
 43
0.0
 43
0.0
 43
0.0
 43
0.0
 43
1.0
 77
     0
 47
0.0208333333333333
 47
0.0
 47
0.0
 47
0.0
 47
0.0
 47
0.0208333333333333
 47
0.0
 47
0.0
 47
0.0
 47
0.0
 47
1.0
 47
0.0
 47
0.0
 47
0.0
 47
0.0
 47
1.0
171
     0
 49
0.0208333333333333
 49
0.0
 49
0.0
 49
0.0
 49
0.0
 49
0.0208333333333333
 49
0.0
 49
0.0
 49
0.0
 49
0.0
 49
1.0
 49
0.0
 49
0.0
 49
0.0
 49
0.0
 49
1.0
175
     0
142
0.0208333333333333
142
0.0
142
0.0
142
0.0
142
0.0
142
0.0208333333333333
142
0.0
142
0.0
142
0.0
142
0.0
142
1.0
142
0.0
142
0.0
142
0.0
142
0.0
142
1.0
179
     0
144
0.0208333333333333
144
0.0
144
0.0
144
0.0
144
0.0
144
0.0208333333333333
144
0.0
144
0.0
144
0.0
144
0.0
144
1.0
144
0.0
144
0.0
144
0.0
144
0.0
144
1.0
147
0.0208333333333333
147
0.0
147
0.0
147
0.0
147
0.0
147
0.0208333333333333
147
0.0
147
0.0
147
0.0
147
0.0
147
1.0
147
0.0
147
0.0
147
0.0
147
0.0
147
1.0
  0
MATERIAL
  5
11
102
{ACAD_XDICTIONARY
360
12
102
}
102
{ACAD_REACTORS
330
10
102
}
330
10
100
AcDbMaterial
  1
ByLayer
 72
     0
 43
0.0208333333333333
 43
0.0
 43
0.0
 43
0.0
 43
0.0
 43
0.0208333333333333
 43
0.0
 43
0.0
 43
0.0
 43
0.0
 43
1.0
 43
0.0
 43
0.0
 43
0.0
 43
0.0
 43
1.0
 77
     0
 47
0.0208333333333333
 47
0.0
 47
0.0
 47
0.0
 47
0.0
 47
0.0208333333333333
 47
0.0
 47
0.0
 47
0.0
 47
0.0
 47
1.0
 47
0.0
 47
0.0
 47
0.0
 47
0.0
 47
1.0
171
     0
 49
0.0208333333333333
 49
0.0
 49
0.0
 49
0.0
 49
0.0
 49
0.0208333333333333
 49
0.0
 49
0.0
 49
0.0
 49
0.0
 49
1.0
 49
0.0
 49
0.0
 49
0.0
 49
0.0
 49
1.0
175
     0
142
0.0208333333333333
142
0.0
142
0.0
142
0.0
142
0.0
142
0.0208333333333333
142
0.0
142
0.0
142
0.0
142
0.0
142
1.0
142
0.0
142
0.0
142
0.0
142
0.0
142
1.0
179
     0
144
0.0208333333333333
144
0.0
144
0.0
144
0.0
144
0.0
144
0.0208333333333333
144
0.0
144
0.0
144
0.0
144
0.0
144
1.0
144
0.0
144
0.0
144
0.0
144
0.0
144
1.0
147
0.0208333333333333
147
0.0
147
0.0
147
0.0
147
0.0
147
0.0208333333333333
147
0.0
147
0.0
147
0.0
147
0.0
147
1.0
147
0.0
147
0.0
147
0.0
147
0.0
147
1.0
  0
MATERIAL
  5
21
102
{ACAD_XDICTIONARY
360
22
102
}
102
{ACAD_REACTORS
330
10
102
}
330
10
100
AcDbMaterial
  1
Global
 72
     0
 43
0.0208333333333333
 43
0.0
 43
0.0
 43
0.0
 43
0.0
 43
0.0208333333333333
 43
0.0
 43
0.0
 43
0.0
 43
0.0
 43
1.0
 43
0.0
 43
0.0
 43
0.0
 43
0.0
 43
1.0
 77
     0
 47
0.0208333333333333
 47
0.0
 47
0.0
 47
0.0
 47
0.0
 47
0.0208333333333333
 47
0.0
 47
0.0
 47
0.0
 47
0.0
 47
1.0
 47
0.0
 47
0.0
 47
0.0
 47
0.0
 47
1.0
171
     0
 49
0.0208333333333333
 49
0.0
 49
0.0
 49
0.0
 49
0.0
 49
0.0208333333333333
 49
0.0
 49
0.0
 49
0.0
 49
0.0
 49
1.0
 49
0.0
 49
0.0
 49
0.0
 49
0.0
 49
1.0
175
     0
142
0.0208333333333333
142
0.0
142
0.0
142
0.0
142
0.0
142
0.0208333333333333
142
0.0
142
0.0
142
0.0
142
0.0
142
1.0
142
0.0
142
0.0
142
0.0
142
0.0
142
1.0
179
     0
144
0.0208333333333333
144
0.0
144
0.0
144
0.0
144
0.0
144
0.0208333333333333
144
0.0
144
0.0
144
0.0
144
0.0
144
1.0
144
0.0
144
0.0
144
0.0
144
0.0
144
1.0
147
0.0208333333333333
147
0.0
147
0.0
147
0.0
147
0.0
147
0.0208333333333333
147
0.0
147
0.0
147
0.0
147
0.0
147
1.0
147
0.0
147
0.0
147
0.0
147
0.0
147
1.0
  0
MLEADERSTYLE
  5
67
102
{ACAD_REACTORS
330
66
102
}
330
66
100
AcDbMLeaderStyle
179
     2
170
     2
171
     1
172
     0
 90
        2
 40
0.0
 41
0.0
173
     1
 91
-1056964608
340
5B
 92
       -2
290
     1
 42
0.09
291
     1
 43
0.36
  3
Standard
 44
0.18
300

342
55
174
     1
178
     6
175
     1
176
     0
 93
-1056964608
 45
0.18
292
     0
297
     0
 46
0.18
 94
-1056964608
 47
1.0
 49
1.0
140
1.0
293
     1
141
0.0
294
     1
177
     0
142
1.0
295
     1
296
     0
143
0.125
271
     0
272
     9
273
     9
298
     1
  0
MLINESTYLE
  5
60
102
{ACAD_REACTORS
330
5F
102
}
330
5F
100
AcDbMlineStyle
  2
STANDARD
 70
     0
  3

 62
   256
 51
90.0
 52
90.0
 71
     2
 49
0.5
 62
   256
  6
BYLAYER
 49
-0.5
 62
   256
  6
BYLAYER
  0
ACDBPLACEHOLDER
  5
F
102
{ACAD_REACTORS
330
E
102
}
330
E
  0
SCALE
  5
43
102
{ACAD_REACTORS
330
42
102
}
330
42
100
AcDbScale
 70
     0
300
1:1
140
1.0
141
1.0
290
     1
  0
SCALE
  5
44
102
{ACAD_REACTORS
330
42
102
}
330
42
100
AcDbScale
 70
     0
300
1/128" = 1'-0"
140
0.0078125
141
12.0
290
     0
  0
SCALE
  5
45
102
{ACAD_REACTORS
330
42
102
}
330
42
100
AcDbScale
 70
     0
300
1/64" = 1'-0"
140
0.015625
141
12.0
290
     0
  0
SCALE
  5
46
102
{ACAD_REACTORS
330
42
102
}
330
42
100
AcDbScale
 70
     0
300
1/32" = 1'-0"
140
0.03125
141
12.0
290
     0
  0
SCALE
  5
47
102
{ACAD_REACTORS
330
42
102
}
330
42
100
AcDbScale
 70
     0
300
1/16" = 1'-0"
140
0.0625
141
12.0
290
     0
  0
SCALE
  5
48
102
{ACAD_REACTORS
330
42
102
}
330
42
100
AcDbScale
 70
     0
300
3/32" = 1'-0"
140
0.09375
141
12.0
290
     0
  0
SCALE
  5
49
102
{ACAD_REACTORS
330
42
102
}
330
42
100
AcDbScale
 70
     0
300
1/8" = 1'-0"
140
0.125
141
12.0
290
     0
  0
SCALE
  5
4A
102
{ACAD_REACTORS
330
42
102
}
330
42
100
AcDbScale
 70
     0
300
3/16" = 1'-0"
140
0.1875
141
12.0
290
     0
  0
SCALE
  5
4B
102
{ACAD_REACTORS
330
42
102
}
330
42
100
AcDbScale
 70
     0
300
1/4" = 1'-0"
140
0.25
141
12.0
290
     0
  0
SCALE
  5
4C
102
{ACAD_REACTORS
330
42
102
}
330
42
100
AcDbScale
 70
     0
300
3/8" = 1'-0"
140
0.375
141
12.0
290
     0
  0
SCALE
  5
4D
102
{ACAD_REACTORS
330
42
102
}
330
42
100
AcDbScale
 70
     0
300
1/2" = 1'-0"
140
0.5
141
12.0
290
     0
  0
SCALE
  5
4E
102
{ACAD_REACTORS
330
42
102
}
330
42
100
AcDbScale
 70
     0
300
3/4" = 1'-0"
140
0.75
141
12.0
290
     0
  0
SCALE
  5
4F
102
{ACAD_REACTORS
330
42
102
}
330
42
100
AcDbScale
 70
     0
300
1" = 1'-0"
140
1.0
141
12.0
290
     0
  0
SCALE
  5
50
102
{ACAD_REACTORS
330
42
102
}
330
42
100
AcDbScale
 70
     0
300
1-1/2" = 1'-0"
140
1.5
141
12.0
290
     0
  0
SCALE
  5
51
102
{ACAD_REACTORS
330
42
102
}
330
42
100
AcDbScale
 70
     0
300
3" = 1'-0"
140
3.0
141
12.0
290
     0
  0
SCALE
  5
52
102
{ACAD_REACTORS
330
42
102
}
330
42
100
AcDbScale
 70
     0
300
6" = 1'-0"
140
6.0
141
12.0
290
     0
  0
SCALE
  5
53
102
{ACAD_REACTORS
330
42
102
}
330
42
100
AcDbScale
 70
     0
300
1'-0" = 1'-0"
140
12.0
141
12.0
290
     0
  0
ACDBSECTIONVIEWSTYLE
  5
69
102
{ACAD_REACTORS
330
68
102
}
330
68
100
AcDbModelDocViewStyle
 70
     0
  3
Imperial24
290
     1
300
Imperial24
 90
        0
100
AcDbSectionViewStyle
 70
     0
 71
     0
 90
       78
 71
     1
340
55
 62
   256
 40
0.24
340
0
340
0
 62
   256
 40
0.24
300
I, O, Q, S, X, Z
 40
0.48
 90
        3
 40
0.18
 90
        1
 71
     2
340
5D
 90
       25
 62
   256
340
5D
 90
       50
 62
   256
 40
0.24
 40
0.0
 40
0.24
 71
     3
340
55
 62
   256
 40
0.24
 90
        1
 40
0.75
 90
        1
300
%<\AcVar ViewType \f "%tc1">% %<\AcVar ViewSectionStartId>%-%<\AcVar ViewSectionEndId>%\PSCALE %<\AcVar ViewScale \f "%sn">%
 71
     4
 62
   256
 62
   257
300
ANSI31
 40
1.0
 90
        0
290
     0
290
     0
 90
        6
 40
0.0
 40
1.570796326794896
 40
0.2617993877991494
 40
1.308996938995747
 40
-0.2617993877991494
 40
1.832595714594046
  0
TABLESTYLE
  5
65
102
{ACAD_XDICTIONARY
360
255
102
}
102
{ACAD_REACTORS
330
64
102
}
330
64
100
AcDbTableStyle
280
     0
  3
Standard
 70
     0
 71
     0
 40
0.06
 41
0.06
280
     0
281
     0
  7
Standard
140
0.18
170
     2
 62
     0
 63
     7
283
     0
 90
      512
 91
        0
  1

274
    -2
284
     1
 64
     0
275
    -2
285
     1
 65
     0
276
    -2
286
     1
 66
     0
277
    -2
287
     1
 67
     0
278
    -2
288
     1
 68
     0
279
    -2
289
     1
 69
     0
  7
Standard
140
0.25
170
     5
 62
     0
 63
     7
283
     0
 90
      512
 91
        0
  1

274
    -2
284
     1
 64
     0
275
    -2
285
     1
 65
     0
276
    -2
286
     1
 66
     0
277
    -2
287
     1
 67
     0
278
    -2
288
     1
 68
     0
279
    -2
289
     1
 69
     0
  7
Standard
140
0.18
170
     5
 62
     0
 63
     7
283
     0
 90
      512
 91
        0
  1

274
    -2
284
     1
 64
     0
275
    -2
285
     1
 65
     0
276
    -2
286
     1
 66
     0
277
    -2
287
     1
 67
     0
278
    -2
288
     1
 68
     0
279
    -2
289
     1
 69
     0
  0
VISUALSTYLE
  5
2F
102
{ACAD_REACTORS
330
29
102
}
330
29
100
AcDbVisualStyle
  2
2dWireframe
 70
     4
177
     3
291
     0
 70
    58
 90
        0
176
     1
 90
        2
176
     1
 90
        0
176
     1
 90
        0
176
     1
 40
0.6
176
     1
 40
30.0
176
     1
 62
     7
420
 16777215
176
     1
 90
        1
176
     1
 90
        4
176
     1
 62
     7
176
     1
 62
   257
176
     1
 90
        1
176
     1
 90
        1
176
     1
 40
1.0
176
     1
 90
        0
176
     1
 62
   257
176
     1
 40
1.0
176
     1
 90
        1
176
     1
 90
        6
176
     1
 90
        2
176
     1
 62
     7
176
     1
 90
        5
176
     1
 90
        0
176
     1
 90
        0
176
     1
290
     0
176
     1
 90
        1
176
     1
 40
0.0
176
     1
 90
        0
176
     1
290
     1
176
     1
290
     1
176
     1
290
     0
176
     1
290
     0
176
     1
290
     0
176
     1
290
     0
176
     1
290
     0
176
     1
290
     0
176
     1
290
     0
176
     1
 90
       50
176
     1
 40
0.0
176
     1
 40
1.0
176
     1
 90
        0
176
     1
 62
    18
420
        0
176
     1
 90
       50
176
     1
 90
        3
176
     1
 62
     5
420
      255
176
     1
290
     0
176
     1
 90
       50
176
     1
 90
       50
176
     1
 90
       50
176
     1
290
     0
176
     1
 90
       50
176
     1
 62
   256
176
     0
 40
1.0
176
     0
 90
        2
176
     1
  1
strokes_ogs.tif
176
     1
290
     0
176
     1
 40
1.0
176
     1
 40
1.0
176
     1
  0
VISUALSTYLE
  5
2E
102
{ACAD_REACTORS
330
29
102
}
330
29
100
AcDbVisualStyle
  2
Basic
 70
     7
177
     3
291
     1
 70
    58
 90
        1
176
     1
 90
        0
176
     1
 90
        1
176
     1
 90
        0
176
     1
 40
0.6
176
     1
 40
30.0
176
     1
 62
     7
420
 16777215
176
     1
 90
        0
176
     1
 90
        4
176
     1
 62
     7
176
     1
 62
   257
176
     1
 90
        1
176
     1
 90
        1
176
     1
 40
1.0
176
     1
 90
        8
176
     1
 62
     7
176
     1
 40
1.0
176
     1
 90
        1
176
     1
 90
        6
176
     1
 90
        2
176
     1
 62
     7
176
     1
 90
        5
176
     1
 90
        0
176
     1
 90
        0
176
     1
290
     0
176
     1
 90
        1
176
     1
 40
0.0
176
     1
 90
        0
176
     1
290
     0
176
     1
290
     1
176
     1
290
     1
176
     1
290
     0
176
     1
290
     0
176
     1
290
     0
176
     1
290
     0
176
     1
290
     0
176
     1
290
     0
176
     1
 90
       50
176
     1
 40
0.0
176
     1
 40
1.0
176
     1
 90
        0
176
     1
 62
    18
420
        0
176
     1
 90
       50
176
     1
 90
        3
176
     1
 62
     5
420
      255
176
     1
290
     0
176
     1
 90
       50
176
     1
 90
       50
176
     1
 90
       50
176
     1
290
     0
176
     1
 90
       50
176
     1
 62
   256
176
     0
 40
1.0
176
     0
 90
        2
176
     1
  1
strokes_ogs.tif
176
     1
290
     0
176
     1
 40
1.0
176
     1
 40
1.0
176
     1
  0
VISUALSTYLE
  5
35
102
{ACAD_REACTORS
330
29
102
}
330
29
100
AcDbVisualStyle
  2
Brighten
 70
    12
177
     3
291
     1
 70
    58
 90
        2
176
     1
 90
        2
176
     1
 90
        0
176
     1
 90
        0
176
     1
 40
0.6
176
     1
 40
30.0
176
     1
 62
     7
420
 16777215
176
     1
 90
        1
176
     1
 90
        4
176
     1
 62
     7
176
     1
 62
   257
176
     1
 90
        1
176
     1
 90
        1
176
     1
 40
1.0
176
     1
 90
        8
176
     1
 62
     7
176
     1
 40
1.0
176
     1
 90
        1
176
     1
 90
        6
176
     1
 90
        2
176
     1
 62
     7
176
     1
 90
        5
176
     1
 90
        0
176
     1
 90
        0
176
     1
290
     0
176
     1
 90
        1
176
     1
 40
50.0
176
     1
 90
        0
176
     1
290
     0
176
     1
290
     1
176
     1
290
     1
176
     1
290
     0
176
     1
290
     0
176
     1
290
     0
176
     1
290
     0
176
     1
290
     0
176
     1
290
     0
176
     1
 90
       50
176
     1
 40
0.0
176
     1
 40
1.0
176
     1
 90
        0
176
     1
 62
    18
420
        0
176
     1
 90
       50
176
     1
 90
        3
176
     1
 62
     5
420
      255
176
     1
290
     0
176
     1
 90
       50
176
     1
 90
       50
176
     1
 90
       50
176
     1
290
     0
176
     1
 90
       50
176
     1
 62
   256
176
     0
 40
1.0
176
     0
 90
        2
176
     1
  1
strokes_ogs.tif
176
     1
290
     0
176
     1
 40
1.0
176
     1
 40
1.0
176
     1
  0
VISUALSTYLE
  5
39
102
{ACAD_REACTORS
330
29
102
}
330
29
100
AcDbVisualStyle
  2
ColorChange
 70
    16
177
     3
291
     1
 70
    58
 90
        2
176
     1
 90
        2
176
     1
 90
        3
176
     1
 90
        0
176
     1
 40
0.6
176
     1
 40
30.0
176
     1
 62
     8
420
  8421504
176
     1
 90
        1
176
     1
 90
        4
176
     1
 62
     7
176
     1
 62
   257
176
     1
 90
        1
176
     1
 90
        1
176
     1
 40
1.0
176
     1
 90
        8
176
     1
 62
     8
420
  8421504
176
     1
 40
1.0
176
     1
 90
        1
176
     1
 90
        6
176
     1
 90
        2
176
     1
 62
     7
176
     1
 90
        5
176
     1
 90
        0
176
     1
 90
        0
176
     1
290
     0
176
     1
 90
        1
176
     1
 40
0.0
176
     1
 90
        0
176
     1
290
     0
176
     1
290
     1
176
     1
290
     1
176
     1
290
     0
176
     1
290
     0
176
     1
290
     0
176
     1
290
     0
176
     1
290
     0
176
     1
290
     0
176
     1
 90
       50
176
     1
 40
0.0
176
     1
 40
1.0
176
     1
 90
        0
176
     1
 62
    18
420
        0
176
     1
 90
       50
176
     1
 90
        3
176
     1
 62
     5
420
      255
176
     1
290
     0
176
     1
 90
       50
176
     1
 90
       50
176
     1
 90
       50
176
     1
290
     0
176
     1
 90
       50
176
     1
 62
   256
176
     0
 40
1.0
176
     0
 90
        2
176
     1
  1
strokes_ogs.tif
176
     1
290
     0
176
     1
 40
1.0
176
     1
 40
1.0
176
     1
  0
VISUALSTYLE
  5
32
102
{ACAD_REACTORS
330
29
102
}
330
29
100
AcDbVisualStyle
  2
Conceptual
 70
     9
177
     3
291
     0
 70
    58
 90
        3
176
     1
 90
        2
176
     1
 90
        0
176
     1
 90
        0
176
     1
 40
0.6
176
     1
 40
30.0
176
     1
 62
     7
420
 16777215
176
     1
 90
        2
176
     1
 90
        2
176
     1
 62
     7
176
     1
 62
   257
176
     1
 90
        1
176
     1
 90
        1
176
     1
 40
179.0
176
     1
 90
        8
176
     1
 62
     7
176
     1
 40
1.0
176
     1
 90
        1
176
     1
 90
        6
176
     1
 90
        2
176
     1
 62
     7
176
     1
 90
        3
176
     1
 90
        0
176
     1
 90
        0
176
     1
290
     0
176
     1
 90
        1
176
     1
 40
0.0
176
     1
 90
        0
176
     1
290
     0
176
     1
290
     1
176
     1
290
     1
176
     1
290
     0
176
     1
290
     0
176
     1
290
     0
176
     1
290
     0
176
     1
290
     0
176
     1
290
     0
176
     1
 90
       50
176
     1
 40
0.0
176
     1
 40
1.0
176
     1
 90
        0
176
     1
 62
    18
420
        0
176
     1
 90
       50
176
     1
 90
        3
176
     1
 62
     5
420
      255
176
     1
290
     0
176
     1
 90
       50
176
     1
 90
       50
176
     1
 90
       50
176
     1
290
     0
176
     1
 90
       50
176
     1
 62
   256
176
     0
 40
1.0
176
     0
 90
        2
176
     1
  1
strokes_ogs.tif
176
     1
290
     0
176
     1
 40
1.0
176
     1
 40
1.0
176
     1
  0
VISUALSTYLE
  5
34
102
{ACAD_REACTORS
330
29
102
}
330
29
100
AcDbVisualStyle
  2
Dim
 70
    11
177
     3
291
     1
 70
    58
 90
        2
176
     1
 90
        2
176
     1
 90
        0
176
     1
 90
        0
176
     1
 40
0.6
176
     1
 40
30.0
176
     1
 62
     7
420
 16777215
176
     1
 90
        1
176
     1
 90
        4
176
     1
 62
     7
176
     1
 62
   257
176
     1
 90
        1
176
     1
 90
        1
176
     1
 40
1.0
176
     1
 90
        8
176
     1
 62
     7
176
     1
 40
1.0
176
     1
 90
        1
176
     1
 90
        6
176
     1
 90
        2
176
     1
 62
     7
176
     1
 90
        5
176
     1
 90
        0
176
     1
 90
        0
176
     1
290
     0
176
     1
 90
        1
176
     1
 40
-50.0
176
     1
 90
        0
176
     1
290
     0
176
     1
290
     1
176
     1
290
     1
176
     1
290
     0
176
     1
290
     0
176
     1
290
     0
176
     1
290
     0
176
     1
290
     0
176
     1
290
     0
176
     1
 90
       50
176
     1
 40
0.0
176
     1
 40
1.0
176
     1
 90
        0
176
     1
 62
    18
420
        0
176
     1
 90
       50
176
     1
 90
        3
176
     1
 62
     5
420
      255
176
     1
290
     0
176
     1
 90
       50
176
     1
 90
       50
176
     1
 90
       50
176
     1
290
     0
176
     1
 90
       50
176
     1
 62
   256
176
     0
 40
1.0
176
     0
 90
        2
176
     1
  1
strokes_ogs.tif
176
     1
290
     0
176
     1
 40
1.0
176
     1
 40
1.0
176
     1
  0
VISUALSTYLE
  5
41
102
{ACAD_REACTORS
330
29
102
}
330
29
100
AcDbVisualStyle
  2
EdgeColorOff
 70
    22
177
     3
291
     1
 70
    58
 90
        2
176
     0
 90
        2
176
     0
 90
        0
176
     0
 90
        0
176
     0
 40
0.6
176
     0
 40
30.0
176
     0
 62
     7
420
 16777215
176
     0
 90
        1
176
     0
 90
        4
176
     0
 62
     7
176
     0
 62
   257
176
     0
 90
        1
176
     0
 90
        1
176
     0
 40
1.0
176
     0
 90
        8
176
     2
 62
     7
176
     0
 40
1.0
176
     0
 90
        1
176
     0
 90
        6
176
     0
 90
        2
176
     0
 62
     7
176
     0
 90
        5
176
     0
 90
        0
176
     0
 90
        0
176
     0
290
     0
176
     0
 90
        1
176
     0
 40
0.0
176
     0
 90
        0
176
     0
290
     0
176
     0
290
     1
176
     0
290
     1
176
     0
290
     0
176
     0
290
     0
176
     0
290
     0
176
     0
290
     0
176
     0
290
     0
176
     0
290
     0
176
     0
 90
       50
176
     0
 40
0.0
176
     0
 40
1.0
176
     0
 90
        0
176
     0
 62
    18
420
        0
176
     0
 90
       50
176
     0
 90
        3
176
     0
 62
     5
420
      255
176
     0
290
     0
176
     0
 90
       50
176
     0
 90
       50
176
     0
 90
       50
176
     0
290
     0
176
     0
 90
       50
176
     0
 62
   256
176
     0
 40
1.0
176
     0
 90
        2
176
     0
  1
strokes_ogs.tif
176
     0
290
     0
176
     0
 40
1.0
176
     0
 40
1.0
176
     0
  0
VISUALSTYLE
  5
38
102
{ACAD_REACTORS
330
29
102
}
330
29
100
AcDbVisualStyle
  2
Facepattern
 70
    15
177
     3
291
     1
 70
    58
 90
        2
176
     1
 90
        2
176
     1
 90
        0
176
     1
 90
        0
176
     1
 40
0.6
176
     1
 40
30.0
176
     1
 62
     7
420
 16777215
176
     1
 90
        1
176
     1
 90
        4
176
     1
 62
     7
176
     1
 62
   257
176
     1
 90
        1
176
     1
 90
        1
176
     1
 40
1.0
176
     1
 90
        8
176
     1
 62
     7
176
     1
 40
1.0
176
     1
 90
        1
176
     1
 90
        6
176
     1
 90
        2
176
     1
 62
     7
176
     1
 90
        5
176
     1
 90
        0
176
     1
 90
        0
176
     1
290
     0
176
     1
 90
        1
176
     1
 40
0.0
176
     1
 90
        0
176
     1
290
     0
176
     1
290
     1
176
     1
290
     1
176
     1
290
     0
176
     1
290
     0
176
     1
290
     0
176
     1
290
     0
176
     1
290
     0
176
     1
290
     0
176
     1
 90
       50
176
     1
 40
0.0
176
     1
 40
1.0
176
     1
 90
        0
176
     1
 62
    18
420
        0
176
     1
 90
       50
176
     1
 90
        3
176
     1
 62
     5
420
      255
176
     1
290
     0
176
     1
 90
       50
176
     1
 90
       50
176
     1
 90
       50
176
     1
290
     0
176
     1
 90
       50
176
     1
 62
   256
176
     0
 40
1.0
176
     0
 90
        2
176
     1
  1
strokes_ogs.tif
176
     1
290
     0
176
     1
 40
1.0
176
     1
 40
1.0
176
     1
  0
VISUALSTYLE
  5
2A
102
{ACAD_REACTORS
330
29
102
}
330
29
100
AcDbVisualStyle
  2
Flat
 70
     0
177
     3
291
     1
 70
    58
 90
        2
176
     1
 90
        1
176
     1
 90
        1
176
     1
 90
        2
176
     1
 40
0.6
176
     1
 40
30.0
176
     1
 62
     7
420
 16777215
176
     1
 90
        0
176
     1
 90
        0
176
     1
 62
     7
176
     1
 62
   257
176
     1
 90
        1
176
     1
 90
        1
176
     1
 40
1.0
176
     1
 90
        8
176
     1
 62
     7
176
     1
 40
1.0
176
     1
 90
        1
176
     1
 90
        6
176
     1
 90
        2
176
     1
 62
     7
176
     1
 90
        5
176
     1
 90
        0
176
     1
 90
        0
176
     1
290
     0
176
     1
 90
       13
176
     1
 40
0.0
176
     1
 90
        0
176
     1
290
     0
176
     1
290
     1
176
     1
290
     1
176
     1
290
     0
176
     1
290
     0
176
     1
290
     0
176
     1
290
     0
176
     1
290
     0
176
     1
290
     0
176
     1
 90
       50
176
     1
 40
0.0
176
     1
 40
1.0
176
     1
 90
        0
176
     1
 62
    18
420
        0
176
     1
 90
       50
176
     1
 90
        3
176
     1
 62
     5
420
      255
176
     1
290
     0
176
     1
 90
       50
176
     1
 90
       50
176
     1
 90
       50
176
     1
290
     0
176
     1
 90
       50
176
     1
 62
   256
176
     0
 40
1.0
176
     0
 90
        2
176
     1
  1
strokes_ogs.tif
176
     1
290
     0
176
     1
 40
1.0
176
     1
 40
1.0
176
     1
  0
VISUALSTYLE
  5
2B
102
{ACAD_REACTORS
330
29
102
}
330
29
100
AcDbVisualStyle
  2
FlatWithEdges
 70
     1
177
     3
291
     1
 70
    58
 90
        2
176
     1
 90
        1
176
     1
 90
        1
176
     1
 90
        2
176
     1
 40
0.6
176
     1
 40
30.0
176
     1
 62
     7
420
 16777215
176
     1
 90
        1
176
     1
 90
        0
176
     1
 62
     7
176
     1
 62
   257
176
     1
 90
        1
176
     1
 90
        1
176
     1
 40
1.0
176
     1
 90
        0
176
     1
 62
   257
176
     1
 40
1.0
176
     1
 90
        1
176
     1
 90
        6
176
     1
 90
        2
176
     1
 62
     7
176
     1
 90
        5
176
     1
 90
        0
176
     1
 90
        0
176
     1
290
     0
176
     1
 90
       13
176
     1
 40
0.0
176
     1
 90
        0
176
     1
290
     0
176
     1
290
     1
176
     1
290
     1
176
     1
290
     0
176
     1
290
     0
176
     1
290
     0
176
     1
290
     0
176
     1
290
     0
176
     1
290
     0
176
     1
 90
       50
176
     1
 40
0.0
176
     1
 40
1.0
176
     1
 90
        0
176
     1
 62
    18
420
        0
176
     1
 90
       50
176
     1
 90
        3
176
     1
 62
     5
420
      255
176
     1
290
     0
176
     1
 90
       50
176
     1
 90
       50
176
     1
 90
       50
176
     1
290
     0
176
     1
 90
       50
176
     1
 62
   256
176
     0
 40
1.0
176
     0
 90
        2
176
     1
  1
strokes_ogs.tif
176
     1
290
     0
176
     1
 40
1.0
176
     1
 40
1.0
176
     1
  0
VISUALSTYLE
  5
2C
102
{ACAD_REACTORS
330
29
102
}
330
29
100
AcDbVisualStyle
  2
Gouraud
 70
     2
177
     3
291
     1
 70
    58
 90
        2
176
     1
 90
        2
176
     1
 90
        1
176
     1
 90
        2
176
     1
 40
0.6
176
     1
 40
30.0
176
     1
 62
     7
420
 16777215
176
     1
 90
        0
176
     1
 90
        0
176
     1
 62
     7
176
     1
 62
   257
176
     1
 90
        1
176
     1
 90
        1
176
     1
 40
1.0
176
     1
 90
        0
176
     1
 62
     7
176
     1
 40
1.0
176
     1
 90
        1
176
     1
 90
        6
176
     1
 90
        2
176
     1
 62
     7
176
     1
 90
        5
176
     1
 90
        0
176
     1
 90
        0
176
     1
290
     0
176
     1
 90
       13
176
     1
 40
0.0
176
     1
 90
        0
176
     1
290
     0
176
     1
290
     1
176
     1
290
     1
176
     1
290
     0
176
     1
290
     0
176
     1
290
     0
176
     1
290
     0
176
     1
290
     0
176
     1
290
     0
176
     1
 90
       50
176
     1
 40
0.0
176
     1
 40
1.0
176
     1
 90
        0
176
     1
 62
    18
420
        0
176
     1
 90
       50
176
     1
 90
        3
176
     1
 62
     5
420
      255
176
     1
290
     0
176
     1
 90
       50
176
     1
 90
       50
176
     1
 90
       50
176
     1
290
     0
176
     1
 90
       50
176
     1
 62
   256
176
     0
 40
1.0
176
     0
 90
        2
176
     1
  1
strokes_ogs.tif
176
     1
290
     0
176
     1
 40
1.0
176
     1
 40
1.0
176
     1
  0
VISUALSTYLE
  5
2D
102
{ACAD_REACTORS
330
29
102
}
330
29
100
AcDbVisualStyle
  2
GouraudWithEdges
 70
     3
177
     3
291
     1
 70
    58
 90
        2
176
     1
 90
        2
176
     1
 90
        1
176
     1
 90
        2
176
     1
 40
0.6
176
     1
 40
30.0
176
     1
 62
     7
420
 16777215
176
     1
 90
        1
176
     1
 90
        0
176
     1
 62
     7
176
     1
 62
   257
176
     1
 90
        1
176
     1
 90
        1
176
     1
 40
1.0
176
     1
 90
        0
176
     1
 62
   257
176
     1
 40
1.0
176
     1
 90
        1
176
     1
 90
        6
176
     1
 90
        2
176
     1
 62
     7
176
     1
 90
        5
176
     1
 90
        0
176
     1
 90
        0
176
     1
290
     0
176
     1
 90
       13
176
     1
 40
0.0
176
     1
 90
        0
176
     1
290
     0
176
     1
290
     1
176
     1
290
     1
176
     1
290
     0
176
     1
290
     0
176
     1
290
     0
176
     1
290
     0
176
     1
290
     0
176
     1
290
     0
176
     1
 90
       50
176
     1
 40
0.0
176
     1
 40
1.0
176
     1
 90
        0
176
     1
 62
    18
420
        0
176
     1
 90
       50
176
     1
 90
        3
176
     1
 62
     5
420
      255
176
     1
290
     0
176
     1
 90
       50
176
     1
 90
       50
176
     1
 90
       50
176
     1
290
     0
176
     1
 90
       50
176
     1
 62
   256
176
     0
 40
1.0
176
     0
 90
        2
176
     1
  1
strokes_ogs.tif
176
     1
290
     0
176
     1
 40
1.0
176
     1
 40
1.0
176
     1
  0
VISUALSTYLE
  5
31
102
{ACAD_REACTORS
330
29
102
}
330
29
100
AcDbVisualStyle
  2
Hidden
 70
     6
177
     3
291
     0
 70
    58
 90
        1
176
     1
 90
        2
176
     1
 90
        2
176
     1
 90
        0
176
     1
 40
0.6
176
     1
 40
30.0
176
     1
 62
     7
420
 16777215
176
     1
 90
        2
176
     1
 90
        2
176
     1
 62
     7
176
     1
 62
   257
176
     1
 90
        2
176
     1
 90
        1
176
     1
 40
40.0
176
     1
 90
        0
176
     1
 62
   257
176
     1
 40
1.0
176
     1
 90
        1
176
     1
 90
        6
176
     1
 90
        2
176
     1
 62
     7
176
     1
 90
        3
176
     1
 90
        0
176
     1
 90
        0
176
     1
290
     0
176
     1
 90
        1
176
     1
 40
0.0
176
     1
 90
        0
176
     1
290
     0
176
     1
290
     1
176
     1
290
     1
176
     1
290
     0
176
     1
290
     0
176
     1
290
     0
176
     1
290
     0
176
     1
290
     0
176
     1
290
     0
176
     1
 90
       50
176
     1
 40
0.0
176
     1
 40
1.0
176
     1
 90
        0
176
     1
 62
    18
420
        0
176
     1
 90
       50
176
     1
 90
        3
176
     1
 62
     5
420
      255
176
     1
290
     0
176
     1
 90
       50
176
     1
 90
       50
176
     1
 90
       50
176
     1
290
     0
176
     1
 90
       50
176
     1
 62
   256
176
     0
 40
1.0
176
     0
 90
        2
176
     1
  1
strokes_ogs.tif
176
     1
290
     0
176
     1
 40
1.0
176
     1
 40
1.0
176
     1
  0
VISUALSTYLE
  5
3F
102
{ACAD_REACTORS
330
29
102
}
330
29
100
AcDbVisualStyle
  2
JitterOff
 70
    20
177
     3
291
     1
 70
    58
 90
        2
176
     0
 90
        2
176
     0
 90
        0
176
     0
 90
        0
176
     0
 40
0.6
176
     0
 40
30.0
176
     0
 62
     7
420
 16777215
176
     0
 90
        1
176
     0
 90
        4
176
     0
 62
     7
176
     0
 62
   257
176
     0
 90
        1
176
     0
 90
        1
176
     0
 40
1.0
176
     0
 90
       10
176
     2
 62
     7
176
     0
 40
1.0
176
     0
 90
        1
176
     0
 90
        6
176
     0
 90
        2
176
     0
 62
     7
176
     0
 90
        5
176
     0
 90
        0
176
     0
 90
        0
176
     0
290
     0
176
     0
 90
        1
176
     0
 40
0.0
176
     0
 90
        0
176
     0
290
     0
176
     0
290
     1
176
     0
290
     1
176
     0
290
     0
176
     0
290
     0
176
     0
290
     0
176
     0
290
     0
176
     0
290
     0
176
     0
290
     0
176
     0
 90
       50
176
     0
 40
0.0
176
     0
 40
1.0
176
     0
 90
        0
176
     0
 62
    18
420
        0
176
     0
 90
       50
176
     0
 90
        3
176
     0
 62
     5
420
      255
176
     0
290
     0
176
     0
 90
       50
176
     0
 90
       50
176
     0
 90
       50
176
     0
290
     0
176
     0
 90
       50
176
     0
 62
   256
176
     0
 40
1.0
176
     0
 90
        2
176
     0
  1
strokes_ogs.tif
176
     0
290
     0
176
     0
 40
1.0
176
     0
 40
1.0
176
     0
  0
VISUALSTYLE
  5
37
102
{ACAD_REACTORS
330
29
102
}
330
29
100
AcDbVisualStyle
  2
Linepattern
 70
    14
177
     3
291
     1
 70
    58
 90
        2
176
     1
 90
        2
176
     1
 90
        0
176
     1
 90
        0
176
     1
 40
0.6
176
     1
 40
30.0
176
     1
 62
     7
420
 16777215
176
     1
 90
        1
176
     1
 90
        4
176
     1
 62
     7
176
     1
 62
   257
176
     1
 90
        7
176
     1
 90
        7
176
     1
 40
1.0
176
     1
 90
        8
176
     1
 62
     7
176
     1
 40
1.0
176
     1
 90
        1
176
     1
 90
        6
176
     1
 90
        2
176
     1
 62
     7
176
     1
 90
        5
176
     1
 90
        0
176
     1
 90
        0
176
     1
290
     0
176
     1
 90
        1
176
     1
 40
0.0
176
     1
 90
        0
176
     1
290
     0
176
     1
290
     1
176
     1
290
     1
176
     1
290
     0
176
     1
290
     0
176
     1
290
     0
176
     1
290
     0
176
     1
290
     0
176
     1
290
     0
176
     1
 90
       50
176
     1
 40
0.0
176
     1
 40
1.0
176
     1
 90
        0
176
     1
 62
    18
420
        0
176
     1
 90
       50
176
     1
 90
        3
176
     1
 62
     5
420
      255
176
     1
290
     0
176
     1
 90
       50
176
     1
 90
       50
176
     1
 90
       50
176
     1
290
     0
176
     1
 90
       50
176
     1
 62
   256
176
     0
 40
1.0
176
     0
 90
        2
176
     1
  1
strokes_ogs.tif
176
     1
290
     0
176
     1
 40
1.0
176
     1
 40
1.0
176
     1
  0
VISUALSTYLE
  5
40
102
{ACAD_REACTORS
330
29
102
}
330
29
100
AcDbVisualStyle
  2
OverhangOff
 70
    21
177
     3
291
     1
 70
    58
 90
        2
176
     0
 90
        2
176
     0
 90
        0
176
     0
 90
        0
176
     0
 40
0.6
176
     0
 40
30.0
176
     0
 62
     7
420
 16777215
176
     0
 90
        1
176
     0
 90
        4
176
     0
 62
     7
176
     0
 62
   257
176
     0
 90
        1
176
     0
 90
        1
176
     0
 40
1.0
176
     0
 90
        9
176
     2
 62
     7
176
     0
 40
1.0
176
     0
 90
        1
176
     0
 90
        6
176
     0
 90
        2
176
     0
 62
     7
176
     0
 90
        5
176
     0
 90
        0
176
     0
 90
        0
176
     0
290
     0
176
     0
 90
        1
176
     0
 40
0.0
176
     0
 90
        0
176
     0
290
     0
176
     0
290
     1
176
     0
290
     1
176
     0
290
     0
176
     0
290
     0
176
     0
290
     0
176
     0
290
     0
176
     0
290
     0
176
     0
290
     0
176
     0
 90
       50
176
     0
 40
0.0
176
     0
 40
1.0
176
     0
 90
        0
176
     0
 62
    18
420
        0
176
     0
 90
       50
176
     0
 90
        3
176
     0
 62
     5
420
      255
176
     0
290
     0
176
     0
 90
       50
176
     0
 90
       50
176
     0
 90
       50
176
     0
290
     0
176
     0
 90
       50
176
     0
 62
   256
176
     0
 40
1.0
176
     0
 90
        2
176
     0
  1
strokes_ogs.tif
176
     0
290
     0
176
     0
 40
1.0
176
     0
 40
1.0
176
     0
  0
VISUALSTYLE
  5
33
102
{ACAD_REACTORS
330
29
102
}
330
29
100
AcDbVisualStyle
  2
Realistic
 70
     8
177
     3
291
     0
 70
    58
 90
        2
176
     1
 90
        3
176
     1
 90
        0
176
     1
 90
        2
176
     1
 40
0.6
176
     1
 40
30.0
176
     1
 62
     7
420
 16777215
176
     1
 90
        0
176
     1
 90
        0
176
     1
 62
     7
176
     1
 62
   257
176
     1
 90
        1
176
     1
 90
        1
176
     1
 40
1.0
176
     1
 90
        8
176
     1
 62
   257
176
     1
 40
1.0
176
     1
 90
        1
176
     1
 90
        6
176
     1
 90
        2
176
     1
 62
     7
176
     1
 90
        3
176
     1
 90
        0
176
     1
 90
        0
176
     1
290
     0
176
     1
 90
       13
176
     1
 40
0.0
176
     1
 90
        0
176
     1
290
     0
176
     1
290
     1
176
     1
290
     1
176
     1
290
     0
176
     1
290
     0
176
     1
290
     0
176
     1
290
     0
176
     1
290
     0
176
     1
290
     0
176
     1
 90
       50
176
     1
 40
0.0
176
     1
 40
1.0
176
     1
 90
        0
176
     1
 62
    18
420
        0
176
     1
 90
       50
176
     1
 90
        3
176
     1
 62
     5
420
      255
176
     1
290
     0
176
     1
 90
       50
176
     1
 90
       50
176
     1
 90
       50
176
     1
290
     0
176
     1
 90
       50
176
     1
 62
   256
176
     0
 40
1.0
176
     0
 90
        2
176
     1
  1
strokes_ogs.tif
176
     1
290
     0
176
     1
 40
1.0
176
     1
 40
1.0
176
     1
  0
VISUALSTYLE
  5
3E
102
{ACAD_REACTORS
330
29
102
}
330
29
100
AcDbVisualStyle
  2
Shaded
 70
    27
177
     3
291
     0
 70
    58
 90
        2
176
     1
 90
        2
176
     1
 90
        1
176
     1
 90
        2
176
     1
 40
0.6
176
     1
 40
30.0
176
     1
 62
     7
420
 16777215
176
     1
 90
        0
176
     1
 90
        4
176
     1
 62
     7
176
     1
 62
   257
176
     1
 90
        1
176
     1
 90
        1
176
     1
 40
1.0
176
     1
 90
        8
176
     1
 62
   257
176
     1
 40
1.0
176
     1
 90
        1
176
     1
 90
        6
176
     1
 90
        2
176
     1
 62
     8
420
  7895160
176
     1
 90
        3
176
     1
 90
        0
176
     1
 90
        0
176
     1
290
     0
176
     1
 90
        5
176
     1
 40
0.0
176
     1
 90
        0
176
     1
290
     0
176
     1
290
     1
176
     1
290
     1
176
     1
290
     0
176
     1
290
     0
176
     1
290
     0
176
     1
290
     0
176
     1
290
     0
176
     1
290
     0
176
     1
 90
       50
176
     1
 40
0.0
176
     1
 40
1.0
176
     1
 90
        0
176
     1
 62
    18
420
        0
176
     1
 90
       50
176
     1
 90
        3
176
     1
 62
     5
420
      255
176
     1
290
     0
176
     1
 90
       50
176
     1
 90
       50
176
     1
 90
       50
176
     1
290
     0
176
     1
 90
       50
176
     1
 62
   256
176
     0
 40
1.0
176
     0
 90
        2
176
     1
  1
strokes_ogs.tif
176
     1
290
     0
176
     1
 40
1.0
176
     1
 40
1.0
176
     1
  0
VISUALSTYLE
  5
3D
102
{ACAD_REACTORS
330
29
102
}
330
29
100
AcDbVisualStyle
  2
Shaded with edges
 70
    26
177
     3
291
     0
 70
    58
 90
        2
176
     1
 90
        2
176
     1
 90
        1
176
     1
 90
        2
176
     1
 40
0.6
176
     1
 40
30.0
176
     1
 62
     7
420
 16777215
176
     1
 90
        1
176
     1
 90
        2
176
     1
 62
     7
176
     1
 62
   257
176
     1
 90
        2
176
     1
 90
        1
176
     1
 40
1.0
176
     1
 90
        8
176
     1
 62
   257
176
     1
 40
1.0
176
     1
 90
        1
176
     1
 90
        6
176
     1
 90
        2
176
     1
 62
     7
176
     1
 90
        3
176
     1
 90
        0
176
     1
 90
        0
176
     1
290
     0
176
     1
 90
        5
176
     1
 40
0.0
176
     1
 90
        0
176
     1
290
     0
176
     1
290
     1
176
     1
290
     1
176
     1
290
     0
176
     1
290
     0
176
     1
290
     0
176
     1
290
     0
176
     1
290
     0
176
     1
290
     0
176
     1
 90
       50
176
     1
 40
0.0
176
     1
 40
1.0
176
     1
 90
        0
176
     1
 62
    18
420
        0
176
     1
 90
       50
176
     1
 90
        3
176
     1
 62
     5
420
      255
176
     1
290
     0
176
     1
 90
       50
176
     1
 90
       50
176
     1
 90
       50
176
     1
290
     0
176
     1
 90
       50
176
     1
 62
   256
176
     0
 40
1.0
176
     0
 90
        2
176
     1
  1
strokes_ogs.tif
176
     1
290
     0
176
     1
 40
1.0
176
     1
 40
1.0
176
     1
  0
VISUALSTYLE
  5
3A
102
{ACAD_REACTORS
330
29
102
}
330
29
100
AcDbVisualStyle
  2
Shades of Gray
 70
    23
177
     3
291
     0
 70
    58
 90
        2
176
     1
 90
        2
176
     1
 90
        3
176
     1
 90
        0
176
     1
 40
0.6
176
     1
 40
30.0
176
     1
 62
     7
420
 16777215
176
     1
 90
        2
176
     1
 90
        2
176
     1
 62
     7
176
     1
 62
     7
176
     1
 90
        1
176
     1
 90
        1
176
     1
 40
40.0
176
     1
 90
        8
176
     1
 62
     7
176
     1
 40
1.0
176
     1
 90
        1
176
     1
 90
        6
176
     1
 90
        2
176
     1
 62
     7
176
     1
 90
        3
176
     1
 90
        0
176
     1
 90
        0
176
     1
290
     0
176
     1
 90
        1
176
     1
 40
0.0
176
     1
 90
        0
176
     1
290
     0
176
     1
290
     1
176
     1
290
     1
176
     1
290
     0
176
     1
290
     0
176
     1
290
     0
176
     1
290
     0
176
     1
290
     0
176
     1
290
     0
176
     1
 90
       50
176
     1
 40
0.0
176
     1
 40
1.0
176
     1
 90
        0
176
     1
 62
    18
420
        0
176
     1
 90
       50
176
     1
 90
        3
176
     1
 62
     5
420
      255
176
     1
290
     0
176
     1
 90
       50
176
     1
 90
       50
176
     1
 90
       50
176
     1
290
     0
176
     1
 90
       50
176
     1
 62
   256
176
     0
 40
1.0
176
     0
 90
        2
176
     1
  1
strokes_ogs.tif
176
     1
290
     0
176
     1
 40
1.0
176
     1
 40
1.0
176
     1
  0
VISUALSTYLE
  5
3B
102
{ACAD_REACTORS
330
29
102
}
330
29
100
AcDbVisualStyle
  2
Sketchy
 70
    24
177
     3
291
     0
 70
    58
 90
        1
176
     1
 90
        2
176
     1
 90
        2
176
     1
 90
        0
176
     1
 40
0.6
176
     1
 40
30.0
176
     1
 62
     7
420
 16777215
176
     1
 90
        2
176
     1
 90
        2
176
     1
 62
     7
176
     1
 62
     7
176
     1
 90
        1
176
     1
 90
        1
176
     1
 40
40.0
176
     1
 90
       11
176
     1
 62
     7
176
     1
 40
1.0
176
     1
 90
        1
176
     1
 90
        6
176
     1
 90
        2
176
     1
 62
     7
176
     1
 90
        6
176
     1
 90
        0
176
     1
 90
        0
176
     1
290
     0
176
     1
 90
        1
176
     1
 40
0.0
176
     1
 90
        0
176
     1
290
     0
176
     1
290
     1
176
     1
290
     1
176
     1
290
     0
176
     1
290
     0
176
     1
290
     0
176
     1
290
     0
176
     1
290
     0
176
     1
290
     0
176
     1
 90
       50
176
     1
 40
0.0
176
     1
 40
1.0
176
     1
 90
        0
176
     1
 62
    18
420
        0
176
     1
 90
       50
176
     1
 90
        3
176
     1
 62
     5
420
      255
176
     1
290
     0
176
     1
 90
       50
176
     1
 90
       50
176
     1
 90
       50
176
     1
290
     0
176
     1
 90
       50
176
     1
 62
   256
176
     0
 40
1.0
176
     0
 90
        2
176
     1
  1
strokes_ogs.tif
176
     1
290
     0
176
     1
 40
1.0
176
     1
 40
1.0
176
     1
  0
VISUALSTYLE
  5
36
102
{ACAD_REACTORS
330
29
102
}
330
29
100
AcDbVisualStyle
  2
Thicken
 70
    13
177
     3
291
     1
 70
    58
 90
        2
176
     1
 90
        2
176
     1
 90
        0
176
     1
 90
        0
176
     1
 40
0.6
176
     1
 40
30.0
176
     1
 62
     7
420
 16777215
176
     1
 90
        1
176
     1
 90
        4
176
     1
 62
     7
176
     1
 62
   257
176
     1
 90
        1
176
     1
 90
        1
176
     1
 40
1.0
176
     1
 90
       12
176
     1
 62
     7
176
     1
 40
1.0
176
     1
 90
        1
176
     1
 90
        6
176
     1
 90
        2
176
     1
 62
     7
176
     1
 90
        5
176
     1
 90
        0
176
     1
 90
        0
176
     1
290
     0
176
     1
 90
        1
176
     1
 40
0.0
176
     1
 90
        0
176
     1
290
     0
176
     1
290
     1
176
     1
290
     1
176
     1
290
     0
176
     1
290
     0
176
     1
290
     0
176
     1
290
     0
176
     1
290
     0
176
     1
290
     0
176
     1
 90
       50
176
     1
 40
0.0
176
     1
 40
1.0
176
     1
 90
        0
176
     1
 62
    18
420
        0
176
     1
 90
       50
176
     1
 90
        3
176
     1
 62
     5
420
      255
176
     1
290
     0
176
     1
 90
       50
176
     1
 90
       50
176
     1
 90
       50
176
     1
290
     0
176
     1
 90
       50
176
     1
 62
   256
176
     0
 40
1.0
176
     0
 90
        2
176
     1
  1
strokes_ogs.tif
176
     1
290
     0
176
     1
 40
1.0
176
     1
 40
1.0
176
     1
  0
VISUALSTYLE
  5
30
102
{ACAD_REACTORS
330
29
102
}
330
29
100
AcDbVisualStyle
  2
Wireframe
 70
     5
177
     3
291
     0
 70
    58
 90
        0
176
     1
 90
        2
176
     1
 90
        0
176
     1
 90
        0
176
     1
 40
0.6
176
     1
 40
30.0
176
     1
 62
     7
420
 16777215
176
     1
 90
        1
176
     1
 90
        4
176
     1
 62
     7
176
     1
 62
   257
176
     1
 90
        1
176
     1
 90
        1
176
     1
 40
1.0
176
     1
 90
        0
176
     1
 62
   257
176
     1
 40
1.0
176
     1
 90
        1
176
     1
 90
        6
176
     1
 90
        2
176
     1
 62
     7
176
     1
 90
        3
176
     1
 90
        0
176
     1
 90
        0
176
     1
290
     0
176
     1
 90
        1
176
     1
 40
0.0
176
     1
 90
        0
176
     1
290
     0
176
     1
290
     1
176
     1
290
     1
176
     1
290
     0
176
     1
290
     0
176
     1
290
     0
176
     1
290
     0
176
     1
290
     0
176
     1
290
     0
176
     1
 90
       50
176
     1
 40
0.0
176
     1
 40
1.0
176
     1
 90
        0
176
     1
 62
    18
420
        0
176
     1
 90
       50
176
     1
 90
        3
176
     1
 62
     5
420
      255
176
     1
290
     0
176
     1
 90
       50
176
     1
 90
       50
176
     1
 90
       50
176
     1
290
     0
176
     1
 90
       50
176
     1
 62
   256
176
     0
 40
1.0
176
     0
 90
        2
176
     1
  1
strokes_ogs.tif
176
     1
290
     0
176
     1
 40
1.0
176
     1
 40
1.0
176
     1
  0
VISUALSTYLE
  5
3C
102
{ACAD_REACTORS
330
29
102
}
330
29
100
AcDbVisualStyle
  2
X-Ray
 70
    25
177
     3
291
     0
 70
    58
 90
        2
176
     1
 90
        2
176
     1
 90
        1
176
     1
 90
        1
176
     1
 40
0.5
176
     1
 40
30.0
176
     1
 62
     7
420
 16777215
176
     1
 90
        1
176
     1
 90
        0
176
     1
 62
     7
176
     1
 62
   257
176
     1
 90
        1
176
     1
 90
        1
176
     1
 40
1.0
176
     1
 90
        8
176
     1
 62
     7
176
     1
 40
1.0
176
     1
 90
        1
176
     1
 90
        6
176
     1
 90
        2
176
     1
 62
     7
176
     1
 90
        3
176
     1
 90
        0
176
     1
 90
        0
176
     1
290
     0
176
     1
 90
       13
176
     1
 40
0.0
176
     1
 90
        0
176
     1
290
     0
176
     1
290
     1
176
     1
290
     1
176
     1
290
     0
176
     1
290
     0
176
     1
290
     0
176
     1
290
     0
176
     1
290
     0
176
     1
290
     0
176
     1
 90
       50
176
     1
 40
0.0
176
     1
 40
1.0
176
     1
 90
        0
176
     1
 62
    18
420
        0
176
     1
 90
       50
176
     1
 90
        3
176
     1
 62
     5
420
      255
176
     1
290
     0
176
     1
 90
       50
176
     1
 90
       50
176
     1
 90
       50
176
     1
290
     0
176
     1
 90
       50
176
     1
 62
   256
176
     0
 40
1.0
176
     0
 90
        2
176
     1
  1
strokes_ogs.tif
176
     1
290
     0
176
     1
 40
1.0
176
     1
 40
1.0
176
     1
  0
DICTIONARYVAR
  5
254
102
{ACAD_REACTORS
330
24F
102
}
330
24F
100
DictionaryVariables
280
     0
  1
1:1
  0
DICTIONARYVAR
  5
251
102
{ACAD_REACTORS
330
24F
102
}
330
24F
100
DictionaryVariables
280
     0
  1
STANDARD
  0
DICTIONARYVAR
  5
250
102
{ACAD_REACTORS
330
24F
102
}
330
24F
100
DictionaryVariables
280
     0
  1
STANDARD
  0
DICTIONARYVAR
  5
252
102
{ACAD_REACTORS
330
24F
102
}
330
24F
100
DictionaryVariables
280
     0
  1
Imperial24
  0
DICTIONARYVAR
  5
253
102
{ACAD_REACTORS
330
24F
102
}
330
24F
100
DictionaryVariables
280
     0
  1
Imperial24
  0
DICTIONARY
  5
1A
330
19
100
AcDbDictionary
280
     1
281
     1
  3
BUMPTILE
360
1C
  3
DIFFUSETILE
360
1B
  3
OPACITYTILE
360
1F
  3
REFLECTIONTILE
360
1E
  3
REFRACTIONTILE
360
20
  3
SPECULARTILE
360
1D
  0
DICTIONARY
  5
12
330
11
100
AcDbDictionary
280
     1
281
     1
  3
BUMPTILE
360
14
  3
DIFFUSETILE
360
13
  3
OPACITYTILE
360
17
  3
REFLECTIONTILE
360
16
  3
REFRACTIONTILE
360
18
  3
SPECULARTILE
360
15
  0
DICTIONARY
  5
22
330
21
100
AcDbDictionary
280
     1
281
     1
  3
BUMPTILE
360
24
  3
DIFFUSETILE
360
23
  3
OPACITYTILE
360
27
  3
REFLECTIONTILE
360
26
  3
REFRACTIONTILE
360
28
  3
SPECULARTILE
360
25
  0
DICTIONARY
  5
255
330
65
100
AcDbDictionary
280
     1
281
     1
  3
ACAD_ROUNDTRIP_2008_TABLESTYLE_CELLSTYLEMAP
360
256
  0
XRECORD
  5
1C
102
{ACAD_REACTORS
330
1A
102
}
330
1A
100
AcDbXrecord
280
     1
270
     1
271
     1
  0
XRECORD
  5
1B
102
{ACAD_REACTORS
330
1A
102
}
330
1A
100
AcDbXrecord
280
     1
270
     1
271
     1
  0
XRECORD
  5
1F
102
{ACAD_REACTORS
330
1A
102
}
330
1A
100
AcDbXrecord
280
     1
270
     1
271
     1
  0
XRECORD
  5
1E
102
{ACAD_REACTORS
330
1A
102
}
330
1A
100
AcDbXrecord
280
     1
270
     1
271
     1
  0
XRECORD
  5
20
102
{ACAD_REACTORS
330
1A
102
}
330
1A
100
AcDbXrecord
280
     1
270
     1
271
     1
  0
XRECORD
  5
1D
102
{ACAD_REACTORS
330
1A
102
}
330
1A
100
AcDbXrecord
280
     1
270
     1
271
     1
  0
XRECORD
  5
14
102
{ACAD_REACTORS
330
12
102
}
330
12
100
AcDbXrecord
280
     1
270
     1
271
     1
  0
XRECORD
  5
13
102
{ACAD_REACTORS
330
12
102
}
330
12
100
AcDbXrecord
280
     1
270
     1
271
     1
  0
XRECORD
  5
17
102
{ACAD_REACTORS
330
12
102
}
330
12
100
AcDbXrecord
280
     1
270
     1
271
     1
  0
XRECORD
  5
16
102
{ACAD_REACTORS
330
12
102
}
330
12
100
AcDbXrecord
280
     1
270
     1
271
     1
  0
XRECORD
  5
18
102
{ACAD_REACTORS
330
12
102
}
330
12
100
AcDbXrecord
280
     1
270
     1
271
     1
  0
XRECORD
  5
15
102
{ACAD_REACTORS
330
12
102
}
330
12
100
AcDbXrecord
280
     1
270
     1
271
     1
  0
XRECORD
  5
24
102
{ACAD_REACTORS
330
22
102
}
330
22
100
AcDbXrecord
280
     1
270
     1
271
     1
  0
XRECORD
  5
23
102
{ACAD_REACTORS
330
22
102
}
330
22
100
AcDbXrecord
280
     1
270
     1
271
     1
  0
XRECORD
  5
27
102
{ACAD_REACTORS
330
22
102
}
330
22
100
AcDbXrecord
280
     1
270
     1
271
     1
  0
XRECORD
  5
26
102
{ACAD_REACTORS
330
22
102
}
330
22
100
AcDbXrecord
280
     1
270
     1
271
     1
  0
XRECORD
  5
28
102
{ACAD_REACTORS
330
22
102
}
330
22
100
AcDbXrecord
280
     1
270
     1
271
     1
  0
XRECORD
  5
25
102
{ACAD_REACTORS
330
22
102
}
330
22
100
AcDbXrecord
280
     1
270
     1
271
     1
  0
CELLSTYLEMAP
  5
256
102
{ACAD_REACTORS
330
255
102
}
330
255
100
AcDbCellStyleMap
 90
        3
300
CELLSTYLE
  1
TABLEFORMAT_BEGIN
 90
        5
170
     1
 91
        0
 92
    32768
 62
   257
 93
        1
300
CONTENTFORMAT
  1
CONTENTFORMAT_BEGIN
 90
        0
 91
        0
 92
      512
 93
        0
300

 40
0.0
140
1.0
 94
        5
 62
     0
340
55
144
0.25
309
CONTENTFORMAT_END
171
     0
 94
        0
309
TABLEFORMAT_END
  1
CELLSTYLE_BEGIN
 90
        1
 91
        1
300
_TITLE
309
CELLSTYLE_END
300
CELLSTYLE
  1
TABLEFORMAT_BEGIN
 90
        5
170
     1
 91
        0
 92
        0
 62
   257
 93
        1
300
CONTENTFORMAT
  1
CONTENTFORMAT_BEGIN
 90
        0
 91
        0
 92
      512
 93
        0
300

 40
0.0
140
1.0
 94
        5
 62
     0
340
55
144
0.18
309
CONTENTFORMAT_END
171
     0
 94
        0
309
TABLEFORMAT_END
  1
CELLSTYLE_BEGIN
 90
        2
 91
        1
300
_HEADER
309
CELLSTYLE_END
300
CELLSTYLE
  1
TABLEFORMAT_BEGIN
 90
        5
170
     1
 91
        0
 92
        0
 62
   257
 93
        1
300
CONTENTFORMAT
  1
CONTENTFORMAT_BEGIN
 90
        0
 91
        0
 92
      512
 93
        0
300

 40
0.0
140
1.0
 94
        2
 62
     0
340
55
144
0.18
309
CONTENTFORMAT_END
171
     0
 94
        0
309
TABLEFORMAT_END
  1
CELLSTYLE_BEGIN
 90
        3
 91
        2
300
_DATA
309
CELLSTYLE_END
  0
ENDSEC
  0
EOF
