  0
SECTION
  2
HEADER
  9
$ACADVER
  1
AC1032
  9
$ACADMAINTVER
 90
      251
  9
$DWGCODEPAGE
  3
ANSI_1252
  9
$REQUIREDVERSIONS
160
                 0
  9
$INSBASE
 10
0.0
 20
0.0
 30
0.0
  9
$EXTMIN
 10
1.000000000000000E+20
 20
1.000000000000000E+20
 30
1.000000000000000E+20
  9
$EXTMAX
 10
-1.000000000000000E+20
 20
-1.000000000000000E+20
 30
-1.000000000000000E+20
  9
$LIMMIN
 10
0.0
 20
0.0
  9
$LIMMAX
 10
12.0
 20
9.0
  9
$ORTHOMODE
 70
     0
  9
$REGENMODE
 70
     1
  9
$FILLMODE
 70
     1
  9
$QTEXTMODE
 70
     0
  9
$MIRRTEXT
 70
     0
  9
$LTSCALE
 40
1.0
  9
$ATTMODE
 70
     1
  9
$TEXTSIZE
 40
0.2
  9
$TRACEWID
 40
0.05
  9
$TEXTSTYLE
  7
Standard
  9
$CLAYER
  8
0
  9
$CELTYPE
  6
ByLayer
  9
$CECOLOR
 62
   256
  9
$CELTSCALE
 40
1.0
  9
$DISPSILH
 70
     0
  9
$DIMSCALE
 40
1.0
  9
$DIMASZ
 40
0.18
  9
$DIMEXO
 40
0.0625
  9
$DIMDLI
 40
0.38
  9
$DIMRND
 40
0.0
  9
$DIMDLE
 40
0.0
  9
$DIMEXE
 40
0.18
  9
$DIMTP
 40
0.0
  9
$DIMTM
 40
0.0
  9
$DIMTXT
 40
0.18
  9
$DIMCEN
 40
0.09
  9
$DIMTSZ
 40
0.0
  9
$DIMTOL
 70
     0
  9
$DIMLIM
 70
     0
  9
$DIMTIH
 70
     1
  9
$DIMTOH
 70
     1
  9
$DIMSE1
 70
     0
  9
$DIMSE2
 70
     0
  9
$DIMTAD
 70
     0
  9
$DIMZIN
 70
     0
  9
$DIMBLK
  1

  9
$DIMASO
 70
     1
  9
$DIMSHO
 70
     1
  9
$DIMPOST
  1

  9
$DIMAPOST
  1

  9
$DIMALT
 70
     0
  9
$DIMALTD
 70
     2
  9
$DIMALTF
 40
25.4
  9
$DIMLFAC
 40
1.0
  9
$DIMTOFL
 70
     0
  9
$DIMTVP
 40
0.0
  9
$DIMTIX
 70
     0
  9
$DIMSOXD
 70
     0
  9
$DIMSAH
 70
     0
  9
$DIMBLK1
  1

  9
$DIMBLK2
  1

  9
$DIMSTYLE
  2
Standard
  9
$DIMCLRD
 70
     0
  9
$DIMCLRE
 70
     0
  9
$DIMCLRT
 70
     0
  9
$DIMTFAC
 40
1.0
  9
$DIMGAP
 40
0.09
  9
$DIMJUST
 70
     0
  9
$DIMSD1
 70
     0
  9
$DIMSD2
 70
     0
  9
$DIMTOLJ
 70
     1
  9
$DIMTZIN
 70
     0
  9
$DIMALTZ
 70
     0
  9
$DIMALTTZ
 70
     0
  9
$DIMUPT
 70
     0
  9
$DIMDEC
 70
     4
  9
$DIMTDEC
 70
     4
  9
$DIMALTU
 70
     2
  9
$DIMALTTD
 70
     2
  9
$DIMTXSTY
  7
Standard
  9
$DIMAUNIT
 70
     0
  9
$DIMADEC
 70
     0
  9
$DIMALTRND
 40
0.0
  9
$DIMAZIN
 70
     0
  9
$DIMDSEP
 70
    46
  9
$DIMATFIT
 70
     3
  9
$DIMFRAC
 70
     0
  9
$DIMLDRBLK
  1

  9
$DIMLUNIT
 70
     2
  9
$DIMLWD
 70
    -2
  9
$DIMLWE
 70
    -2
  9
$DIMTMOVE
 70
     0
  9
$DIMFXL
 40
1.0
  9
$DIMFXLON
 70
     0
  9
$DIMJOGANG
 40
0.7853981633974483
  9
$DIMTFILL
 70
     0
  9
$DIMTFILLCLR
 70
     0
  9
$DIMARCSYM
 70
     0
  9
$DIMLTYPE
  6

  9
$DIMLTEX1
  6

  9
$DIMLTEX2
  6

  9
$DIMTXTDIRECTION
 70
     0
  9
$LUNITS
 70
     2
  9
$LUPREC
 70
     4
  9
$SKETCHINC
 40
0.1
  9
$FILLETRAD
 40
0.0
  9
$AUNITS
 70
     0
  9
$AUPREC
 70
     0
  9
$MENU
  1
.
  9
$ELEVATION
 40
0.0
  9
$PELEVATION
 40
0.0
  9
$THICKNESS
 40
0.0
  9
$LIMCHECK
 70
     0
  9
$CHAMFERA
 40
0.0
  9
$CHAMFERB
 40
0.0
  9
$CHAMFERC
 40
0.0
  9
$CHAMFERD
 40
0.0
  9
$SKPOLY
 70
     0
  9
$TDCREATE
 40
2459963.400613426
  9
$TDUCREATE
 40
2459963.358946759
  9
$TDUPDATE
 40
2459963.400613426
  9
$TDUUPDATE
 40
2459963.358946759
  9
$TDINDWG
 40
0.0000000000
  9
$TDUSRTIMER
 40
0.0000000000
  9
$USRTIMER
 70
     1
  9
$ANGBASE
 50
0.0
  9
$ANGDIR
 70
     0
  9
$PDMODE
 70
     0
  9
$PDSIZE
 40
0.0
  9
$PLINEWID
 40
0.0
  9
$SPLFRAME
 70
     0
  9
$SPLINETYPE
 70
     6
  9
$SPLINESEGS
 70
     8
  9
$HANDSEED
  5
2B8
  9
$SURFTAB1
 70
     6
  9
$SURFTAB2
 70
     6
  9
$SURFTYPE
 70
     6
  9
$SURFU
 70
     6
  9
$SURFV
 70
     6
  9
$UCSBASE
  2

  9
$UCSNAME
  2

  9
$UCSORG
 10
0.0
 20
0.0
 30
0.0
  9
$UCSXDIR
 10
1.0
 20
0.0
 30
0.0
  9
$UCSYDIR
 10
0.0
 20
1.0
 30
0.0
  9
$UCSORTHOREF
  2

  9
$UCSORTHOVIEW
 70
     0
  9
$UCSORGTOP
 10
0.0
 20
0.0
 30
0.0
  9
$UCSORGBOTTOM
 10
0.0
 20
0.0
 30
0.0
  9
$UCSORGLEFT
 10
0.0
 20
0.0
 30
0.0
  9
$UCSORGRIGHT
 10
0.0
 20
0.0
 30
0.0
  9
$UCSORGFRONT
 10
0.0
 20
0.0
 30
0.0
  9
$UCSORGBACK
 10
0.0
 20
0.0
 30
0.0
  9
$PUCSBASE
  2

  9
$PUCSNAME
  2

  9
$PUCSORG
 10
0.0
 20
0.0
 30
0.0
  9
$PUCSXDIR
 10
1.0
 20
0.0
 30
0.0
  9
$PUCSYDIR
 10
0.0
 20
1.0
 30
0.0
  9
$PUCSORTHOREF
  2

  9
$PUCSORTHOVIEW
 70
     0
  9
$PUCSORGTOP
 10
0.0
 20
0.0
 30
0.0
  9
$PUCSORGBOTTOM
 10
0.0
 20
0.0
 30
0.0
  9
$PUCSORGLEFT
 10
0.0
 20
0.0
 30
0.0
  9
$PUCSORGRIGHT
 10
0.0
 20
0.0
 30
0.0
  9
$PUCSORGFRONT
 10
0.0
 20
0.0
 30
0.0
  9
$PUCSORGBACK
 10
0.0
 20
0.0
 30
0.0
  9
$USERI1
 70
     0
  9
$USERI2
 70
     0
  9
$USERI3
 70
     0
  9
$USERI4
 70
     0
  9
$USERI5
 70
     0
  9
$USERR1
 40
0.0
  9
$USERR2
 40
0.0
  9
$USERR3
 40
0.0
  9
$USERR4
 40
0.0
  9
$USERR5
 40
0.0
  9
$WORLDVIEW
 70
     1
  9
$SHADEDGE
 70
     3
  9
$SHADEDIF
 70
    70
  9
$TILEMODE
 70
     1
  9
$MAXACTVP
 70
    64
  9
$PINSBASE
 10
0.0
 20
0.0
 30
0.0
  9
$PLIMCHECK
 70
     0
  9
$PEXTMIN
 10
1.000000000000000E+20
 20
1.000000000000000E+20
 30
1.000000000000000E+20
  9
$PEXTMAX
 10
-1.000000000000000E+20
 20
-1.000000000000000E+20
 30
-1.000000000000000E+20
  9
$PLIMMIN
 10
0.0
 20
0.0
  9
$PLIMMAX
 10
12.0
 20
9.0
  9
$UNITMODE
 70
     0
  9
$VISRETAIN
 70
     1
  9
$PLINEGEN
 70
     0
  9
$PSLTSCALE
 70
     1
  9
$TREEDEPTH
 70
  3020
  9
$CMLSTYLE
  2
Standard
  9
$CMLJUST
 70
     0
  9
$CMLSCALE
 40
1.0
  9
$PROXYGRAPHICS
 70
     1
  9
$MEASUREMENT
 70
     0
  9
$CELWEIGHT
370
    -1
  9
$ENDCAPS
280
     0
  9
$JOINSTYLE
280
     0
  9
$LWDISPLAY
290
     1
  9
$INSUNITS
 70
     4
  9
$HYPERLINKBASE
  1

  9
$STYLESHEET
  1

  9
$XEDIT
290
     1
  9
$CEPSNTYPE
380
     0
  9
$PSTYLEMODE
290
     1
  9
$FINGERPRINTGUID
  2
{00514B6F-7615-454A-A5F5-1F3F60F0449E}
  9
$VERSIONGUID
  2
{AC64D281-04E8-8449-ADFC-893D0F55CF46}
  9
$EXTNAMES
290
     1
  9
$PSVPSCALE
 40
0.0
  9
$OLESTARTUP
290
     0
  9
$SORTENTS
280
   127
  9
$INDEXCTL
280
     0
  9
$HIDETEXT
280
     1
  9
$XCLIPFRAME
280
     2
  9
$HALOGAP
280
     0
  9
$OBSCOLOR
 70
   257
  9
$OBSLTYPE
280
     0
  9
$INTERSECTIONDISPLAY
280
     0
  9
$INTERSECTIONCOLOR
 70
   257
  9
$DIMASSOC
280
     2
  9
$PROJECTNAME
  1

  9
$CAMERADISPLAY
290
     0
  9
$LENSLENGTH
 40
50.0
  9
$CAMERAHEIGHT
 40
0.0
  9
$STEPSPERSEC
 40
2.0
  9
$STEPSIZE
 40
6.0
  9
$3DDWFPREC
 40
2.0
  9
$PSOLWIDTH
 40
0.25
  9
$PSOLHEIGHT
 40
4.0
  9
$LOFTANG1
 40
1.570796326794896
  9
$LOFTANG2
 40
1.570796326794896
  9
$LOFTMAG1
 40
0.0
  9
$LOFTMAG2
 40
0.0
  9
$LOFTPARAM
 70
     7
  9
$LOFTNORMALS
280
     1
  9
$LATITUDE
 40
37.795
  9
$LONGITUDE
 40
-122.394
  9
$NORTHDIRECTION
 40
0.0
  9
$TIMEZONE
 70
 -8000
  9
$LIGHTGLYPHDISPLAY
280
     1
  9
$TILEMODELIGHTSYNCH
280
     1
  9
$CMATERIAL
347
11
  9
$SOLIDHIST
280
     0
  9
$SHOWHIST
280
     1
  9
$DWFFRAME
280
     2
  9
$DGNFRAME
280
     0
  9
$REALWORLDSCALE
290
     1
  9
$INTERFERECOLOR
 62
     1
  9
$INTERFEREOBJVS
345
33
  9
$INTERFEREVPVS
346
30
  9
$CSHADOW
280
     0
  9
$SHADOWPLANELOCATION
 40
0.0
  0
ENDSEC
  0
SECTION
  2
CLASSES
  0
CLASS
  1
ACDBDICTIONARYWDFLT
  2
AcDbDictionaryWithDefault
  3
ObjectDBX Classes
 90
        0
 91
        1
280
     0
281
     0
  0
CLASS
  1
MATERIAL
  2
AcDbMaterial
  3
ObjectDBX Classes
 90
     1153
 91
        3
280
     0
281
     0
  0
CLASS
  1
VISUALSTYLE
  2
AcDbVisualStyle
  3
ObjectDBX Classes
 90
     4095
 91
       24
280
     0
281
     0
  0
CLASS
  1
SCALE
  2
AcDbScale
  3
ObjectDBX Classes
 90
     1153
 91
       17
280
     0
281
     0
  0
CLASS
  1
TABLESTYLE
  2
AcDbTableStyle
  3
ObjectDBX Classes
 90
     4095
 91
        1
280
     0
281
     0
  0
CLASS
  1
MLEADERSTYLE
  2
AcDbMLeaderStyle
  3
ACDB_MLEADERSTYLE_CLASS
 90
     4095
 91
        1
280
     0
281
     0
  0
CLASS
  1
ACDBSECTIONVIEWSTYLE
  2
AcDbSectionViewStyle
  3
ObjectDBX Classes
 90
     1025
 91
        1
280
     0
281
     0
  0
CLASS
  1
ACDBDETAILVIEWSTYLE
  2
AcDbDetailViewStyle
  3
ObjectDBX Classes
 90
     1025
 91
        1
280
     0
281
     0
  0
CLASS
  1
DICTIONARYVAR
  2
AcDbDictionaryVar
  3
ObjectDBX Classes
 90
        0
 91
        5
280
     0
281
     0
  0
CLASS
  1
CELLSTYLEMAP
  2
AcDbCellStyleMap
  3
ObjectDBX Classes
 90
     1152
 91
        1
280
     0
281
     0
  0
ENDSEC
  0
SECTION
  2
TABLES
  0
TABLE
  2
VPORT
  5
8
330
0
100
AcDbSymbolTable
 70
     1
  0
VPORT
  5
57
330
8
100
AcDbSymbolTableRecord
100
AcDbViewportTableRecord
  2
*Active
 70
     0
 10
0.0
 20
0.0
 11
1.0
 21
1.0
 12
0.0
 22
0.0
 13
0.0
 23
0.0
 14
1.0
 24
1.0
 15
0.0
 25
0.0
 16
0.0
 26
0.0
 36
1.0
 17
105.0000721959721
 27
148.5000416295418
 37
0.0
 40
89.75999997755987
 41
1.0
 42
50.0
 43
0.0
 44
0.0
 50
0.0
 51
0.0
 71
     0
 72
   100
 73
     1
 74
     1
 75
     0
 76
     0
 77
     0
 78
     0
281
     0
 65
     1
110
0.0
120
0.0
130
0.0
111
1.0
121
0.0
131
0.0
112
0.0
122
1.0
132
0.0
 79
     0
146
0.0
 60
     3
 61
     5
292
     1
282
     1
141
0.0
142
0.0
 63
   250
421
  3355443
  0
ENDTAB
  0
TABLE
  2
LTYPE
  5
5
330
0
100
AcDbSymbolTable
 70
     3
  0
LTYPE
  5
5B
330
5
100
AcDbSymbolTableRecord
100
AcDbLinetypeTableRecord
  2
ByBlock
 70
     0
  3

 72
    65
 73
     0
 40
0.0
  0
LTYPE
  5
5C
330
5
100
AcDbSymbolTableRecord
100
AcDbLinetypeTableRecord
  2
ByLayer
 70
     0
  3

 72
    65
 73
     0
 40
0.0
  0
LTYPE
  5
5D
330
5
100
AcDbSymbolTableRecord
100
AcDbLinetypeTableRecord
  2
Continuous
 70
     0
  3
Solid line
 72
    65
 73
     0
 40
0.0
  0
LTYPE
  5
271
330
5
100
AcDbSymbolTableRecord
100
AcDbLinetypeTableRecord
  2
AI-Linetype-0
 70
     0
  3
Adobe Illustrator Linetype No. 0
 72
    65
 73
     2
 40
1.411111110758333
 49
0.7055555553791667
 74
     0
 49
-0.7055555553791667
 74
     0
  0
LTYPE
  5
276
330
5
100
AcDbSymbolTableRecord
100
AcDbLinetypeTableRecord
  2
AI-Linetype-1
 70
     0
  3
Adobe Illustrator Linetype No. 1
 72
    65
 73
     2
 40
1.411111110758333
 49
0.7055555553791667
 74
     0
 49
-0.7055555553791667
 74
     0
  0
ENDTAB
  0
TABLE
  2
LAYER
  5
2
330
0
100
AcDbSymbolTable
 70
     3
  0
LAYER
  5
54
330
2
100
AcDbSymbolTableRecord
100
AcDbLayerTableRecord
  2
0
 70
     0
 62
     7
  6
Continuous
370
    -3
390
F
347
21
348
0
  0
LAYER
  5
78
330
2
100
AcDbSymbolTableRecord
100
AcDbLayerTableRecord
  2
Sichtbar schmal (ISO)
 70
     0
 62
     7
  6
Continuous
370
     0
390
F
347
21
348
0
  0
LAYER
  5
88
330
2
100
AcDbSymbolTableRecord
100
AcDbLayerTableRecord
  2
Bemaßung (ISO)
 70
     0
 62
     7
  6
Continuous
370
     0
390
F
347
21
348
0
  0
ENDTAB
  0
TABLE
  2
STYLE
  5
3
330
0
100
AcDbSymbolTable
 70
     2
  0
STYLE
  5
55
330
3
100
AcDbSymbolTableRecord
100
AcDbTextStyleTableRecord
  2
Standard
 70
     0
 40
0.0
 41
1.0
 50
0.0
 71
     0
 42
0.2
  3
txt
  4

  0
STYLE
  5
5A
330
3
100
AcDbSymbolTableRecord
100
AcDbTextStyleTableRecord
  2
Annotative
 70
     0
 40
0.0
 41
1.0
 50
0.0
 71
     0
 42
0.2
  3
txt
  4

1001
AcadAnnotative
1000
AnnotativeData
1002
{
1070
     1
1070
     1
1002
}
  0
ENDTAB
  0
TABLE
  2
VIEW
  5
6
330
0
100
AcDbSymbolTable
 70
     0
  0
ENDTAB
  0
TABLE
  2
UCS
  5
7
330
0
100
AcDbSymbolTable
 70
     0
  0
ENDTAB
  0
TABLE
  2
APPID
  5
9
330
0
100
AcDbSymbolTable
 70
     2
  0
APPID
  5
56
330
9
100
AcDbSymbolTableRecord
100
AcDbRegAppTableRecord
  2
ACAD
 70
     0
  0
APPID
  5
5E
330
9
100
AcDbSymbolTableRecord
100
AcDbRegAppTableRecord
  2
AcadAnnotative
 70
     0
  0
ENDTAB
  0
TABLE
  2
DIMSTYLE
  5
A
330
0
100
AcDbSymbolTable
 70
     2
100
AcDbDimStyleTable
 71
     0
  0
DIMSTYLE
105
58
330
A
100
AcDbSymbolTableRecord
100
AcDbDimStyleTableRecord
  2
Standard
 70
     0
340
55
  0
DIMSTYLE
105
59
330
A
100
AcDbSymbolTableRecord
100
AcDbDimStyleTableRecord
  2
Annotative
 70
     0
340
55
1001
AcadAnnotative
1000
AnnotativeData
1002
{
1070
     1
1070
     1
1002
}
  0
ENDTAB
  0
TABLE
  2
BLOCK_RECORD
  5
1
330
0
100
AcDbSymbolTable
 70
    49
  0
BLOCK_RECORD
  5
70
330
1
100
AcDbSymbolTableRecord
100
AcDbBlockTableRecord
  2
*Model_Space
340
73
 70
     0
280
     1
281
     0
  0
BLOCK_RECORD
  5
6C
330
1
100
AcDbSymbolTableRecord
100
AcDbBlockTableRecord
  2
*Paper_Space
340
6F
 70
     0
280
     1
281
     0
  0
BLOCK_RECORD
  5
74
330
1
100
AcDbSymbolTableRecord
100
AcDbBlockTableRecord
  2
*Paper_Space0
340
77
 70
     0
280
     1
281
     0
  0
BLOCK_RECORD
  5
79
330
1
100
AcDbSymbolTableRecord
100
AcDbBlockTableRecord
  2
Block_0
340
0
102
{BLKREFS
331
7A
102
}
 70
     0
280
     1
281
     0
  0
BLOCK_RECORD
  5
7F
330
1
100
AcDbSymbolTableRecord
100
AcDbBlockTableRecord
  2
Block_1
340
0
102
{BLKREFS
331
80
102
}
 70
     0
280
     1
281
     0
  0
BLOCK_RECORD
  5
89
330
1
100
AcDbSymbolTableRecord
100
AcDbBlockTableRecord
  2
Block_2
340
0
102
{BLKREFS
331
8A
102
}
 70
     0
280
     1
281
     0
  0
BLOCK_RECORD
  5
103
330
1
100
AcDbSymbolTableRecord
100
AcDbBlockTableRecord
  2
Block_3
340
0
102
{BLKREFS
331
104
102
}
 70
     0
280
     1
281
     0
  0
BLOCK_RECORD
  5
198
330
1
100
AcDbSymbolTableRecord
100
AcDbBlockTableRecord
  2
Block_4
340
0
102
{BLKREFS
331
199
102
}
 70
     0
280
     1
281
     0
  0
BLOCK_RECORD
  5
19C
330
1
100
AcDbSymbolTableRecord
100
AcDbBlockTableRecord
  2
Block_5
340
0
102
{BLKREFS
331
19D
102
}
 70
     0
280
     1
281
     0
  0
BLOCK_RECORD
  5
1A1
330
1
100
AcDbSymbolTableRecord
100
AcDbBlockTableRecord
  2
Block_6
340
0
102
{BLKREFS
331
1A2
102
}
 70
     0
280
     1
281
     0
  0
BLOCK_RECORD
  5
1A7
330
1
100
AcDbSymbolTableRecord
100
AcDbBlockTableRecord
  2
Block_7
340
0
102
{BLKREFS
331
1A8
102
}
 70
     0
280
     1
281
     0
  0
BLOCK_RECORD
  5
1AD
330
1
100
AcDbSymbolTableRecord
100
AcDbBlockTableRecord
  2
Block_8
340
0
102
{BLKREFS
331
1AE
102
}
 70
     0
280
     1
281
     0
  0
BLOCK_RECORD
  5
1BD
330
1
100
AcDbSymbolTableRecord
100
AcDbBlockTableRecord
  2
Block_9
340
0
102
{BLKREFS
331
1BE
102
}
 70
     0
280
     1
281
     0
  0
BLOCK_RECORD
  5
1C1
330
1
100
AcDbSymbolTableRecord
100
AcDbBlockTableRecord
  2
Block_10
340
0
102
{BLKREFS
331
1C2
102
}
 70
     0
280
     1
281
     0
  0
BLOCK_RECORD
  5
1CB
330
1
100
AcDbSymbolTableRecord
100
AcDbBlockTableRecord
  2
Block_11
340
0
102
{BLKREFS
331
1CC
102
}
 70
     0
280
     1
281
     0
  0
BLOCK_RECORD
  5
1CF
330
1
100
AcDbSymbolTableRecord
100
AcDbBlockTableRecord
  2
Block_12
340
0
102
{BLKREFS
331
1D0
102
}
 70
     0
280
     1
281
     0
  0
BLOCK_RECORD
  5
1D7
330
1
100
AcDbSymbolTableRecord
100
AcDbBlockTableRecord
  2
Block_13
340
0
102
{BLKREFS
331
1D8
102
}
 70
     0
280
     1
281
     0
  0
BLOCK_RECORD
  5
1E8
330
1
100
AcDbSymbolTableRecord
100
AcDbBlockTableRecord
  2
Block_14
340
0
102
{BLKREFS
331
1E9
102
}
 70
     0
280
     1
281
     0
  0
BLOCK_RECORD
  5
1EC
330
1
100
AcDbSymbolTableRecord
100
AcDbBlockTableRecord
  2
Block_15
340
0
102
{BLKREFS
331
1ED
102
}
 70
     0
280
     1
281
     0
  0
BLOCK_RECORD
  5
1F1
330
1
100
AcDbSymbolTableRecord
100
AcDbBlockTableRecord
  2
Block_16
340
0
102
{BLKREFS
331
1F2
102
}
 70
     0
280
     1
281
     0
  0
BLOCK_RECORD
  5
1F7
330
1
100
AcDbSymbolTableRecord
100
AcDbBlockTableRecord
  2
Block_17
340
0
102
{BLKREFS
331
1F8
102
}
 70
     0
280
     1
281
     0
  0
BLOCK_RECORD
  5
1FD
330
1
100
AcDbSymbolTableRecord
100
AcDbBlockTableRecord
  2
Block_18
340
0
102
{BLKREFS
331
1FE
102
}
 70
     0
280
     1
281
     0
  0
BLOCK_RECORD
  5
201
330
1
100
AcDbSymbolTableRecord
100
AcDbBlockTableRecord
  2
Block_19
340
0
102
{BLKREFS
331
202
102
}
 70
     0
280
     1
281
     0
  0
BLOCK_RECORD
  5
206
330
1
100
AcDbSymbolTableRecord
100
AcDbBlockTableRecord
  2
Block_20
340
0
102
{BLKREFS
331
207
102
}
 70
     0
280
     1
281
     0
  0
BLOCK_RECORD
  5
20C
330
1
100
AcDbSymbolTableRecord
100
AcDbBlockTableRecord
  2
Block_21
340
0
102
{BLKREFS
331
20D
102
}
 70
     0
280
     1
281
     0
  0
BLOCK_RECORD
  5
212
330
1
100
AcDbSymbolTableRecord
100
AcDbBlockTableRecord
  2
Block_22
340
0
102
{BLKREFS
331
213
102
}
 70
     0
280
     1
281
     0
  0
BLOCK_RECORD
  5
216
330
1
100
AcDbSymbolTableRecord
100
AcDbBlockTableRecord
  2
Block_23
340
0
102
{BLKREFS
331
217
102
}
 70
     0
280
     1
281
     0
  0
BLOCK_RECORD
  5
21B
330
1
100
AcDbSymbolTableRecord
100
AcDbBlockTableRecord
  2
Block_24
340
0
102
{BLKREFS
331
21C
102
}
 70
     0
280
     1
281
     0
  0
BLOCK_RECORD
  5
221
330
1
100
AcDbSymbolTableRecord
100
AcDbBlockTableRecord
  2
Block_25
340
0
102
{BLKREFS
331
222
102
}
 70
     0
280
     1
281
     0
  0
BLOCK_RECORD
  5
229
330
1
100
AcDbSymbolTableRecord
100
AcDbBlockTableRecord
  2
Block_26
340
0
102
{BLKREFS
331
22A
102
}
 70
     0
280
     1
281
     0
  0
BLOCK_RECORD
  5
22D
330
1
100
AcDbSymbolTableRecord
100
AcDbBlockTableRecord
  2
Block_27
340
0
102
{BLKREFS
331
22E
102
}
 70
     0
280
     1
281
     0
  0
BLOCK_RECORD
  5
236
330
1
100
AcDbSymbolTableRecord
100
AcDbBlockTableRecord
  2
Block_28
340
0
102
{BLKREFS
331
237
102
}
 70
     0
280
     1
281
     0
  0
BLOCK_RECORD
  5
23A
330
1
100
AcDbSymbolTableRecord
100
AcDbBlockTableRecord
  2
Block_29
340
0
102
{BLKREFS
331
23B
102
}
 70
     0
280
     1
281
     0
  0
BLOCK_RECORD
  5
23F
330
1
100
AcDbSymbolTableRecord
100
AcDbBlockTableRecord
  2
Block_30
340
0
102
{BLKREFS
331
240
102
}
 70
     0
280
     1
281
     0
  0
BLOCK_RECORD
  5
245
330
1
100
AcDbSymbolTableRecord
100
AcDbBlockTableRecord
  2
Block_31
340
0
102
{BLKREFS
331
246
102
}
 70
     0
280
     1
281
     0
  0
BLOCK_RECORD
  5
24B
330
1
100
AcDbSymbolTableRecord
100
AcDbBlockTableRecord
  2
Block_32
340
0
102
{BLKREFS
331
24C
102
}
 70
     0
280
     1
281
     0
  0
BLOCK_RECORD
  5
24F
330
1
100
AcDbSymbolTableRecord
100
AcDbBlockTableRecord
  2
Block_33
340
0
102
{BLKREFS
331
250
102
}
 70
     0
280
     1
281
     0
  0
BLOCK_RECORD
  5
257
330
1
100
AcDbSymbolTableRecord
100
AcDbBlockTableRecord
  2
Block_34
340
0
102
{BLKREFS
331
258
102
}
 70
     0
280
     1
281
     0
  0
BLOCK_RECORD
  5
25B
330
1
100
AcDbSymbolTableRecord
100
AcDbBlockTableRecord
  2
Block_35
340
0
102
{BLKREFS
331
25C
102
}
 70
     0
280
     1
281
     0
  0
BLOCK_RECORD
  5
263
330
1
100
AcDbSymbolTableRecord
100
AcDbBlockTableRecord
  2
Block_36
340
0
102
{BLKREFS
331
264
102
}
 70
     0
280
     1
281
     0
  0
BLOCK_RECORD
  5
267
330
1
100
AcDbSymbolTableRecord
100
AcDbBlockTableRecord
  2
Block_37
340
0
102
{BLKREFS
331
268
102
}
 70
     0
280
     1
281
     0
  0
BLOCK_RECORD
  5
277
330
1
100
AcDbSymbolTableRecord
100
AcDbBlockTableRecord
  2
Block_38
340
0
102
{BLKREFS
331
278
102
}
 70
     0
280
     1
281
     0
  0
BLOCK_RECORD
  5
27B
330
1
100
AcDbSymbolTableRecord
100
AcDbBlockTableRecord
  2
Block_39
340
0
102
{BLKREFS
331
27C
102
}
 70
     0
280
     1
281
     0
  0
BLOCK_RECORD
  5
280
330
1
100
AcDbSymbolTableRecord
100
AcDbBlockTableRecord
  2
Block_40
340
0
102
{BLKREFS
331
281
102
}
 70
     0
280
     1
281
     0
  0
BLOCK_RECORD
  5
286
330
1
100
AcDbSymbolTableRecord
100
AcDbBlockTableRecord
  2
Block_41
340
0
102
{BLKREFS
331
287
102
}
 70
     0
280
     1
281
     0
  0
BLOCK_RECORD
  5
28A
330
1
100
AcDbSymbolTableRecord
100
AcDbBlockTableRecord
  2
Block_42
340
0
102
{BLKREFS
331
28B
102
}
 70
     0
280
     1
281
     0
  0
BLOCK_RECORD
  5
28F
330
1
100
AcDbSymbolTableRecord
100
AcDbBlockTableRecord
  2
Block_43
340
0
102
{BLKREFS
331
290
102
}
 70
     0
280
     1
281
     0
  0
BLOCK_RECORD
  5
295
330
1
100
AcDbSymbolTableRecord
100
AcDbBlockTableRecord
  2
Block_44
340
0
102
{BLKREFS
331
296
102
}
 70
     0
280
     1
281
     0
  0
BLOCK_RECORD
  5
29C
330
1
100
AcDbSymbolTableRecord
100
AcDbBlockTableRecord
  2
Block_45
340
0
102
{BLKREFS
331
29D
102
}
 70
     0
280
     1
281
     0
  0
BLOCK_RECORD
  5
2A0
330
1
100
AcDbSymbolTableRecord
100
AcDbBlockTableRecord
  2
Block_46
340
0
102
{BLKREFS
331
2A1
102
}
 70
     0
280
     1
281
     0
  0
BLOCK_RECORD
  5
2A5
330
1
100
AcDbSymbolTableRecord
100
AcDbBlockTableRecord
  2
Block_47
340
0
102
{BLKREFS
331
2A6
102
}
 70
     0
280
     1
281
     0
  0
ENDTAB
  0
ENDSEC
  0
SECTION
  2
BLOCKS
  0
BLOCK
  5
71
330
70
100
AcDbEntity
  8
0
100
AcDbBlockBegin
  2
*Model_Space
 70
     0
 10
0.0
 20
0.0
 30
0.0
  3
*Model_Space
  1

  0
ENDBLK
  5
72
330
70
100
AcDbEntity
  8
0
100
AcDbBlockEnd
  0
BLOCK
  5
6D
330
6C
100
AcDbEntity
 67
     1
  8
0
100
AcDbBlockBegin
  2
*Paper_Space
 70
     0
 10
0.0
 20
0.0
 30
0.0
  3
*Paper_Space
  1

  0
ENDBLK
  5
6E
330
6C
100
AcDbEntity
 67
     1
  8
0
100
AcDbBlockEnd
  0
BLOCK
  5
75
330
74
100
AcDbEntity
 67
     1
  8
0
100
AcDbBlockBegin
  2
*Paper_Space0
 70
     0
 10
0.0
 20
0.0
 30
0.0
  3
*Paper_Space0
  1

  0
ENDBLK
  5
76
330
74
100
AcDbEntity
 67
     1
  8
0
100
AcDbBlockEnd
  0
BLOCK
  5
7B
330
79
100
AcDbEntity
  8
0
100
AcDbBlockBegin
  2
Block_0
 70
     0
 10
0.0
 20
0.0
 30
0.0
  3
Block_0
  1

  0
SPLINE
  5
7D
330
79
100
AcDbEntity
  8
Sichtbar schmal (ISO)
100
AcDbSpline
210
0.0
220
0.0
230
1.0
 70
     8
 71
     3
 72
    38
 73
    34
 74
     0
 42
0.0000000001
 43
0.0000000001
 40
0.0
 40
0.0
 40
0.0
 40
0.0
 40
1.0
 40
1.0
 40
1.0
 40
2.0
 40
2.0
 40
2.0
 40
3.0
 40
3.0
 40
3.0
 40
4.0
 40
4.0
 40
4.0
 40
5.0
 40
5.0
 40
5.0
 40
6.0
 40
6.0
 40
6.0
 40
7.0
 40
7.0
 40
7.0
 40
8.0
 40
8.0
 40
8.0
 40
9.0
 40
9.0
 40
9.0
 40
10.0
 40
10.0
 40
10.0
 40
11.0
 40
11.0
 40
11.0
 40
11.0
 10
113.721837466467
 20
186.2167902884722
 30
0.0
 10
113.721837466467
 20
186.2167902884722
 30
0.0
 10
114.061805615966
 20
186.2167902884722
 30
0.0
 10
114.061805615966
 20
186.2167902884722
 30
0.0
 10
114.061805615966
 20
186.2167902884722
 30
0.0
 10
114.061805615966
 20
184.6469767259169
 30
0.0
 10
114.061805615966
 20
184.6469767259169
 30
0.0
 10
114.061805615966
 20
184.6469767259169
 30
0.0
 10
114.061805615966
 20
184.4895175616316
 30
0.0
 10
114.061805615966
 20
184.4895175616316
 30
0.0
 10
114.061805615966
 20
184.3388944480792
 30
0.0
 10
113.833492228314
 20
184.216790288972
 30
0.0
 10
113.5518533917181
 20
184.216790288972
 30
0.0
 10
113.5518533917181
 20
184.216790288972
 30
0.0
 10
80.74492696507943
 20
184.216790288972
 30
0.0
 10
80.74492696507943
 20
184.216790288972
 30
0.0
 10
80.46328812848519
 20
184.216790288972
 30
0.0
 10
80.23497474083061
 20
184.3388944480792
 30
0.0
 10
80.23497474083061
 20
184.4895175616316
 30
0.0
 10
80.23497474083061
 20
184.4895175616316
 30
0.0
 10
80.23497474083061
 20
184.6469767259169
 30
0.0
 10
80.23497474083061
 20
184.6469767259169
 30
0.0
 10
80.23497474083061
 20
184.6469767259169
 30
0.0
 10
80.23497474083061
 20
186.2167902884722
 30
0.0
 10
80.23497474083061
 20
186.2167902884722
 30
0.0
 10
80.23497474083061
 20
186.2167902884722
 30
0.0
 10
80.57494289032993
 20
186.2167902884722
 30
0.0
 10
80.57494289032993
 20
186.2167902884722
 30
0.0
 10
80.57494289032993
 20
186.2167902884722
 30
0.0
 10
80.59194129780541
 20
186.2167902884722
 30
0.0
 10
80.59194129780541
 20
186.2167902884722
 30
0.0
 10
80.59194129780541
 20
186.2167902884722
 30
0.0
 10
113.7048390589918
 20
186.2167902884722
 30
0.0
 10
113.7048390589918
 20
186.2167902884722
 30
0.0
  0
HATCH
  5
7E
330
79
100
AcDbEntity
  8
Sichtbar schmal (ISO)
 62
   254
420
 14606046
440
 33554687
100
AcDbHatch
 10
0.0
 20
0.0
 30
0.0
210
0.0
220
0.0
230
1.0
  2
SOLID
 70
     1
 71
     1
 91
        1
 92
        1
 93
        2
 72
     4
 94
        3
 73
     0
 74
     0
 95
       38
 96
       34
 40
0.0
 40
0.0
 40
0.0
 40
0.0
 40
1.0
 40
1.0
 40
1.0
 40
2.0
 40
2.0
 40
2.0
 40
3.0
 40
3.0
 40
3.0
 40
4.0
 40
4.0
 40
4.0
 40
5.0
 40
5.0
 40
5.0
 40
6.0
 40
6.0
 40
6.0
 40
7.0
 40
7.0
 40
7.0
 40
8.0
 40
8.0
 40
8.0
 40
9.0
 40
9.0
 40
9.0
 40
10.0
 40
10.0
 40
10.0
 40
11.0
 40
11.0
 40
11.0
 40
11.0
 10
113.721837466467
 20
186.2167902884722
 10
113.721837466467
 20
186.2167902884722
 10
114.061805615966
 20
186.2167902884722
 10
114.061805615966
 20
186.2167902884722
 10
114.061805615966
 20
186.2167902884722
 10
114.061805615966
 20
184.6469767259169
 10
114.061805615966
 20
184.6469767259169
 10
114.061805615966
 20
184.6469767259169
 10
114.061805615966
 20
184.4895175616316
 10
114.061805615966
 20
184.4895175616316
 10
114.061805615966
 20
184.3388944480792
 10
113.833492228314
 20
184.216790288972
 10
113.5518533917181
 20
184.216790288972
 10
113.5518533917181
 20
184.216790288972
 10
80.74492696507943
 20
184.216790288972
 10
80.74492696507943
 20
184.216790288972
 10
80.46328812848519
 20
184.216790288972
 10
80.23497474083061
 20
184.3388944480792
 10
80.23497474083061
 20
184.4895175616316
 10
80.23497474083061
 20
184.4895175616316
 10
80.23497474083061
 20
184.6469767259169
 10
80.23497474083061
 20
184.6469767259169
 10
80.23497474083061
 20
184.6469767259169
 10
80.23497474083061
 20
186.2167902884722
 10
80.23497474083061
 20
186.2167902884722
 10
80.23497474083061
 20
186.2167902884722
 10
80.57494289032993
 20
186.2167902884722
 10
80.57494289032993
 20
186.2167902884722
 10
80.57494289032993
 20
186.2167902884722
 10
80.59194129780541
 20
186.2167902884722
 10
80.59194129780541
 20
186.2167902884722
 10
80.59194129780541
 20
186.2167902884722
 10
113.7048390589918
 20
186.2167902884722
 10
113.7048390589918
 20
186.2167902884722
 97
        0
 72
     1
 10
113.7048390589918
 20
186.2167902884722
 11
113.721837466467
 21
186.2167902884722
 97
        0
 75
     2
 76
     1
 98
        1
 10
0.0
 20
0.0
450
        0
451
        0
460
0.0
461
0.0
452
        0
462
0.0
453
        0
470

  0
ENDBLK
  5
7C
330
79
100
AcDbEntity
  8
0
100
AcDbBlockEnd
  0
BLOCK
  5
81
330
7F
100
AcDbEntity
  8
0
100
AcDbBlockBegin
  2
Block_1
 70
     0
 10
0.0
 20
0.0
 30
0.0
  3
Block_1
  1

  0
LINE
  5
83
330
7F
100
AcDbEntity
  8
Sichtbar schmal (ISO)
 62
    18
420
        0
370
     5
100
AcDbLine
 10
115.6185722757618
 20
186.22436183963
 30
0.0
 11
79.04010289715329
 21
186.22436183963
 31
0.0
  0
LINE
  5
84
330
7F
100
AcDbEntity
  8
Sichtbar schmal (ISO)
 62
    18
420
        0
370
     5
100
AcDbLine
 10
79.04010289715329
 20
183.5344032910791
 30
0.0
 11
79.04010289715329
 21
186.22436183963
 31
0.0
  0
LINE
  5
85
330
7F
100
AcDbEntity
  8
Sichtbar schmal (ISO)
 62
    18
420
        0
370
     5
100
AcDbLine
 10
115.6185722757618
 20
183.5344032910791
 30
0.0
 11
115.6185722757618
 21
186.22436183963
 31
0.0
  0
LINE
  5
86
330
7F
100
AcDbEntity
  8
Sichtbar schmal (ISO)
 62
    18
420
        0
370
     5
100
AcDbLine
 10
79.04010289715329
 20
183.5247962962644
 30
0.0
 11
79.04010289715329
 21
183.5344032910791
 31
0.0
  0
SPLINE
  5
87
330
7F
100
AcDbEntity
  8
Sichtbar schmal (ISO)
 62
    18
420
        0
370
     5
100
AcDbSpline
210
0.0
220
0.0
230
1.0
 70
     8
 71
     3
 72
     8
 73
     4
 74
     0
 42
0.0000000001
 43
0.0000000001
 40
0.0
 40
0.0
 40
0.0
 40
0.0
 40
1.0
 40
1.0
 40
1.0
 40
1.0
 10
79.04010289715329
 20
183.5247962962644
 30
0.0
 10
79.04010289715329
 20
183.522586893609
 30
0.0
 10
79.04017807745737
 20
183.5203781484582
 30
0.0
 10
79.04032830394434
 20
183.518174001179
 30
0.0
  0
ENDBLK
  5
82
330
7F
100
AcDbEntity
  8
0
100
AcDbBlockEnd
  0
BLOCK
  5
8B
330
89
100
AcDbEntity
  8
0
100
AcDbBlockBegin
  2
Block_2
 70
     0
 10
0.0
 20
0.0
 30
0.0
  3
Block_2
  1

  0
LINE
  5
8D
330
89
100
AcDbEntity
  8
Bemaßung (ISO)
 62
    18
420
        0
370
     5
100
AcDbLine
 10
79.2202924014814
 20
170.097401202263
 30
0.0
 11
79.2202924014814
 21
169.7370221936071
 31
0.0
  0
LINE
  5
8E
330
89
100
AcDbEntity
  8
Bemaßung (ISO)
 62
    18
420
        0
370
     5
100
AcDbLine
 10
79.04010289715329
 20
170.097401202263
 30
0.0
 11
79.04010289715329
 21
169.7370221936071
 31
0.0
  0
LINE
  5
8F
330
89
100
AcDbEntity
  8
Bemaßung (ISO)
 62
    18
420
        0
370
     5
100
AcDbLine
 10
79.04010289715329
 20
170.097401202263
 30
0.0
 11
79.04010289715329
 21
186.22436183963
 31
0.0
  0
LINE
  5
90
330
89
100
AcDbEntity
  8
Bemaßung (ISO)
 62
    18
420
        0
370
     5
100
AcDbLine
 10
115.4383827714353
 20
186.22436183963
 30
0.0
 11
115.3032406431895
 21
186.22436183963
 31
0.0
  0
LINE
  5
91
330
89
100
AcDbEntity
  8
Bemaßung (ISO)
 62
    18
420
        0
370
     5
100
AcDbLine
 10
115.6185722757625
 20
182.3502874965754
 30
0.0
 11
115.6185722757625
 21
186.22436183963
 31
0.0
  0
LINE
  5
92
330
89
100
AcDbEntity
  8
Bemaßung (ISO)
 62
    18
420
        0
370
     5
100
AcDbLine
 10
115.6185722757625
 20
170.097401202263
 30
0.0
 11
115.6185722757625
 21
182.3502874965754
 31
0.0
  0
LINE
  5
93
330
89
100
AcDbEntity
  8
Bemaßung (ISO)
 62
    18
420
        0
370
     5
100
AcDbLine
 10
115.6185722757625
 20
169.7370221936071
 30
0.0
 11
115.6185722757625
 21
170.097401202263
 31
0.0
  0
LINE
  5
94
330
89
100
AcDbEntity
  8
Bemaßung (ISO)
 62
    18
420
        0
370
     5
100
AcDbLine
 10
115.438382771434
 20
169.7370221936071
 30
0.0
 11
115.438382771434
 21
170.097401202263
 31
0.0
  0
LINE
  5
95
330
89
100
AcDbEntity
  8
Bemaßung (ISO)
 62
    18
420
        0
370
     5
100
AcDbLine
 10
115.438382771434
 20
186.22436183963
 30
0.0
 11
115.6185722757625
 21
186.22436183963
 31
0.0
  0
LINE
  5
96
330
89
100
AcDbEntity
  8
Bemaßung (ISO)
 62
    18
420
        0
370
     5
100
AcDbLine
 10
115.6185722757625
 20
182.3502874965754
 30
0.0
 11
115.2581932671062
 21
182.3502874965754
 31
0.0
  0
LINE
  5
97
330
89
100
AcDbEntity
  8
Bemaßung (ISO)
 62
    18
420
        0
370
     5
100
AcDbLine
 10
115.6185722757625
 20
170.097401202263
 30
0.0
 11
115.2581932671062
 21
170.097401202263
 31
0.0
  0
SPLINE
  5
98
330
89
100
AcDbEntity
  8
Bemaßung (ISO)
 62
    18
420
        0
370
     5
100
AcDbSpline
210
0.0
220
0.0
230
1.0
 70
     8
 71
     3
 72
     8
 73
     4
 74
     0
 42
0.0000000001
 43
0.0000000001
 40
0.0
 40
0.0
 40
0.0
 40
0.0
 40
1.0
 40
1.0
 40
1.0
 40
1.0
 10
115.3032406431895
 20
169.5625544562512
 30
0.0
 10
115.3827976320641
 20
169.5830959824508
 30
0.0
 10
115.438382771434
 20
169.6548560888102
 30
0.0
 10
115.438382771434
 20
169.7370221936071
 30
0.0
  0
SPLINE
  5
99
330
89
100
AcDbEntity
  8
Bemaßung (ISO)
 62
    18
420
        0
370
     5
100
AcDbSpline
210
0.0
220
0.0
230
1.0
 70
     8
 71
     3
 72
     8
 73
     4
 74
     0
 42
0.0000000001
 43
0.0000000001
 40
0.0
 40
0.0
 40
0.0
 40
0.0
 40
1.0
 40
1.0
 40
1.0
 40
1.0
 10
115.3032406431895
 20
169.3794697306195
 30
0.0
 10
115.4834301475173
 20
169.402171474302
 30
0.0
 10
115.6185722757625
 20
169.5554082441537
 30
0.0
 10
115.6185722757625
 20
169.7370221936071
 30
0.0
  0
LINE
  5
9A
330
89
100
AcDbEntity
  8
Bemaßung (ISO)
 62
    18
420
        0
370
     5
100
AcDbLine
 10
97.34209434149148
 20
169.5568326892789
 30
0.0
 11
97.52228384581959
 21
169.5568326892789
 31
0.0
  0
LINE
  5
9B
330
89
100
AcDbEntity
  8
Bemaßung (ISO)
 62
    18
420
        0
370
     5
100
AcDbLine
 10
97.52228384581959
 20
169.5568326892789
 30
0.0
 11
97.66832213827919
 21
169.5568326892789
 31
0.0
  0
LINE
  5
9C
330
89
100
AcDbEntity
  8
Bemaßung (ISO)
 62
    18
420
        0
370
     5
100
AcDbLine
 10
110.7894935597697
 20
169.5568326892789
 30
0.0
 11
110.9696830640974
 21
169.5568326892789
 31
0.0
  0
LINE
  5
9D
330
89
100
AcDbEntity
  8
Bemaßung (ISO)
 62
    18
420
        0
370
     5
100
AcDbLine
 10
97.52228384581959
 20
169.3766431849505
 30
0.0
 11
110.9696830640974
 21
169.3766431849505
 31
0.0
  0
LINE
  5
9E
330
89
100
AcDbEntity
  8
Bemaßung (ISO)
 62
    18
420
        0
370
     5
100
AcDbLine
 10
97.52228384581959
 20
169.3766431849505
 30
0.0
 11
97.34209434149148
 21
169.3766431849505
 31
0.0
  0
LINE
  5
9F
330
89
100
AcDbEntity
  8
Bemaßung (ISO)
 62
    18
420
        0
370
     5
100
AcDbLine
 10
97.34209434149148
 20
169.3766431849505
 30
0.0
 11
97.34209434149148
 21
169.5568326892789
 31
0.0
  0
SPLINE
  5
A0
330
89
100
AcDbEntity
  8
Bemaßung (ISO)
 62
    18
420
        0
370
     5
100
AcDbSpline
210
0.0
220
0.0
230
1.0
 70
     8
 71
     3
 72
    26
 73
    22
 74
     0
 42
0.0000000001
 43
0.0000000001
 40
0.0
 40
0.0
 40
0.0
 40
0.0
 40
1.0
 40
1.0
 40
1.0
 40
2.0
 40
2.0
 40
2.0
 40
3.0
 40
3.0
 40
3.0
 40
4.0
 40
4.0
 40
4.0
 40
5.0
 40
5.0
 40
5.0
 40
6.0
 40
6.0
 40
6.0
 40
7.0
 40
7.0
 40
7.0
 40
7.0
 10
97.69470570791813
 20
169.7457524519057
 30
0.0
 10
97.69462272341856
 20
169.7456659890588
 30
0.0
 10
97.69453914092544
 20
169.7455801406167
 30
0.0
 10
97.6944549586943
 20
169.7454949078623
 30
0.0
 10
97.69354253963719
 20
169.7445711025863
 30
0.0
 10
97.69255966596363
 20
169.7437196241985
 30
0.0
 10
97.69150382152297
 20
169.7429420650312
 30
0.0
 10
97.69044797708197
 20
169.7421645058635
 30
0.0
 10
97.68931916187383
 20
169.7414608815593
 30
0.0
 10
97.68811454597759
 20
169.7408329330186
 30
0.0
 10
97.68690993008199
 20
169.7402049844778
 30
0.0
 10
97.68562951349892
 20
169.7396527019631
 30
0.0
 10
97.6842696272249
 20
169.7391775748593
 30
0.0
 10
97.68290974095151
 20
169.7387024477563
 30
0.0
 10
97.68147038498721
 20
169.7383044785909
 30
0.0
 10
97.67994781986482
 20
169.7379850908324
 30
0.0
 10
97.67842525474243
 20
169.7376657030746
 30
0.0
 10
97.67681948046133
 20
169.7374249040521
 30
0.0
 10
97.67512603325389
 20
169.7372640133407
 30
0.0
 10
97.67343258604743
 20
169.7371031226291
 30
0.0
 10
97.67165146591366
 20
169.7370221936071
 30
0.0
 10
97.66977918901238
 20
169.7370221936071
 30
0.0
  0
SPLINE
  5
A1
330
89
100
AcDbEntity
  8
Bemaßung (ISO)
 62
    18
420
        0
370
     5
100
AcDbSpline
210
0.0
220
0.0
230
1.0
 70
     8
 71
     3
 72
     8
 73
     4
 74
     0
 42
0.0000000001
 43
0.0000000001
 40
0.0
 40
0.0
 40
0.0
 40
0.0
 40
1.0
 40
1.0
 40
1.0
 40
1.0
 10
79.2202924014814
 20
169.7370221936071
 30
0.0
 10
79.2202924014814
 20
169.6375062782865
 30
0.0
 10
79.3009659904896
 20
169.5568326892789
 30
0.0
 10
79.40048190580951
 20
169.5568326892789
 30
0.0
  0
LINE
  5
A2
330
89
100
AcDbEntity
  8
Bemaßung (ISO)
 62
    18
420
        0
370
     5
100
AcDbLine
 10
79.40048190580951
 20
169.5568326892789
 30
0.0
 11
79.544633509272
 21
169.5568326892789
 31
0.0
  0
LINE
  5
A3
330
89
100
AcDbEntity
  8
Bemaßung (ISO)
 62
    18
420
        0
370
     5
100
AcDbLine
 10
83.68899210881897
 20
169.5568326892789
 30
0.0
 11
83.8691816131474
 21
169.5568326892789
 31
0.0
  0
LINE
  5
A4
330
89
100
AcDbEntity
  8
Bemaßung (ISO)
 62
    18
420
        0
370
     5
100
AcDbLine
 10
96.98745203997834
 20
169.5568326892789
 30
0.0
 11
97.13639132709557
 21
169.5568326892789
 31
0.0
  0
LINE
  5
A5
330
89
100
AcDbEntity
  8
Bemaßung (ISO)
 62
    18
420
        0
370
     5
100
AcDbLine
 10
97.13639132709557
 20
169.5568326892789
 30
0.0
 11
97.3165808314256
 21
169.5568326892789
 31
0.0
  0
SPLINE
  5
A6
330
89
100
AcDbEntity
  8
Bemaßung (ISO)
 62
    18
420
        0
370
     5
100
AcDbSpline
210
0.0
220
0.0
230
1.0
 70
     8
 71
     3
 72
     8
 73
     4
 74
     0
 42
0.0000000001
 43
0.0000000001
 40
0.0
 40
0.0
 40
0.0
 40
0.0
 40
1.0
 40
1.0
 40
1.0
 40
1.0
 10
79.0401028971536
 20
169.7370221936071
 30
0.0
 10
79.0401028971536
 20
169.5379903629666
 30
0.0
 10
79.20145007516968
 20
169.3766431849505
 30
0.0
 10
79.40048190580951
 20
169.3766431849505
 30
0.0
  0
LINE
  5
A7
330
89
100
AcDbEntity
  8
Bemaßung (ISO)
 62
    18
420
        0
370
     5
100
AcDbLine
 10
97.3165808314256
 20
169.3766431849505
 30
0.0
 11
97.13639132709557
 21
169.3766431849505
 31
0.0
  0
LINE
  5
A8
330
89
100
AcDbEntity
  8
Bemaßung (ISO)
 62
    18
420
        0
370
     5
100
AcDbLine
 10
79.40048190580951
 20
169.3766431849505
 30
0.0
 11
79.544633509272
 21
169.3766431849505
 31
0.0
  0
LINE
  5
A9
330
89
100
AcDbEntity
  8
Bemaßung (ISO)
 62
    18
420
        0
370
     5
100
AcDbLine
 10
83.68899210881897
 20
169.3766431849505
 30
0.0
 11
97.13639132709557
 21
169.3766431849505
 31
0.0
  0
LINE
  5
AA
330
89
100
AcDbEntity
  8
Bemaßung (ISO)
 62
    18
420
        0
370
     5
100
AcDbLine
 10
79.04010289715329
 20
170.097401202263
 30
0.0
 11
79.40048190580951
 21
170.097401202263
 31
0.0
  0
LINE
  5
AB
330
89
100
AcDbEntity
  8
Bemaßung (ISO)
 62
    18
420
        0
370
     5
100
AcDbLine
 10
79.40048190580951
 20
186.22436183963
 30
0.0
 11
79.04010289715329
 21
186.22436183963
 31
0.0
  0
LINE
  5
AC
330
89
100
AcDbEntity
  8
Bemaßung (ISO)
 62
    18
420
        0
370
     5
100
AcDbLine
 10
79.544633509272
 20
170.097401202263
 30
0.0
 11
79.40048190580951
 21
170.097401202263
 31
0.0
  0
LINE
  5
AD
330
89
100
AcDbEntity
  8
Bemaßung (ISO)
 62
    18
420
        0
370
     5
100
AcDbLine
 10
79.544633509272
 20
170.097401202263
 30
0.0
 11
79.544633509272
 21
169.3766431849505
 31
0.0
  0
LINE
  5
AE
330
89
100
AcDbEntity
  8
Bemaßung (ISO)
 62
    18
420
        0
370
     5
100
AcDbLine
 10
79.544633509272
 20
169.3766431849505
 30
0.0
 11
83.68899210881897
 21
169.3766431849505
 31
0.0
  0
LINE
  5
AF
330
89
100
AcDbEntity
  8
Bemaßung (ISO)
 62
    18
420
        0
370
     5
100
AcDbLine
 10
83.68899210881897
 20
169.3766431849505
 30
0.0
 11
83.68899210881897
 21
170.097401202263
 31
0.0
  0
LINE
  5
B0
330
89
100
AcDbEntity
  8
Bemaßung (ISO)
 62
    18
420
        0
370
     5
100
AcDbLine
 10
83.8691816131474
 20
170.097401202263
 30
0.0
 11
83.68899210881897
 21
170.097401202263
 31
0.0
  0
LINE
  5
B1
330
89
100
AcDbEntity
  8
Bemaßung (ISO)
 62
    18
420
        0
370
     5
100
AcDbLine
 10
83.8691816131474
 20
169.9172116979348
 30
0.0
 11
83.8691816131474
 21
170.097401202263
 31
0.0
  0
SPLINE
  5
B2
330
89
100
AcDbEntity
  8
Bemaßung (ISO)
 62
    18
420
        0
370
     5
100
AcDbSpline
210
0.0
220
0.0
230
1.0
 70
     8
 71
     3
 72
    11
 73
     7
 74
     0
 42
0.0000000001
 43
0.0000000001
 40
0.0
 40
0.0
 40
0.0
 40
0.0
 40
1.0
 40
1.0
 40
1.0
 40
2.0
 40
2.0
 40
2.0
 40
2.0
 10
97.63987055521658
 20
169.9172116979352
 30
0.0
 10
97.52045145683306
 20
170.0887143209004
 30
0.0
 10
97.28461280422953
 20
170.1309363598835
 30
0.0
 10
97.11311018126464
 20
170.0115172614993
 30
0.0
 10
97.07633948759697
 20
169.9859134368532
 30
0.0
 10
97.04440844234305
 20
169.9539823915993
 30
0.0
 10
97.01880461769825
 20
169.9172116979319
 30
0.0
  0
LINE
  5
B3
330
89
100
AcDbEntity
  8
Bemaßung (ISO)
 62
    18
420
        0
370
     5
100
AcDbLine
 10
110.7894935597697
 20
170.097401202263
 30
0.0
 11
110.7894935597697
 21
169.9172116979348
 31
0.0
  0
LINE
  5
B4
330
89
100
AcDbEntity
  8
Bemaßung (ISO)
 62
    18
420
        0
370
     5
100
AcDbLine
 10
110.9696830640974
 20
170.097401202263
 30
0.0
 11
110.7894935597697
 21
170.097401202263
 31
0.0
  0
LINE
  5
B5
330
89
100
AcDbEntity
  8
Bemaßung (ISO)
 62
    18
420
        0
370
     5
100
AcDbLine
 10
110.9696830640974
 20
170.097401202263
 30
0.0
 11
110.9696830640974
 21
169.3766431849505
 31
0.0
  0
LINE
  5
B6
330
89
100
AcDbEntity
  8
Bemaßung (ISO)
 62
    18
420
        0
370
     5
100
AcDbLine
 10
110.9696830640974
 20
169.3766431849505
 30
0.0
 11
115.3032406431895
 21
169.3766431849505
 31
0.0
  0
LINE
  5
B7
330
89
100
AcDbEntity
  8
Bemaßung (ISO)
 62
    18
420
        0
370
     5
100
AcDbLine
 10
115.3032406431895
 20
169.3766431849505
 30
0.0
 11
115.3032406431895
 21
170.097401202263
 31
0.0
  0
LINE
  5
B8
330
89
100
AcDbEntity
  8
Bemaßung (ISO)
 62
    18
420
        0
370
     5
100
AcDbLine
 10
115.3032406431895
 20
182.3502874965754
 30
0.0
 11
115.3032406431895
 21
186.22436183963
 31
0.0
  0
SPLINE
  5
B9
330
89
100
AcDbEntity
  8
Bemaßung (ISO)
 62
    18
420
        0
370
     5
100
AcDbSpline
210
0.0
220
0.0
230
1.0
 70
     8
 71
     3
 72
    11
 73
     7
 74
     0
 42
0.0000000001
 43
0.0000000001
 40
0.0
 40
0.0
 40
0.0
 40
0.0
 40
1.0
 40
1.0
 40
1.0
 40
2.0
 40
2.0
 40
2.0
 40
2.0
 10
90.56322169893759
 20
170.5136265792206
 30
0.0
 10
91.57729571225134
 20
170.5584087411152
 30
0.0
 10
92.36306201102733
 20
171.4167812699987
 30
0.0
 10
92.31827984913365
 20
172.4308552833121
 30
0.0
 10
92.27626776398492
 20
173.3822020247989
 30
0.0
 10
91.5145684404244
 20
174.1439013483588
 30
0.0
 10
90.56322169893759
 20
174.1859134335082
 30
0.0
  0
SPLINE
  5
BA
330
89
100
AcDbEntity
  8
Bemaßung (ISO)
 62
    18
420
        0
370
     5
100
AcDbSpline
210
0.0
220
0.0
230
1.0
 70
     8
 71
     3
 72
    11
 73
     7
 74
     0
 42
0.0000000001
 43
0.0000000001
 40
0.0
 40
0.0
 40
0.0
 40
0.0
 40
1.0
 40
1.0
 40
1.0
 40
2.0
 40
2.0
 40
2.0
 40
2.0
 10
90.40105114504212
 20
174.1859134335082
 30
0.0
 10
89.38697713172837
 20
174.1411312716142
 30
0.0
 10
88.60121083295238
 20
173.2827587427308
 30
0.0
 10
88.64599299484604
 20
172.2686847294167
 30
0.0
 10
88.68800507999512
 20
171.3173379879298
 30
0.0
 10
89.44970440355531
 20
170.5556386643697
 30
0.0
 10
90.40105114504212
 20
170.5136265792206
 30
0.0
  0
SPLINE
  5
BB
330
89
100
AcDbEntity
  8
Bemaßung (ISO)
 62
    18
420
        0
370
     5
100
AcDbSpline
210
0.0
220
0.0
230
1.0
 70
     8
 71
     3
 72
    11
 73
     7
 74
     0
 42
0.0000000001
 43
0.0000000001
 40
0.0
 40
0.0
 40
0.0
 40
0.0
 40
1.0
 40
1.0
 40
1.0
 40
2.0
 40
2.0
 40
2.0
 40
2.0
 10
85.69810508207785
 20
170.5132740635811
 30
0.0
 10
86.96116357270318
 20
170.558056225475
 30
0.0
 10
87.9487716706282
 20
171.6182705535076
 30
0.0
 10
87.90398950873422
 20
172.8813290441323
 30
0.0
 10
87.8614357246691
 20
174.0815372519818
 30
0.0
 10
86.89831328992712
 20
175.0446596867245
 30
0.0
 10
85.69810508207785
 20
175.0872134707887
 30
0.0
  0
SPLINE
  5
BC
330
89
100
AcDbEntity
  8
Bemaßung (ISO)
 62
    18
420
        0
370
     5
100
AcDbSpline
210
0.0
220
0.0
230
1.0
 70
     8
 71
     3
 72
    11
 73
     7
 74
     0
 42
0.0000000001
 43
0.0000000001
 40
0.0
 40
0.0
 40
0.0
 40
0.0
 40
1.0
 40
1.0
 40
1.0
 40
2.0
 40
2.0
 40
2.0
 40
2.0
 10
85.53593452818207
 20
175.0872134707887
 30
0.0
 10
84.27287603755738
 20
175.0424313088943
 30
0.0
 10
83.28526793963266
 20
173.9822169808627
 30
0.0
 10
83.33005010152602
 20
172.7191584902371
 30
0.0
 10
83.37260388559016
 20
171.5189502823882
 30
0.0
 10
84.33572632033344
 20
170.5558278476449
 30
0.0
 10
85.53593452818207
 20
170.5132740635811
 30
0.0
  0
LINE
  5
BD
330
89
100
AcDbEntity
  8
Bemaßung (ISO)
 62
    18
420
        0
370
     5
100
AcDbLine
 10
90.61727855023553
 20
171.6290119890524
 30
0.0
 11
90.34699429374288
 21
171.6290119890524
 31
0.0
  0
LINE
  5
BE
330
89
100
AcDbEntity
  8
Bemaßung (ISO)
 62
    18
420
        0
370
     5
100
AcDbLine
 10
90.34699429374288
 20
171.6290119890524
 30
0.0
 11
90.34699429374288
 21
173.0705280236773
 31
0.0
  0
LINE
  5
BF
330
89
100
AcDbEntity
  8
Bemaßung (ISO)
 62
    18
420
        0
370
     5
100
AcDbLine
 10
90.34699429374288
 20
173.0705280236773
 30
0.0
 11
90.61727855023553
 21
173.0705280236773
 31
0.0
  0
LINE
  5
C0
330
89
100
AcDbEntity
  8
Bemaßung (ISO)
 62
    18
420
        0
370
     5
100
AcDbLine
 10
90.61727855023553
 20
173.0705280236773
 30
0.0
 11
90.61727855023553
 21
171.6290119890524
 31
0.0
  0
LINE
  5
C1
330
89
100
AcDbEntity
  8
Bemaßung (ISO)
 62
    18
420
        0
370
     5
100
AcDbLine
 10
85.75216193337613
 20
172.0794857498725
 30
0.0
 11
85.48187767688444
 21
172.0794857498725
 31
0.0
  0
LINE
  5
C2
330
89
100
AcDbEntity
  8
Bemaßung (ISO)
 62
    18
420
        0
370
     5
100
AcDbLine
 10
85.48187767688444
 20
172.0794857498725
 30
0.0
 11
85.48187767688444
 21
173.5210017844978
 31
0.0
  0
LINE
  5
C3
330
89
100
AcDbEntity
  8
Bemaßung (ISO)
 62
    18
420
        0
370
     5
100
AcDbLine
 10
85.48187767688444
 20
173.5210017844978
 30
0.0
 11
85.75216193337613
 21
173.5210017844978
 31
0.0
  0
LINE
  5
C4
330
89
100
AcDbEntity
  8
Bemaßung (ISO)
 62
    18
420
        0
370
     5
100
AcDbLine
 10
85.75216193337613
 20
173.5210017844978
 30
0.0
 11
85.75216193337613
 21
172.0794857498725
 31
0.0
  0
SPLINE
  5
C5
330
89
100
AcDbEntity
  8
Bemaßung (ISO)
 62
    18
420
        0
370
     5
100
AcDbSpline
210
0.0
220
0.0
230
1.0
 70
     8
 71
     3
 72
    11
 73
     7
 74
     0
 42
0.0000000001
 43
0.0000000001
 40
0.0
 40
0.0
 40
0.0
 40
0.0
 40
1.0
 40
1.0
 40
1.0
 40
2.0
 40
2.0
 40
2.0
 40
2.0
 10
104.0954534739798
 20
174.1859134335082
 30
0.0
 10
103.081379460666
 20
174.1411312716142
 30
0.0
 10
102.29561316189
 20
173.2827587427308
 30
0.0
 10
102.340395323784
 20
172.2686847294167
 30
0.0
 10
102.3824074089331
 20
171.3173379879298
 30
0.0
 10
103.144106732493
 20
170.5556386643697
 30
0.0
 10
104.0954534739798
 20
170.5136265792206
 30
0.0
  0
SPLINE
  5
C6
330
89
100
AcDbEntity
  8
Bemaßung (ISO)
 62
    18
420
        0
370
     5
100
AcDbSpline
210
0.0
220
0.0
230
1.0
 70
     8
 71
     3
 72
    11
 73
     7
 74
     0
 42
0.0000000001
 43
0.0000000001
 40
0.0
 40
0.0
 40
0.0
 40
0.0
 40
1.0
 40
1.0
 40
1.0
 40
2.0
 40
2.0
 40
2.0
 40
2.0
 10
104.2576240278752
 20
170.5136265792206
 30
0.0
 10
105.271698041189
 20
170.5584087411152
 30
0.0
 10
106.0574643399653
 20
171.4167812699987
 30
0.0
 10
106.0126821780713
 20
172.4308552833121
 30
0.0
 10
105.9706700929222
 20
173.3822020247989
 30
0.0
 10
105.2089707693614
 20
174.1439013483588
 30
0.0
 10
104.2576240278752
 20
174.1859134335082
 30
0.0
  0
SPLINE
  5
C7
330
89
100
AcDbEntity
  8
Bemaßung (ISO)
 62
    18
420
        0
370
     5
100
AcDbSpline
210
0.0
220
0.0
230
1.0
 70
     8
 71
     3
 72
    11
 73
     7
 74
     0
 42
0.0000000001
 43
0.0000000001
 40
0.0
 40
0.0
 40
0.0
 40
0.0
 40
1.0
 40
1.0
 40
1.0
 40
2.0
 40
2.0
 40
2.0
 40
2.0
 10
108.9605700908392
 20
175.0872134707887
 30
0.0
 10
107.6975116002136
 20
175.0424313088943
 30
0.0
 10
106.7099035022895
 20
173.9822169808627
 30
0.0
 10
106.7546856641828
 20
172.7191584902371
 30
0.0
 10
106.7972394482473
 20
171.5189502823882
 30
0.0
 10
107.7603618829902
 20
170.5558278476449
 30
0.0
 10
108.9605700908392
 20
170.5132740635811
 30
0.0
  0
SPLINE
  5
C8
330
89
100
AcDbEntity
  8
Bemaßung (ISO)
 62
    18
420
        0
370
     5
100
AcDbSpline
210
0.0
220
0.0
230
1.0
 70
     8
 71
     3
 72
    11
 73
     7
 74
     0
 42
0.0000000001
 43
0.0000000001
 40
0.0
 40
0.0
 40
0.0
 40
0.0
 40
1.0
 40
1.0
 40
1.0
 40
2.0
 40
2.0
 40
2.0
 40
2.0
 10
109.1227406447343
 20
170.5132740635811
 30
0.0
 10
110.38579913536
 20
170.558056225475
 30
0.0
 10
111.3734072332853
 20
171.6182705535076
 30
0.0
 10
111.3286250713907
 20
172.8813290441323
 30
0.0
 10
111.2860712873262
 20
174.0815372519818
 30
0.0
 10
110.3229488525839
 20
175.0446596867245
 30
0.0
 10
109.1227406447343
 20
175.0872134707887
 30
0.0
  0
LINE
  5
C9
330
89
100
AcDbEntity
  8
Bemaßung (ISO)
 62
    18
420
        0
370
     5
100
AcDbLine
 10
104.0413966226815
 20
171.6290119890524
 30
0.0
 11
104.0413966226815
 21
173.0705280236773
 31
0.0
  0
LINE
  5
CA
330
89
100
AcDbEntity
  8
Bemaßung (ISO)
 62
    18
420
        0
370
     5
100
AcDbLine
 10
104.0413966226815
 20
173.0705280236773
 30
0.0
 11
104.3116808791738
 21
173.0705280236773
 31
0.0
  0
LINE
  5
CB
330
89
100
AcDbEntity
  8
Bemaßung (ISO)
 62
    18
420
        0
370
     5
100
AcDbLine
 10
104.3116808791738
 20
173.0705280236773
 30
0.0
 11
104.3116808791738
 21
171.6290119890524
 31
0.0
  0
LINE
  5
CC
330
89
100
AcDbEntity
  8
Bemaßung (ISO)
 62
    18
420
        0
370
     5
100
AcDbLine
 10
104.3116808791738
 20
171.6290119890524
 30
0.0
 11
104.0413966226815
 21
171.6290119890524
 31
0.0
  0
LINE
  5
CD
330
89
100
AcDbEntity
  8
Bemaßung (ISO)
 62
    18
420
        0
370
     5
100
AcDbLine
 10
108.9065132395413
 20
172.0794857498725
 30
0.0
 11
108.9065132395413
 21
173.5210017844978
 31
0.0
  0
LINE
  5
CE
330
89
100
AcDbEntity
  8
Bemaßung (ISO)
 62
    18
420
        0
370
     5
100
AcDbLine
 10
108.9065132395413
 20
173.5210017844978
 30
0.0
 11
109.1767974960329
 21
173.5210017844978
 31
0.0
  0
LINE
  5
CF
330
89
100
AcDbEntity
  8
Bemaßung (ISO)
 62
    18
420
        0
370
     5
100
AcDbLine
 10
109.1767974960329
 20
173.5210017844978
 30
0.0
 11
109.1767974960329
 21
172.0794857498725
 31
0.0
  0
LINE
  5
D0
330
89
100
AcDbEntity
  8
Bemaßung (ISO)
 62
    18
420
        0
370
     5
100
AcDbLine
 10
109.1767974960329
 20
172.0794857498725
 30
0.0
 11
108.9065132395413
 21
172.0794857498725
 31
0.0
  0
LINE
  5
D1
330
89
100
AcDbEntity
  8
Bemaßung (ISO)
 62
    18
420
        0
370
     5
100
AcDbLine
 10
110.7894935597697
 20
169.5568326892789
 30
0.0
 11
110.7894935597697
 21
169.9172116979348
 31
0.0
  0
LINE
  5
D2
330
89
100
AcDbEntity
  8
Bemaßung (ISO)
 62
    18
420
        0
370
     5
100
AcDbLine
 10
96.98500521435704
 20
169.7370221936071
 30
0.0
 11
97.67366995856036
 21
169.7370221936071
 31
0.0
  0
SPLINE
  5
D3
330
89
100
AcDbEntity
  8
Bemaßung (ISO)
 62
    18
420
        0
370
     5
100
AcDbSpline
210
0.0
220
0.0
230
1.0
 70
     8
 71
     3
 72
    20
 73
    16
 74
     0
 42
0.0000000001
 43
0.0000000001
 40
0.0
 40
0.0
 40
0.0
 40
0.0
 40
1.0
 40
1.0
 40
1.0
 40
2.0
 40
2.0
 40
2.0
 40
3.0
 40
3.0
 40
3.0
 40
4.0
 40
4.0
 40
4.0
 40
5.0
 40
5.0
 40
5.0
 40
5.0
 10
96.96339123240154
 20
169.7428610435734
 30
0.0
 10
96.96441519394234
 20
169.7421155569094
 30
0.0
 10
96.96550722085703
 20
169.7414389983361
 30
0.0
 10
96.96666985739343
 20
169.7408329330186
 30
0.0
 10
96.96787447328937
 20
169.7402049844788
 30
0.0
 10
96.96915488987052
 20
169.739652701964
 30
0.0
 10
96.97051477614357
 20
169.7391775748606
 30
0.0
 10
96.97187466241663
 20
169.7387024477572
 30
0.0
 10
96.97331401838157
 20
169.7383044785915
 30
0.0
 10
96.97483658350524
 20
169.7379850908333
 30
0.0
 10
96.97635914862859
 20
169.7376657030749
 30
0.0
 10
96.97796492291066
 20
169.7374249040521
 30
0.0
 10
96.97965837011745
 20
169.7372640133407
 30
0.0
 10
96.98135181732329
 20
169.7371031226297
 30
0.0
 10
96.98313293745384
 20
169.7370221936071
 30
0.0
 10
96.98500521435512
 20
169.7370221936071
 30
0.0
  0
SPLINE
  5
D4
330
89
100
AcDbEntity
  8
Bemaßung (ISO)
 62
    18
420
        0
370
     5
100
AcDbSpline
210
0.0
220
0.0
230
1.0
 70
     8
 71
     3
 72
    62
 73
    58
 74
     0
 42
0.0000000001
 43
0.0000000001
 40
0.0
 40
0.0
 40
0.0
 40
0.0
 40
1.0
 40
1.0
 40
1.0
 40
2.0
 40
2.0
 40
2.0
 40
3.0
 40
3.0
 40
3.0
 40
4.0
 40
4.0
 40
4.0
 40
5.0
 40
5.0
 40
5.0
 40
6.0
 40
6.0
 40
6.0
 40
7.0
 40
7.0
 40
7.0
 40
8.0
 40
8.0
 40
8.0
 40
9.0
 40
9.0
 40
9.0
 40
10.0
 40
10.0
 40
10.0
 40
11.0
 40
11.0
 40
11.0
 40
12.0
 40
12.0
 40
12.0
 40
13.0
 40
13.0
 40
13.0
 40
14.0
 40
14.0
 40
14.0
 40
15.0
 40
15.0
 40
15.0
 40
16.0
 40
16.0
 40
16.0
 40
17.0
 40
17.0
 40
17.0
 40
18.0
 40
18.0
 40
18.0
 40
19.0
 40
19.0
 40
19.0
 40
19.0
 10
97.70773554554725
 20
169.6326344232771
 30
0.0
 10
97.70773554554725
 20
169.6361929390913
 30
0.0
 10
97.70767750240478
 20
169.6398622091608
 30
0.0
 10
97.70756146344353
 20
169.6436377158924
 30
0.0
 10
97.70744542448262
 20
169.6474132226237
 30
0.0
 10
97.70727138970388
 20
169.6512949456992
 30
0.0
 10
97.70703909605051
 20
169.655279205919
 30
0.0
 10
97.70680680239649
 20
169.6592634661395
 30
0.0
 10
97.70651624986754
 20
169.6633503192327
 30
0.0
 10
97.70616725257786
 20
169.667532457578
 30
0.0
 10
97.70581825528848
 20
169.6717145959231
 30
0.0
 10
97.70541081323678
 20
169.6759919573002
 30
0.0
 10
97.70494423028102
 20
169.6803609639053
 30
0.0
 10
97.70447764732587
 20
169.6847299705103
 30
0.0
 10
97.70395192346667
 20
169.6891906528803
 30
0.0
 10
97.70336627757405
 20
169.6937370477801
 30
0.0
 10
97.70278063168142
 20
169.6982834426795
 30
0.0
 10
97.70213506375668
 20
169.7029155415271
 30
0.0
 10
97.70142890711461
 20
169.7076279212766
 30
0.0
 10
97.70072275047221
 20
169.7123403010261
 30
0.0
 10
97.69995600511251
 20
169.7171329466638
 30
0.0
 10
97.69912742622306
 20
169.7220014956074
 30
0.0
 10
97.69829884733233
 20
169.7268700445519
 30
0.0
 10
97.69740843491096
 20
169.7318145521346
 30
0.0
 10
97.69645568463381
 20
169.7368250807416
 30
0.0
 10
97.69550293435697
 20
169.7418356093496
 30
0.0
 10
97.6944878462244
 20
169.7469121090014
 30
0.0
 10
97.69340865635911
 20
169.7520498085137
 30
0.0
 10
97.69232946649346
 20
169.7571875080254
 30
0.0
 10
97.6911861748961
 20
169.762386421594
 30
0.0
 10
97.68997699818617
 20
169.7676398313579
 30
0.0
 10
97.68876782147817
 20
169.7728932411221
 30
0.0
 10
97.68749275965667
 20
169.7782011403955
 30
0.0
 10
97.68615012330331
 20
169.7835577362026
 30
0.0
 10
97.68480748694928
 20
169.7889143320104
 30
0.0
 10
97.68339727606338
 20
169.7943196303064
 30
0.0
 10
97.68191752087853
 20
169.7997665675425
 30
0.0
 10
97.68043776569463
 20
169.8052135047792
 30
0.0
 10
97.67888846621275
 20
169.8107021057814
 30
0.0
 10
97.67726863099566
 20
169.8162207805388
 30
0.0
 10
97.67564879577985
 20
169.8217394552962
 30
0.0
 10
97.67395842482788
 20
169.8272881822032
 30
0.0
 10
97.67219460717599
 20
169.8328600254828
 30
0.0
 10
97.67043078952349
 20
169.8384318687622
 30
0.0
 10
97.66859352517045
 20
169.8440268239779
 30
0.0
 10
97.66667945942591
 20
169.8496388580825
 30
0.0
 10
97.66476539368204
 20
169.8552508921864
 30
0.0
 10
97.66277452654669
 20
169.860880005753
 30
0.0
 10
97.66070379040328
 20
169.8665197204796
 30
0.0
 10
97.65863305425957
 20
169.8721594352063
 30
0.0
 10
97.65648244910778
 20
169.8778097642995
 30
0.0
 10
97.65425042742528
 20
169.8834579516645
 30
0.0
 10
97.65201840574306
 20
169.8891061390297
 30
0.0
 10
97.64970496753077
 20
169.8947521904253
 30
0.0
 10
97.64730933363162
 20
169.900381280009
 30
0.0
 10
97.6449136997312
 20
169.9060103695927
 30
0.0
 10
97.64243587014455
 20
169.9116224914583
 30
0.0
 10
97.63987055521658
 20
169.9172116979348
 30
0.0
  0
SPLINE
  5
D5
330
89
100
AcDbEntity
  8
Bemaßung (ISO)
 62
    18
420
        0
370
     5
100
AcDbSpline
210
0.0
220
0.0
230
1.0
 70
     8
 71
     3
 72
    62
 73
    58
 74
     0
 42
0.0000000001
 43
0.0000000001
 40
0.0
 40
0.0
 40
0.0
 40
0.0
 40
1.0
 40
1.0
 40
1.0
 40
2.0
 40
2.0
 40
2.0
 40
3.0
 40
3.0
 40
3.0
 40
4.0
 40
4.0
 40
4.0
 40
5.0
 40
5.0
 40
5.0
 40
6.0
 40
6.0
 40
6.0
 40
7.0
 40
7.0
 40
7.0
 40
8.0
 40
8.0
 40
8.0
 40
9.0
 40
9.0
 40
9.0
 40
10.0
 40
10.0
 40
10.0
 40
11.0
 40
11.0
 40
11.0
 40
12.0
 40
12.0
 40
12.0
 40
13.0
 40
13.0
 40
13.0
 40
14.0
 40
14.0
 40
14.0
 40
15.0
 40
15.0
 40
15.0
 40
16.0
 40
16.0
 40
16.0
 40
17.0
 40
17.0
 40
17.0
 40
18.0
 40
18.0
 40
18.0
 40
19.0
 40
19.0
 40
19.0
 40
19.0
 10
97.01880461769313
 20
169.9172116979348
 30
0.0
 10
97.01623930276738
 20
169.9116224914583
 30
0.0
 10
97.01376147317915
 20
169.9060103695927
 30
0.0
 10
97.01136583928001
 20
169.900381280009
 30
0.0
 10
97.00897020538086
 20
169.8947521904253
 30
0.0
 10
97.00665676717047
 20
169.8891061390297
 30
0.0
 10
97.00442474548795
 20
169.8834579516645
 30
0.0
 10
97.00219272380641
 20
169.8778097642995
 30
0.0
 10
97.00004211865206
 20
169.8721594352063
 30
0.0
 10
96.99797138250801
 20
169.8665197204796
 30
0.0
 10
96.99590064636462
 20
169.860880005753
 30
0.0
 10
96.99390977922991
 20
169.8552508921864
 30
0.0
 10
96.99199571348732
 20
169.8496388580825
 30
0.0
 10
96.99008164774472
 20
169.8440268239779
 30
0.0
 10
96.98824438339423
 20
169.8384318687622
 30
0.0
 10
96.98648056574107
 20
169.8328600254828
 30
0.0
 10
96.98471674808887
 20
169.8272881822032
 30
0.0
 10
96.98302637713531
 20
169.8217394552962
 30
0.0
 10
96.98140654191822
 20
169.8162207805388
 30
0.0
 10
96.97978670670082
 20
169.8107021057814
 30
0.0
 10
96.97823740722084
 20
169.8052135047792
 30
0.0
 10
96.9767576520363
 20
169.7997665675425
 30
0.0
 10
96.9752778968524
 20
169.7943196303064
 30
0.0
 10
96.97386768596297
 20
169.7889143320104
 30
0.0
 10
96.97252504960928
 20
169.7835577362026
 30
0.0
 10
96.9711824132559
 20
169.7782011403955
 30
0.0
 10
96.96990735143828
 20
169.7728932411221
 30
0.0
 10
96.96869817472995
 20
169.7676398313579
 30
0.0
 10
96.9674889980213
 20
169.762386421594
 30
0.0
 10
96.96634570642201
 20
169.7571875080254
 30
0.0
 10
96.9652665165567
 20
169.7520498085137
 30
0.0
 10
96.96418732669108
 20
169.7469121090014
 30
0.0
 10
96.96317223856075
 20
169.7418356093496
 30
0.0
 10
96.96221948828295
 20
169.7368250807419
 30
0.0
 10
96.96126673800581
 20
169.7318145521346
 30
0.0
 10
96.96037632558216
 20
169.7268700445519
 30
0.0
 10
96.95954774669047
 20
169.722001495608
 30
0.0
 10
96.95871916780042
 20
169.7171329466638
 30
0.0
 10
96.9579524224423
 20
169.7123403010261
 30
0.0
 10
96.95724626580247
 20
169.7076279212766
 30
0.0
 10
96.956540109162
 20
169.7029155415271
 30
0.0
 10
96.95589454123982
 20
169.6982834426795
 30
0.0
 10
96.95530889534593
 20
169.6937370477801
 30
0.0
 10
96.95472324945233
 20
169.6891906528803
 30
0.0
 10
96.95419752558734
 20
169.6847299705103
 30
0.0
 10
96.95373094262965
 20
169.6803609639053
 30
0.0
 10
96.9532643596713
 20
169.6759919573002
 30
0.0
 10
96.95285691762153
 20
169.6717145959231
 30
0.0
 10
96.95250792033409
 20
169.667532457578
 30
0.0
 10
96.95215892304632
 20
169.6633503192327
 30
0.0
 10
96.95186837052121
 20
169.6592634661395
 30
0.0
 10
96.95163607687074
 20
169.655279205919
 30
0.0
 10
96.95140378321994
 20
169.6512949456992
 30
0.0
 10
96.95122974844249
 20
169.6474132226237
 30
0.0
 10
96.95111370947996
 20
169.6436377158924
 30
0.0
 10
96.95099767051743
 20
169.6398622091608
 30
0.0
 10
96.95093962736949
 20
169.6361929390913
 30
0.0
 10
96.95093962736949
 20
169.6326344232771
 30
0.0
  0
SPLINE
  5
D6
330
89
100
AcDbEntity
  8
Bemaßung (ISO)
 62
    18
420
        0
370
     5
100
AcDbSpline
210
0.0
220
0.0
230
1.0
 70
     8
 71
     3
 72
    47
 73
    43
 74
     0
 42
0.0000000001
 43
0.0000000001
 40
0.0
 40
0.0
 40
0.0
 40
0.0
 40
1.0
 40
1.0
 40
1.0
 40
2.0
 40
2.0
 40
2.0
 40
3.0
 40
3.0
 40
3.0
 40
4.0
 40
4.0
 40
4.0
 40
5.0
 40
5.0
 40
5.0
 40
6.0
 40
6.0
 40
6.0
 40
7.0
 40
7.0
 40
7.0
 40
8.0
 40
8.0
 40
8.0
 40
9.0
 40
9.0
 40
9.0
 40
10.0
 40
10.0
 40
10.0
 40
11.0
 40
11.0
 40
11.0
 40
12.0
 40
12.0
 40
12.0
 40
13.0
 40
13.0
 40
13.0
 40
14.0
 40
14.0
 40
14.0
 40
14.0
 10
96.95093962736949
 20
169.6326344232771
 30
0.0
 10
96.95093962736949
 20
169.6291470133644
 30
0.0
 10
96.95099531788159
 20
169.6257659522918
 30
0.0
 10
96.95110666454631
 20
169.6224952288052
 30
0.0
 10
96.95121801121006
 20
169.619224505318
 30
0.0
 10
96.95138501402645
 20
169.6160640978212
 30
0.0
 10
96.95160792166571
 20
169.613016826853
 30
0.0
 10
96.95183082930595
 20
169.6099695558862
 30
0.0
 10
96.95210964176938
 20
169.607035464664
 30
0.0
 10
96.95244468231384
 20
169.6042188090322
 30
0.0
 10
96.95277972285829
 20
169.6014021534011
 30
0.0
 10
96.95317099148279
 20
169.5987028973975
 30
0.0
 10
96.95361899126593
 20
169.596123638025
 30
0.0
 10
96.95406699104907
 20
169.5935443786516
 30
0.0
 10
96.95457172198986
 20
169.5910851159923
 30
0.0
 10
96.95513384875347
 20
169.58874826526
 30
0.0
 10
96.95569597551674
 20
169.586411414527
 30
0.0
 10
96.95631549810377
 20
169.5841970170024
 30
0.0
 10
96.95699297447635
 20
169.5821082685909
 30
0.0
 10
96.95767045084862
 20
169.5800195201804
 30
0.0
 10
96.95840588100644
 20
169.578056372059
 30
0.0
 10
96.95920044709774
 20
169.5762204122336
 30
0.0
 10
96.95999501319001
 20
169.5743844524095
 30
0.0
 10
96.96084871521575
 20
169.5726757004595
 30
0.0
 10
96.96176260404058
 20
169.571095949338
 30
0.0
 10
96.96267649286571
 20
169.5695161982169
 30
0.0
 10
96.96365056848994
 20
169.5680654732951
 30
0.0
 10
96.96468573300732
 20
169.566745556163
 30
0.0
 10
96.96572089752535
 20
169.5654256390303
 30
0.0
 10
96.96681715093687
 20
169.5642364887323
 30
0.0
 10
96.96797625934907
 20
169.563178859836
 30
0.0
 10
96.96913536776159
 20
169.5621212309384
 30
0.0
 10
96.97035733117385
 20
169.5611951504238
 30
0.0
 10
96.97164374515573
 20
169.5604013773022
 30
0.0
 10
96.97293015913727
 20
169.5596076041795
 30
0.0
 10
96.97428102368748
 20
169.5589461427046
 30
0.0
 10
96.97569778120721
 20
169.5584172793066
 30
0.0
 10
96.97711453872596
 20
169.5578884159098
 30
0.0
 10
96.97859718921389
 20
169.5574921471035
 30
0.0
 10
96.98014767517996
 20
169.55722821758
 30
0.0
 10
96.98169816114637
 20
169.5569642880574
 30
0.0
 10
96.98331648259127
 20
169.5568326892789
 30
0.0
 10
96.98500521435512
 20
169.5568326892789
 30
0.0
  0
LINE
  5
D7
330
89
100
AcDbEntity
  8
Bemaßung (ISO)
 62
    18
420
        0
370
     5
100
AcDbLine
 10
96.98500521435704
 20
169.5568326892789
 30
0.0
 11
96.98745203997834
 21
169.5568326892789
 31
0.0
  0
LINE
  5
D8
330
89
100
AcDbEntity
  8
Bemaßung (ISO)
 62
    18
420
        0
370
     5
100
AcDbLine
 10
97.3165808314256
 20
169.5568326892789
 30
0.0
 11
97.34209434149148
 21
169.5568326892789
 31
0.0
  0
LINE
  5
D9
330
89
100
AcDbEntity
  8
Bemaßung (ISO)
 62
    18
420
        0
370
     5
100
AcDbLine
 10
97.66832213827919
 20
169.5568326892789
 30
0.0
 11
97.67366995856036
 21
169.5568326892789
 31
0.0
  0
SPLINE
  5
DA
330
89
100
AcDbEntity
  8
Bemaßung (ISO)
 62
    18
420
        0
370
     5
100
AcDbSpline
210
0.0
220
0.0
230
1.0
 70
     8
 71
     3
 72
    47
 73
    43
 74
     0
 42
0.0000000001
 43
0.0000000001
 40
0.0
 40
0.0
 40
0.0
 40
0.0
 40
1.0
 40
1.0
 40
1.0
 40
2.0
 40
2.0
 40
2.0
 40
3.0
 40
3.0
 40
3.0
 40
4.0
 40
4.0
 40
4.0
 40
5.0
 40
5.0
 40
5.0
 40
6.0
 40
6.0
 40
6.0
 40
7.0
 40
7.0
 40
7.0
 40
8.0
 40
8.0
 40
8.0
 40
9.0
 40
9.0
 40
9.0
 40
10.0
 40
10.0
 40
10.0
 40
11.0
 40
11.0
 40
11.0
 40
12.0
 40
12.0
 40
12.0
 40
13.0
 40
13.0
 40
13.0
 40
14.0
 40
14.0
 40
14.0
 40
14.0
 10
97.67366995856036
 20
169.5568326892789
 30
0.0
 10
97.67535869032935
 20
169.5568326892789
 30
0.0
 10
97.67697701177295
 20
169.5569642880574
 30
0.0
 10
97.67852749773872
 20
169.55722821758
 30
0.0
 10
97.68007798370511
 20
169.5574921471035
 30
0.0
 10
97.68156063419466
 20
169.5578884159098
 30
0.0
 10
97.68297739171501
 20
169.5584172793066
 30
0.0
 10
97.68439414923442
 20
169.5589461427046
 30
0.0
 10
97.68574501378527
 20
169.5596076041795
 30
0.0
 10
97.68703142776651
 20
169.5604013773022
 30
0.0
 10
97.68831784174773
 20
169.5611951504238
 30
0.0
 10
97.68953980515869
 20
169.5621212309384
 30
0.0
 10
97.69069891357091
 20
169.563178859836
 30
0.0
 10
97.69185802198373
 20
169.5642364887323
 30
0.0
 10
97.69295427539718
 20
169.5654256390303
 30
0.0
 10
97.69398943991328
 20
169.566745556163
 30
0.0
 10
97.69502460443035
 20
169.5680654732951
 30
0.0
 10
97.69599868005039
 20
169.5695161982169
 30
0.0
 10
97.6969125688749
 20
169.571095949338
 30
0.0
 10
97.69782645769939
 20
169.5726757004595
 30
0.0
 10
97.69868015972868
 20
169.5743844524095
 30
0.0
 10
97.6994747258206
 20
169.5762204122336
 30
0.0
 10
97.70026929191288
 20
169.578056372059
 30
0.0
 10
97.70100472206589
 20
169.5800195201804
 30
0.0
 10
97.70168219843847
 20
169.5821082685909
 30
0.0
 10
97.70235967481076
 20
169.5841970170024
 30
0.0
 10
97.70297919740258
 20
169.586411414527
 30
0.0
 10
97.70354132416619
 20
169.58874826526
 30
0.0
 10
97.7041034509301
 20
169.5910851159923
 30
0.0
 10
97.70460818186705
 20
169.5935443786516
 30
0.0
 10
97.70505618164953
 20
169.596123638025
 30
0.0
 10
97.70550418143203
 20
169.5987028973975
 30
0.0
 10
97.70589545006103
 20
169.6014021534011
 30
0.0
 10
97.70623049060581
 20
169.6042188090322
 30
0.0
 10
97.70656553115058
 20
169.607035464664
 30
0.0
 10
97.70684434361081
 20
169.6099695558862
 30
0.0
 10
97.70706725124943
 20
169.613016826853
 30
0.0
 10
97.70729015888775
 20
169.6160640978212
 30
0.0
 10
97.70745716170477
 20
169.619224505318
 30
0.0
 10
97.70756850836981
 20
169.6224952288052
 30
0.0
 10
97.7076798550342
 20
169.6257659522918
 30
0.0
 10
97.70773554554725
 20
169.6291470133644
 30
0.0
 10
97.70773554554725
 20
169.6326344232771
 30
0.0
  0
LINE
  5
DB
330
89
100
AcDbEntity
  8
Bemaßung (ISO)
 62
    18
420
        0
370
     5
100
AcDbLine
 10
110.7894935597697
 20
169.5568326892789
 30
0.0
 11
97.67366995856036
 21
169.5568326892789
 31
0.0
  0
LINE
  5
DC
330
89
100
AcDbEntity
  8
Bemaßung (ISO)
 62
    18
420
        0
370
     5
100
AcDbLine
 10
96.98500521435512
 20
169.5568326892789
 30
0.0
 11
83.8691816131474
 21
169.5568326892789
 31
0.0
  0
LINE
  5
DD
330
89
100
AcDbEntity
  8
Bemaßung (ISO)
 62
    18
420
        0
370
     5
100
AcDbLine
 10
97.3165808314256
 20
169.3766431849505
 30
0.0
 11
97.3165808314256
 21
169.5568326892789
 31
0.0
  0
LINE
  5
DE
330
89
100
AcDbEntity
  8
Bemaßung (ISO)
 62
    18
420
        0
370
     5
100
AcDbLine
 10
111.6544031805427
 20
170.4577802109189
 30
0.0
 11
112.0147821891989
 21
170.097401202263
 31
0.0
  0
LINE
  5
DF
330
89
100
AcDbEntity
  8
Bemaßung (ISO)
 62
    18
420
        0
370
     5
100
AcDbLine
 10
112.0147821891989
 20
170.097401202263
 30
0.0
 11
115.2581932671062
 21
170.097401202263
 31
0.0
  0
LINE
  5
E0
330
89
100
AcDbEntity
  8
Bemaßung (ISO)
 62
    18
420
        0
370
     5
100
AcDbLine
 10
115.2581932671062
 20
182.3502874965754
 30
0.0
 11
112.0147821891989
 21
182.3502874965754
 31
0.0
  0
LINE
  5
E1
330
89
100
AcDbEntity
  8
Bemaßung (ISO)
 62
    18
420
        0
370
     5
100
AcDbLine
 10
112.0147821891989
 20
182.3502874965754
 30
0.0
 11
111.6544031805427
 21
181.9899084879201
 31
0.0
  0
LINE
  5
E2
330
89
100
AcDbEntity
  8
Bemaßung (ISO)
 62
    18
420
        0
370
     5
100
AcDbLine
 10
111.6544031805427
 20
181.9899084879201
 30
0.0
 11
111.6544031805427
 21
170.4577802109189
 31
0.0
  0
SPLINE
  5
E3
330
89
100
AcDbEntity
  8
Bemaßung (ISO)
 62
    18
420
        0
370
     5
100
AcDbSpline
210
0.0
220
0.0
230
1.0
 70
     8
 71
     3
 72
    11
 73
     7
 74
     0
 42
0.0000000001
 43
0.0000000001
 40
0.0
 40
0.0
 40
0.0
 40
0.0
 40
1.0
 40
1.0
 40
1.0
 40
2.0
 40
2.0
 40
2.0
 40
2.0
 10
111.879640060955
 20
181.5394347270997
 30
0.0
 10
111.879640060955
 20
181.141371065819
 30
0.0
 10
112.2023344169871
 20
180.8186767097866
 30
0.0
 10
112.6003980782674
 20
180.8186767097866
 30
0.0
 10
112.9984617395478
 20
180.8186767097866
 30
0.0
 10
113.3211560955805
 20
181.141371065819
 30
0.0
 10
113.3211560955805
 20
181.5394347270997
 30
0.0
  0
SPLINE
  5
E4
330
89
100
AcDbEntity
  8
Bemaßung (ISO)
 62
    18
420
        0
370
     5
100
AcDbSpline
210
0.0
220
0.0
230
1.0
 70
     8
 71
     3
 72
    11
 73
     7
 74
     0
 42
0.0000000001
 43
0.0000000001
 40
0.0
 40
0.0
 40
0.0
 40
0.0
 40
1.0
 40
1.0
 40
1.0
 40
2.0
 40
2.0
 40
2.0
 40
2.0
 10
113.3211560956152
 20
181.5394347270997
 30
0.0
 10
113.3211560956152
 20
181.9374983883983
 30
0.0
 10
112.9984617395664
 20
182.2601927444474
 30
0.0
 10
112.6003980782674
 20
182.2601927444474
 30
0.0
 10
112.2023344169685
 20
182.2601927444474
 30
0.0
 10
111.8796400609203
 20
181.9374983883983
 30
0.0
 10
111.8796400609203
 20
181.5394347270997
 30
0.0
  0
CIRCLE
  5
E5
330
89
100
AcDbEntity
  8
Bemaßung (ISO)
 62
    18
420
        0
370
     5
100
AcDbCircle
 10
112.6003980782676
 20
181.5394347270994
 30
0.0
 40
0.1982084547605251
  0
SPLINE
  5
E6
330
89
100
AcDbEntity
  8
Bemaßung (ISO)
 62
    18
420
        0
370
     5
100
AcDbSpline
210
0.0
220
0.0
230
1.0
 70
     8
 71
     3
 72
    11
 73
     7
 74
     0
 42
0.0000000001
 43
0.0000000001
 40
0.0
 40
0.0
 40
0.0
 40
0.0
 40
1.0
 40
1.0
 40
1.0
 40
2.0
 40
2.0
 40
2.0
 40
2.0
 10
111.879640060955
 20
172.4398647585288
 30
0.0
 10
111.879640060955
 20
172.0418010972491
 30
0.0
 10
112.2023344169871
 20
171.7191067412163
 30
0.0
 10
112.6003980782674
 20
171.7191067412163
 30
0.0
 10
112.9984617395478
 20
171.7191067412163
 30
0.0
 10
113.3211560955805
 20
172.0418010972491
 30
0.0
 10
113.3211560955805
 20
172.4398647585288
 30
0.0
  0
SPLINE
  5
E7
330
89
100
AcDbEntity
  8
Bemaßung (ISO)
 62
    18
420
        0
370
     5
100
AcDbSpline
210
0.0
220
0.0
230
1.0
 70
     8
 71
     3
 72
    11
 73
     7
 74
     0
 42
0.0000000001
 43
0.0000000001
 40
0.0
 40
0.0
 40
0.0
 40
0.0
 40
1.0
 40
1.0
 40
1.0
 40
2.0
 40
2.0
 40
2.0
 40
2.0
 10
113.3211560956152
 20
172.4398647585288
 30
0.0
 10
113.3211560956152
 20
172.8379284198284
 30
0.0
 10
112.9984617395664
 20
173.1606227758765
 30
0.0
 10
112.6003980782674
 20
173.1606227758765
 30
0.0
 10
112.2023344169685
 20
173.1606227758765
 30
0.0
 10
111.8796400609203
 20
172.8379284198284
 30
0.0
 10
111.8796400609203
 20
172.4398647585288
 30
0.0
  0
CIRCLE
  5
E8
330
89
100
AcDbEntity
  8
Bemaßung (ISO)
 62
    18
420
        0
370
     5
100
AcDbCircle
 10
112.6003980782676
 20
172.4398647585287
 30
0.0
 40
0.1982084547607257
  0
LINE
  5
E9
330
89
100
AcDbEntity
  8
Bemaßung (ISO)
 62
    18
420
        0
370
     5
100
AcDbLine
 10
109.0236364172807
 20
169.1964536805871
 30
0.0
 11
110.1408113442616
 21
169.1964536805871
 31
0.0
  0
LINE
  5
EA
330
89
100
AcDbEntity
  8
Bemaßung (ISO)
 62
    18
420
        0
370
     5
100
AcDbLine
 10
108.8614658634587
 20
169.3586242345175
 30
0.0
 11
108.8614658634587
 21
169.3766431849505
 31
0.0
  0
LINE
  5
EB
330
89
100
AcDbEntity
  8
Bemaßung (ISO)
 62
    18
420
        0
370
     5
100
AcDbLine
 10
110.3029818980829
 20
169.3586242345175
 30
0.0
 11
110.3029818980829
 21
169.3766431849505
 31
0.0
  0
SPLINE
  5
EC
330
89
100
AcDbEntity
  8
Bemaßung (ISO)
 62
    18
420
        0
370
     5
100
AcDbSpline
210
0.0
220
0.0
230
1.0
 70
     8
 71
     3
 72
     8
 73
     4
 74
     0
 42
0.0000000001
 43
0.0000000001
 40
0.0
 40
0.0
 40
0.0
 40
0.0
 40
1.0
 40
1.0
 40
1.0
 40
1.0
 10
110.1408113442616
 20
169.1964536805871
 30
0.0
 10
110.2303756680553
 20
169.1964536806802
 30
0.0
 10
110.3029818981189
 20
169.2690599108184
 30
0.0
 10
110.3029818981189
 20
169.3586242346128
 30
0.0
  0
SPLINE
  5
ED
330
89
100
AcDbEntity
  8
Bemaßung (ISO)
 62
    18
420
        0
370
     5
100
AcDbSpline
210
0.0
220
0.0
230
1.0
 70
     8
 71
     3
 72
     8
 73
     4
 74
     0
 42
0.0000000001
 43
0.0000000001
 40
0.0
 40
0.0
 40
0.0
 40
0.0
 40
1.0
 40
1.0
 40
1.0
 40
1.0
 10
108.861465863424
 20
169.3586242346128
 30
0.0
 10
108.861465863424
 20
169.269059910821
 30
0.0
 10
108.9340720934837
 20
169.1964536806837
 30
0.0
 10
109.0236364172749
 20
169.1964536805871
 30
0.0
  0
LINE
  5
EE
330
89
100
AcDbEntity
  8
Bemaßung (ISO)
 62
    18
420
        0
370
     5
100
AcDbLine
 10
84.51786382865611
 20
169.1964536805871
 30
0.0
 11
85.63503875563609
 21
169.1964536805871
 31
0.0
  0
LINE
  5
EF
330
89
100
AcDbEntity
  8
Bemaßung (ISO)
 62
    18
420
        0
370
     5
100
AcDbLine
 10
84.35569327483316
 20
169.3586242345175
 30
0.0
 11
84.35569327483316
 21
169.3766431849505
 31
0.0
  0
LINE
  5
F0
330
89
100
AcDbEntity
  8
Bemaßung (ISO)
 62
    18
420
        0
370
     5
100
AcDbLine
 10
85.79720930945807
 20
169.3586242345175
 30
0.0
 11
85.79720930945807
 21
169.3766431849505
 31
0.0
  0
SPLINE
  5
F1
330
89
100
AcDbEntity
  8
Bemaßung (ISO)
 62
    18
420
        0
370
     5
100
AcDbSpline
210
0.0
220
0.0
230
1.0
 70
     8
 71
     3
 72
     8
 73
     4
 74
     0
 42
0.0000000001
 43
0.0000000001
 40
0.0
 40
0.0
 40
0.0
 40
0.0
 40
1.0
 40
1.0
 40
1.0
 40
1.0
 10
85.63503875563609
 20
169.1964536805871
 30
0.0
 10
85.72460307943046
 20
169.1964536806802
 30
0.0
 10
85.79720930949337
 20
169.2690599108184
 30
0.0
 10
85.79720930949337
 20
169.3586242346128
 30
0.0
  0
SPLINE
  5
F2
330
89
100
AcDbEntity
  8
Bemaßung (ISO)
 62
    18
420
        0
370
     5
100
AcDbSpline
210
0.0
220
0.0
230
1.0
 70
     8
 71
     3
 72
     8
 73
     4
 74
     0
 42
0.0000000001
 43
0.0000000001
 40
0.0
 40
0.0
 40
0.0
 40
0.0
 40
1.0
 40
1.0
 40
1.0
 40
1.0
 10
84.35569327479786
 20
169.3586242346128
 30
0.0
 10
84.35569327479786
 20
169.269059910821
 30
0.0
 10
84.42829950485755
 20
169.1964536806837
 30
0.0
 10
84.51786382865
 20
169.1964536805871
 30
0.0
  0
SPLINE
  5
F3
330
89
100
AcDbEntity
  8
Bemaßung (ISO)
 62
    18
420
        0
370
     5
100
AcDbSpline
210
0.0
220
0.0
230
1.0
 70
     8
 71
     3
 72
    11
 73
     7
 74
     0
 42
0.0000000001
 43
0.0000000001
 40
0.0
 40
0.0
 40
0.0
 40
0.0
 40
1.0
 40
1.0
 40
1.0
 40
2.0
 40
2.0
 40
2.0
 40
2.0
 10
82.82408248804435
 20
176.944602366732
 30
0.0
 10
82.82408248804435
 20
176.546538705452
 30
0.0
 10
83.1467768440771
 20
176.2238443494192
 30
0.0
 10
83.54484050535647
 20
176.2238443494192
 30
0.0
 10
83.94290416663681
 20
176.2238443494192
 30
0.0
 10
84.26559852266924
 20
176.546538705452
 30
0.0
 10
84.26559852266924
 20
176.944602366732
 30
0.0
  0
SPLINE
  5
F4
330
89
100
AcDbEntity
  8
Bemaßung (ISO)
 62
    18
420
        0
370
     5
100
AcDbSpline
210
0.0
220
0.0
230
1.0
 70
     8
 71
     3
 72
    11
 73
     7
 74
     0
 42
0.0000000001
 43
0.0000000001
 40
0.0
 40
0.0
 40
0.0
 40
0.0
 40
1.0
 40
1.0
 40
1.0
 40
2.0
 40
2.0
 40
2.0
 40
2.0
 10
84.26559852270456
 20
176.944602366732
 30
0.0
 10
84.26559852270456
 20
177.3426660280312
 30
0.0
 10
83.94290416665638
 20
177.6653603840794
 30
0.0
 10
83.54484050535647
 20
177.6653603840794
 30
0.0
 10
83.14677684405754
 20
177.6653603840794
 30
0.0
 10
82.82408248800903
 20
177.3426660280312
 30
0.0
 10
82.82408248800903
 20
176.944602366732
 30
0.0
  0
CIRCLE
  5
F5
330
89
100
AcDbEntity
  8
Bemaßung (ISO)
 62
    18
420
        0
370
     5
100
AcDbCircle
 10
83.54484050535663
 20
176.9446023667323
 30
0.0
 40
0.198208454760846
  0
LINE
  5
F6
330
89
100
AcDbEntity
  8
Bemaßung (ISO)
 62
    18
420
        0
370
     5
100
AcDbLine
 10
115.8708375818234
 20
169.9172116979348
 30
0.0
 11
115.6185722757625
 21
169.9172116979348
 31
0.0
  0
LINE
  5
F7
330
89
100
AcDbEntity
  8
Bemaßung (ISO)
 62
    18
420
        0
370
     5
100
AcDbLine
 10
115.6185722757625
 20
170.097401202263
 30
0.0
 11
115.8708375818234
 21
170.097401202263
 31
0.0
  0
LINE
  5
F8
330
89
100
AcDbEntity
  8
Bemaßung (ISO)
 62
    18
420
        0
370
     5
100
AcDbLine
 10
115.8708375818234
 20
170.097401202263
 30
0.0
 11
115.8708375818234
 21
169.9172116979348
 31
0.0
  0
LINE
  5
F9
330
89
100
AcDbEntity
  8
Bemaßung (ISO)
 62
    18
420
        0
370
     5
100
AcDbLine
 10
79.50859560840671
 20
169.9172116979348
 30
0.0
 11
79.544633509272
 21
169.9172116979348
 31
0.0
  0
LINE
  5
FA
330
89
100
AcDbEntity
  8
Bemaßung (ISO)
 62
    18
420
        0
370
     5
100
AcDbLine
 10
79.50859560840671
 20
169.9172116979348
 30
0.0
 11
79.23831135191405
 21
169.9172116979348
 31
0.0
  0
LINE
  5
FB
330
89
100
AcDbEntity
  8
Bemaßung (ISO)
 62
    18
420
        0
370
     5
100
AcDbLine
 10
79.2202924014814
 20
169.9172116979348
 30
0.0
 11
79.23831135191405
 21
169.9172116979348
 31
0.0
  0
LINE
  5
FC
330
89
100
AcDbEntity
  8
Bemaßung (ISO)
 62
    18
420
        0
370
     5
100
AcDbLine
 10
79.04010289715329
 20
169.9172116979348
 30
0.0
 11
78.78783759109393
 21
169.9172116979348
 31
0.0
  0
LINE
  5
FD
330
89
100
AcDbEntity
  8
Bemaßung (ISO)
 62
    18
420
        0
370
     5
100
AcDbLine
 10
78.78783759109393
 20
170.097401202263
 30
0.0
 11
79.04010289715329
 21
170.097401202263
 31
0.0
  0
LINE
  5
FE
330
89
100
AcDbEntity
  8
Bemaßung (ISO)
 62
    18
420
        0
370
     5
100
AcDbLine
 10
78.78783759109393
 20
170.097401202263
 30
0.0
 11
78.78783759109393
 21
169.9172116979348
 31
0.0
  0
LINE
  5
FF
330
89
100
AcDbEntity
  8
Bemaßung (ISO)
 62
    18
420
        0
370
     5
100
AcDbLine
 10
115.2581932671062
 20
170.097401202263
 30
0.0
 11
115.2581932671062
 21
182.3502874965754
 31
0.0
  0
LINE
  5
100
330
89
100
AcDbEntity
  8
Bemaßung (ISO)
 62
    18
420
        0
370
     5
100
AcDbLine
 10
79.40048190580951
 20
170.097401202263
 30
0.0
 11
79.40048190580951
 21
186.22436183963
 31
0.0
  0
LINE
  5
101
330
89
100
AcDbEntity
  8
Bemaßung (ISO)
 62
    18
420
        0
370
     5
100
AcDbLine
 10
97.01880461769313
 20
169.9172116979348
 30
0.0
 11
83.8691816131474
 21
169.9172116979348
 31
0.0
  0
LINE
  5
102
330
89
100
AcDbEntity
  8
Bemaßung (ISO)
 62
    18
420
        0
370
     5
100
AcDbLine
 10
110.7894935597697
 20
169.9172116979348
 30
0.0
 11
97.63987055521658
 21
169.9172116979348
 31
0.0
  0
ENDBLK
  5
8C
330
89
100
AcDbEntity
  8
0
100
AcDbBlockEnd
  0
BLOCK
  5
105
330
103
100
AcDbEntity
  8
0
100
AcDbBlockBegin
  2
Block_3
 70
     0
 10
0.0
 20
0.0
 30
0.0
  3
Block_3
  1

  0
LINE
  5
107
330
103
100
AcDbEntity
  8
Bemaßung (ISO)
 62
    18
420
        0
370
     5
100
AcDbLine
 10
97.55539750176469
 20
124.7570263055774
 30
0.0
 11
97.46495142990635
 21
124.7570263055774
 31
0.0
  0
LINE
  5
108
330
103
100
AcDbEntity
  8
Bemaßung (ISO)
 62
    18
420
        0
370
     5
100
AcDbLine
 10
97.46495142990635
 20
124.7570263055774
 30
0.0
 11
97.3745053580464
 21
124.7570263055774
 31
0.0
  0
LINE
  5
109
330
103
100
AcDbEntity
  8
Bemaßung (ISO)
 62
    18
420
        0
370
     5
100
AcDbLine
 10
79.14962187852729
 20
124.7570263055774
 30
0.0
 11
97.3745053580464
 21
124.7570263055774
 31
0.0
  0
LINE
  5
10A
330
103
100
AcDbEntity
  8
Bemaßung (ISO)
 62
    18
420
        0
370
     5
100
AcDbLine
 10
97.55539750176469
 20
124.7570263055774
 30
0.0
 11
115.1471584782725
 21
124.7570263055774
 31
0.0
  0
SPLINE
  5
10B
330
103
100
AcDbEntity
  8
Bemaßung (ISO)
 62
    18
420
        0
370
     5
100
AcDbSpline
210
0.0
220
0.0
230
1.0
 70
     8
 71
     3
 72
     8
 73
     4
 74
     0
 42
0.0000000001
 43
0.0000000001
 40
0.0
 40
0.0
 40
0.0
 40
0.0
 40
1.0
 40
1.0
 40
1.0
 40
1.0
 10
78.78783759109393
 20
125.118810593012
 30
0.0
 10
78.78783759109393
 20
124.9190026483335
 30
0.0
 10
78.94981393384914
 20
124.7570263055774
 30
0.0
 10
79.14962187852729
 20
124.7570263055774
 30
0.0
  0
LINE
  5
10C
330
103
100
AcDbEntity
  8
Bemaßung (ISO)
 62
    18
420
        0
370
     5
100
AcDbLine
 10
78.78783759109393
 20
143.0271328210266
 30
0.0
 11
78.78783759109393
 21
125.118810593012
 31
0.0
  0
LINE
  5
10D
330
103
100
AcDbEntity
  8
Bemaßung (ISO)
 62
    18
420
        0
370
     5
100
AcDbLine
 10
78.78783759109393
 20
143.1175788928856
 30
0.0
 11
78.78783759109393
 21
143.0271328210266
 31
0.0
  0
LINE
  5
10E
330
103
100
AcDbEntity
  8
Bemaßung (ISO)
 62
    18
420
        0
370
     5
100
AcDbLine
 10
78.78783759109393
 20
143.2080249647433
 30
0.0
 11
78.78783759109393
 21
143.1175788928856
 31
0.0
  0
LINE
  5
10F
330
103
100
AcDbEntity
  8
Bemaßung (ISO)
 62
    18
420
        0
370
     5
100
AcDbLine
 10
78.78783759109393
 20
161.1163471927582
 30
0.0
 11
78.78783759109393
 21
143.2080249647433
 31
0.0
  0
SPLINE
  5
110
330
103
100
AcDbEntity
  8
Bemaßung (ISO)
 62
    18
420
        0
370
     5
100
AcDbSpline
210
0.0
220
0.0
230
1.0
 70
     8
 71
     3
 72
     8
 73
     4
 74
     0
 42
0.0000000001
 43
0.0000000001
 40
0.0
 40
0.0
 40
0.0
 40
0.0
 40
1.0
 40
1.0
 40
1.0
 40
1.0
 10
79.14962187852729
 20
161.4781314801929
 30
0.0
 10
78.94981393384914
 20
161.4781314801929
 30
0.0
 10
78.78783759109393
 20
161.316155137436
 30
0.0
 10
78.78783759109393
 20
161.1163471927582
 30
0.0
  0
LINE
  5
111
330
103
100
AcDbEntity
  8
Bemaßung (ISO)
 62
    18
420
        0
370
     5
100
AcDbLine
 10
97.3745053580464
 20
161.4781314801916
 30
0.0
 11
79.14962187852729
 21
161.4781314801929
 31
0.0
  0
LINE
  5
112
330
103
100
AcDbEntity
  8
Bemaßung (ISO)
 62
    18
420
        0
370
     5
100
AcDbLine
 10
97.46495142990635
 20
161.4781314801916
 30
0.0
 11
97.3745053580464
 21
161.4781314801916
 31
0.0
  0
LINE
  5
113
330
103
100
AcDbEntity
  8
Bemaßung (ISO)
 62
    18
420
        0
370
     5
100
AcDbLine
 10
97.55539750176469
 20
161.4781314801916
 30
0.0
 11
97.46495142990635
 21
161.4781314801916
 31
0.0
  0
LINE
  5
114
330
103
100
AcDbEntity
  8
Bemaßung (ISO)
 62
    18
420
        0
370
     5
100
AcDbLine
 10
115.1924920428503
 20
161.4781314801916
 30
0.0
 11
97.55539750176469
 21
161.4781314801916
 31
0.0
  0
LINE
  5
115
330
103
100
AcDbEntity
  8
Bemaßung (ISO)
 62
    18
420
        0
370
     5
100
AcDbLine
 10
115.3281611506381
 20
161.4781314801916
 30
0.0
 11
115.1924920428503
 21
161.4781314801916
 31
0.0
  0
SPLINE
  5
116
330
103
100
AcDbEntity
  8
Bemaßung (ISO)
 62
    18
420
        0
370
     5
100
AcDbSpline
210
0.0
220
0.0
230
1.0
 70
     8
 71
     3
 72
     8
 73
     4
 74
     0
 42
0.0000000001
 43
0.0000000001
 40
0.0
 40
0.0
 40
0.0
 40
0.0
 40
1.0
 40
1.0
 40
1.0
 40
1.0
 10
115.6899454380727
 20
161.1163471927563
 30
0.0
 10
115.6899454380727
 20
161.3161551374347
 30
0.0
 10
115.5279690953166
 20
161.4781314801916
 30
0.0
 10
115.3281611506381
 20
161.4781314801916
 30
0.0
  0
SPLINE
  5
117
330
103
100
AcDbEntity
  8
Bemaßung (ISO)
 62
    18
420
        0
370
     5
100
AcDbSpline
210
0.0
220
0.0
230
1.0
 70
     8
 71
     3
 72
     8
 73
     4
 74
     0
 42
0.0000000001
 43
0.0000000001
 40
0.0
 40
0.0
 40
0.0
 40
0.0
 40
1.0
 40
1.0
 40
1.0
 40
1.0
 10
115.5090532943548
 20
161.1163471927563
 30
0.0
 10
115.5090532943548
 20
161.1184552101957
 30
0.0
 10
115.5090164458437
 20
161.1205630665924
 30
0.0
 10
115.5089427657071
 20
161.1226697959911
 30
0.0
  0
SPLINE
  5
118
330
103
100
AcDbEntity
  8
Bemaßung (ISO)
 62
    18
420
        0
370
     5
100
AcDbSpline
210
0.0
220
0.0
230
1.0
 70
     8
 71
     3
 72
     8
 73
     4
 74
     0
 42
0.0000000001
 43
0.0000000001
 40
0.0
 40
0.0
 40
0.0
 40
0.0
 40
1.0
 40
1.0
 40
1.0
 40
1.0
 10
115.1471584782725
 20
124.7570263055774
 30
0.0
 10
115.346966422951
 20
124.7570263055774
 30
0.0
 10
115.5089427657071
 20
124.9190026483335
 30
0.0
 10
115.5089427657071
 20
125.118810593012
 30
0.0
  0
LINE
  5
119
330
103
100
AcDbEntity
  8
Bemaßung (ISO)
 62
    18
420
        0
370
     5
100
AcDbLine
 10
115.5089427657071
 20
125.118810593012
 30
0.0
 11
115.5089427657071
 21
143.0271328210266
 31
0.0
  0
LINE
  5
11A
330
103
100
AcDbEntity
  8
Bemaßung (ISO)
 62
    18
420
        0
370
     5
100
AcDbLine
 10
115.5089427657071
 20
143.1175788928856
 30
0.0
 11
115.5089427657071
 21
143.0271328210266
 31
0.0
  0
LINE
  5
11B
330
103
100
AcDbEntity
  8
Bemaßung (ISO)
 62
    18
420
        0
370
     5
100
AcDbLine
 10
115.5089427657071
 20
143.2080249647433
 30
0.0
 11
115.5089427657071
 21
143.1175788928856
 31
0.0
  0
LINE
  5
11C
330
103
100
AcDbEntity
  8
Bemaßung (ISO)
 62
    18
420
        0
370
     5
100
AcDbLine
 10
115.5089427657071
 20
143.2080249647433
 30
0.0
 11
115.5090532943548
 21
161.1163471927563
 31
0.0
  0
LINE
  5
11D
330
103
100
AcDbEntity
  8
Bemaßung (ISO)
 62
    18
420
        0
370
     5
100
AcDbLine
 10
115.5090532943548
 20
157.4985043184097
 30
0.0
 11
115.5090532943548
 21
157.8602886058444
 31
0.0
  0
LINE
  5
11E
330
103
100
AcDbEntity
  8
Bemaßung (ISO)
 62
    18
420
        0
370
     5
100
AcDbLine
 10
115.5090532943548
 20
161.1163471927563
 30
0.0
 11
115.5090532943548
 21
157.8602886058444
 31
0.0
  0
LINE
  5
11F
330
103
100
AcDbEntity
  8
Bemaßung (ISO)
 62
    18
420
        0
370
     5
100
AcDbLine
 10
115.6899454380727
 20
161.1163471927563
 30
0.0
 11
115.6899454380727
 21
157.8602886058444
 31
0.0
  0
LINE
  5
120
330
103
100
AcDbEntity
  8
Bemaßung (ISO)
 62
    18
420
        0
370
     5
100
AcDbLine
 10
115.6899454380727
 20
157.8602886058444
 30
0.0
 11
115.6899454380727
 21
157.4985043184097
 31
0.0
  0
LINE
  5
121
330
103
100
AcDbEntity
  8
Bemaßung (ISO)
 62
    18
420
        0
370
     5
100
AcDbLine
 10
115.5090532943548
 20
157.4985043184097
 30
0.0
 11
115.6899454380727
 21
157.4985043184097
 31
0.0
  0
LINE
  5
122
330
103
100
AcDbEntity
  8
Bemaßung (ISO)
 62
    18
420
        0
370
     5
100
AcDbLine
 10
115.8708375818228
 20
157.88742242733
 30
0.0
 11
115.8708375818228
 21
159.0089537185237
 31
0.0
  0
LINE
  5
123
330
103
100
AcDbEntity
  8
Bemaßung (ISO)
 62
    18
420
        0
370
     5
100
AcDbLine
 10
115.5089427657071
 20
158.8099723603618
 30
0.0
 11
115.5090532943548
 21
158.8099723603618
 31
0.0
  0
LINE
  5
124
330
103
100
AcDbEntity
  8
Bemaßung (ISO)
 62
    18
420
        0
370
     5
100
AcDbLine
 10
115.5089427657071
 20
158.0864037854925
 30
0.0
 11
115.5090532943548
 21
158.0864037854925
 31
0.0
  0
LINE
  5
125
330
103
100
AcDbEntity
  8
Bemaßung (ISO)
 62
    18
420
        0
370
     5
100
AcDbLine
 10
115.7080346524409
 20
157.7246194980585
 30
0.0
 11
115.6899454380702
 21
157.7246194980585
 31
0.0
  0
LINE
  5
126
330
103
100
AcDbEntity
  8
Bemaßung (ISO)
 62
    18
420
        0
370
     5
100
AcDbLine
 10
115.7080346524409
 20
159.1717566477965
 30
0.0
 11
115.6899454380702
 21
159.1717566477965
 31
0.0
  0
SPLINE
  5
127
330
103
100
AcDbEntity
  8
Bemaßung (ISO)
 62
    18
420
        0
370
     5
100
AcDbSpline
210
0.0
220
0.0
230
1.0
 70
     8
 71
     3
 72
     8
 73
     4
 74
     0
 42
0.0000000001
 43
0.0000000001
 40
0.0
 40
0.0
 40
0.0
 40
0.0
 40
1.0
 40
1.0
 40
1.0
 40
1.0
 10
115.8708375818228
 20
159.0089537185237
 30
0.0
 10
115.8708375817304
 20
159.0988672936355
 30
0.0
 10
115.7979482274572
 20
159.1717566478324
 30
0.0
 10
115.7080346523447
 20
159.1717566478324
 30
0.0
  0
SPLINE
  5
128
330
103
100
AcDbEntity
  8
Bemaßung (ISO)
 62
    18
420
        0
370
     5
100
AcDbSpline
210
0.0
220
0.0
230
1.0
 70
     8
 71
     3
 72
     8
 73
     4
 74
     0
 42
0.0000000001
 43
0.0000000001
 40
0.0
 40
0.0
 40
0.0
 40
0.0
 40
1.0
 40
1.0
 40
1.0
 40
1.0
 10
115.7080346523447
 20
157.7246194980226
 30
0.0
 10
115.7979482274559
 20
157.7246194980226
 30
0.0
 10
115.8708375817253
 20
157.7975088522159
 30
0.0
 10
115.8708375818228
 20
157.8874224273245
 30
0.0
  0
LINE
  5
129
330
103
100
AcDbEntity
  8
Bemaßung (ISO)
 62
    18
420
        0
370
     5
100
AcDbLine
 10
115.689834909461
 20
128.7185642529133
 30
0.0
 11
115.689834909461
 21
129.8400955441077
 31
0.0
  0
LINE
  5
12A
330
103
100
AcDbEntity
  8
Bemaßung (ISO)
 62
    18
420
        0
370
     5
100
AcDbLine
 10
115.5270319800779
 20
128.5557613236406
 30
0.0
 11
115.5089427657071
 21
128.5557613236406
 31
0.0
  0
LINE
  5
12B
330
103
100
AcDbEntity
  8
Bemaßung (ISO)
 62
    18
420
        0
370
     5
100
AcDbLine
 10
115.5270319800779
 20
130.0028984733792
 30
0.0
 11
115.5089427657071
 21
130.0028984733792
 31
0.0
  0
SPLINE
  5
12C
330
103
100
AcDbEntity
  8
Bemaßung (ISO)
 62
    18
420
        0
370
     5
100
AcDbSpline
210
0.0
220
0.0
230
1.0
 70
     8
 71
     3
 72
     8
 73
     4
 74
     0
 42
0.0000000001
 43
0.0000000001
 40
0.0
 40
0.0
 40
0.0
 40
0.0
 40
1.0
 40
1.0
 40
1.0
 40
1.0
 10
115.689834909461
 20
129.8400955441077
 30
0.0
 10
115.6898349093673
 20
129.9300091192189
 30
0.0
 10
115.6169455550954
 20
130.0028984734151
 30
0.0
 10
115.5270319799829
 20
130.0028984734151
 30
0.0
  0
SPLINE
  5
12D
330
103
100
AcDbEntity
  8
Bemaßung (ISO)
 62
    18
420
        0
370
     5
100
AcDbSpline
210
0.0
220
0.0
230
1.0
 70
     8
 71
     3
 72
     8
 73
     4
 74
     0
 42
0.0000000001
 43
0.0000000001
 40
0.0
 40
0.0
 40
0.0
 40
0.0
 40
1.0
 40
1.0
 40
1.0
 40
1.0
 10
115.5270319799829
 20
128.5557613236059
 30
0.0
 10
115.6169455550929
 20
128.5557613236059
 30
0.0
 10
115.6898349093648
 20
128.6286506777995
 30
0.0
 10
115.689834909461
 20
128.7185642529082
 30
0.0
  0
LINE
  5
12E
330
103
100
AcDbEntity
  8
Bemaßung (ISO)
 62
    18
420
        0
370
     5
100
AcDbLine
 10
113.4648615417036
 20
161.4781314801916
 30
0.0
 11
113.2116125404974
 21
161.7313804813965
 31
0.0
  0
LINE
  5
12F
330
103
100
AcDbEntity
  8
Bemaßung (ISO)
 62
    18
420
        0
370
     5
100
AcDbLine
 10
113.2116125404974
 20
161.7313804813965
 30
0.0
 11
112.0177243919624
 21
161.7313804813965
 31
0.0
  0
LINE
  5
130
330
103
100
AcDbEntity
  8
Bemaßung (ISO)
 62
    18
420
        0
370
     5
100
AcDbLine
 10
112.0177243919624
 20
161.7313804813965
 30
0.0
 11
111.7644753907576
 21
161.4781314801916
 31
0.0
  0
LINE
  5
131
330
103
100
AcDbEntity
  8
Bemaßung (ISO)
 62
    18
420
        0
370
     5
100
AcDbLine
 10
80.83191881509906
 20
124.7570263055774
 30
0.0
 11
81.08516781630299
 21
124.5037773043737
 31
0.0
  0
LINE
  5
132
330
103
100
AcDbEntity
  8
Bemaßung (ISO)
 62
    18
420
        0
370
     5
100
AcDbLine
 10
81.08516781630299
 20
124.5037773043737
 30
0.0
 11
82.27905596483671
 21
124.5037773043737
 31
0.0
  0
LINE
  5
133
330
103
100
AcDbEntity
  8
Bemaßung (ISO)
 62
    18
420
        0
370
     5
100
AcDbLine
 10
82.27905596483671
 20
124.5037773043737
 30
0.0
 11
82.53230496604128
 21
124.7570263055774
 31
0.0
  0
LINE
  5
134
330
103
100
AcDbEntity
  8
Bemaßung (ISO)
 62
    18
420
        0
370
     5
100
AcDbLine
 10
82.5323049660416
 20
161.4781314801922
 30
0.0
 11
82.27905596483671
 21
161.7313804813965
 31
0.0
  0
LINE
  5
135
330
103
100
AcDbEntity
  8
Bemaßung (ISO)
 62
    18
420
        0
370
     5
100
AcDbLine
 10
82.27905596483671
 20
161.7313804813965
 30
0.0
 11
81.08516781630299
 21
161.7313804813965
 31
0.0
  0
LINE
  5
136
330
103
100
AcDbEntity
  8
Bemaßung (ISO)
 62
    18
420
        0
370
     5
100
AcDbLine
 10
81.08516781630299
 20
161.7313804813965
 30
0.0
 11
80.83191881509906
 21
161.4781314801929
 31
0.0
  0
LINE
  5
137
330
103
100
AcDbEntity
  8
Bemaßung (ISO)
 62
    18
420
        0
370
     5
100
AcDbLine
 10
111.7644753907588
 20
124.7570263055774
 30
0.0
 11
112.0177243919624
 21
124.5037773043737
 31
0.0
  0
LINE
  5
138
330
103
100
AcDbEntity
  8
Bemaßung (ISO)
 62
    18
420
        0
370
     5
100
AcDbLine
 10
112.0177243919624
 20
124.5037773043737
 30
0.0
 11
113.2116125404974
 21
124.5037773043737
 31
0.0
  0
LINE
  5
139
330
103
100
AcDbEntity
  8
Bemaßung (ISO)
 62
    18
420
        0
370
     5
100
AcDbLine
 10
113.2116125404974
 20
124.5037773043737
 30
0.0
 11
113.4648615417023
 21
124.7570263055774
 31
0.0
  0
LINE
  5
13A
330
103
100
AcDbEntity
  8
Bemaßung (ISO)
 62
    18
420
        0
370
     5
100
AcDbLine
 10
114.7672849764671
 20
125.118810593012
 30
0.0
 11
79.52949538033464
 21
125.118810593012
 31
0.0
  0
LINE
  5
13B
330
103
100
AcDbEntity
  8
Bemaßung (ISO)
 62
    18
420
        0
370
     5
100
AcDbLine
 10
79.52949538033464
 20
161.1163471927582
 30
0.0
 11
114.7672849764671
 21
161.1163471927582
 31
0.0
  0
LINE
  5
13C
330
103
100
AcDbEntity
  8
Bemaßung (ISO)
 62
    18
420
        0
370
     5
100
AcDbLine
 10
115.1471584782725
 20
125.118810593012
 30
0.0
 11
115.1471584782725
 21
161.1163471927582
 31
0.0
  0
LINE
  5
13D
330
103
100
AcDbEntity
  8
Bemaßung (ISO)
 62
    18
420
        0
370
     5
100
AcDbLine
 10
115.1471584782725
 20
125.118810593012
 30
0.0
 11
114.7853741908378
 21
125.118810593012
 31
0.0
  0
LINE
  5
13E
330
103
100
AcDbEntity
  8
Bemaßung (ISO)
 62
    18
420
        0
370
     5
100
AcDbLine
 10
115.1471584782725
 20
161.1163471927582
 30
0.0
 11
114.7853741908378
 21
161.1163471927582
 31
0.0
  0
LINE
  5
13F
330
103
100
AcDbEntity
  8
Bemaßung (ISO)
 62
    18
420
        0
370
     5
100
AcDbLine
 10
79.14962187852729
 20
125.118810593012
 30
0.0
 11
79.14962187852729
 21
161.1163471927582
 31
0.0
  0
LINE
  5
140
330
103
100
AcDbEntity
  8
Bemaßung (ISO)
 62
    18
420
        0
370
     5
100
AcDbLine
 10
79.14962187852729
 20
161.1163471927582
 30
0.0
 11
79.51140616596195
 21
161.1163471927582
 31
0.0
  0
LINE
  5
141
330
103
100
AcDbEntity
  8
Bemaßung (ISO)
 62
    18
420
        0
370
     5
100
AcDbLine
 10
79.14962187852729
 20
125.118810593012
 30
0.0
 11
79.51140616596195
 21
125.118810593012
 31
0.0
  0
LINE
  5
142
330
103
100
AcDbEntity
  8
Bemaßung (ISO)
 62
    18
420
        0
370
     5
100
AcDbLine
 10
102.9640725989114
 20
125.6614870241646
 30
0.0
 11
102.9640725989114
 21
132.3906747704479
 31
0.0
  0
LINE
  5
143
330
103
100
AcDbEntity
  8
Bemaßung (ISO)
 62
    18
420
        0
370
     5
100
AcDbLine
 10
114.0618056159673
 20
144.609939078553
 30
0.0
 11
114.0618056159673
 21
141.6252187072168
 31
0.0
  0
LINE
  5
144
330
103
100
AcDbEntity
  8
Bemaßung (ISO)
 62
    18
420
        0
370
     5
100
AcDbLine
 10
80.23497474083157
 20
144.609939078553
 30
0.0
 11
80.23497474083157
 21
141.6252187072168
 31
0.0
  0
LINE
  5
145
330
103
100
AcDbEntity
  8
Bemaßung (ISO)
 62
    18
420
        0
370
     5
100
AcDbLine
 10
91.33270775788805
 20
125.6614870241646
 30
0.0
 11
91.33270775788805
 21
132.3906747704479
 31
0.0
  0
LINE
  5
146
330
103
100
AcDbEntity
  8
Bemaßung (ISO)
 62
    18
420
        0
370
     5
100
AcDbLine
 10
101.8877643437944
 20
132.3906747704479
 30
0.0
 11
91.33270775788805
 21
132.3906747704479
 31
0.0
  0
LINE
  5
147
330
103
100
AcDbEntity
  8
Bemaßung (ISO)
 62
    18
420
        0
370
     5
100
AcDbLine
 10
92.40901601300757
 20
132.7886374866266
 30
0.0
 11
92.40901601300757
 21
132.3906747704479
 31
0.0
  0
LINE
  5
148
330
103
100
AcDbEntity
  8
Bemaßung (ISO)
 62
    18
420
        0
370
     5
100
AcDbLine
 10
94.6520785951021
 20
132.7886374866266
 30
0.0
 11
92.40901601300757
 21
132.7886374866266
 31
0.0
  0
LINE
  5
149
330
103
100
AcDbEntity
  8
Bemaßung (ISO)
 62
    18
420
        0
370
     5
100
AcDbLine
 10
94.6520785951021
 20
132.3906747704479
 30
0.0
 11
94.6520785951021
 21
132.7886374866266
 31
0.0
  0
LINE
  5
14A
330
103
100
AcDbEntity
  8
Bemaßung (ISO)
 62
    18
420
        0
370
     5
100
AcDbLine
 10
99.64470176169932
 20
132.3906747704479
 30
0.0
 11
99.31909590300781
 21
132.3906747704479
 31
0.0
  0
LINE
  5
14B
330
103
100
AcDbEntity
  8
Bemaßung (ISO)
 62
    18
420
        0
370
     5
100
AcDbLine
 10
94.97768445379263
 20
132.3906747704479
 30
0.0
 11
94.6520785951021
 21
132.3906747704479
 31
0.0
  0
LINE
  5
14C
330
103
100
AcDbEntity
  8
Bemaßung (ISO)
 62
    18
420
        0
370
     5
100
AcDbLine
 10
99.64470176169932
 20
132.7886374866266
 30
0.0
 11
99.64470176169932
 21
132.3906747704479
 31
0.0
  0
LINE
  5
14D
330
103
100
AcDbEntity
  8
Bemaßung (ISO)
 62
    18
420
        0
370
     5
100
AcDbLine
 10
101.8877643437944
 20
132.7886374866266
 30
0.0
 11
99.64470176169932
 21
132.7886374866266
 31
0.0
  0
LINE
  5
14E
330
103
100
AcDbEntity
  8
Bemaßung (ISO)
 62
    18
420
        0
370
     5
100
AcDbLine
 10
101.8877643437944
 20
132.3906747704479
 30
0.0
 11
101.8877643437944
 21
132.7886374866266
 31
0.0
  0
LINE
  5
14F
330
103
100
AcDbEntity
  8
Bemaßung (ISO)
 62
    18
420
        0
370
     5
100
AcDbLine
 10
102.9640725989114
 20
132.3906747704479
 30
0.0
 11
101.8877643437944
 21
132.3906747704479
 31
0.0
  0
LINE
  5
150
330
103
100
AcDbEntity
  8
Bemaßung (ISO)
 62
    18
420
        0
370
     5
100
AcDbLine
 10
79.69229830968055
 20
160.5736707616056
 30
0.0
 11
114.6044820471212
 21
160.5736707616056
 31
0.0
  0
LINE
  5
151
330
103
100
AcDbEntity
  8
Bemaßung (ISO)
 62
    18
420
        0
370
     5
100
AcDbLine
 10
114.6044820471212
 20
160.5736707616056
 30
0.0
 11
114.6044820471212
 21
160.2118864741716
 31
0.0
  0
LINE
  5
152
330
103
100
AcDbEntity
  8
Bemaßung (ISO)
 62
    18
420
        0
370
     5
100
AcDbLine
 10
79.69229830968055
 20
160.5736707616056
 30
0.0
 11
79.69229830968055
 21
160.2118864741716
 31
0.0
  0
LINE
  5
153
330
103
100
AcDbEntity
  8
Bemaßung (ISO)
 62
    18
420
        0
370
     5
100
AcDbLine
 10
91.33270775788805
 20
125.6614870241646
 30
0.0
 11
79.69229830968055
 21
125.6614870241646
 31
0.0
  0
LINE
  5
154
330
103
100
AcDbEntity
  8
Bemaßung (ISO)
 62
    18
420
        0
370
     5
100
AcDbLine
 10
114.6044820471212
 20
125.6614870241646
 30
0.0
 11
102.9369387773546
 21
125.6614870241646
 31
0.0
  0
LINE
  5
155
330
103
100
AcDbEntity
  8
Bemaßung (ISO)
 62
    18
420
        0
370
     5
100
AcDbLine
 10
79.69229830968055
 20
125.6614870241646
 30
0.0
 11
79.69229830968055
 21
126.023271311598
 31
0.0
  0
LINE
  5
156
330
103
100
AcDbEntity
  8
Bemaßung (ISO)
 62
    18
420
        0
370
     5
100
AcDbLine
 10
114.6044820471212
 20
125.6614870241646
 30
0.0
 11
114.6044820471212
 21
126.023271311598
 31
0.0
  0
LINE
  5
157
330
103
100
AcDbEntity
  8
Bemaßung (ISO)
 62
    18
420
        0
370
     5
100
AcDbLine
 10
114.6044820471212
 20
160.2028418669856
 30
0.0
 11
114.6044820471212
 21
126.0323159187853
 31
0.0
  0
LINE
  5
158
330
103
100
AcDbEntity
  8
Bemaßung (ISO)
 62
    18
420
        0
370
     5
100
AcDbLine
 10
79.69229830968055
 20
160.2028418669856
 30
0.0
 11
79.69229830968055
 21
126.0323159187853
 31
0.0
  0
LINE
  5
159
330
103
100
AcDbEntity
  8
Bemaßung (ISO)
 62
    18
420
        0
370
     5
100
AcDbLine
 10
92.0653209399437
 20
125.6614870241646
 30
0.0
 11
92.06120518945798
 21
125.6614870241646
 31
0.0
  0
LINE
  5
15A
330
103
100
AcDbEntity
  8
Bemaßung (ISO)
 62
    18
420
        0
370
     5
100
AcDbLine
 10
92.02503227086193
 20
125.6614870241646
 30
0.0
 11
91.74274662619025
 21
125.6614870241633
 31
0.0
  0
LINE
  5
15B
330
103
100
AcDbEntity
  8
Bemaßung (ISO)
 62
    18
420
        0
370
     5
100
AcDbLine
 10
94.97768445379263
 20
132.6801022003956
 30
0.0
 11
94.97768445379263
 21
132.3906747704479
 31
0.0
  0
SPLINE
  5
15C
330
103
100
AcDbEntity
  8
Bemaßung (ISO)
 62
    18
420
        0
370
     5
100
AcDbSpline
210
0.0
220
0.0
230
1.0
 70
     8
 71
     3
 72
     8
 73
     4
 74
     0
 42
0.0000000001
 43
0.0000000001
 40
0.0
 40
0.0
 40
0.0
 40
0.0
 40
1.0
 40
1.0
 40
1.0
 40
1.0
 10
95.01386288253547
 20
132.7162806291397
 30
0.0
 10
94.99388208806852
 20
132.7162806291397
 30
0.0
 10
94.97768445379263
 20
132.7000829948632
 30
0.0
 10
94.97768445379263
 20
132.6801022003956
 30
0.0
  0
LINE
  5
15D
330
103
100
AcDbEntity
  8
Bemaßung (ISO)
 62
    18
420
        0
370
     5
100
AcDbLine
 10
95.01386288253547
 20
132.7162806291397
 30
0.0
 11
99.28291747426403
 21
132.7162806291397
 31
0.0
  0
SPLINE
  5
15E
330
103
100
AcDbEntity
  8
Bemaßung (ISO)
 62
    18
420
        0
370
     5
100
AcDbSpline
210
0.0
220
0.0
230
1.0
 70
     8
 71
     3
 72
     8
 73
     4
 74
     0
 42
0.0000000001
 43
0.0000000001
 40
0.0
 40
0.0
 40
0.0
 40
0.0
 40
1.0
 40
1.0
 40
1.0
 40
1.0
 10
99.31909590300781
 20
132.6801022003956
 30
0.0
 10
99.31909590300781
 20
132.7000829948632
 30
0.0
 10
99.30289826873227
 20
132.7162806291397
 30
0.0
 10
99.28291747426403
 20
132.7162806291397
 30
0.0
  0
LINE
  5
15F
330
103
100
AcDbEntity
  8
Bemaßung (ISO)
 62
    18
420
        0
370
     5
100
AcDbLine
 10
99.31909590300781
 20
132.6801022003956
 30
0.0
 11
99.31909590300781
 21
132.3906747704479
 31
0.0
  0
LINE
  5
160
330
103
100
AcDbEntity
  8
Bemaßung (ISO)
 62
    18
420
        0
370
     5
100
AcDbLine
 10
103.298723064788
 20
131.4110142974876
 30
0.0
 11
103.298723064788
 21
131.3929257718884
 31
0.0
  0
LINE
  5
161
330
103
100
AcDbEntity
  8
Bemaßung (ISO)
 62
    18
420
        0
370
     5
100
AcDbLine
 10
103.2987230647893
 20
126.204163455316
 30
0.0
 11
103.2987230647893
 21
131.3929257718884
 31
0.0
  0
LINE
  5
162
330
103
100
AcDbEntity
  8
Bemaßung (ISO)
 62
    18
420
        0
370
     5
100
AcDbLine
 10
102.2314594168561
 20
125.6614870241646
 30
0.0
 11
102.2355751673424
 21
125.6614870241646
 31
0.0
  0
LINE
  5
163
330
103
100
AcDbEntity
  8
Bemaßung (ISO)
 62
    18
420
        0
370
     5
100
AcDbLine
 10
102.2717480859372
 20
125.6614870241646
 30
0.0
 11
102.5540337306089
 21
125.6614870241633
 31
0.0
  0
LINE
  5
164
330
103
100
AcDbEntity
  8
Bemaßung (ISO)
 62
    18
420
        0
370
     5
100
AcDbLine
 10
102.6249156113408
 20
125.6614870241646
 30
0.0
 11
102.6167063651338
 21
125.6614870374465
 31
0.0
  0
SPLINE
  5
165
330
103
100
AcDbEntity
  8
Bemaßung (ISO)
 62
    18
420
        0
370
     5
100
AcDbSpline
210
0.0
220
0.0
230
1.0
 70
     8
 71
     3
 72
    17
 73
    13
 74
     0
 42
0.0000000001
 43
0.0000000001
 40
0.0
 40
0.0
 40
0.0
 40
0.0
 40
1.0
 40
1.0
 40
1.0
 40
2.0
 40
2.0
 40
2.0
 40
3.0
 40
3.0
 40
3.0
 40
4.0
 40
4.0
 40
4.0
 40
4.0
 10
102.5540337306089
 20
125.6614870241646
 30
0.0
 10
102.5590163663362
 20
125.6614870241646
 30
0.0
 10
102.5639579754571
 20
125.6614870241646
 30
0.0
 10
102.5687558866837
 20
125.6614870241646
 30
0.0
 10
102.5738144985336
 20
125.6614870241646
 30
0.0
 10
102.578647571189
 20
125.6614870241646
 30
0.0
 10
102.5832463652469
 20
125.6614870241646
 30
0.0
 10
102.5954056407657
 20
125.6614870241646
 30
0.0
 10
102.605526224938
 20
125.6614870241646
 30
0.0
 10
102.6148071370339
 20
125.6614870241646
 30
0.0
 10
102.6156176619801
 20
125.6614870241646
 30
0.0
 10
102.6158972929978
 20
125.6614870540357
 30
0.0
 10
102.6167065850883
 20
125.661487054046
 30
0.0
  0
LINE
  5
166
330
103
100
AcDbEntity
  8
Bemaßung (ISO)
 62
    18
420
        0
370
     5
100
AcDbLine
 10
102.2717480859372
 20
125.6614870241646
 30
0.0
 11
102.235575167345
 21
125.6614870241646
 31
0.0
  0
LINE
  5
167
330
103
100
AcDbEntity
  8
Bemaßung (ISO)
 62
    18
420
        0
370
     5
100
AcDbLine
 10
102.9369387773546
 20
125.6614870241646
 30
0.0
 11
102.6249156113408
 21
125.6614870241646
 31
0.0
  0
SPLINE
  5
168
330
103
100
AcDbEntity
  8
Bemaßung (ISO)
 62
    18
420
        0
370
     5
100
AcDbSpline
210
0.0
220
0.0
230
1.0
 70
     8
 71
     3
 72
     8
 73
     4
 74
     0
 42
0.0000000001
 43
0.0000000001
 40
0.0
 40
0.0
 40
0.0
 40
0.0
 40
1.0
 40
1.0
 40
1.0
 40
1.0
 10
103.2987230647893
 20
131.4110142974774
 30
0.0
 10
103.2987230647893
 20
131.4308719081632
 30
0.0
 10
103.282717202957
 20
131.4470180605146
 30
0.0
 10
103.262860348388
 20
131.4471913486579
 30
0.0
  0
LINE
  5
169
330
103
100
AcDbEntity
  8
Bemaßung (ISO)
 62
    18
420
        0
370
     5
100
AcDbLine
 10
103.262860348388
 20
131.4471913486567
 30
0.0
 11
102.9640725989114
 21
131.4497988298451
 31
0.0
  0
LINE
  5
16A
330
103
100
AcDbEntity
  8
Bemaßung (ISO)
 62
    18
420
        0
370
     5
100
AcDbLine
 10
91.35984157944646
 20
125.6614870241646
 30
0.0
 11
91.67186474545991
 21
125.6614870241646
 31
0.0
  0
LINE
  5
16B
330
103
100
AcDbEntity
  8
Bemaßung (ISO)
 62
    18
420
        0
370
     5
100
AcDbLine
 10
91.67186474545991
 20
125.6614870241646
 30
0.0
 11
91.68007399166661
 21
125.6614870374465
 31
0.0
  0
SPLINE
  5
16C
330
103
100
AcDbEntity
  8
Bemaßung (ISO)
 62
    18
420
        0
370
     5
100
AcDbSpline
210
0.0
220
0.0
230
1.0
 70
     8
 71
     3
 72
    17
 73
    13
 74
     0
 42
0.0000000001
 43
0.0000000001
 40
0.0
 40
0.0
 40
0.0
 40
0.0
 40
1.0
 40
1.0
 40
1.0
 40
2.0
 40
2.0
 40
2.0
 40
3.0
 40
3.0
 40
3.0
 40
4.0
 40
4.0
 40
4.0
 40
4.0
 10
91.74274662619025
 20
125.6614870241646
 30
0.0
 10
91.73776399046291
 20
125.6614870241646
 30
0.0
 10
91.73282238134209
 20
125.6614870241646
 30
0.0
 10
91.72802447011674
 20
125.6614870241646
 30
0.0
 10
91.72296585826719
 20
125.6614870241646
 30
0.0
 10
91.71813278561076
 20
125.6614870241646
 30
0.0
 10
91.71353399155385
 20
125.6614870241646
 30
0.0
 10
91.70137471603316
 20
125.6614870241646
 30
0.0
 10
91.69125413186337
 20
125.6614870241646
 30
0.0
 10
91.68197321976682
 20
125.6614870241646
 30
0.0
 10
91.68116269482061
 20
125.6614870241646
 30
0.0
 10
91.68088306380267
 20
125.6614870540357
 30
0.0
 10
91.68007377171209
 20
125.661487054046
 30
0.0
  0
LINE
  5
16D
330
103
100
AcDbEntity
  8
Bemaßung (ISO)
 62
    18
420
        0
370
     5
100
AcDbLine
 10
92.02503227086193
 20
125.6614870241646
 30
0.0
 11
92.06120518945638
 21
125.6614870241646
 31
0.0
  0
LINE
  5
16E
330
103
100
AcDbEntity
  8
Bemaßung (ISO)
 62
    18
420
        0
370
     5
100
AcDbLine
 10
90.99805729201115
 20
126.204163455316
 30
0.0
 11
90.99805729201115
 21
131.3929257718884
 31
0.0
  0
LINE
  5
16F
330
103
100
AcDbEntity
  8
Bemaßung (ISO)
 62
    18
420
        0
370
     5
100
AcDbLine
 10
90.99805729201115
 20
131.4110142974876
 30
0.0
 11
90.99805729201115
 21
131.3929257718884
 31
0.0
  0
LINE
  5
170
330
103
100
AcDbEntity
  8
Bemaßung (ISO)
 62
    18
420
        0
370
     5
100
AcDbLine
 10
91.03392000841337
 20
131.4471913486567
 30
0.0
 11
91.33270775788805
 21
131.4497988298451
 31
0.0
  0
SPLINE
  5
171
330
103
100
AcDbEntity
  8
Bemaßung (ISO)
 62
    18
420
        0
370
     5
100
AcDbSpline
210
0.0
220
0.0
230
1.0
 70
     8
 71
     3
 72
     8
 73
     4
 74
     0
 42
0.0000000001
 43
0.0000000001
 40
0.0
 40
0.0
 40
0.0
 40
0.0
 40
1.0
 40
1.0
 40
1.0
 40
1.0
 10
91.03392000841337
 20
131.4471913486579
 30
0.0
 10
91.01406315384279
 20
131.4470180605146
 30
0.0
 10
90.99805729201115
 20
131.4308719081632
 30
0.0
 10
90.99805729201115
 20
131.4110142974774
 30
0.0
  0
CIRCLE
  5
172
330
103
100
AcDbEntity
  8
Bemaßung (ISO)
 62
    18
420
        0
370
     5
100
AcDbCircle
 10
100.7662330527463
 20
133.2589570602914
 30
0.0
 40
0.2622936083906434
  0
CIRCLE
  5
173
330
103
100
AcDbEntity
  8
Bemaßung (ISO)
 62
    18
420
        0
370
     5
100
AcDbCircle
 10
93.53054730405428
 20
133.2589570602914
 30
0.0
 40
0.2622936083906434
  0
LINE
  5
174
330
103
100
AcDbEntity
  8
Bemaßung (ISO)
 62
    18
420
        0
370
     5
100
AcDbLine
 10
115.6899454380727
 20
161.1163471927563
 30
0.0
 11
115.5090532943548
 21
161.1163471927563
 31
0.0
  0
LINE
  5
175
330
103
100
AcDbEntity
  8
Bemaßung (ISO)
 62
    18
420
        0
370
     5
100
AcDbLine
 10
79.51140616596195
 20
161.1163471927582
 30
0.0
 11
79.52949538033464
 21
161.1163471927582
 31
0.0
  0
LINE
  5
176
330
103
100
AcDbEntity
  8
Bemaßung (ISO)
 62
    18
420
        0
370
     5
100
AcDbLine
 10
114.7672849764671
 20
161.1163471927563
 30
0.0
 11
114.7853741908378
 21
161.1163471927563
 31
0.0
  0
LINE
  5
177
330
103
100
AcDbEntity
  8
Bemaßung (ISO)
 62
    18
420
        0
370
     5
100
AcDbLine
 10
114.7853741908378
 20
125.118810593012
 30
0.0
 11
114.7672849764671
 21
125.118810593012
 31
0.0
  0
LINE
  5
178
330
103
100
AcDbEntity
  8
Bemaßung (ISO)
 62
    18
420
        0
370
     5
100
AcDbLine
 10
79.52949538033464
 20
125.118810593012
 30
0.0
 11
79.51140616596195
 21
125.118810593012
 31
0.0
  0
LINE
  5
179
330
103
100
AcDbEntity
  8
Bemaßung (ISO)
 62
    18
420
        0
370
     5
100
AcDbLine
 10
91.33270775788805
 20
125.6614870241646
 30
0.0
 11
91.35984157944646
 21
125.6614870241646
 31
0.0
  0
LINE
  5
17A
330
103
100
AcDbEntity
  8
Bemaßung (ISO)
 62
    18
420
        0
370
     5
100
AcDbLine
 10
92.0653209399437
 20
125.6614870241646
 30
0.0
 11
102.2314594168561
 21
125.6614870241646
 31
0.0
  0
LINE
  5
17B
330
103
100
AcDbEntity
  8
Bemaßung (ISO)
 62
    18
420
        0
370
     5
100
AcDbLine
 10
79.69229830968055
 20
160.2118864741716
 30
0.0
 11
79.69229830968055
 21
160.2028418669856
 31
0.0
  0
LINE
  5
17C
330
103
100
AcDbEntity
  8
Bemaßung (ISO)
 62
    18
420
        0
370
     5
100
AcDbLine
 10
79.69229830968055
 20
126.0323159187853
 30
0.0
 11
79.69229830968055
 21
126.023271311598
 31
0.0
  0
LINE
  5
17D
330
103
100
AcDbEntity
  8
Bemaßung (ISO)
 62
    18
420
        0
370
     5
100
AcDbLine
 10
114.6044820471212
 20
160.2118864741716
 30
0.0
 11
114.6044820471212
 21
160.2028418669856
 31
0.0
  0
LINE
  5
17E
330
103
100
AcDbEntity
  8
Bemaßung (ISO)
 62
    18
420
        0
370
     5
100
AcDbLine
 10
114.6044820471212
 20
126.0323159187853
 30
0.0
 11
114.6044820471212
 21
126.023271311598
 31
0.0
  0
LINE
  5
17F
330
103
100
AcDbEntity
  8
Bemaßung (ISO)
 62
    18
420
        0
370
     5
100
AcDbLine
 10
103.2987230647893
 20
126.204163455316
 30
0.0
 11
114.0618056159673
 21
126.204163455316
 31
0.0
  0
LINE
  5
180
330
103
100
AcDbEntity
  8
Bemaßung (ISO)
 62
    18
420
        0
370
     5
100
AcDbLine
 10
114.0618056159673
 20
126.204163455316
 30
0.0
 11
114.0618056159673
 21
141.6252187072168
 31
0.0
  0
LINE
  5
181
330
103
100
AcDbEntity
  8
Bemaßung (ISO)
 62
    18
420
        0
370
     5
100
AcDbLine
 10
114.0618056159673
 20
144.609939078553
 30
0.0
 11
114.0618056159673
 21
160.0309943304536
 31
0.0
  0
LINE
  5
182
330
103
100
AcDbEntity
  8
Bemaßung (ISO)
 62
    18
420
        0
370
     5
100
AcDbLine
 10
114.0618056159673
 20
160.0309943304536
 30
0.0
 11
80.23497474083157
 21
160.0309943304536
 31
0.0
  0
LINE
  5
183
330
103
100
AcDbEntity
  8
Bemaßung (ISO)
 62
    18
420
        0
370
     5
100
AcDbLine
 10
80.23497474083157
 20
144.609939078553
 30
0.0
 11
80.23497474083157
 21
160.0309943304536
 31
0.0
  0
LINE
  5
184
330
103
100
AcDbEntity
  8
Bemaßung (ISO)
 62
    18
420
        0
370
     5
100
AcDbLine
 10
80.23497474083157
 20
126.204163455316
 30
0.0
 11
80.23497474083157
 21
141.6252187072168
 31
0.0
  0
LINE
  5
185
330
103
100
AcDbEntity
  8
Bemaßung (ISO)
 62
    18
420
        0
370
     5
100
AcDbLine
 10
80.23497474083157
 20
126.204163455316
 30
0.0
 11
90.99805729201115
 21
126.204163455316
 31
0.0
  0
SPLINE
  5
186
330
103
100
AcDbEntity
  8
Bemaßung (ISO)
 62
    18
420
        0
370
     5
100
AcDbSpline
210
0.0
220
0.0
230
1.0
 70
     8
 71
     3
 72
    11
 73
     7
 74
     0
 42
0.0000000001
 43
0.0000000001
 40
0.0
 40
0.0
 40
0.0
 40
0.0
 40
1.0
 40
1.0
 40
1.0
 40
2.0
 40
2.0
 40
2.0
 40
2.0
 10
91.74421058264655
 20
132.0424731756916
 30
0.0
 10
91.70425819266894
 20
132.0424762883067
 30
0.0
 10
91.671867858075
 20
132.010091000258
 30
0.0
 10
91.67186474545991
 20
131.9701386102813
 30
0.0
 10
91.6718647451673
 20
131.970134853023
 30
0.0
 10
91.6718647451673
 20
131.9701310957648
 30
0.0
 10
91.67186474545991
 20
131.9701273385065
 30
0.0
  0
LINE
  5
187
330
103
100
AcDbEntity
  8
Bemaßung (ISO)
 62
    18
420
        0
370
     5
100
AcDbLine
 10
91.67186474545991
 20
125.6976654529075
 30
0.0
 11
91.67186474545991
 21
131.9701273385065
 31
0.0
  0
LINE
  5
188
330
103
100
AcDbEntity
  8
Bemaßung (ISO)
 62
    18
420
        0
370
     5
100
AcDbLine
 10
91.74421058264655
 20
132.0424731756916
 30
0.0
 11
102.5525697741548
 21
132.0424731756916
 31
0.0
  0
SPLINE
  5
189
330
103
100
AcDbEntity
  8
Bemaßung (ISO)
 62
    18
420
        0
370
     5
100
AcDbSpline
210
0.0
220
0.0
230
1.0
 70
     8
 71
     3
 72
    11
 73
     7
 74
     0
 42
0.0000000001
 43
0.0000000001
 40
0.0
 40
0.0
 40
0.0
 40
0.0
 40
1.0
 40
1.0
 40
1.0
 40
2.0
 40
2.0
 40
2.0
 40
2.0
 10
102.6249156113408
 20
131.9701273385065
 30
0.0
 10
102.6249187239563
 20
132.0100797284832
 30
0.0
 10
102.5925334359059
 20
132.0424700630765
 30
0.0
 10
102.5525810459289
 20
132.0424731756916
 30
0.0
 10
102.5525772886703
 20
132.0424731759842
 30
0.0
 10
102.5525735314128
 20
132.0424731759842
 30
0.0
 10
102.5525697741548
 20
132.0424731756916
 30
0.0
  0
LINE
  5
18A
330
103
100
AcDbEntity
  8
Bemaßung (ISO)
 62
    18
420
        0
370
     5
100
AcDbLine
 10
102.6249156113408
 20
125.6976654529075
 30
0.0
 11
102.6249156113408
 21
131.9701273385065
 31
0.0
  0
LINE
  5
18B
330
103
100
AcDbEntity
  8
Bemaßung (ISO)
 62
    18
420
        0
370
     5
100
AcDbLine
 10
102.6249156113408
 20
125.6614870241646
 30
0.0
 11
102.6249156113408
 21
125.6976654529075
 31
0.0
  0
LINE
  5
18C
330
103
100
AcDbEntity
  8
Bemaßung (ISO)
 62
    18
420
        0
370
     5
100
AcDbLine
 10
91.67186474545991
 20
125.6614870241646
 30
0.0
 11
91.67186474545991
 21
125.6976654529075
 31
0.0
  0
LINE
  5
18D
330
103
100
AcDbEntity
  8
Bemaßung (ISO)
 62
    18
420
        0
370
     5
100
AcDbLine
 10
99.6848308777421
 20
126.3630184524887
 30
0.0
 11
94.61194947905738
 21
126.3630184524887
 31
0.0
  0
SPLINE
  5
18E
330
103
100
AcDbEntity
  8
Bemaßung (ISO)
 62
    18
420
        0
370
     5
100
AcDbSpline
210
0.0
220
0.0
230
1.0
 70
     8
 71
     3
 72
    11
 73
     7
 74
     0
 42
0.0000000001
 43
0.0000000001
 40
0.0
 40
0.0
 40
0.0
 40
0.0
 40
1.0
 40
1.0
 40
1.0
 40
2.0
 40
2.0
 40
2.0
 40
2.0
 10
94.53959537669886
 20
126.4353725548485
 30
0.0
 10
94.53959474649426
 20
126.3954131177317
 30
0.0
 10
94.57198775977131
 20
126.3630190826936
 30
0.0
 10
94.61194719688746
 20
126.3630184524887
 30
0.0
 10
94.61194719688746
 20
126.3630184524887
 30
0.0
 10
94.61194947905738
 20
126.3630184524887
 30
0.0
 10
94.61194947905738
 20
126.3630184524887
 30
0.0
  0
LINE
  5
18F
330
103
100
AcDbEntity
  8
Bemaßung (ISO)
 62
    18
420
        0
370
     5
100
AcDbLine
 10
94.53959537669886
 20
130.2081121876803
 30
0.0
 11
94.53959537669886
 21
126.4353725548485
 31
0.0
  0
LINE
  5
190
330
103
100
AcDbEntity
  8
Bemaßung (ISO)
 62
    18
420
        0
370
     5
100
AcDbLine
 10
94.53959537669886
 20
130.2081121876803
 30
0.0
 11
99.75718498010159
 21
130.2081121876803
 31
0.0
  0
LINE
  5
191
330
103
100
AcDbEntity
  8
Bemaßung (ISO)
 62
    18
420
        0
370
     5
100
AcDbLine
 10
99.75718498010159
 20
130.2081121876803
 30
0.0
 11
99.75718498010159
 21
126.4353725548485
 31
0.0
  0
SPLINE
  5
192
330
103
100
AcDbEntity
  8
Bemaßung (ISO)
 62
    18
420
        0
370
     5
100
AcDbSpline
210
0.0
220
0.0
230
1.0
 70
     8
 71
     3
 72
    11
 73
     7
 74
     0
 42
0.0000000001
 43
0.0000000001
 40
0.0
 40
0.0
 40
0.0
 40
0.0
 40
1.0
 40
1.0
 40
1.0
 40
2.0
 40
2.0
 40
2.0
 40
2.0
 10
99.68483087774403
 20
126.3630184524887
 30
0.0
 10
99.7247903148602
 20
126.3630178222864
 30
0.0
 10
99.75718434989827
 20
126.3954108355624
 30
0.0
 10
99.75718498010159
 20
126.4353702726793
 30
0.0
 10
99.75718498010159
 20
126.4353702726793
 30
0.0
 10
99.75718498010159
 20
126.4353725548485
 30
0.0
 10
99.75718498010159
 20
126.4353725548485
 30
0.0
  0
ENDBLK
  5
106
330
103
100
AcDbEntity
  8
0
100
AcDbBlockEnd
  0
BLOCK
  5
19A
330
198
100
AcDbEntity
  8
0
100
AcDbBlockBegin
  2
Block_4
 70
     0
 10
0.0
 20
0.0
 30
0.0
  3
Block_4
  1

  0
INSERT
  5
19D
330
198
100
AcDbEntity
  8
Bemaßung (ISO)
100
AcDbBlockReference
  2
Block_5
 10
0.0
 20
0.0
 30
0.0
  0
ENDBLK
  5
19B
330
198
100
AcDbEntity
  8
0
100
AcDbBlockEnd
  0
BLOCK
  5
19E
330
19C
100
AcDbEntity
  8
0
100
AcDbBlockBegin
  2
Block_5
 70
     0
 10
0.0
 20
0.0
 30
0.0
  3
Block_5
  1

  0
LINE
  5
1A0
330
19C
100
AcDbEntity
  8
Bemaßung (ISO)
 62
    18
420
        0
370
     5
100
AcDbLine
 10
135.0322508580334
 20
127.2528915087141
 30
0.0
 11
135.0322616239568
 21
159.027491635726
 31
0.0
  0
INSERT
  5
1A2
330
19C
100
AcDbEntity
  8
Bemaßung (ISO)
100
AcDbBlockReference
  2
Block_6
 10
0.0
 20
0.0
 30
0.0
  0
INSERT
  5
1A8
330
19C
100
AcDbEntity
  8
Bemaßung (ISO)
100
AcDbBlockReference
  2
Block_7
 10
0.0
 20
0.0
 30
0.0
  0
ENDBLK
  5
19F
330
19C
100
AcDbEntity
  8
0
100
AcDbBlockEnd
  0
BLOCK
  5
1A3
330
1A1
100
AcDbEntity
  8
0
100
AcDbBlockBegin
  2
Block_6
 70
     0
 10
0.0
 20
0.0
 30
0.0
  3
Block_6
  1

  0
LWPOLYLINE
  5
1A5
330
1A1
100
AcDbEntity
  8
Bemaßung (ISO)
100
AcDbPolyline
 90
        3
 70
     1
 43
0.0
 10
135.2535659451905
 20
127.8853464442656
 10
135.0329398771304
 20
126.2041613793105
 10
134.8109465367996
 20
127.8853464442656
  0
HATCH
  5
1A6
330
1A1
100
AcDbEntity
  8
Bemaßung (ISO)
 62
    18
420
        0
440
 33554687
100
AcDbHatch
 10
0.0
 20
0.0
 30
0.0
210
0.0
220
0.0
230
1.0
  2
SOLID
 70
     1
 71
     1
 91
        1
 92
        1
 93
        3
 72
     1
 10
135.2535659451905
 20
127.8853464442656
 11
135.0329398771304
 21
126.2041613793105
 72
     1
 10
135.0329398771304
 20
126.2041613793105
 11
134.8109465367996
 21
127.8853464442656
 72
     1
 10
134.8109465367996
 20
127.8853464442656
 11
135.2535659451905
 21
127.8853464442656
 97
        1
330
1A5
 75
     2
 76
     1
 98
        1
 10
0.0
 20
0.0
450
        0
451
        0
460
0.0
461
0.0
452
        0
462
0.0
453
        0
470

  0
ENDBLK
  5
1A4
330
1A1
100
AcDbEntity
  8
0
100
AcDbBlockEnd
  0
BLOCK
  5
1A9
330
1A7
100
AcDbEntity
  8
0
100
AcDbBlockBegin
  2
Block_7
 70
     0
 10
0.0
 20
0.0
 30
0.0
  3
Block_7
  1

  0
LWPOLYLINE
  5
1AB
330
1A7
100
AcDbEntity
  8
Bemaßung (ISO)
100
AcDbPolyline
 90
        3
 70
     1
 43
0.0
 10
135.2535659451905
 20
158.3950367001745
 10
135.0329506430538
 20
160.0762109992062
 10
134.8109465367996
 20
158.3950367001745
  0
HATCH
  5
1AC
330
1A7
100
AcDbEntity
  8
Bemaßung (ISO)
 62
    18
420
        0
440
 33554687
100
AcDbHatch
 10
0.0
 20
0.0
 30
0.0
210
0.0
220
0.0
230
1.0
  2
SOLID
 70
     1
 71
     1
 91
        1
 92
        1
 93
        3
 72
     1
 10
135.2535659451905
 20
158.3950367001745
 11
135.0329506430538
 21
160.0762109992062
 72
     1
 10
135.0329506430538
 20
160.0762109992062
 11
134.8109465367996
 21
158.3950367001745
 72
     1
 10
134.8109465367996
 20
158.3950367001745
 11
135.2535659451905
 21
158.3950367001745
 97
        1
330
1AB
 75
     2
 76
     1
 98
        1
 10
0.0
 20
0.0
450
        0
451
        0
460
0.0
461
0.0
452
        0
462
0.0
453
        0
470

  0
ENDBLK
  5
1AA
330
1A7
100
AcDbEntity
  8
0
100
AcDbBlockEnd
  0
BLOCK
  5
1AF
330
1AD
100
AcDbEntity
  8
0
100
AcDbBlockBegin
  2
Block_8
 70
     0
 10
0.0
 20
0.0
 30
0.0
  3
Block_8
  1

  0
SPLINE
  5
1B1
330
1AD
100
AcDbEntity
  8
Bemaßung (ISO)
100
AcDbSpline
210
0.0
220
0.0
230
1.0
 70
    11
 71
     3
 72
    17
 73
    13
 74
     0
 42
0.0000000001
 43
0.0000000001
 40
0.0
 40
0.0
 40
0.0
 40
0.0
 40
1.0
 40
1.0
 40
1.0
 40
2.0
 40
2.0
 40
2.0
 40
3.0
 40
3.0
 40
3.0
 40
4.0
 40
4.0
 40
4.0
 40
4.0
 10
137.8193223396771
 20
141.1748453423104
 30
0.0
 10
137.8193223396771
 20
141.1748453423104
 30
0.0
 10
136.1577527871411
 20
141.1748453423104
 30
0.0
 10
136.1577527871411
 20
141.1748453423104
 30
0.0
 10
136.1577527871411
 20
141.1748453423104
 30
0.0
 10
136.1577527871411
 20
139.5160318661627
 30
0.0
 10
136.1577527871411
 20
139.5160318661627
 30
0.0
 10
136.1577527871411
 20
139.5160318661627
 30
0.0
 10
137.8193223396771
 20
139.5160318661627
 30
0.0
 10
137.8193223396771
 20
139.5160318661627
 30
0.0
 10
137.8193223396771
 20
139.5160318661627
 30
0.0
 10
137.8193223396771
 20
141.1748453423104
 30
0.0
 10
137.8193223396771
 20
141.1748453423104
 30
0.0
  0
SPLINE
  5
1B2
330
1AD
100
AcDbEntity
  8
Bemaßung (ISO)
100
AcDbSpline
210
0.0
220
0.0
230
1.0
 70
    11
 71
     3
 72
    17
 73
    13
 74
     0
 42
0.0000000001
 43
0.0000000001
 40
0.0
 40
0.0
 40
0.0
 40
0.0
 40
1.0
 40
1.0
 40
1.0
 40
2.0
 40
2.0
 40
2.0
 40
3.0
 40
3.0
 40
3.0
 40
4.0
 40
4.0
 40
4.0
 40
4.0
 10
135.9320990328572
 20
139.2879665450391
 30
0.0
 10
135.9320990328572
 20
139.2879665450391
 30
0.0
 10
135.9320990328572
 20
141.4004990965943
 30
0.0
 10
135.9320990328572
 20
141.4004990965943
 30
0.0
 10
135.9320990328572
 20
141.4004990965943
 30
0.0
 10
138.0477321703492
 20
141.4004990965943
 30
0.0
 10
138.0477321703492
 20
141.4004990965943
 30
0.0
 10
138.0477321703492
 20
141.4004990965943
 30
0.0
 10
138.0477321703492
 20
139.2879665450391
 30
0.0
 10
138.0477321703492
 20
139.2879665450391
 30
0.0
 10
138.0477321703492
 20
139.2879665450391
 30
0.0
 10
135.9320990328572
 20
139.2879665450391
 30
0.0
 10
135.9320990328572
 20
139.2879665450391
 30
0.0
  0
HATCH
  5
1B3
330
1AD
100
AcDbEntity
  8
Bemaßung (ISO)
 62
    18
420
        0
440
 33554687
100
AcDbHatch
 10
0.0
 20
0.0
 30
0.0
210
0.0
220
0.0
230
1.0
  2
SOLID
 70
     1
 71
     1
 91
        2
 92
        1
 93
        1
 72
     4
 94
        3
 73
     0
 74
     0
 95
       17
 96
       13
 40
0.0
 40
0.0
 40
0.0
 40
0.0
 40
1.0
 40
1.0
 40
1.0
 40
2.0
 40
2.0
 40
2.0
 40
3.0
 40
3.0
 40
3.0
 40
4.0
 40
4.0
 40
4.0
 40
4.0
 10
137.8193223396771
 20
141.1748453423104
 10
137.8193223396771
 20
141.1748453423104
 10
136.1577527871411
 20
141.1748453423104
 10
136.1577527871411
 20
141.1748453423104
 10
136.1577527871411
 20
141.1748453423104
 10
136.1577527871411
 20
139.5160318661627
 10
136.1577527871411
 20
139.5160318661627
 10
136.1577527871411
 20
139.5160318661627
 10
137.8193223396771
 20
139.5160318661627
 10
137.8193223396771
 20
139.5160318661627
 10
137.8193223396771
 20
139.5160318661627
 10
137.8193223396771
 20
141.1748453423104
 10
137.8193223396771
 20
141.1748453423104
 97
        0
 97
        1
330
1B1
 92
        1
 93
        1
 72
     4
 94
        3
 73
     0
 74
     0
 95
       17
 96
       13
 40
0.0
 40
0.0
 40
0.0
 40
0.0
 40
1.0
 40
1.0
 40
1.0
 40
2.0
 40
2.0
 40
2.0
 40
3.0
 40
3.0
 40
3.0
 40
4.0
 40
4.0
 40
4.0
 40
4.0
 10
135.9320990328572
 20
139.2879665450391
 10
135.9320990328572
 20
139.2879665450391
 10
135.9320990328572
 20
141.4004990965943
 10
135.9320990328572
 20
141.4004990965943
 10
135.9320990328572
 20
141.4004990965943
 10
138.0477321703492
 20
141.4004990965943
 10
138.0477321703492
 20
141.4004990965943
 10
138.0477321703492
 20
141.4004990965943
 10
138.0477321703492
 20
139.2879665450391
 10
138.0477321703492
 20
139.2879665450391
 10
138.0477321703492
 20
139.2879665450391
 10
135.9320990328572
 20
139.2879665450391
 10
135.9320990328572
 20
139.2879665450391
 97
        0
 97
        1
330
1B2
 75
     2
 76
     1
 98
        1
 10
0.0
 20
0.0
450
        0
451
        0
460
0.0
461
0.0
452
        0
462
0.0
453
        0
470

  0
SPLINE
  5
1B4
330
1AD
100
AcDbEntity
  8
Bemaßung (ISO)
100
AcDbSpline
210
0.0
220
0.0
230
1.0
 70
    11
 71
     3
 72
    26
 73
    22
 74
     0
 42
0.0000000001
 43
0.0000000001
 40
0.0
 40
0.0
 40
0.0
 40
0.0
 40
1.0
 40
1.0
 40
1.0
 40
2.0
 40
2.0
 40
2.0
 40
3.0
 40
3.0
 40
3.0
 40
4.0
 40
4.0
 40
4.0
 40
5.0
 40
5.0
 40
5.0
 40
6.0
 40
6.0
 40
6.0
 40
7.0
 40
7.0
 40
7.0
 40
7.0
 10
136.6149169580338
 20
142.9535481413449
 30
0.0
 10
136.6149169580338
 20
142.9535481413449
 30
0.0
 10
136.6149169580338
 20
142.4347167612663
 30
0.0
 10
136.6149169580338
 20
142.4347167612663
 30
0.0
 10
136.6149169580338
 20
142.4347167612663
 30
0.0
 10
136.4230251395053
 20
142.4347167612663
 30
0.0
 10
136.4230251395053
 20
142.4347167612663
 30
0.0
 10
136.4230251395053
 20
142.7082573427951
 30
0.0
 10
136.3524006820577
 20
142.9563042177331
 30
0.0
 10
136.0478542411616
 20
143.010047707303
 30
0.0
 10
136.0478542411616
 20
143.010047707303
 30
0.0
 10
136.0478542411616
 20
143.1933267871183
 30
0.0
 10
136.0478542411616
 20
143.1933267871183
 30
0.0
 10
136.0478542411616
 20
143.1933267871183
 30
0.0
 10
138.0477321703492
 20
143.1933267871183
 30
0.0
 10
138.0477321703492
 20
143.1933267871183
 30
0.0
 10
138.0477321703492
 20
143.1933267871183
 30
0.0
 10
138.0477321703492
 20
142.9535481413449
 30
0.0
 10
138.0477321703492
 20
142.9535481413449
 30
0.0
 10
138.0477321703492
 20
142.9535481413449
 30
0.0
 10
136.6149169580338
 20
142.9535481413449
 30
0.0
 10
136.6149169580338
 20
142.9535481413449
 30
0.0
  0
HATCH
  5
1B5
330
1AD
100
AcDbEntity
  8
Bemaßung (ISO)
 62
   250
420
  2039067
440
 33554687
100
AcDbHatch
 10
0.0
 20
0.0
 30
0.0
210
0.0
220
0.0
230
1.0
  2
SOLID
 70
     1
 71
     1
 91
        1
 92
        1
 93
        1
 72
     4
 94
        3
 73
     0
 74
     0
 95
       26
 96
       22
 40
0.0
 40
0.0
 40
0.0
 40
0.0
 40
1.0
 40
1.0
 40
1.0
 40
2.0
 40
2.0
 40
2.0
 40
3.0
 40
3.0
 40
3.0
 40
4.0
 40
4.0
 40
4.0
 40
5.0
 40
5.0
 40
5.0
 40
6.0
 40
6.0
 40
6.0
 40
7.0
 40
7.0
 40
7.0
 40
7.0
 10
136.6149169580338
 20
142.9535481413449
 10
136.6149169580338
 20
142.9535481413449
 10
136.6149169580338
 20
142.4347167612663
 10
136.6149169580338
 20
142.4347167612663
 10
136.6149169580338
 20
142.4347167612663
 10
136.4230251395053
 20
142.4347167612663
 10
136.4230251395053
 20
142.4347167612663
 10
136.4230251395053
 20
142.7082573427951
 10
136.3524006820577
 20
142.9563042177331
 10
136.0478542411616
 20
143.010047707303
 10
136.0478542411616
 20
143.010047707303
 10
136.0478542411616
 20
143.1933267871183
 10
136.0478542411616
 20
143.1933267871183
 10
136.0478542411616
 20
143.1933267871183
 10
138.0477321703492
 20
143.1933267871183
 10
138.0477321703492
 20
143.1933267871183
 10
138.0477321703492
 20
143.1933267871183
 10
138.0477321703492
 20
142.9535481413449
 10
138.0477321703492
 20
142.9535481413449
 10
138.0477321703492
 20
142.9535481413449
 10
136.6149169580338
 20
142.9535481413449
 10
136.6149169580338
 20
142.9535481413449
 97
        0
 97
        1
330
1B4
 75
     2
 76
     1
 98
        1
 10
0.0
 20
0.0
450
        0
451
        0
460
0.0
461
0.0
452
        0
462
0.0
453
        0
470

  0
SPLINE
  5
1B6
330
1AD
100
AcDbEntity
  8
Bemaßung (ISO)
100
AcDbSpline
210
0.0
220
0.0
230
1.0
 70
     9
 71
     3
 72
    17
 73
    13
 74
     0
 42
0.0000000001
 43
0.0000000001
 40
0.0
 40
0.0
 40
0.0
 40
0.0
 40
1.0
 40
1.0
 40
1.0
 40
2.0
 40
2.0
 40
2.0
 40
3.0
 40
3.0
 40
3.0
 40
4.0
 40
4.0
 40
4.0
 40
4.0
 10
137.869961760422
 20
144.5506944083068
 30
0.0
 10
137.869961760422
 20
144.7904730540801
 30
0.0
 10
137.7035671313727
 20
144.9599717519545
 30
0.0
 10
137.480669453477
 20
144.9599717519545
 30
0.0
 10
137.2663845142945
 20
144.9599717519545
 30
0.0
 10
137.0999864023569
 20
144.7739365957509
 30
0.0
 10
137.0999864023569
 20
144.5479383319185
 30
0.0
 10
137.0999864023569
 20
144.3112602720819
 30
0.0
 10
137.2495035464168
 20
144.1248806063299
 30
0.0
 10
137.4834255298652
 20
144.1248806063299
 30
0.0
 10
137.7232041756386
 20
144.1248806063299
 30
0.0
 10
137.869961760422
 20
144.3026475333688
 30
0.0
 10
137.869961760422
 20
144.5506944083068
 30
0.0
  0
SPLINE
  5
1B7
330
1AD
100
AcDbEntity
  8
Bemaßung (ISO)
100
AcDbSpline
210
0.0
220
0.0
230
1.0
 70
     9
 71
     3
 72
    17
 73
    13
 74
     0
 42
0.0000000001
 43
0.0000000001
 40
0.0
 40
0.0
 40
0.0
 40
0.0
 40
1.0
 40
1.0
 40
1.0
 40
2.0
 40
2.0
 40
2.0
 40
3.0
 40
3.0
 40
3.0
 40
4.0
 40
4.0
 40
4.0
 40
4.0
 10
136.5670301307888
 20
144.8807345557937
 30
0.0
 10
136.363769497159
 20
144.8807345557937
 30
0.0
 10
136.259383103956
 20
144.739830150447
 30
0.0
 10
136.259383103956
 20
144.5451822555303
 30
0.0
 10
136.259383103956
 20
144.3536349465505
 30
0.0
 10
136.3665255735472
 20
144.1955050637775
 30
0.0
 10
136.5670301307888
 20
144.1955050637775
 30
0.0
 10
136.7840711463595
 20
144.1955050637775
 30
0.0
 10
136.8884575395626
 20
144.3563910229387
 30
0.0
 10
136.8884575395626
 20
144.5506944083068
 30
0.0
 10
136.8884575395626
 20
144.7429307363837
 30
0.0
 10
136.76994625487
 20
144.8807345557937
 30
0.0
 10
136.5670301307888
 20
144.8807345557937
 30
0.0
  0
SPLINE
  5
1B8
330
1AD
100
AcDbEntity
  8
Bemaßung (ISO)
100
AcDbSpline
210
0.0
220
0.0
230
1.0
 70
     9
 71
     3
 72
    29
 73
    25
 74
     0
 42
0.0000000001
 43
0.0000000001
 40
0.0
 40
0.0
 40
0.0
 40
0.0
 40
1.0
 40
1.0
 40
1.0
 40
2.0
 40
2.0
 40
2.0
 40
3.0
 40
3.0
 40
3.0
 40
4.0
 40
4.0
 40
4.0
 40
5.0
 40
5.0
 40
5.0
 40
6.0
 40
6.0
 40
6.0
 40
7.0
 40
7.0
 40
7.0
 40
8.0
 40
8.0
 40
8.0
 40
8.0
 10
136.9732068884997
 20
144.2209987703684
 30
0.0
 10
136.9053385074403
 20
144.0518445820426
 30
0.0
 10
136.7389403955027
 20
143.9416015265146
 30
0.0
 10
136.5584173920757
 20
143.9416015265146
 30
0.0
 10
136.2311333209769
 20
143.9416015265146
 30
0.0
 10
136.0478542411616
 20
144.2209987703684
 30
0.0
 10
136.0478542411616
 20
144.5283012876526
 30
0.0
 10
136.0478542411616
 20
144.9654839047308
 30
0.0
 10
136.3017577784245
 20
145.1349826026051
 30
0.0
 10
136.5584173920757
 20
145.1349826026051
 30
0.0
 10
136.7389403955027
 20
145.1349826026051
 30
0.0
 10
136.8970702782757
 20
145.0247395470771
 30
0.0
 10
136.9732068884997
 20
144.8583414351396
 30
0.0
 10
137.0493434987237
 20
145.0981200809129
 30
0.0
 10
137.2240098398259
 20
145.2138752892174
 30
0.0
 10
137.4724012243124
 20
145.2138752892174
 30
0.0
 10
137.8585964282089
 20
145.2138752892174
 30
0.0
 10
138.0814941061046
 20
144.920353153874
 30
0.0
 10
138.0814941061046
 20
144.5506944083068
 30
0.0
 10
138.0814941061046
 20
144.1672552807984
 30
0.0
 10
137.8785779820234
 20
143.8713215786155
 30
0.0
 10
137.4724012243124
 20
143.8713215786155
 30
0.0
 10
137.2353786549272
 20
143.8713215786155
 30
0.0
 10
137.0520995751119
 20
143.9953450160845
 30
0.0
 10
136.9732068884997
 20
144.2209987703684
 30
0.0
  0
HATCH
  5
1B9
330
1AD
100
AcDbEntity
  8
Bemaßung (ISO)
 62
   250
420
  2039067
440
 33554687
100
AcDbHatch
 10
0.0
 20
0.0
 30
0.0
210
0.0
220
0.0
230
1.0
  2
SOLID
 70
     1
 71
     1
 91
        3
 92
        1
 93
        1
 72
     4
 94
        3
 73
     0
 74
     0
 95
       17
 96
       13
 40
0.0
 40
0.0
 40
0.0
 40
0.0
 40
1.0
 40
1.0
 40
1.0
 40
2.0
 40
2.0
 40
2.0
 40
3.0
 40
3.0
 40
3.0
 40
4.0
 40
4.0
 40
4.0
 40
4.0
 10
137.869961760422
 20
144.5506944083068
 10
137.869961760422
 20
144.7904730540801
 10
137.7035671313727
 20
144.9599717519545
 10
137.480669453477
 20
144.9599717519545
 10
137.2663845142945
 20
144.9599717519545
 10
137.0999864023569
 20
144.7739365957509
 10
137.0999864023569
 20
144.5479383319185
 10
137.0999864023569
 20
144.3112602720819
 10
137.2495035464168
 20
144.1248806063299
 10
137.4834255298652
 20
144.1248806063299
 10
137.7232041756386
 20
144.1248806063299
 10
137.869961760422
 20
144.3026475333688
 10
137.869961760422
 20
144.5506944083068
 97
        0
 97
        1
330
1B6
 92
        1
 93
        1
 72
     4
 94
        3
 73
     0
 74
     0
 95
       17
 96
       13
 40
0.0
 40
0.0
 40
0.0
 40
0.0
 40
1.0
 40
1.0
 40
1.0
 40
2.0
 40
2.0
 40
2.0
 40
3.0
 40
3.0
 40
3.0
 40
4.0
 40
4.0
 40
4.0
 40
4.0
 10
136.5670301307888
 20
144.8807345557937
 10
136.363769497159
 20
144.8807345557937
 10
136.259383103956
 20
144.739830150447
 10
136.259383103956
 20
144.5451822555303
 10
136.259383103956
 20
144.3536349465505
 10
136.3665255735472
 20
144.1955050637775
 10
136.5670301307888
 20
144.1955050637775
 10
136.7840711463595
 20
144.1955050637775
 10
136.8884575395626
 20
144.3563910229387
 10
136.8884575395626
 20
144.5506944083068
 10
136.8884575395626
 20
144.7429307363837
 10
136.76994625487
 20
144.8807345557937
 10
136.5670301307888
 20
144.8807345557937
 97
        0
 97
        1
330
1B7
 92
        1
 93
        1
 72
     4
 94
        3
 73
     0
 74
     0
 95
       29
 96
       25
 40
0.0
 40
0.0
 40
0.0
 40
0.0
 40
1.0
 40
1.0
 40
1.0
 40
2.0
 40
2.0
 40
2.0
 40
3.0
 40
3.0
 40
3.0
 40
4.0
 40
4.0
 40
4.0
 40
5.0
 40
5.0
 40
5.0
 40
6.0
 40
6.0
 40
6.0
 40
7.0
 40
7.0
 40
7.0
 40
8.0
 40
8.0
 40
8.0
 40
8.0
 10
136.9732068884997
 20
144.2209987703684
 10
136.9053385074403
 20
144.0518445820426
 10
136.7389403955027
 20
143.9416015265146
 10
136.5584173920757
 20
143.9416015265146
 10
136.2311333209769
 20
143.9416015265146
 10
136.0478542411616
 20
144.2209987703684
 10
136.0478542411616
 20
144.5283012876526
 10
136.0478542411616
 20
144.9654839047308
 10
136.3017577784245
 20
145.1349826026051
 10
136.5584173920757
 20
145.1349826026051
 10
136.7389403955027
 20
145.1349826026051
 10
136.8970702782757
 20
145.0247395470771
 10
136.9732068884997
 20
144.8583414351396
 10
137.0493434987237
 20
145.0981200809129
 10
137.2240098398259
 20
145.2138752892174
 10
137.4724012243124
 20
145.2138752892174
 10
137.8585964282089
 20
145.2138752892174
 10
138.0814941061046
 20
144.920353153874
 10
138.0814941061046
 20
144.5506944083068
 10
138.0814941061046
 20
144.1672552807984
 10
137.8785779820234
 20
143.8713215786155
 10
137.4724012243124
 20
143.8713215786155
 10
137.2353786549272
 20
143.8713215786155
 10
137.0520995751119
 20
143.9953450160845
 10
136.9732068884997
 20
144.2209987703684
 97
        0
 97
        1
330
1B8
 75
     2
 76
     1
 98
        1
 10
0.0
 20
0.0
450
        0
451
        0
460
0.0
461
0.0
452
        0
462
0.0
453
        0
470

  0
SPLINE
  5
1BA
330
1AD
100
AcDbEntity
  8
Bemaßung (ISO)
100
AcDbSpline
210
0.0
220
0.0
230
1.0
 70
     9
 71
     3
 72
    17
 73
    13
 74
     0
 42
0.0000000001
 43
0.0000000001
 40
0.0
 40
0.0
 40
0.0
 40
0.0
 40
1.0
 40
1.0
 40
1.0
 40
2.0
 40
2.0
 40
2.0
 40
3.0
 40
3.0
 40
3.0
 40
4.0
 40
4.0
 40
4.0
 40
4.0
 10
136.7165472748486
 20
146.4813259182408
 30
0.0
 10
136.4709119667503
 20
146.4813259182408
 30
0.0
 10
136.259383103956
 20
146.3373209269573
 30
0.0
 10
136.259383103956
 20
146.0692924982049
 30
0.0
 10
136.259383103956
 20
145.7847276111232
 30
0.0
 10
136.487792934628
 20
145.6772406319834
 30
0.0
 10
136.7334282427264
 20
145.6772406319834
 30
0.0
 10
136.9504692582971
 20
145.6772406319834
 30
0.0
 10
137.156485968315
 20
145.8408826675328
 30
0.0
 10
137.156485968315
 20
146.0720448845028
 30
0.0
 10
137.156485968315
 20
146.3231960354678
 30
0.0
 10
136.9532253346853
 20
146.4813259182408
 30
0.0
 10
136.7165472748486
 20
146.4813259182408
 30
0.0
  0
SPLINE
  5
1BB
330
1AD
100
AcDbEntity
  8
Bemaßung (ISO)
100
AcDbSpline
210
0.0
220
0.0
230
1.0
 70
     9
 71
     3
 72
    35
 73
    31
 74
     0
 42
0.0000000001
 43
0.0000000001
 40
0.0
 40
0.0
 40
0.0
 40
0.0
 40
1.0
 40
1.0
 40
1.0
 40
2.0
 40
2.0
 40
2.0
 40
3.0
 40
3.0
 40
3.0
 40
4.0
 40
4.0
 40
4.0
 40
5.0
 40
5.0
 40
5.0
 40
6.0
 40
6.0
 40
6.0
 40
7.0
 40
7.0
 40
7.0
 40
8.0
 40
8.0
 40
8.0
 40
9.0
 40
9.0
 40
9.0
 40
10.0
 40
10.0
 40
10.0
 40
10.0
 10
137.5654188024142
 20
145.7054904149625
 30
0.0
 10
137.7600666973308
 20
145.7254719687769
 30
0.0
 10
137.869961760422
 20
145.8805012656132
 30
0.0
 10
137.869961760422
 20
146.0720448845028
 30
0.0
 10
137.869961760422
 20
146.3655707099364
 30
0.0
 10
137.6160617060474
 20
146.5095757012198
 30
0.0
 10
137.0972303259687
 20
146.5233560831608
 30
0.0
 10
137.0972303259687
 20
146.5233560831608
 30
0.0
 10
137.0913736636438
 20
146.5178439303844
 30
0.0
 10
137.0913736636438
 20
146.5178439303844
 30
0.0
 10
137.2608723615181
 20
146.4275824286709
 30
0.0
 10
137.3680148311094
 20
146.249815501632
 30
0.0
 10
137.3680148311094
 20
146.0555121162639
 30
0.0
 10
137.3680148311094
 20
145.6462347726162
 30
0.0
 10
137.0944742495805
 20
145.4236816042691
 30
0.0
 10
136.6993217974224
 20
145.4236816042691
 30
0.0
 10
136.3158826699141
 20
145.4236816042691
 30
0.0
 10
136.0478542411616
 20
145.6944661094097
 30
0.0
 10
136.0478542411616
 20
146.0806613133062
 30
0.0
 10
136.0478542411616
 20
146.4530761352617
 30
0.0
 10
136.2480142888546
 20
146.7658908053224
 30
0.0
 10
137.004212747867
 20
146.7658908053224
 30
0.0
 10
137.6952989022081
 20
146.7658908053224
 30
0.0
 10
138.0814941061046
 20
146.5574625284648
 30
0.0
 10
138.0814941061046
 20
146.0720448845028
 30
0.0
 10
138.0814941061046
 20
145.7364962743297
 30
0.0
 10
137.9095838413906
 20
145.4967176285564
 30
0.0
 10
137.5654188024142
 20
145.4657117691891
 30
0.0
 10
137.5654188024142
 20
145.4657117691891
 30
0.0
 10
137.5654188024142
 20
145.7054904149625
 30
0.0
 10
137.5654188024142
 20
145.7054904149625
 30
0.0
  0
HATCH
  5
1BC
330
1AD
100
AcDbEntity
  8
Bemaßung (ISO)
 62
   250
420
  2039067
440
 33554687
100
AcDbHatch
 10
0.0
 20
0.0
 30
0.0
210
0.0
220
0.0
230
1.0
  2
SOLID
 70
     1
 71
     1
 91
        2
 92
        1
 93
        1
 72
     4
 94
        3
 73
     0
 74
     0
 95
       17
 96
       13
 40
0.0
 40
0.0
 40
0.0
 40
0.0
 40
1.0
 40
1.0
 40
1.0
 40
2.0
 40
2.0
 40
2.0
 40
3.0
 40
3.0
 40
3.0
 40
4.0
 40
4.0
 40
4.0
 40
4.0
 10
136.7165472748486
 20
146.4813259182408
 10
136.4709119667503
 20
146.4813259182408
 10
136.259383103956
 20
146.3373209269573
 10
136.259383103956
 20
146.0692924982049
 10
136.259383103956
 20
145.7847276111232
 10
136.487792934628
 20
145.6772406319834
 10
136.7334282427264
 20
145.6772406319834
 10
136.9504692582971
 20
145.6772406319834
 10
137.156485968315
 20
145.8408826675328
 10
137.156485968315
 20
146.0720448845028
 10
137.156485968315
 20
146.3231960354678
 10
136.9532253346853
 20
146.4813259182408
 10
136.7165472748486
 20
146.4813259182408
 97
        0
 97
        1
330
1BA
 92
        1
 93
        1
 72
     4
 94
        3
 73
     0
 74
     0
 95
       35
 96
       31
 40
0.0
 40
0.0
 40
0.0
 40
0.0
 40
1.0
 40
1.0
 40
1.0
 40
2.0
 40
2.0
 40
2.0
 40
3.0
 40
3.0
 40
3.0
 40
4.0
 40
4.0
 40
4.0
 40
5.0
 40
5.0
 40
5.0
 40
6.0
 40
6.0
 40
6.0
 40
7.0
 40
7.0
 40
7.0
 40
8.0
 40
8.0
 40
8.0
 40
9.0
 40
9.0
 40
9.0
 40
10.0
 40
10.0
 40
10.0
 40
10.0
 10
137.5654188024142
 20
145.7054904149625
 10
137.7600666973308
 20
145.7254719687769
 10
137.869961760422
 20
145.8805012656132
 10
137.869961760422
 20
146.0720448845028
 10
137.869961760422
 20
146.3655707099364
 10
137.6160617060474
 20
146.5095757012198
 10
137.0972303259687
 20
146.5233560831608
 10
137.0972303259687
 20
146.5233560831608
 10
137.0913736636438
 20
146.5178439303844
 10
137.0913736636438
 20
146.5178439303844
 10
137.2608723615181
 20
146.4275824286709
 10
137.3680148311094
 20
146.249815501632
 10
137.3680148311094
 20
146.0555121162639
 10
137.3680148311094
 20
145.6462347726162
 10
137.0944742495805
 20
145.4236816042691
 10
136.6993217974224
 20
145.4236816042691
 10
136.3158826699141
 20
145.4236816042691
 10
136.0478542411616
 20
145.6944661094097
 10
136.0478542411616
 20
146.0806613133062
 10
136.0478542411616
 20
146.4530761352617
 10
136.2480142888546
 20
146.7658908053224
 10
137.004212747867
 20
146.7658908053224
 10
137.6952989022081
 20
146.7658908053224
 10
138.0814941061046
 20
146.5574625284648
 10
138.0814941061046
 20
146.0720448845028
 10
138.0814941061046
 20
145.7364962743297
 10
137.9095838413906
 20
145.4967176285564
 10
137.5654188024142
 20
145.4657117691891
 10
137.5654188024142
 20
145.4657117691891
 10
137.5654188024142
 20
145.7054904149625
 10
137.5654188024142
 20
145.7054904149625
 97
        0
 97
        1
330
1BB
 75
     2
 76
     1
 98
        1
 10
0.0
 20
0.0
450
        0
451
        0
460
0.0
461
0.0
452
        0
462
0.0
453
        0
470

  0
ENDBLK
  5
1B0
330
1AD
100
AcDbEntity
  8
0
100
AcDbBlockEnd
  0
BLOCK
  5
1BF
330
1BD
100
AcDbEntity
  8
0
100
AcDbBlockBegin
  2
Block_9
 70
     0
 10
0.0
 20
0.0
 30
0.0
  3
Block_9
  1

  0
INSERT
  5
1C2
330
1BD
100
AcDbEntity
  8
Bemaßung (ISO)
100
AcDbBlockReference
  2
Block_10
 10
0.0
 20
0.0
 30
0.0
  0
ENDBLK
  5
1C0
330
1BD
100
AcDbEntity
  8
0
100
AcDbBlockEnd
  0
BLOCK
  5
1C3
330
1C1
100
AcDbEntity
  8
0
100
AcDbBlockBegin
  2
Block_10
 70
     0
 10
0.0
 20
0.0
 30
0.0
  3
Block_10
  1

  0
SPLINE
  5
1C5
330
1C1
100
AcDbEntity
  8
Bemaßung (ISO)
100
AcDbSpline
210
0.0
220
0.0
230
1.0
 70
     9
 71
     3
 72
    17
 73
    13
 74
     0
 42
0.0000000001
 43
0.0000000001
 40
0.0
 40
0.0
 40
0.0
 40
0.0
 40
1.0
 40
1.0
 40
1.0
 40
2.0
 40
2.0
 40
2.0
 40
3.0
 40
3.0
 40
3.0
 40
4.0
 40
4.0
 40
4.0
 40
4.0
 10
96.3012708635115
 20
111.9201280102144
 30
0.0
 10
96.56085880832506
 20
111.9201280102144
 30
0.0
 10
96.70469154483425
 20
112.1261447202323
 30
0.0
 10
96.70469154483425
 20
112.362822780069
 30
0.0
 10
96.70469154483425
 20
112.6112141645555
 30
0.0
 10
96.5749836998146
 20
112.8168863650249
 30
0.0
 10
96.3012708635115
 20
112.8168863650249
 30
0.0
 10
96.03341468953331
 20
112.8168863650249
 30
0.0
 10
95.88665362186167
 20
112.6167263173319
 30
0.0
 10
95.88665362186167
 20
112.3655788564572
 30
0.0
 10
95.88665362186167
 20
112.1175319815192
 30
0.0
 10
96.03892684230972
 20
111.9201280102144
 30
0.0
 10
96.3012708635115
 20
111.9201280102144
 30
0.0
  0
SPLINE
  5
1C6
330
1C1
100
AcDbEntity
  8
Bemaßung (ISO)
100
AcDbSpline
210
0.0
220
0.0
230
1.0
 70
     9
 71
     3
 72
    35
 73
    31
 74
     0
 42
0.0000000001
 43
0.0000000001
 40
0.0
 40
0.0
 40
0.0
 40
0.0
 40
1.0
 40
1.0
 40
1.0
 40
2.0
 40
2.0
 40
2.0
 40
3.0
 40
3.0
 40
3.0
 40
4.0
 40
4.0
 40
4.0
 40
5.0
 40
5.0
 40
5.0
 40
6.0
 40
6.0
 40
6.0
 40
7.0
 40
7.0
 40
7.0
 40
8.0
 40
8.0
 40
8.0
 40
9.0
 40
9.0
 40
9.0
 40
10.0
 40
10.0
 40
10.0
 40
10.0
 10
95.60174422523152
 20
112.6704698069018
 30
0.0
 10
95.60174422523152
 20
113.2203070463477
 30
0.0
 10
95.76814233716907
 20
113.742239012363
 30
0.0
 10
96.3379611304294
 20
113.742239012363
 30
0.0
 10
96.66800127791633
 20
113.742239012363
 30
0.0
 10
96.87108965677182
 20
113.5589599325477
 30
0.0
 10
96.90209551613907
 20
113.231675861449
 30
0.0
 10
96.90209551613907
 20
113.231675861449
 30
0.0
 10
96.66231687036567
 20
113.231675861449
 30
0.0
 10
96.66231687036567
 20
113.231675861449
 30
0.0
 10
96.6397514949373
 20
113.4121988648761
 30
0.0
 10
96.5184841338565
 20
113.5307101495687
 30
0.0
 10
96.32676457010234
 20
113.5307101495687
 30
0.0
 10
95.92058781239138
 20
113.5307101495687
 30
0.0
 10
95.84996335494377
 20
113.079402641001
 30
0.0
 10
95.8415228710049
 20
112.7717556141681
 30
0.0
 10
95.8415228710049
 20
112.7717556141681
 30
0.0
 10
95.84720727855556
 20
112.7662434613918
 30
0.0
 10
95.84720727855556
 20
112.7662434613918
 30
0.0
 10
95.9600341556975
 20
112.949522541207
 30
0.0
 10
96.12918834402327
 20
113.0287597373678
 30
0.0
 10
96.34640161436827
 20
113.0287597373678
 30
0.0
 10
96.73001299665083
 20
113.0287597373678
 30
0.0
 10
96.95859508209716
 20
112.749362493514
 30
0.0
 10
96.95859508209716
 20
112.3797037479467
 30
0.0
 10
96.95859508209716
 20
112.0865261221519
 30
0.0
 10
96.79495304654778
 20
111.7085991474201
 30
0.0
 10
96.29007430318443
 20
111.7085991474201
 30
0.0
 10
95.69493405810751
 20
111.7085991474201
 30
0.0
 10
95.60174422523152
 20
112.2529242340895
 30
0.0
 10
95.60174422523152
 20
112.6704698069018
 30
0.0
  0
HATCH
  5
1C7
330
1C1
100
AcDbEntity
  8
Bemaßung (ISO)
 62
   250
420
  2039067
440
 33554687
100
AcDbHatch
 10
0.0
 20
0.0
 30
0.0
210
0.0
220
0.0
230
1.0
  2
SOLID
 70
     1
 71
     1
 91
        2
 92
        1
 93
        1
 72
     4
 94
        3
 73
     0
 74
     0
 95
       17
 96
       13
 40
0.0
 40
0.0
 40
0.0
 40
0.0
 40
1.0
 40
1.0
 40
1.0
 40
2.0
 40
2.0
 40
2.0
 40
3.0
 40
3.0
 40
3.0
 40
4.0
 40
4.0
 40
4.0
 40
4.0
 10
96.3012708635115
 20
111.9201280102144
 10
96.56085880832506
 20
111.9201280102144
 10
96.70469154483425
 20
112.1261447202323
 10
96.70469154483425
 20
112.362822780069
 10
96.70469154483425
 20
112.6112141645555
 10
96.5749836998146
 20
112.8168863650249
 10
96.3012708635115
 20
112.8168863650249
 10
96.03341468953331
 20
112.8168863650249
 10
95.88665362186167
 20
112.6167263173319
 10
95.88665362186167
 20
112.3655788564572
 10
95.88665362186167
 20
112.1175319815192
 10
96.03892684230972
 20
111.9201280102144
 10
96.3012708635115
 20
111.9201280102144
 97
        0
 97
        1
330
1C5
 92
        1
 93
        1
 72
     4
 94
        3
 73
     0
 74
     0
 95
       35
 96
       31
 40
0.0
 40
0.0
 40
0.0
 40
0.0
 40
1.0
 40
1.0
 40
1.0
 40
2.0
 40
2.0
 40
2.0
 40
3.0
 40
3.0
 40
3.0
 40
4.0
 40
4.0
 40
4.0
 40
5.0
 40
5.0
 40
5.0
 40
6.0
 40
6.0
 40
6.0
 40
7.0
 40
7.0
 40
7.0
 40
8.0
 40
8.0
 40
8.0
 40
9.0
 40
9.0
 40
9.0
 40
10.0
 40
10.0
 40
10.0
 40
10.0
 10
95.60174422523152
 20
112.6704698069018
 10
95.60174422523152
 20
113.2203070463477
 10
95.76814233716907
 20
113.742239012363
 10
96.3379611304294
 20
113.742239012363
 10
96.66800127791633
 20
113.742239012363
 10
96.87108965677182
 20
113.5589599325477
 10
96.90209551613907
 20
113.231675861449
 10
96.90209551613907
 20
113.231675861449
 10
96.66231687036567
 20
113.231675861449
 10
96.66231687036567
 20
113.231675861449
 10
96.6397514949373
 20
113.4121988648761
 10
96.5184841338565
 20
113.5307101495687
 10
96.32676457010234
 20
113.5307101495687
 10
95.92058781239138
 20
113.5307101495687
 10
95.84996335494377
 20
113.079402641001
 10
95.8415228710049
 20
112.7717556141681
 10
95.8415228710049
 20
112.7717556141681
 10
95.84720727855556
 20
112.7662434613918
 10
95.84720727855556
 20
112.7662434613918
 10
95.9600341556975
 20
112.949522541207
 10
96.12918834402327
 20
113.0287597373678
 10
96.34640161436827
 20
113.0287597373678
 10
96.73001299665083
 20
113.0287597373678
 10
96.95859508209716
 20
112.749362493514
 10
96.95859508209716
 20
112.3797037479467
 10
96.95859508209716
 20
112.0865261221519
 10
96.79495304654778
 20
111.7085991474201
 10
96.29007430318443
 20
111.7085991474201
 10
95.69493405810751
 20
111.7085991474201
 10
95.60174422523152
 20
112.2529242340895
 10
95.60174422523152
 20
112.6704698069018
 97
        0
 97
        1
330
1C6
 75
     2
 76
     1
 98
        1
 10
0.0
 20
0.0
450
        0
451
        0
460
0.0
461
0.0
452
        0
462
0.0
453
        0
470

  0
SPLINE
  5
1C8
330
1C1
100
AcDbEntity
  8
Bemaßung (ISO)
100
AcDbSpline
210
0.0
220
0.0
230
1.0
 70
    11
 71
     3
 72
    17
 73
    13
 74
     0
 42
0.0000000001
 43
0.0000000001
 40
0.0
 40
0.0
 40
0.0
 40
0.0
 40
1.0
 40
1.0
 40
1.0
 40
2.0
 40
2.0
 40
2.0
 40
3.0
 40
3.0
 40
3.0
 40
4.0
 40
4.0
 40
4.0
 40
4.0
 10
98.02002900110265
 20
112.4220784224153
 30
0.0
 10
98.02002900110265
 20
112.4220784224153
 30
0.0
 10
98.02002900110265
 20
113.4008300497748
 30
0.0
 10
98.02002900110265
 20
113.4008300497748
 30
0.0
 10
98.02002900110265
 20
113.4008300497748
 30
0.0
 10
98.01434459355197
 20
113.4008300497748
 30
0.0
 10
98.01434459355197
 20
113.4008300497748
 30
0.0
 10
98.01434459355197
 20
113.4008300497748
 30
0.0
 10
97.34875214580171
 20
112.4220784224153
 30
0.0
 10
97.34875214580171
 20
112.4220784224153
 30
0.0
 10
97.34875214580171
 20
112.4220784224153
 30
0.0
 10
98.02002900110265
 20
112.4220784224153
 30
0.0
 10
98.02002900110265
 20
112.4220784224153
 30
0.0
  0
SPLINE
  5
1C9
330
1C1
100
AcDbEntity
  8
Bemaßung (ISO)
100
AcDbSpline
210
0.0
220
0.0
230
1.0
 70
    11
 71
     3
 72
    38
 73
    34
 74
     0
 42
0.0000000001
 43
0.0000000001
 40
0.0
 40
0.0
 40
0.0
 40
0.0
 40
1.0
 40
1.0
 40
1.0
 40
2.0
 40
2.0
 40
2.0
 40
3.0
 40
3.0
 40
3.0
 40
4.0
 40
4.0
 40
4.0
 40
5.0
 40
5.0
 40
5.0
 40
6.0
 40
6.0
 40
6.0
 40
7.0
 40
7.0
 40
7.0
 40
8.0
 40
8.0
 40
8.0
 40
9.0
 40
9.0
 40
9.0
 40
10.0
 40
10.0
 40
10.0
 40
11.0
 40
11.0
 40
11.0
 40
11.0
 10
97.14273543578377
 20
112.4417154666812
 30
0.0
 10
97.14273543578377
 20
112.4417154666812
 30
0.0
 10
98.05396319163236
 20
113.742239012363
 30
0.0
 10
98.05396319163236
 20
113.742239012363
 30
0.0
 10
98.05396319163236
 20
113.742239012363
 30
0.0
 10
98.2456827553865
 20
113.742239012363
 30
0.0
 10
98.2456827553865
 20
113.742239012363
 30
0.0
 10
98.2456827553865
 20
113.742239012363
 30
0.0
 10
98.2456827553865
 20
112.4220784224153
 30
0.0
 10
98.2456827553865
 20
112.4220784224153
 30
0.0
 10
98.2456827553865
 20
112.4220784224153
 30
0.0
 10
98.51646726052713
 20
112.4220784224153
 30
0.0
 10
98.51646726052713
 20
112.4220784224153
 30
0.0
 10
98.51646726052713
 20
112.4220784224153
 30
0.0
 10
98.51646726052713
 20
112.2105495596209
 30
0.0
 10
98.51646726052713
 20
112.2105495596209
 30
0.0
 10
98.51646726052713
 20
112.2105495596209
 30
0.0
 10
98.2456827553865
 20
112.2105495596209
 30
0.0
 10
98.2456827553865
 20
112.2105495596209
 30
0.0
 10
98.2456827553865
 20
112.2105495596209
 30
0.0
 10
98.2456827553865
 20
111.7423610831755
 30
0.0
 10
98.2456827553865
 20
111.7423610831755
 30
0.0
 10
98.2456827553865
 20
111.7423610831755
 30
0.0
 10
98.02002900110265
 20
111.7423610831755
 30
0.0
 10
98.02002900110265
 20
111.7423610831755
 30
0.0
 10
98.02002900110265
 20
111.7423610831755
 30
0.0
 10
98.02002900110265
 20
112.2105495596209
 30
0.0
 10
98.02002900110265
 20
112.2105495596209
 30
0.0
 10
98.02002900110265
 20
112.2105495596209
 30
0.0
 10
97.14273543578377
 20
112.2105495596209
 30
0.0
 10
97.14273543578377
 20
112.2105495596209
 30
0.0
 10
97.14273543578377
 20
112.2105495596209
 30
0.0
 10
97.14273543578377
 20
112.4417154666812
 30
0.0
 10
97.14273543578377
 20
112.4417154666812
 30
0.0
  0
HATCH
  5
1CA
330
1C1
100
AcDbEntity
  8
Bemaßung (ISO)
 62
   250
420
  2039067
440
 33554687
100
AcDbHatch
 10
0.0
 20
0.0
 30
0.0
210
0.0
220
0.0
230
1.0
  2
SOLID
 70
     1
 71
     1
 91
        2
 92
        1
 93
        1
 72
     4
 94
        3
 73
     0
 74
     0
 95
       17
 96
       13
 40
0.0
 40
0.0
 40
0.0
 40
0.0
 40
1.0
 40
1.0
 40
1.0
 40
2.0
 40
2.0
 40
2.0
 40
3.0
 40
3.0
 40
3.0
 40
4.0
 40
4.0
 40
4.0
 40
4.0
 10
98.02002900110265
 20
112.4220784224153
 10
98.02002900110265
 20
112.4220784224153
 10
98.02002900110265
 20
113.4008300497748
 10
98.02002900110265
 20
113.4008300497748
 10
98.02002900110265
 20
113.4008300497748
 10
98.01434459355197
 20
113.4008300497748
 10
98.01434459355197
 20
113.4008300497748
 10
98.01434459355197
 20
113.4008300497748
 10
97.34875214580171
 20
112.4220784224153
 10
97.34875214580171
 20
112.4220784224153
 10
97.34875214580171
 20
112.4220784224153
 10
98.02002900110265
 20
112.4220784224153
 10
98.02002900110265
 20
112.4220784224153
 97
        0
 97
        1
330
1C8
 92
        1
 93
        1
 72
     4
 94
        3
 73
     0
 74
     0
 95
       38
 96
       34
 40
0.0
 40
0.0
 40
0.0
 40
0.0
 40
1.0
 40
1.0
 40
1.0
 40
2.0
 40
2.0
 40
2.0
 40
3.0
 40
3.0
 40
3.0
 40
4.0
 40
4.0
 40
4.0
 40
5.0
 40
5.0
 40
5.0
 40
6.0
 40
6.0
 40
6.0
 40
7.0
 40
7.0
 40
7.0
 40
8.0
 40
8.0
 40
8.0
 40
9.0
 40
9.0
 40
9.0
 40
10.0
 40
10.0
 40
10.0
 40
11.0
 40
11.0
 40
11.0
 40
11.0
 10
97.14273543578377
 20
112.4417154666812
 10
97.14273543578377
 20
112.4417154666812
 10
98.05396319163236
 20
113.742239012363
 10
98.05396319163236
 20
113.742239012363
 10
98.05396319163236
 20
113.742239012363
 10
98.2456827553865
 20
113.742239012363
 10
98.2456827553865
 20
113.742239012363
 10
98.2456827553865
 20
113.742239012363
 10
98.2456827553865
 20
112.4220784224153
 10
98.2456827553865
 20
112.4220784224153
 10
98.2456827553865
 20
112.4220784224153
 10
98.51646726052713
 20
112.4220784224153
 10
98.51646726052713
 20
112.4220784224153
 10
98.51646726052713
 20
112.4220784224153
 10
98.51646726052713
 20
112.2105495596209
 10
98.51646726052713
 20
112.2105495596209
 10
98.51646726052713
 20
112.2105495596209
 10
98.2456827553865
 20
112.2105495596209
 10
98.2456827553865
 20
112.2105495596209
 10
98.2456827553865
 20
112.2105495596209
 10
98.2456827553865
 20
111.7423610831755
 10
98.2456827553865
 20
111.7423610831755
 10
98.2456827553865
 20
111.7423610831755
 10
98.02002900110265
 20
111.7423610831755
 10
98.02002900110265
 20
111.7423610831755
 10
98.02002900110265
 20
111.7423610831755
 10
98.02002900110265
 20
112.2105495596209
 10
98.02002900110265
 20
112.2105495596209
 10
98.02002900110265
 20
112.2105495596209
 10
97.14273543578377
 20
112.2105495596209
 10
97.14273543578377
 20
112.2105495596209
 10
97.14273543578377
 20
112.2105495596209
 10
97.14273543578377
 20
112.4417154666812
 10
97.14273543578377
 20
112.4417154666812
 97
        0
 97
        1
330
1C9
 75
     2
 76
     1
 98
        1
 10
0.0
 20
0.0
450
        0
451
        0
460
0.0
461
0.0
452
        0
462
0.0
453
        0
470

  0
ENDBLK
  5
1C4
330
1C1
100
AcDbEntity
  8
0
100
AcDbBlockEnd
  0
BLOCK
  5
1CD
330
1CB
100
AcDbEntity
  8
0
100
AcDbBlockBegin
  2
Block_11
 70
     0
 10
0.0
 20
0.0
 30
0.0
  3
Block_11
  1

  0
INSERT
  5
1D0
330
1CB
100
AcDbEntity
  8
Bemaßung (ISO)
100
AcDbBlockReference
  2
Block_12
 10
0.0
 20
0.0
 30
0.0
  0
ENDBLK
  5
1CE
330
1CB
100
AcDbEntity
  8
0
100
AcDbBlockEnd
  0
BLOCK
  5
1D1
330
1CF
100
AcDbEntity
  8
0
100
AcDbBlockBegin
  2
Block_12
 70
     0
 10
0.0
 20
0.0
 30
0.0
  3
Block_12
  1

  0
SPLINE
  5
1D3
330
1CF
100
AcDbEntity
  8
Bemaßung (ISO)
100
AcDbSpline
210
0.0
220
0.0
230
1.0
 70
     9
 71
     3
 72
    62
 73
    58
 74
     0
 42
0.0000000001
 43
0.0000000001
 40
0.0
 40
0.0
 40
0.0
 40
0.0
 40
1.0
 40
1.0
 40
1.0
 40
2.0
 40
2.0
 40
2.0
 40
3.0
 40
3.0
 40
3.0
 40
4.0
 40
4.0
 40
4.0
 40
5.0
 40
5.0
 40
5.0
 40
6.0
 40
6.0
 40
6.0
 40
7.0
 40
7.0
 40
7.0
 40
8.0
 40
8.0
 40
8.0
 40
9.0
 40
9.0
 40
9.0
 40
10.0
 40
10.0
 40
10.0
 40
11.0
 40
11.0
 40
11.0
 40
12.0
 40
12.0
 40
12.0
 40
13.0
 40
13.0
 40
13.0
 40
14.0
 40
14.0
 40
14.0
 40
15.0
 40
15.0
 40
15.0
 40
16.0
 40
16.0
 40
16.0
 40
17.0
 40
17.0
 40
17.0
 40
18.0
 40
18.0
 40
18.0
 40
19.0
 40
19.0
 40
19.0
 40
19.0
 10
127.9064045904192
 20
127.9522243603731
 30
0.0
 10
128.1658202804585
 20
127.9608370990862
 30
0.0
 10
128.3463432838856
 20
128.1044975808211
 30
0.0
 10
128.3463432838856
 20
128.3783826718984
 30
0.0
 10
128.3463432838856
 20
128.6123046553469
 30
0.0
 10
128.199582216214
 20
128.8128092125884
 30
0.0
 10
127.9601480799891
 20
128.8128092125884
 30
0.0
 10
127.7090006191144
 20
128.8128092125884
 30
0.0
 10
127.5763644429323
 20
128.6236734704482
 30
0.0
 10
127.5763644429323
 20
128.3869954106116
 30
0.0
 10
127.5763644429323
 20
128.3360079974299
 30
0.0
 10
127.5791205193205
 20
128.2881211701849
 30
0.0
 10
127.5849771816454
 20
128.2429904193281
 30
0.0
 10
127.5849771816454
 20
128.2429904193281
 30
0.0
 10
127.3817165480157
 20
128.2429904193281
 30
0.0
 10
127.3817165480157
 20
128.2429904193281
 30
0.0
 10
127.3844726244039
 20
128.262627463594
 30
0.0
 10
127.3844726244039
 20
128.2795084314718
 30
0.0
 10
127.3844726244039
 20
128.296733908898
 30
0.0
 10
127.3844726244039
 20
128.296733908898
 30
0.0
 10
127.3844726244039
 20
128.3473768125312
 30
0.0
 10
127.3844726244039
 20
128.3473768125312
 30
0.0
 10
127.3844726244039
 20
128.5502929366124
 30
0.0
 10
127.2718180020362
 20
128.7280598636513
 30
0.0
 10
127.0575330628537
 20
128.7280598636513
 30
0.0
 10
126.8456596905108
 20
128.7280598636513
 30
0.0
 10
126.7357611445313
 20
128.5757866432033
 30
0.0
 10
126.7357611445313
 20
128.3725260095735
 30
0.0
 10
126.7357611445313
 20
128.1131103195342
 30
0.0
 10
126.9359211922243
 20
127.9949435443901
 30
0.0
 10
127.1701876852213
 20
127.9949435443901
 30
0.0
 10
127.1701876852213
 20
127.9949435443901
 30
0.0
 10
127.1701876852213
 20
127.7551648986168
 30
0.0
 10
127.1701876852213
 20
127.7551648986168
 30
0.0
 10
126.7895046341012
 20
127.7689452805577
 30
0.0
 10
126.524232281737
 20
127.9722059141875
 30
0.0
 10
126.524232281737
 20
128.3725260095735
 30
0.0
 10
126.524232281737
 20
128.7197916344867
 30
0.0
 10
126.6906303936745
 20
128.9819634009142
 30
0.0
 10
127.0602891392418
 20
128.9819634009142
 30
0.0
 10
127.2380560662807
 20
128.9819634009142
 30
0.0
 10
127.3872287007921
 20
128.8606960398334
 30
0.0
 10
127.4578531582397
 20
128.7053222334487
 30
0.0
 10
127.4578531582397
 20
128.7053222334487
 30
0.0
 10
127.4633653110161
 20
128.7053222334487
 30
0.0
 10
127.4633653110161
 20
128.7053222334487
 30
0.0
 10
127.517108800586
 20
128.950957541547
 30
0.0
 10
127.7090006191144
 20
129.0663682403028
 30
0.0
 10
127.9487792648878
 20
129.0663682403028
 30
0.0
 10
128.3463432838856
 20
129.0663682403028
 30
0.0
 10
128.55787214668
 20
128.7535535702421
 30
0.0
 10
128.55787214668
 20
128.3783826718984
 30
0.0
 10
128.55787214668
 20
127.9722059141875
 30
0.0
 10
128.3211940868433
 20
127.704177485435
 30
0.0
 10
127.9064045904192
 20
127.7124457145996
 30
0.0
 10
127.9064045904192
 20
127.7124457145996
 30
0.0
 10
127.9064045904192
 20
127.9522243603731
 30
0.0
 10
127.9064045904192
 20
127.9522243603731
 30
0.0
  0
HATCH
  5
1D4
330
1CF
100
AcDbEntity
  8
Bemaßung (ISO)
 62
   250
420
  2039067
440
 33554687
100
AcDbHatch
 10
0.0
 20
0.0
 30
0.0
210
0.0
220
0.0
230
1.0
  2
SOLID
 70
     1
 71
     1
 91
        1
 92
        1
 93
        1
 72
     4
 94
        3
 73
     0
 74
     0
 95
       62
 96
       58
 40
0.0
 40
0.0
 40
0.0
 40
0.0
 40
1.0
 40
1.0
 40
1.0
 40
2.0
 40
2.0
 40
2.0
 40
3.0
 40
3.0
 40
3.0
 40
4.0
 40
4.0
 40
4.0
 40
5.0
 40
5.0
 40
5.0
 40
6.0
 40
6.0
 40
6.0
 40
7.0
 40
7.0
 40
7.0
 40
8.0
 40
8.0
 40
8.0
 40
9.0
 40
9.0
 40
9.0
 40
10.0
 40
10.0
 40
10.0
 40
11.0
 40
11.0
 40
11.0
 40
12.0
 40
12.0
 40
12.0
 40
13.0
 40
13.0
 40
13.0
 40
14.0
 40
14.0
 40
14.0
 40
15.0
 40
15.0
 40
15.0
 40
16.0
 40
16.0
 40
16.0
 40
17.0
 40
17.0
 40
17.0
 40
18.0
 40
18.0
 40
18.0
 40
19.0
 40
19.0
 40
19.0
 40
19.0
 10
127.9064045904192
 20
127.9522243603731
 10
128.1658202804585
 20
127.9608370990862
 10
128.3463432838856
 20
128.1044975808211
 10
128.3463432838856
 20
128.3783826718984
 10
128.3463432838856
 20
128.6123046553469
 10
128.199582216214
 20
128.8128092125884
 10
127.9601480799891
 20
128.8128092125884
 10
127.7090006191144
 20
128.8128092125884
 10
127.5763644429323
 20
128.6236734704482
 10
127.5763644429323
 20
128.3869954106116
 10
127.5763644429323
 20
128.3360079974299
 10
127.5791205193205
 20
128.2881211701849
 10
127.5849771816454
 20
128.2429904193281
 10
127.5849771816454
 20
128.2429904193281
 10
127.3817165480157
 20
128.2429904193281
 10
127.3817165480157
 20
128.2429904193281
 10
127.3844726244039
 20
128.262627463594
 10
127.3844726244039
 20
128.2795084314718
 10
127.3844726244039
 20
128.296733908898
 10
127.3844726244039
 20
128.296733908898
 10
127.3844726244039
 20
128.3473768125312
 10
127.3844726244039
 20
128.3473768125312
 10
127.3844726244039
 20
128.5502929366124
 10
127.2718180020362
 20
128.7280598636513
 10
127.0575330628537
 20
128.7280598636513
 10
126.8456596905108
 20
128.7280598636513
 10
126.7357611445313
 20
128.5757866432033
 10
126.7357611445313
 20
128.3725260095735
 10
126.7357611445313
 20
128.1131103195342
 10
126.9359211922243
 20
127.9949435443901
 10
127.1701876852213
 20
127.9949435443901
 10
127.1701876852213
 20
127.9949435443901
 10
127.1701876852213
 20
127.7551648986168
 10
127.1701876852213
 20
127.7551648986168
 10
126.7895046341012
 20
127.7689452805577
 10
126.524232281737
 20
127.9722059141875
 10
126.524232281737
 20
128.3725260095735
 10
126.524232281737
 20
128.7197916344867
 10
126.6906303936745
 20
128.9819634009142
 10
127.0602891392418
 20
128.9819634009142
 10
127.2380560662807
 20
128.9819634009142
 10
127.3872287007921
 20
128.8606960398334
 10
127.4578531582397
 20
128.7053222334487
 10
127.4578531582397
 20
128.7053222334487
 10
127.4633653110161
 20
128.7053222334487
 10
127.4633653110161
 20
128.7053222334487
 10
127.517108800586
 20
128.950957541547
 10
127.7090006191144
 20
129.0663682403028
 10
127.9487792648878
 20
129.0663682403028
 10
128.3463432838856
 20
129.0663682403028
 10
128.55787214668
 20
128.7535535702421
 10
128.55787214668
 20
128.3783826718984
 10
128.55787214668
 20
127.9722059141875
 10
128.3211940868433
 20
127.704177485435
 10
127.9064045904192
 20
127.7124457145996
 10
127.9064045904192
 20
127.7124457145996
 10
127.9064045904192
 20
127.9522243603731
 10
127.9064045904192
 20
127.9522243603731
 97
        0
 97
        1
330
1D3
 75
     2
 76
     1
 98
        1
 10
0.0
 20
0.0
450
        0
451
        0
460
0.0
461
0.0
452
        0
462
0.0
453
        0
470

  0
SPLINE
  5
1D5
330
1CF
100
AcDbEntity
  8
Bemaßung (ISO)
100
AcDbSpline
210
0.0
220
0.0
230
1.0
 70
     9
 71
     3
 72
    53
 73
    49
 74
     0
 42
0.0000000001
 43
0.0000000001
 40
0.0
 40
0.0
 40
0.0
 40
0.0
 40
1.0
 40
1.0
 40
1.0
 40
2.0
 40
2.0
 40
2.0
 40
3.0
 40
3.0
 40
3.0
 40
4.0
 40
4.0
 40
4.0
 40
5.0
 40
5.0
 40
5.0
 40
6.0
 40
6.0
 40
6.0
 40
7.0
 40
7.0
 40
7.0
 40
8.0
 40
8.0
 40
8.0
 40
9.0
 40
9.0
 40
9.0
 40
10.0
 40
10.0
 40
10.0
 40
11.0
 40
11.0
 40
11.0
 40
12.0
 40
12.0
 40
12.0
 40
13.0
 40
13.0
 40
13.0
 40
14.0
 40
14.0
 40
14.0
 40
15.0
 40
15.0
 40
15.0
 40
16.0
 40
16.0
 40
16.0
 40
16.0
 10
127.9852972770314
 20
129.5355902453938
 30
0.0
 10
128.1913139870494
 20
129.5500596464319
 30
0.0
 10
128.3463432838856
 20
129.716113248821
 30
0.0
 10
128.3463432838856
 20
129.9558918945943
 30
0.0
 10
128.3463432838856
 20
130.1846462348149
 30
0.0
 10
128.1885579106612
 20
130.378949620183
 30
0.0
 10
127.8726426546638
 20
130.378949620183
 30
0.0
 10
127.6101263786877
 20
130.378949620183
 30
0.0
 10
127.4185790697078
 20
130.198426616756
 30
0.0
 10
127.4185790697078
 20
129.9276421116153
 30
0.0
 10
127.4185790697078
 20
129.772612814779
 30
0.0
 10
127.4947156799319
 20
129.6485893773101
 30
0.0
 10
127.6073703022995
 20
129.5555717992083
 30
0.0
 10
127.6073703022995
 20
129.5555717992083
 30
0.0
 10
127.5960014871982
 20
129.3495550891904
 30
0.0
 10
127.5960014871982
 20
129.3495550891904
 30
0.0
 10
127.5960014871982
 20
129.3495550891904
 30
0.0
 10
126.5579942174924
 20
129.5355902453938
 30
0.0
 10
126.5579942174924
 20
129.5355902453938
 30
0.0
 10
126.5579942174924
 20
129.5355902453938
 30
0.0
 10
126.5579942174924
 20
130.5229546114665
 30
0.0
 10
126.5579942174924
 20
130.5229546114665
 30
0.0
 10
126.5579942174924
 20
130.5229546114665
 30
0.0
 10
126.7695230802868
 20
130.5229546114665
 30
0.0
 10
126.7695230802868
 20
130.5229546114665
 30
0.0
 10
126.7695230802868
 20
130.5229546114665
 30
0.0
 10
126.7695230802868
 20
129.716113248821
 30
0.0
 10
126.7695230802868
 20
129.716113248821
 30
0.0
 10
126.7695230802868
 20
129.716113248821
 30
0.0
 10
127.345198535872
 20
129.6093152887782
 30
0.0
 10
127.345198535872
 20
129.6093152887782
 30
0.0
 10
127.345198535872
 20
129.6093152887782
 30
0.0
 10
127.3507106886484
 20
129.6148274415546
 30
0.0
 10
127.3507106886484
 20
129.6148274415546
 30
0.0
 10
127.2518364482218
 20
129.7023328668799
 30
0.0
 10
127.206705697365
 20
129.8518500109398
 30
0.0
 10
127.206705697365
 20
129.9868977539616
 30
0.0
 10
127.206705697365
 20
130.3424316080394
 30
0.0
 10
127.4323594516488
 20
130.6331976669945
 30
0.0
 10
127.8922796989297
 20
130.6331976669945
 30
0.0
 10
128.2309325851298
 20
130.6331976669945
 30
0.0
 10
128.55787214668
 20
130.3989311739975
 30
0.0
 10
128.55787214668
 20
129.9334987739402
 30
0.0
 10
128.55787214668
 20
129.5865776585755
 30
0.0
 10
128.3463432838856
 20
129.3044243383336
 30
0.0
 10
127.9852972770314
 20
129.2958115996205
 30
0.0
 10
127.9852972770314
 20
129.2958115996205
 30
0.0
 10
127.9852972770314
 20
129.5355902453938
 30
0.0
 10
127.9852972770314
 20
129.5355902453938
 30
0.0
  0
HATCH
  5
1D6
330
1CF
100
AcDbEntity
  8
Bemaßung (ISO)
 62
   250
420
  2039067
440
 33554687
100
AcDbHatch
 10
0.0
 20
0.0
 30
0.0
210
0.0
220
0.0
230
1.0
  2
SOLID
 70
     1
 71
     1
 91
        1
 92
        1
 93
        1
 72
     4
 94
        3
 73
     0
 74
     0
 95
       53
 96
       49
 40
0.0
 40
0.0
 40
0.0
 40
0.0
 40
1.0
 40
1.0
 40
1.0
 40
2.0
 40
2.0
 40
2.0
 40
3.0
 40
3.0
 40
3.0
 40
4.0
 40
4.0
 40
4.0
 40
5.0
 40
5.0
 40
5.0
 40
6.0
 40
6.0
 40
6.0
 40
7.0
 40
7.0
 40
7.0
 40
8.0
 40
8.0
 40
8.0
 40
9.0
 40
9.0
 40
9.0
 40
10.0
 40
10.0
 40
10.0
 40
11.0
 40
11.0
 40
11.0
 40
12.0
 40
12.0
 40
12.0
 40
13.0
 40
13.0
 40
13.0
 40
14.0
 40
14.0
 40
14.0
 40
15.0
 40
15.0
 40
15.0
 40
16.0
 40
16.0
 40
16.0
 40
16.0
 10
127.9852972770314
 20
129.5355902453938
 10
128.1913139870494
 20
129.5500596464319
 10
128.3463432838856
 20
129.716113248821
 10
128.3463432838856
 20
129.9558918945943
 10
128.3463432838856
 20
130.1846462348149
 10
128.1885579106612
 20
130.378949620183
 10
127.8726426546638
 20
130.378949620183
 10
127.6101263786877
 20
130.378949620183
 10
127.4185790697078
 20
130.198426616756
 10
127.4185790697078
 20
129.9276421116153
 10
127.4185790697078
 20
129.772612814779
 10
127.4947156799319
 20
129.6485893773101
 10
127.6073703022995
 20
129.5555717992083
 10
127.6073703022995
 20
129.5555717992083
 10
127.5960014871982
 20
129.3495550891904
 10
127.5960014871982
 20
129.3495550891904
 10
127.5960014871982
 20
129.3495550891904
 10
126.5579942174924
 20
129.5355902453938
 10
126.5579942174924
 20
129.5355902453938
 10
126.5579942174924
 20
129.5355902453938
 10
126.5579942174924
 20
130.5229546114665
 10
126.5579942174924
 20
130.5229546114665
 10
126.5579942174924
 20
130.5229546114665
 10
126.7695230802868
 20
130.5229546114665
 10
126.7695230802868
 20
130.5229546114665
 10
126.7695230802868
 20
130.5229546114665
 10
126.7695230802868
 20
129.716113248821
 10
126.7695230802868
 20
129.716113248821
 10
126.7695230802868
 20
129.716113248821
 10
127.345198535872
 20
129.6093152887782
 10
127.345198535872
 20
129.6093152887782
 10
127.345198535872
 20
129.6093152887782
 10
127.3507106886484
 20
129.6148274415546
 10
127.3507106886484
 20
129.6148274415546
 10
127.2518364482218
 20
129.7023328668799
 10
127.206705697365
 20
129.8518500109398
 10
127.206705697365
 20
129.9868977539616
 10
127.206705697365
 20
130.3424316080394
 10
127.4323594516488
 20
130.6331976669945
 10
127.8922796989297
 20
130.6331976669945
 10
128.2309325851298
 20
130.6331976669945
 10
128.55787214668
 20
130.3989311739975
 10
128.55787214668
 20
129.9334987739402
 10
128.55787214668
 20
129.5865776585755
 10
128.3463432838856
 20
129.3044243383336
 10
127.9852972770314
 20
129.2958115996205
 10
127.9852972770314
 20
129.2958115996205
 10
127.9852972770314
 20
129.5355902453938
 10
127.9852972770314
 20
129.5355902453938
 97
        0
 97
        1
330
1D5
 75
     2
 76
     1
 98
        1
 10
0.0
 20
0.0
450
        0
451
        0
460
0.0
461
0.0
452
        0
462
0.0
453
        0
470

  0
ENDBLK
  5
1D2
330
1CF
100
AcDbEntity
  8
0
100
AcDbBlockEnd
  0
BLOCK
  5
1D9
330
1D7
100
AcDbEntity
  8
0
100
AcDbBlockBegin
  2
Block_13
 70
     0
 10
0.0
 20
0.0
 30
0.0
  3
Block_13
  1

  0
SPLINE
  5
1DB
330
1D7
100
AcDbEntity
  8
Bemaßung (ISO)
100
AcDbSpline
210
0.0
220
0.0
230
1.0
 70
    11
 71
     3
 72
    17
 73
    13
 74
     0
 42
0.0000000001
 43
0.0000000001
 40
0.0
 40
0.0
 40
0.0
 40
0.0
 40
1.0
 40
1.0
 40
1.0
 40
2.0
 40
2.0
 40
2.0
 40
3.0
 40
3.0
 40
3.0
 40
4.0
 40
4.0
 40
4.0
 40
4.0
 10
143.3456000075664
 20
141.2013725775469
 30
0.0
 10
143.3456000075664
 20
141.2013725775469
 30
0.0
 10
141.6840304550303
 20
141.2013725775469
 30
0.0
 10
141.6840304550303
 20
141.2013725775469
 30
0.0
 10
141.6840304550303
 20
141.2013725775469
 30
0.0
 10
141.6840304550303
 20
139.5429036109476
 30
0.0
 10
141.6840304550303
 20
139.5429036109476
 30
0.0
 10
141.6840304550303
 20
139.5429036109476
 30
0.0
 10
143.3456000075664
 20
139.5429036109476
 30
0.0
 10
143.3456000075664
 20
139.5429036109476
 30
0.0
 10
143.3456000075664
 20
139.5429036109476
 30
0.0
 10
143.3456000075664
 20
141.2013725775469
 30
0.0
 10
143.3456000075664
 20
141.2013725775469
 30
0.0
  0
SPLINE
  5
1DC
330
1D7
100
AcDbEntity
  8
Bemaßung (ISO)
100
AcDbSpline
210
0.0
220
0.0
230
1.0
 70
    11
 71
     3
 72
    17
 73
    13
 74
     0
 42
0.0000000001
 43
0.0000000001
 40
0.0
 40
0.0
 40
0.0
 40
0.0
 40
1.0
 40
1.0
 40
1.0
 40
2.0
 40
2.0
 40
2.0
 40
3.0
 40
3.0
 40
3.0
 40
4.0
 40
4.0
 40
4.0
 40
4.0
 10
141.4583767007465
 20
139.314149270727
 30
0.0
 10
141.4583767007465
 20
139.314149270727
 30
0.0
 10
141.4583767007465
 20
141.4270263318307
 30
0.0
 10
141.4583767007465
 20
141.4270263318307
 30
0.0
 10
141.4583767007465
 20
141.4270263318307
 30
0.0
 10
143.5740098382384
 20
141.4270263318307
 30
0.0
 10
143.5740098382384
 20
141.4270263318307
 30
0.0
 10
143.5740098382384
 20
141.4270263318307
 30
0.0
 10
143.5740098382384
 20
139.314149270727
 30
0.0
 10
143.5740098382384
 20
139.314149270727
 30
0.0
 10
143.5740098382384
 20
139.314149270727
 30
0.0
 10
141.4583767007465
 20
139.314149270727
 30
0.0
 10
141.4583767007465
 20
139.314149270727
 30
0.0
  0
HATCH
  5
1DD
330
1D7
100
AcDbEntity
  8
Bemaßung (ISO)
 62
    18
420
        0
440
 33554687
100
AcDbHatch
 10
0.0
 20
0.0
 30
0.0
210
0.0
220
0.0
230
1.0
  2
SOLID
 70
     1
 71
     1
 91
        2
 92
        1
 93
        1
 72
     4
 94
        3
 73
     0
 74
     0
 95
       17
 96
       13
 40
0.0
 40
0.0
 40
0.0
 40
0.0
 40
1.0
 40
1.0
 40
1.0
 40
2.0
 40
2.0
 40
2.0
 40
3.0
 40
3.0
 40
3.0
 40
4.0
 40
4.0
 40
4.0
 40
4.0
 10
143.3456000075664
 20
141.2013725775469
 10
143.3456000075664
 20
141.2013725775469
 10
141.6840304550303
 20
141.2013725775469
 10
141.6840304550303
 20
141.2013725775469
 10
141.6840304550303
 20
141.2013725775469
 10
141.6840304550303
 20
139.5429036109476
 10
141.6840304550303
 20
139.5429036109476
 10
141.6840304550303
 20
139.5429036109476
 10
143.3456000075664
 20
139.5429036109476
 10
143.3456000075664
 20
139.5429036109476
 10
143.3456000075664
 20
139.5429036109476
 10
143.3456000075664
 20
141.2013725775469
 10
143.3456000075664
 20
141.2013725775469
 97
        0
 97
        1
330
1DB
 92
        1
 93
        1
 72
     4
 94
        3
 73
     0
 74
     0
 95
       17
 96
       13
 40
0.0
 40
0.0
 40
0.0
 40
0.0
 40
1.0
 40
1.0
 40
1.0
 40
2.0
 40
2.0
 40
2.0
 40
3.0
 40
3.0
 40
3.0
 40
4.0
 40
4.0
 40
4.0
 40
4.0
 10
141.4583767007465
 20
139.314149270727
 10
141.4583767007465
 20
139.314149270727
 10
141.4583767007465
 20
141.4270263318307
 10
141.4583767007465
 20
141.4270263318307
 10
141.4583767007465
 20
141.4270263318307
 10
143.5740098382384
 20
141.4270263318307
 10
143.5740098382384
 20
141.4270263318307
 10
143.5740098382384
 20
141.4270263318307
 10
143.5740098382384
 20
139.314149270727
 10
143.5740098382384
 20
139.314149270727
 10
143.5740098382384
 20
139.314149270727
 10
141.4583767007465
 20
139.314149270727
 10
141.4583767007465
 20
139.314149270727
 97
        0
 97
        1
330
1DC
 75
     2
 76
     1
 98
        1
 10
0.0
 20
0.0
450
        0
451
        0
460
0.0
461
0.0
452
        0
462
0.0
453
        0
470

  0
SPLINE
  5
1DE
330
1D7
100
AcDbEntity
  8
Bemaßung (ISO)
100
AcDbSpline
210
0.0
220
0.0
230
1.0
 70
    11
 71
     3
 72
    26
 73
    22
 74
     0
 42
0.0000000001
 43
0.0000000001
 40
0.0
 40
0.0
 40
0.0
 40
0.0
 40
1.0
 40
1.0
 40
1.0
 40
2.0
 40
2.0
 40
2.0
 40
3.0
 40
3.0
 40
3.0
 40
4.0
 40
4.0
 40
4.0
 40
5.0
 40
5.0
 40
5.0
 40
6.0
 40
6.0
 40
6.0
 40
7.0
 40
7.0
 40
7.0
 40
7.0
 10
142.141194625923
 20
142.9800753765813
 30
0.0
 10
142.141194625923
 20
142.9800753765813
 30
0.0
 10
142.141194625923
 20
142.4608994869542
 30
0.0
 10
142.141194625923
 20
142.4608994869542
 30
0.0
 10
142.141194625923
 20
142.4608994869542
 30
0.0
 10
141.9493028073946
 20
142.4608994869542
 30
0.0
 10
141.9493028073946
 20
142.4608994869542
 30
0.0
 10
141.9493028073946
 20
142.734440068483
 30
0.0
 10
141.878678349947
 20
142.9828314529695
 30
0.0
 10
141.5741283325875
 20
143.0362304329909
 30
0.0
 10
141.5741283325875
 20
143.0362304329909
 30
0.0
 10
141.5741283325875
 20
143.2198540223547
 30
0.0
 10
141.5741283325875
 20
143.2198540223547
 30
0.0
 10
141.5741283325875
 20
143.2198540223547
 30
0.0
 10
143.5740098382384
 20
143.2198540223547
 30
0.0
 10
143.5740098382384
 20
143.2198540223547
 30
0.0
 10
143.5740098382384
 20
143.2198540223547
 30
0.0
 10
143.5740098382384
 20
142.9800753765813
 30
0.0
 10
143.5740098382384
 20
142.9800753765813
 30
0.0
 10
143.5740098382384
 20
142.9800753765813
 30
0.0
 10
142.141194625923
 20
142.9800753765813
 30
0.0
 10
142.141194625923
 20
142.9800753765813
 30
0.0
  0
HATCH
  5
1DF
330
1D7
100
AcDbEntity
  8
Bemaßung (ISO)
 62
   250
420
  2039067
440
 33554687
100
AcDbHatch
 10
0.0
 20
0.0
 30
0.0
210
0.0
220
0.0
230
1.0
  2
SOLID
 70
     1
 71
     1
 91
        1
 92
        1
 93
        1
 72
     4
 94
        3
 73
     0
 74
     0
 95
       26
 96
       22
 40
0.0
 40
0.0
 40
0.0
 40
0.0
 40
1.0
 40
1.0
 40
1.0
 40
2.0
 40
2.0
 40
2.0
 40
3.0
 40
3.0
 40
3.0
 40
4.0
 40
4.0
 40
4.0
 40
5.0
 40
5.0
 40
5.0
 40
6.0
 40
6.0
 40
6.0
 40
7.0
 40
7.0
 40
7.0
 40
7.0
 10
142.141194625923
 20
142.9800753765813
 10
142.141194625923
 20
142.9800753765813
 10
142.141194625923
 20
142.4608994869542
 10
142.141194625923
 20
142.4608994869542
 10
142.141194625923
 20
142.4608994869542
 10
141.9493028073946
 20
142.4608994869542
 10
141.9493028073946
 20
142.4608994869542
 10
141.9493028073946
 20
142.734440068483
 10
141.878678349947
 20
142.9828314529695
 10
141.5741283325875
 20
143.0362304329909
 10
141.5741283325875
 20
143.0362304329909
 10
141.5741283325875
 20
143.2198540223547
 10
141.5741283325875
 20
143.2198540223547
 10
141.5741283325875
 20
143.2198540223547
 10
143.5740098382384
 20
143.2198540223547
 10
143.5740098382384
 20
143.2198540223547
 10
143.5740098382384
 20
143.2198540223547
 10
143.5740098382384
 20
142.9800753765813
 10
143.5740098382384
 20
142.9800753765813
 10
143.5740098382384
 20
142.9800753765813
 10
142.141194625923
 20
142.9800753765813
 10
142.141194625923
 20
142.9800753765813
 97
        0
 97
        1
330
1DE
 75
     2
 76
     1
 98
        1
 10
0.0
 20
0.0
450
        0
451
        0
460
0.0
461
0.0
452
        0
462
0.0
453
        0
470

  0
SPLINE
  5
1E0
330
1D7
100
AcDbEntity
  8
Bemaßung (ISO)
100
AcDbSpline
210
0.0
220
0.0
230
1.0
 70
     9
 71
     3
 72
    17
 73
    13
 74
     0
 42
0.0000000001
 43
0.0000000001
 40
0.0
 40
0.0
 40
0.0
 40
0.0
 40
1.0
 40
1.0
 40
1.0
 40
2.0
 40
2.0
 40
2.0
 40
3.0
 40
3.0
 40
3.0
 40
4.0
 40
4.0
 40
4.0
 40
4.0
 10
142.2428249427379
 20
144.9386121599459
 30
0.0
 10
141.9971896346396
 20
144.9386121599459
 30
0.0
 10
141.7856607718452
 20
144.7946071686624
 30
0.0
 10
141.7856607718452
 20
144.52657873991
 30
0.0
 10
141.7856607718452
 20
144.2420138528284
 30
0.0
 10
142.0140706025173
 20
144.1345268736886
 30
0.0
 10
142.2597059106156
 20
144.1345268736886
 30
0.0
 10
142.4767469261863
 20
144.1345268736886
 30
0.0
 10
142.6827636362043
 20
144.2981689092379
 30
0.0
 10
142.6827636362043
 20
144.5293348162982
 30
0.0
 10
142.6827636362043
 20
144.7804822771729
 30
0.0
 10
142.4795030025745
 20
144.9386121599459
 30
0.0
 10
142.2428249427379
 20
144.9386121599459
 30
0.0
  0
SPLINE
  5
1E1
330
1D7
100
AcDbEntity
  8
Bemaßung (ISO)
100
AcDbSpline
210
0.0
220
0.0
230
1.0
 70
     9
 71
     3
 72
    35
 73
    31
 74
     0
 42
0.0000000001
 43
0.0000000001
 40
0.0
 40
0.0
 40
0.0
 40
0.0
 40
1.0
 40
1.0
 40
1.0
 40
2.0
 40
2.0
 40
2.0
 40
3.0
 40
3.0
 40
3.0
 40
4.0
 40
4.0
 40
4.0
 40
5.0
 40
5.0
 40
5.0
 40
6.0
 40
6.0
 40
6.0
 40
7.0
 40
7.0
 40
7.0
 40
8.0
 40
8.0
 40
8.0
 40
9.0
 40
9.0
 40
9.0
 40
10.0
 40
10.0
 40
10.0
 40
10.0
 10
143.0916964703035
 20
144.1627766566676
 30
0.0
 10
143.2863443652201
 20
144.1827582104821
 30
0.0
 10
143.3962429111995
 20
144.3377875073183
 30
0.0
 10
143.3962429111995
 20
144.5293348162982
 30
0.0
 10
143.3962429111995
 20
144.8228569516415
 30
0.0
 10
143.1423393739366
 20
144.9668619429249
 30
0.0
 10
142.623507993858
 20
144.9806423248659
 30
0.0
 10
142.623507993858
 20
144.9806423248659
 30
0.0
 10
142.6176513315331
 20
144.9751301720895
 30
0.0
 10
142.6176513315331
 20
144.9751301720895
 30
0.0
 10
142.7871500294074
 20
144.884868670376
 30
0.0
 10
142.8942924989986
 20
144.7071017433371
 30
0.0
 10
142.8942924989986
 20
144.512798357969
 30
0.0
 10
142.8942924989986
 20
144.1035210143213
 30
0.0
 10
142.6207519174698
 20
143.8809678459742
 30
0.0
 10
142.2255994653116
 20
143.8809678459742
 30
0.0
 10
141.8421603378033
 20
143.8809678459742
 30
0.0
 10
141.5741283325875
 20
144.1517523511148
 30
0.0
 10
141.5741283325875
 20
144.5379475550113
 30
0.0
 10
141.5741283325875
 20
144.9103623769669
 30
0.0
 10
141.7742919567439
 20
145.2231770470275
 30
0.0
 10
142.5304904157562
 20
145.2231770470275
 30
0.0
 10
143.2215765700974
 20
145.2231770470275
 30
0.0
 10
143.6077717739939
 20
145.0147487701699
 30
0.0
 10
143.6077717739939
 20
144.5293348162982
 30
0.0
 10
143.6077717739939
 20
144.1937825160349
 30
0.0
 10
143.4358615092799
 20
143.9540038702615
 30
0.0
 10
143.0916964703035
 20
143.9229980108942
 30
0.0
 10
143.0916964703035
 20
143.9229980108942
 30
0.0
 10
143.0916964703035
 20
144.1627766566676
 30
0.0
 10
143.0916964703035
 20
144.1627766566676
 30
0.0
  0
HATCH
  5
1E2
330
1D7
100
AcDbEntity
  8
Bemaßung (ISO)
 62
   250
420
  2039067
440
 33554687
100
AcDbHatch
 10
0.0
 20
0.0
 30
0.0
210
0.0
220
0.0
230
1.0
  2
SOLID
 70
     1
 71
     1
 91
        2
 92
        1
 93
        1
 72
     4
 94
        3
 73
     0
 74
     0
 95
       17
 96
       13
 40
0.0
 40
0.0
 40
0.0
 40
0.0
 40
1.0
 40
1.0
 40
1.0
 40
2.0
 40
2.0
 40
2.0
 40
3.0
 40
3.0
 40
3.0
 40
4.0
 40
4.0
 40
4.0
 40
4.0
 10
142.2428249427379
 20
144.9386121599459
 10
141.9971896346396
 20
144.9386121599459
 10
141.7856607718452
 20
144.7946071686624
 10
141.7856607718452
 20
144.52657873991
 10
141.7856607718452
 20
144.2420138528284
 10
142.0140706025173
 20
144.1345268736886
 10
142.2597059106156
 20
144.1345268736886
 10
142.4767469261863
 20
144.1345268736886
 10
142.6827636362043
 20
144.2981689092379
 10
142.6827636362043
 20
144.5293348162982
 10
142.6827636362043
 20
144.7804822771729
 10
142.4795030025745
 20
144.9386121599459
 10
142.2428249427379
 20
144.9386121599459
 97
        0
 97
        1
330
1E0
 92
        1
 93
        1
 72
     4
 94
        3
 73
     0
 74
     0
 95
       35
 96
       31
 40
0.0
 40
0.0
 40
0.0
 40
0.0
 40
1.0
 40
1.0
 40
1.0
 40
2.0
 40
2.0
 40
2.0
 40
3.0
 40
3.0
 40
3.0
 40
4.0
 40
4.0
 40
4.0
 40
5.0
 40
5.0
 40
5.0
 40
6.0
 40
6.0
 40
6.0
 40
7.0
 40
7.0
 40
7.0
 40
8.0
 40
8.0
 40
8.0
 40
9.0
 40
9.0
 40
9.0
 40
10.0
 40
10.0
 40
10.0
 40
10.0
 10
143.0916964703035
 20
144.1627766566676
 10
143.2863443652201
 20
144.1827582104821
 10
143.3962429111995
 20
144.3377875073183
 10
143.3962429111995
 20
144.5293348162982
 10
143.3962429111995
 20
144.8228569516415
 10
143.1423393739366
 20
144.9668619429249
 10
142.623507993858
 20
144.9806423248659
 10
142.623507993858
 20
144.9806423248659
 10
142.6176513315331
 20
144.9751301720895
 10
142.6176513315331
 20
144.9751301720895
 10
142.7871500294074
 20
144.884868670376
 10
142.8942924989986
 20
144.7071017433371
 10
142.8942924989986
 20
144.512798357969
 10
142.8942924989986
 20
144.1035210143213
 10
142.6207519174698
 20
143.8809678459742
 10
142.2255994653116
 20
143.8809678459742
 10
141.8421603378033
 20
143.8809678459742
 10
141.5741283325875
 20
144.1517523511148
 10
141.5741283325875
 20
144.5379475550113
 10
141.5741283325875
 20
144.9103623769669
 10
141.7742919567439
 20
145.2231770470275
 10
142.5304904157562
 20
145.2231770470275
 10
143.2215765700974
 20
145.2231770470275
 10
143.6077717739939
 20
145.0147487701699
 10
143.6077717739939
 20
144.5293348162982
 10
143.6077717739939
 20
144.1937825160349
 10
143.4358615092799
 20
143.9540038702615
 10
143.0916964703035
 20
143.9229980108942
 10
143.0916964703035
 20
143.9229980108942
 10
143.0916964703035
 20
144.1627766566676
 10
143.0916964703035
 20
144.1627766566676
 97
        0
 97
        1
330
1E1
 75
     2
 76
     1
 98
        1
 10
0.0
 20
0.0
450
        0
451
        0
460
0.0
461
0.0
452
        0
462
0.0
453
        0
470

  0
SPLINE
  5
1E3
330
1D7
100
AcDbEntity
  8
Bemaßung (ISO)
100
AcDbSpline
210
0.0
220
0.0
230
1.0
 70
     9
 71
     3
 72
    17
 73
    13
 74
     0
 42
0.0000000001
 43
0.0000000001
 40
0.0
 40
0.0
 40
0.0
 40
0.0
 40
1.0
 40
1.0
 40
1.0
 40
2.0
 40
2.0
 40
2.0
 40
3.0
 40
3.0
 40
3.0
 40
4.0
 40
4.0
 40
4.0
 40
4.0
 10
142.2428249427379
 20
146.5075086439286
 30
0.0
 10
141.9971896346396
 20
146.5075086439286
 30
0.0
 10
141.7856607718452
 20
146.3638481621937
 30
0.0
 10
141.7856607718452
 20
146.0961642429898
 30
0.0
 10
141.7856607718452
 20
145.8109103368111
 30
0.0
 10
142.0140706025173
 20
145.7037678672199
 30
0.0
 10
142.2597059106156
 20
145.7037678672199
 30
0.0
 10
142.4767469261863
 20
145.7037678672199
 30
0.0
 10
142.6827636362043
 20
145.8674099027692
 30
0.0
 10
142.6827636362043
 20
146.0989203193781
 30
0.0
 10
142.6827636362043
 20
146.3497232707042
 30
0.0
 10
142.4795030025745
 20
146.5075086439286
 30
0.0
 10
142.2428249427379
 20
146.5075086439286
 30
0.0
  0
SPLINE
  5
1E4
330
1D7
100
AcDbEntity
  8
Bemaßung (ISO)
100
AcDbSpline
210
0.0
220
0.0
230
1.0
 70
     9
 71
     3
 72
    35
 73
    31
 74
     0
 42
0.0000000001
 43
0.0000000001
 40
0.0
 40
0.0
 40
0.0
 40
0.0
 40
1.0
 40
1.0
 40
1.0
 40
2.0
 40
2.0
 40
2.0
 40
3.0
 40
3.0
 40
3.0
 40
4.0
 40
4.0
 40
4.0
 40
5.0
 40
5.0
 40
5.0
 40
6.0
 40
6.0
 40
6.0
 40
7.0
 40
7.0
 40
7.0
 40
8.0
 40
8.0
 40
8.0
 40
9.0
 40
9.0
 40
9.0
 40
10.0
 40
10.0
 40
10.0
 40
10.0
 10
143.0916964703035
 20
145.7320176501989
 30
0.0
 10
143.2863443652201
 20
145.7516546944648
 30
0.0
 10
143.3962429111995
 20
145.9070285008496
 30
0.0
 10
143.3962429111995
 20
146.0989203193781
 30
0.0
 10
143.3962429111995
 20
146.3920979451728
 30
0.0
 10
143.1423393739366
 20
146.5357584269077
 30
0.0
 10
142.623507993858
 20
146.5502278279458
 30
0.0
 10
142.623507993858
 20
146.5502278279458
 30
0.0
 10
142.6176513315331
 20
146.5443711656208
 30
0.0
 10
142.6176513315331
 20
146.5443711656208
 30
0.0
 10
142.7871500294074
 20
146.4541096639073
 30
0.0
 10
142.8942924989986
 20
146.2766872464169
 30
0.0
 10
142.8942924989986
 20
146.0816948419518
 30
0.0
 10
142.8942924989986
 20
145.6727620078526
 30
0.0
 10
142.6207519174698
 20
145.449864329957
 30
0.0
 10
142.2255994653116
 20
145.449864329957
 30
0.0
 10
141.8421603378033
 20
145.449864329957
 30
0.0
 10
141.5741283325875
 20
145.7206488350976
 30
0.0
 10
141.5741283325875
 20
146.1071885485426
 30
0.0
 10
141.5741283325875
 20
146.4796033704981
 30
0.0
 10
141.7742919567439
 20
146.7927625501074
 30
0.0
 10
142.5304904157562
 20
146.7927625501074
 30
0.0
 10
143.2215765700974
 20
146.7927625501074
 30
0.0
 10
143.6077717739939
 20
146.5839897637012
 30
0.0
 10
143.6077717739939
 20
146.0989203193781
 30
0.0
 10
143.6077717739939
 20
145.7630235095662
 30
0.0
 10
143.4358615092799
 20
145.5232448637928
 30
0.0
 10
143.0916964703035
 20
145.4922390044255
 30
0.0
 10
143.0916964703035
 20
145.4922390044255
 30
0.0
 10
143.0916964703035
 20
145.7320176501989
 30
0.0
 10
143.0916964703035
 20
145.7320176501989
 30
0.0
  0
HATCH
  5
1E5
330
1D7
100
AcDbEntity
  8
Bemaßung (ISO)
 62
   250
420
  2039067
440
 33554687
100
AcDbHatch
 10
0.0
 20
0.0
 30
0.0
210
0.0
220
0.0
230
1.0
  2
SOLID
 70
     1
 71
     1
 91
        2
 92
        1
 93
        1
 72
     4
 94
        3
 73
     0
 74
     0
 95
       17
 96
       13
 40
0.0
 40
0.0
 40
0.0
 40
0.0
 40
1.0
 40
1.0
 40
1.0
 40
2.0
 40
2.0
 40
2.0
 40
3.0
 40
3.0
 40
3.0
 40
4.0
 40
4.0
 40
4.0
 40
4.0
 10
142.2428249427379
 20
146.5075086439286
 10
141.9971896346396
 20
146.5075086439286
 10
141.7856607718452
 20
146.3638481621937
 10
141.7856607718452
 20
146.0961642429898
 10
141.7856607718452
 20
145.8109103368111
 10
142.0140706025173
 20
145.7037678672199
 10
142.2597059106156
 20
145.7037678672199
 10
142.4767469261863
 20
145.7037678672199
 10
142.6827636362043
 20
145.8674099027692
 10
142.6827636362043
 20
146.0989203193781
 10
142.6827636362043
 20
146.3497232707042
 10
142.4795030025745
 20
146.5075086439286
 10
142.2428249427379
 20
146.5075086439286
 97
        0
 97
        1
330
1E3
 92
        1
 93
        1
 72
     4
 94
        3
 73
     0
 74
     0
 95
       35
 96
       31
 40
0.0
 40
0.0
 40
0.0
 40
0.0
 40
1.0
 40
1.0
 40
1.0
 40
2.0
 40
2.0
 40
2.0
 40
3.0
 40
3.0
 40
3.0
 40
4.0
 40
4.0
 40
4.0
 40
5.0
 40
5.0
 40
5.0
 40
6.0
 40
6.0
 40
6.0
 40
7.0
 40
7.0
 40
7.0
 40
8.0
 40
8.0
 40
8.0
 40
9.0
 40
9.0
 40
9.0
 40
10.0
 40
10.0
 40
10.0
 40
10.0
 10
143.0916964703035
 20
145.7320176501989
 10
143.2863443652201
 20
145.7516546944648
 10
143.3962429111995
 20
145.9070285008496
 10
143.3962429111995
 20
146.0989203193781
 10
143.3962429111995
 20
146.3920979451728
 10
143.1423393739366
 20
146.5357584269077
 10
142.623507993858
 20
146.5502278279458
 10
142.623507993858
 20
146.5502278279458
 10
142.6176513315331
 20
146.5443711656208
 10
142.6176513315331
 20
146.5443711656208
 10
142.7871500294074
 20
146.4541096639073
 10
142.8942924989986
 20
146.2766872464169
 10
142.8942924989986
 20
146.0816948419518
 10
142.8942924989986
 20
145.6727620078526
 10
142.6207519174698
 20
145.449864329957
 10
142.2255994653116
 20
145.449864329957
 10
141.8421603378033
 20
145.449864329957
 10
141.5741283325875
 20
145.7206488350976
 10
141.5741283325875
 20
146.1071885485426
 10
141.5741283325875
 20
146.4796033704981
 10
141.7742919567439
 20
146.7927625501074
 10
142.5304904157562
 20
146.7927625501074
 10
143.2215765700974
 20
146.7927625501074
 10
143.6077717739939
 20
146.5839897637012
 10
143.6077717739939
 20
146.0989203193781
 10
143.6077717739939
 20
145.7630235095662
 10
143.4358615092799
 20
145.5232448637928
 10
143.0916964703035
 20
145.4922390044255
 10
143.0916964703035
 20
145.4922390044255
 10
143.0916964703035
 20
145.7320176501989
 10
143.0916964703035
 20
145.7320176501989
 97
        0
 97
        1
330
1E4
 75
     2
 76
     1
 98
        1
 10
0.0
 20
0.0
450
        0
451
        0
460
0.0
461
0.0
452
        0
462
0.0
453
        0
470

  0
ENDBLK
  5
1DA
330
1D7
100
AcDbEntity
  8
0
100
AcDbBlockEnd
  0
BLOCK
  5
1EA
330
1E8
100
AcDbEntity
  8
0
100
AcDbBlockBegin
  2
Block_14
 70
     0
 10
0.0
 20
0.0
 30
0.0
  3
Block_14
  1

  0
INSERT
  5
1ED
330
1E8
100
AcDbEntity
  8
Bemaßung (ISO)
100
AcDbBlockReference
  2
Block_15
 10
0.0
 20
0.0
 30
0.0
  0
ENDBLK
  5
1EB
330
1E8
100
AcDbEntity
  8
0
100
AcDbBlockEnd
  0
BLOCK
  5
1EE
330
1EC
100
AcDbEntity
  8
0
100
AcDbBlockBegin
  2
Block_15
 70
     0
 10
0.0
 20
0.0
 30
0.0
  3
Block_15
  1

  0
LINE
  5
1F0
330
1EC
100
AcDbEntity
  8
Bemaßung (ISO)
 62
    18
420
        0
370
     5
100
AcDbLine
 10
92.40856058141718
 20
114.7570241853135
 30
0.0
 11
101.9153446366576
 21
114.7570241853135
 31
0.0
  0
INSERT
  5
1F2
330
1EC
100
AcDbEntity
  8
Bemaßung (ISO)
100
AcDbBlockReference
  2
Block_16
 10
0.0
 20
0.0
 30
0.0
  0
INSERT
  5
1F8
330
1EC
100
AcDbEntity
  8
Bemaßung (ISO)
100
AcDbBlockReference
  2
Block_17
 10
0.0
 20
0.0
 30
0.0
  0
ENDBLK
  5
1EF
330
1EC
100
AcDbEntity
  8
0
100
AcDbBlockEnd
  0
BLOCK
  5
1F3
330
1F1
100
AcDbEntity
  8
0
100
AcDbBlockBegin
  2
Block_16
 70
     0
 10
0.0
 20
0.0
 30
0.0
  3
Block_16
  1

  0
LWPOLYLINE
  5
1F5
330
1F1
100
AcDbEntity
  8
Bemaßung (ISO)
100
AcDbPolyline
 90
        3
 70
     1
 43
0.0
 10
93.0410155169687
 20
114.5357198640798
 10
91.35984121793727
 20
114.7563351662165
 10
93.0410155169687
 20
114.9783392724707
  0
HATCH
  5
1F6
330
1F1
100
AcDbEntity
  8
Bemaßung (ISO)
 62
    18
420
        0
440
 33554687
100
AcDbHatch
 10
0.0
 20
0.0
 30
0.0
210
0.0
220
0.0
230
1.0
  2
SOLID
 70
     1
 71
     1
 91
        1
 92
        1
 93
        3
 72
     1
 10
93.0410155169687
 20
114.5357198640798
 11
91.35984121793727
 21
114.7563351662165
 72
     1
 10
91.35984121793727
 20
114.7563351662165
 11
93.0410155169687
 21
114.9783392724707
 72
     1
 10
93.0410155169687
 20
114.9783392724707
 11
93.0410155169687
 21
114.5357198640798
 97
        1
330
1F5
 75
     2
 76
     1
 98
        1
 10
0.0
 20
0.0
450
        0
451
        0
460
0.0
461
0.0
452
        0
462
0.0
453
        0
470

  0
ENDBLK
  5
1F4
330
1F1
100
AcDbEntity
  8
0
100
AcDbBlockEnd
  0
BLOCK
  5
1F9
330
1F7
100
AcDbEntity
  8
0
100
AcDbBlockBegin
  2
Block_17
 70
     0
 10
0.0
 20
0.0
 30
0.0
  3
Block_17
  1

  0
LWPOLYLINE
  5
1FB
330
1F7
100
AcDbEntity
  8
Bemaßung (ISO)
100
AcDbPolyline
 90
        3
 70
     1
 43
0.0
 10
101.2828897011061
 20
114.5357198640798
 10
102.9640747660613
 20
114.7563351662165
 10
101.2828897011061
 20
114.9783392724707
  0
HATCH
  5
1FC
330
1F7
100
AcDbEntity
  8
Bemaßung (ISO)
 62
    18
420
        0
440
 33554687
100
AcDbHatch
 10
0.0
 20
0.0
 30
0.0
210
0.0
220
0.0
230
1.0
  2
SOLID
 70
     1
 71
     1
 91
        1
 92
        1
 93
        3
 72
     1
 10
101.2828897011061
 20
114.5357198640798
 11
102.9640747660613
 21
114.7563351662165
 72
     1
 10
102.9640747660613
 20
114.7563351662165
 11
101.2828897011061
 21
114.9783392724707
 72
     1
 10
101.2828897011061
 20
114.9783392724707
 11
101.2828897011061
 21
114.5357198640798
 97
        1
330
1FB
 75
     2
 76
     1
 98
        1
 10
0.0
 20
0.0
450
        0
451
        0
460
0.0
461
0.0
452
        0
462
0.0
453
        0
470

  0
ENDBLK
  5
1FA
330
1F7
100
AcDbEntity
  8
0
100
AcDbBlockEnd
  0
BLOCK
  5
1FF
330
1FD
100
AcDbEntity
  8
0
100
AcDbBlockBegin
  2
Block_18
 70
     0
 10
0.0
 20
0.0
 30
0.0
  3
Block_18
  1

  0
INSERT
  5
202
330
1FD
100
AcDbEntity
  8
Bemaßung (ISO)
100
AcDbBlockReference
  2
Block_19
 10
0.0
 20
0.0
 30
0.0
  0
ENDBLK
  5
200
330
1FD
100
AcDbEntity
  8
0
100
AcDbBlockEnd
  0
BLOCK
  5
203
330
201
100
AcDbEntity
  8
0
100
AcDbBlockBegin
  2
Block_19
 70
     0
 10
0.0
 20
0.0
 30
0.0
  3
Block_19
  1

  0
LINE
  5
205
330
201
100
AcDbEntity
  8
Bemaßung (ISO)
 62
    18
420
        0
370
     5
100
AcDbLine
 10
125.5089411103871
 20
131.3419507016209
 30
0.0
 11
125.5089411103871
 21
127.2528915087141
 31
0.0
  0
INSERT
  5
207
330
201
100
AcDbEntity
  8
Bemaßung (ISO)
100
AcDbBlockReference
  2
Block_20
 10
0.0
 20
0.0
 30
0.0
  0
INSERT
  5
20D
330
201
100
AcDbEntity
  8
Bemaßung (ISO)
100
AcDbBlockReference
  2
Block_21
 10
0.0
 20
0.0
 30
0.0
  0
ENDBLK
  5
204
330
201
100
AcDbEntity
  8
0
100
AcDbBlockEnd
  0
BLOCK
  5
208
330
206
100
AcDbEntity
  8
0
100
AcDbBlockBegin
  2
Block_20
 70
     0
 10
0.0
 20
0.0
 30
0.0
  3
Block_20
  1

  0
LWPOLYLINE
  5
20A
330
206
100
AcDbEntity
  8
Bemaßung (ISO)
100
AcDbPolyline
 90
        3
 70
     1
 43
0.0
 10
125.2876367891533
 20
130.7094957660694
 10
125.50825209129
 20
132.3906700651011
 10
125.7302561975442
 20
130.7094957660694
  0
HATCH
  5
20B
330
206
100
AcDbEntity
  8
Bemaßung (ISO)
 62
    18
420
        0
440
 33554687
100
AcDbHatch
 10
0.0
 20
0.0
 30
0.0
210
0.0
220
0.0
230
1.0
  2
SOLID
 70
     1
 71
     1
 91
        1
 92
        1
 93
        3
 72
     1
 10
125.2876367891533
 20
130.7094957660694
 11
125.50825209129
 21
132.3906700651011
 72
     1
 10
125.50825209129
 20
132.3906700651011
 11
125.7302561975442
 21
130.7094957660694
 72
     1
 10
125.7302561975442
 20
130.7094957660694
 11
125.2876367891533
 21
130.7094957660694
 97
        1
330
20A
 75
     2
 76
     1
 98
        1
 10
0.0
 20
0.0
450
        0
451
        0
460
0.0
461
0.0
452
        0
462
0.0
453
        0
470

  0
ENDBLK
  5
209
330
206
100
AcDbEntity
  8
0
100
AcDbBlockEnd
  0
BLOCK
  5
20E
330
20C
100
AcDbEntity
  8
0
100
AcDbBlockBegin
  2
Block_21
 70
     0
 10
0.0
 20
0.0
 30
0.0
  3
Block_21
  1

  0
LWPOLYLINE
  5
210
330
20C
100
AcDbEntity
  8
Bemaßung (ISO)
100
AcDbPolyline
 90
        3
 70
     1
 43
0.0
 10
125.2876367891533
 20
127.8853464442656
 10
125.50825209129
 20
126.2041613793105
 10
125.7302561975442
 20
127.8853464442656
  0
HATCH
  5
211
330
20C
100
AcDbEntity
  8
Bemaßung (ISO)
 62
    18
420
        0
440
 33554687
100
AcDbHatch
 10
0.0
 20
0.0
 30
0.0
210
0.0
220
0.0
230
1.0
  2
SOLID
 70
     1
 71
     1
 91
        1
 92
        1
 93
        3
 72
     1
 10
125.2876367891533
 20
127.8853464442656
 11
125.50825209129
 21
126.2041613793105
 72
     1
 10
125.50825209129
 20
126.2041613793105
 11
125.7302561975442
 21
127.8853464442656
 72
     1
 10
125.7302561975442
 20
127.8853464442656
 11
125.2876367891533
 21
127.8853464442656
 97
        1
330
210
 75
     2
 76
     1
 98
        1
 10
0.0
 20
0.0
450
        0
451
        0
460
0.0
461
0.0
452
        0
462
0.0
453
        0
470

  0
ENDBLK
  5
20F
330
20C
100
AcDbEntity
  8
0
100
AcDbBlockEnd
  0
BLOCK
  5
214
330
212
100
AcDbEntity
  8
0
100
AcDbBlockBegin
  2
Block_22
 70
     0
 10
0.0
 20
0.0
 30
0.0
  3
Block_22
  1

  0
INSERT
  5
217
330
212
100
AcDbEntity
  8
Bemaßung (ISO)
100
AcDbBlockReference
  2
Block_23
 10
0.0
 20
0.0
 30
0.0
  0
ENDBLK
  5
215
330
212
100
AcDbEntity
  8
0
100
AcDbBlockEnd
  0
BLOCK
  5
218
330
216
100
AcDbEntity
  8
0
100
AcDbBlockBegin
  2
Block_23
 70
     0
 10
0.0
 20
0.0
 30
0.0
  3
Block_23
  1

  0
LINE
  5
21A
330
216
100
AcDbEntity
  8
Bemaßung (ISO)
 62
    18
420
        0
370
     5
100
AcDbLine
 10
140.7291038161361
 20
126.1675357079329
 30
0.0
 11
140.7291038161361
 21
160.0676197923402
 31
0.0
  0
INSERT
  5
21C
330
216
100
AcDbEntity
  8
Bemaßung (ISO)
100
AcDbBlockReference
  2
Block_24
 10
0.0
 20
0.0
 30
0.0
  0
INSERT
  5
222
330
216
100
AcDbEntity
  8
Bemaßung (ISO)
100
AcDbBlockReference
  2
Block_25
 10
0.0
 20
0.0
 30
0.0
  0
ENDBLK
  5
219
330
216
100
AcDbEntity
  8
0
100
AcDbBlockEnd
  0
BLOCK
  5
21D
330
21B
100
AcDbEntity
  8
0
100
AcDbBlockBegin
  2
Block_24
 70
     0
 10
0.0
 20
0.0
 30
0.0
  3
Block_24
  1

  0
LWPOLYLINE
  5
21F
330
21B
100
AcDbEntity
  8
Bemaßung (ISO)
100
AcDbPolyline
 90
        3
 70
     1
 43
0.0
 10
140.9504081373698
 20
126.7999906434844
 10
140.7297928352331
 20
125.1188055785293
 10
140.5077887289789
 20
126.7999906434844
  0
HATCH
  5
220
330
21B
100
AcDbEntity
  8
Bemaßung (ISO)
 62
    18
420
        0
440
 33554687
100
AcDbHatch
 10
0.0
 20
0.0
 30
0.0
210
0.0
220
0.0
230
1.0
  2
SOLID
 70
     1
 71
     1
 91
        1
 92
        1
 93
        3
 72
     1
 10
140.9504081373698
 20
126.7999906434844
 11
140.7297928352331
 21
125.1188055785293
 72
     1
 10
140.7297928352331
 20
125.1188055785293
 11
140.5077887289789
 21
126.7999906434844
 72
     1
 10
140.5077887289789
 20
126.7999906434844
 11
140.9504081373698
 21
126.7999906434844
 97
        1
330
21F
 75
     2
 76
     1
 98
        1
 10
0.0
 20
0.0
450
        0
451
        0
460
0.0
461
0.0
452
        0
462
0.0
453
        0
470

  0
ENDBLK
  5
21E
330
21B
100
AcDbEntity
  8
0
100
AcDbBlockEnd
  0
BLOCK
  5
223
330
221
100
AcDbEntity
  8
0
100
AcDbBlockBegin
  2
Block_25
 70
     0
 10
0.0
 20
0.0
 30
0.0
  3
Block_25
  1

  0
LWPOLYLINE
  5
225
330
221
100
AcDbEntity
  8
Bemaßung (ISO)
100
AcDbPolyline
 90
        3
 70
     1
 43
0.0
 10
140.9504081373698
 20
159.4351648567883
 10
140.7297928352331
 20
161.1163499217435
 10
140.5077887289789
 20
159.4351648567883
  0
HATCH
  5
226
330
221
100
AcDbEntity
  8
Bemaßung (ISO)
 62
    18
420
        0
440
 33554687
100
AcDbHatch
 10
0.0
 20
0.0
 30
0.0
210
0.0
220
0.0
230
1.0
  2
SOLID
 70
     1
 71
     1
 91
        1
 92
        1
 93
        3
 72
     1
 10
140.9504081373698
 20
159.4351648567883
 11
140.7297928352331
 21
161.1163499217435
 72
     1
 10
140.7297928352331
 20
161.1163499217435
 11
140.5077887289789
 21
159.4351648567883
 72
     1
 10
140.5077887289789
 20
159.4351648567883
 11
140.9504081373698
 21
159.4351648567883
 97
        1
330
225
 75
     2
 76
     1
 98
        1
 10
0.0
 20
0.0
450
        0
451
        0
460
0.0
461
0.0
452
        0
462
0.0
453
        0
470

  0
ENDBLK
  5
224
330
221
100
AcDbEntity
  8
0
100
AcDbBlockEnd
  0
BLOCK
  5
22B
330
229
100
AcDbEntity
  8
0
100
AcDbBlockBegin
  2
Block_26
 70
     0
 10
0.0
 20
0.0
 30
0.0
  3
Block_26
  1

  0
INSERT
  5
22E
330
229
100
AcDbEntity
  8
Bemaßung (ISO)
100
AcDbBlockReference
  2
Block_27
 10
0.0
 20
0.0
 30
0.0
  0
ENDBLK
  5
22C
330
229
100
AcDbEntity
  8
0
100
AcDbBlockEnd
  0
BLOCK
  5
22F
330
22D
100
AcDbEntity
  8
0
100
AcDbBlockBegin
  2
Block_27
 70
     0
 10
0.0
 20
0.0
 30
0.0
  3
Block_27
  1

  0
SPLINE
  5
231
330
22D
100
AcDbEntity
  8
Bemaßung (ISO)
100
AcDbSpline
210
0.0
220
0.0
230
1.0
 70
     9
 71
     3
 72
    17
 73
    13
 74
     0
 42
0.0000000001
 43
0.0000000001
 40
0.0
 40
0.0
 40
0.0
 40
0.0
 40
1.0
 40
1.0
 40
1.0
 40
2.0
 40
2.0
 40
2.0
 40
3.0
 40
3.0
 40
3.0
 40
4.0
 40
4.0
 40
4.0
 40
4.0
 10
142.754766131846
 20
177.290125823733
 30
0.0
 10
142.5094753332962
 20
177.290125823733
 30
0.0
 10
142.2979464705019
 20
177.1462930872238
 30
0.0
 10
142.2979464705019
 20
176.8784369132457
 30
0.0
 10
142.2979464705019
 20
176.5935275166155
 30
0.0
 10
142.5263563011739
 20
176.4863850470242
 30
0.0
 10
142.7719916092723
 20
176.4863850470242
 30
0.0
 10
142.989032624843
 20
176.4863850470242
 30
0.0
 10
143.1950493348609
 20
176.6498548277993
 30
0.0
 10
143.1950493348609
 20
176.8811929896339
 30
0.0
 10
143.1950493348609
 20
177.1321681957343
 30
0.0
 10
142.9917887012312
 20
177.290125823733
 30
0.0
 10
142.754766131846
 20
177.290125823733
 30
0.0
  0
SPLINE
  5
232
330
22D
100
AcDbEntity
  8
Bemaßung (ISO)
100
AcDbSpline
210
0.0
220
0.0
230
1.0
 70
     9
 71
     3
 72
    35
 73
    31
 74
     0
 42
0.0000000001
 43
0.0000000001
 40
0.0
 40
0.0
 40
0.0
 40
0.0
 40
1.0
 40
1.0
 40
1.0
 40
2.0
 40
2.0
 40
2.0
 40
3.0
 40
3.0
 40
3.0
 40
4.0
 40
4.0
 40
4.0
 40
5.0
 40
5.0
 40
5.0
 40
6.0
 40
6.0
 40
6.0
 40
7.0
 40
7.0
 40
7.0
 40
8.0
 40
8.0
 40
8.0
 40
9.0
 40
9.0
 40
9.0
 40
10.0
 40
10.0
 40
10.0
 40
10.0
 10
143.6039821689601
 20
176.514462575229
 30
0.0
 10
143.7986300638767
 20
176.5342718742692
 30
0.0
 10
143.9085286098562
 20
176.6893011711054
 30
0.0
 10
143.9085286098562
 20
176.8811929896339
 30
0.0
 10
143.9085286098562
 20
177.1745428702029
 30
0.0
 10
143.6546250725933
 20
177.318375606712
 30
0.0
 10
143.1357936925147
 20
177.3325004982016
 30
0.0
 10
143.1357936925147
 20
177.3325004982016
 30
0.0
 10
143.1299370301897
 20
177.3268160906509
 30
0.0
 10
143.1299370301897
 20
177.3268160906509
 30
0.0
 10
143.299435728064
 20
177.2365545889374
 30
0.0
 10
143.4065781976553
 20
177.0589599166727
 30
0.0
 10
143.4065781976553
 20
176.8643120217561
 30
0.0
 10
143.4065781976553
 20
176.4552069328827
 30
0.0
 10
143.1330376161264
 20
176.2324815097613
 30
0.0
 10
142.7378851639683
 20
176.2324815097613
 30
0.0
 10
142.35444603646
 20
176.2324815097613
 30
0.0
 10
142.0864176077075
 20
176.503266014902
 30
0.0
 10
142.0864176077075
 20
176.8896334735727
 30
0.0
 10
142.0864176077075
 20
177.2620482955282
 30
0.0
 10
142.2865776554005
 20
177.5750352203632
 30
0.0
 10
143.0427761144129
 20
177.5750352203632
 30
0.0
 10
143.733862268754
 20
177.5750352203632
 30
0.0
 10
144.1200574726505
 20
177.366262433957
 30
0.0
 10
144.1200574726505
 20
176.8811929896339
 30
0.0
 10
144.1200574726505
 20
176.5454684345963
 30
0.0
 10
143.9481472079366
 20
176.3058620435971
 30
0.0
 10
143.6039821689601
 20
176.2746839294556
 30
0.0
 10
143.6039821689601
 20
176.2746839294556
 30
0.0
 10
143.6039821689601
 20
176.514462575229
 30
0.0
 10
143.6039821689601
 20
176.514462575229
 30
0.0
  0
HATCH
  5
233
330
22D
100
AcDbEntity
  8
Bemaßung (ISO)
 62
   250
420
  2039067
440
 33554687
100
AcDbHatch
 10
0.0
 20
0.0
 30
0.0
210
0.0
220
0.0
230
1.0
  2
SOLID
 70
     1
 71
     1
 91
        2
 92
        1
 93
        1
 72
     4
 94
        3
 73
     0
 74
     0
 95
       17
 96
       13
 40
0.0
 40
0.0
 40
0.0
 40
0.0
 40
1.0
 40
1.0
 40
1.0
 40
2.0
 40
2.0
 40
2.0
 40
3.0
 40
3.0
 40
3.0
 40
4.0
 40
4.0
 40
4.0
 40
4.0
 10
142.754766131846
 20
177.290125823733
 10
142.5094753332962
 20
177.290125823733
 10
142.2979464705019
 20
177.1462930872238
 10
142.2979464705019
 20
176.8784369132457
 10
142.2979464705019
 20
176.5935275166155
 10
142.5263563011739
 20
176.4863850470242
 10
142.7719916092723
 20
176.4863850470242
 10
142.989032624843
 20
176.4863850470242
 10
143.1950493348609
 20
176.6498548277993
 10
143.1950493348609
 20
176.8811929896339
 10
143.1950493348609
 20
177.1321681957343
 10
142.9917887012312
 20
177.290125823733
 10
142.754766131846
 20
177.290125823733
 97
        0
 97
        1
330
231
 92
        1
 93
        1
 72
     4
 94
        3
 73
     0
 74
     0
 95
       35
 96
       31
 40
0.0
 40
0.0
 40
0.0
 40
0.0
 40
1.0
 40
1.0
 40
1.0
 40
2.0
 40
2.0
 40
2.0
 40
3.0
 40
3.0
 40
3.0
 40
4.0
 40
4.0
 40
4.0
 40
5.0
 40
5.0
 40
5.0
 40
6.0
 40
6.0
 40
6.0
 40
7.0
 40
7.0
 40
7.0
 40
8.0
 40
8.0
 40
8.0
 40
9.0
 40
9.0
 40
9.0
 40
10.0
 40
10.0
 40
10.0
 40
10.0
 10
143.6039821689601
 20
176.514462575229
 10
143.7986300638767
 20
176.5342718742692
 10
143.9085286098562
 20
176.6893011711054
 10
143.9085286098562
 20
176.8811929896339
 10
143.9085286098562
 20
177.1745428702029
 10
143.6546250725933
 20
177.318375606712
 10
143.1357936925147
 20
177.3325004982016
 10
143.1357936925147
 20
177.3325004982016
 10
143.1299370301897
 20
177.3268160906509
 10
143.1299370301897
 20
177.3268160906509
 10
143.299435728064
 20
177.2365545889374
 10
143.4065781976553
 20
177.0589599166727
 10
143.4065781976553
 20
176.8643120217561
 10
143.4065781976553
 20
176.4552069328827
 10
143.1330376161264
 20
176.2324815097613
 10
142.7378851639683
 20
176.2324815097613
 10
142.35444603646
 20
176.2324815097613
 10
142.0864176077075
 20
176.503266014902
 10
142.0864176077075
 20
176.8896334735727
 10
142.0864176077075
 20
177.2620482955282
 10
142.2865776554005
 20
177.5750352203632
 10
143.0427761144129
 20
177.5750352203632
 10
143.733862268754
 20
177.5750352203632
 10
144.1200574726505
 20
177.366262433957
 10
144.1200574726505
 20
176.8811929896339
 10
144.1200574726505
 20
176.5454684345963
 10
143.9481472079366
 20
176.3058620435971
 10
143.6039821689601
 20
176.2746839294556
 10
143.6039821689601
 20
176.2746839294556
 10
143.6039821689601
 20
176.514462575229
 10
143.6039821689601
 20
176.514462575229
 97
        0
 97
        1
330
232
 75
     2
 76
     1
 98
        1
 10
0.0
 20
0.0
450
        0
451
        0
460
0.0
461
0.0
452
        0
462
0.0
453
        0
470

  0
SPLINE
  5
234
330
22D
100
AcDbEntity
  8
Bemaßung (ISO)
100
AcDbSpline
210
0.0
220
0.0
230
1.0
 70
     9
 71
     3
 72
    53
 73
    49
 74
     0
 42
0.0000000001
 43
0.0000000001
 40
0.0
 40
0.0
 40
0.0
 40
0.0
 40
1.0
 40
1.0
 40
1.0
 40
2.0
 40
2.0
 40
2.0
 40
3.0
 40
3.0
 40
3.0
 40
4.0
 40
4.0
 40
4.0
 40
5.0
 40
5.0
 40
5.0
 40
6.0
 40
6.0
 40
6.0
 40
7.0
 40
7.0
 40
7.0
 40
8.0
 40
8.0
 40
8.0
 40
9.0
 40
9.0
 40
9.0
 40
10.0
 40
10.0
 40
10.0
 40
11.0
 40
11.0
 40
11.0
 40
12.0
 40
12.0
 40
12.0
 40
13.0
 40
13.0
 40
13.0
 40
14.0
 40
14.0
 40
14.0
 40
15.0
 40
15.0
 40
15.0
 40
16.0
 40
16.0
 40
16.0
 40
16.0
 10
143.547482603002
 20
178.0440849706799
 30
0.0
 10
143.7534993130199
 20
178.0582098621695
 30
0.0
 10
143.9085286098562
 20
178.224607974107
 30
0.0
 10
143.9085286098562
 20
178.4643866198804
 30
0.0
 10
143.9085286098562
 20
178.6927964505525
 30
0.0
 10
143.7507432366317
 20
178.8874443454691
 30
0.0
 10
143.4348279806343
 20
178.8874443454691
 30
0.0
 10
143.1723117046583
 20
178.8874443454691
 30
0.0
 10
142.9807643956784
 20
178.706921342042
 30
0.0
 10
142.9807643956784
 20
178.4361368369014
 30
0.0
 10
142.9807643956784
 20
178.2809352852909
 30
0.0
 10
143.0569010059024
 20
178.1569118478219
 30
0.0
 10
143.1695556282701
 20
178.0638942697201
 30
0.0
 10
143.1695556282701
 20
178.0638942697201
 30
0.0
 10
143.1581868131688
 20
177.8578775597022
 30
0.0
 10
143.1581868131688
 20
177.8578775597022
 30
0.0
 10
143.1581868131688
 20
177.8578775597022
 30
0.0
 10
142.120179543463
 20
178.0440849706799
 30
0.0
 10
142.120179543463
 20
178.0440849706799
 30
0.0
 10
142.120179543463
 20
178.0440849706799
 30
0.0
 10
142.120179543463
 20
179.0312770819783
 30
0.0
 10
142.120179543463
 20
179.0312770819783
 30
0.0
 10
142.120179543463
 20
179.0312770819783
 30
0.0
 10
142.3317084062573
 20
179.0312770819783
 30
0.0
 10
142.3317084062573
 20
179.0312770819783
 30
0.0
 10
142.3317084062573
 20
179.0312770819783
 30
0.0
 10
142.3317084062573
 20
178.224607974107
 30
0.0
 10
142.3317084062573
 20
178.224607974107
 30
0.0
 10
142.3317084062573
 20
178.224607974107
 30
0.0
 10
142.9073838618426
 20
178.1174655045158
 30
0.0
 10
142.9073838618426
 20
178.1174655045158
 30
0.0
 10
142.9073838618426
 20
178.1174655045158
 30
0.0
 10
142.912896014619
 20
178.1231499120664
 30
0.0
 10
142.912896014619
 20
178.1231499120664
 30
0.0
 10
142.8140217741923
 20
178.2104830826175
 30
0.0
 10
142.7688910233355
 20
178.3600002266773
 30
0.0
 10
142.7688910233355
 20
178.4953924792477
 30
0.0
 10
142.7688910233355
 20
178.8507540785512
 30
0.0
 10
142.9945447776194
 20
179.141347882732
 30
0.0
 10
143.4544650249003
 20
179.141347882732
 30
0.0
 10
143.7931179111003
 20
179.141347882732
 30
0.0
 10
144.1200574726505
 20
178.9072536445093
 30
0.0
 10
144.1200574726505
 20
178.441821244452
 30
0.0
 10
144.1200574726505
 20
178.0949001290874
 30
0.0
 10
143.9085286098562
 20
177.8127468088454
 30
0.0
 10
143.547482603002
 20
177.8043063249065
 30
0.0
 10
143.547482603002
 20
177.8043063249065
 30
0.0
 10
143.547482603002
 20
178.0440849706799
 30
0.0
 10
143.547482603002
 20
178.0440849706799
 30
0.0
  0
HATCH
  5
235
330
22D
100
AcDbEntity
  8
Bemaßung (ISO)
 62
   250
420
  2039067
440
 33554687
100
AcDbHatch
 10
0.0
 20
0.0
 30
0.0
210
0.0
220
0.0
230
1.0
  2
SOLID
 70
     1
 71
     1
 91
        1
 92
        1
 93
        1
 72
     4
 94
        3
 73
     0
 74
     0
 95
       53
 96
       49
 40
0.0
 40
0.0
 40
0.0
 40
0.0
 40
1.0
 40
1.0
 40
1.0
 40
2.0
 40
2.0
 40
2.0
 40
3.0
 40
3.0
 40
3.0
 40
4.0
 40
4.0
 40
4.0
 40
5.0
 40
5.0
 40
5.0
 40
6.0
 40
6.0
 40
6.0
 40
7.0
 40
7.0
 40
7.0
 40
8.0
 40
8.0
 40
8.0
 40
9.0
 40
9.0
 40
9.0
 40
10.0
 40
10.0
 40
10.0
 40
11.0
 40
11.0
 40
11.0
 40
12.0
 40
12.0
 40
12.0
 40
13.0
 40
13.0
 40
13.0
 40
14.0
 40
14.0
 40
14.0
 40
15.0
 40
15.0
 40
15.0
 40
16.0
 40
16.0
 40
16.0
 40
16.0
 10
143.547482603002
 20
178.0440849706799
 10
143.7534993130199
 20
178.0582098621695
 10
143.9085286098562
 20
178.224607974107
 10
143.9085286098562
 20
178.4643866198804
 10
143.9085286098562
 20
178.6927964505525
 10
143.7507432366317
 20
178.8874443454691
 10
143.4348279806343
 20
178.8874443454691
 10
143.1723117046583
 20
178.8874443454691
 10
142.9807643956784
 20
178.706921342042
 10
142.9807643956784
 20
178.4361368369014
 10
142.9807643956784
 20
178.2809352852909
 10
143.0569010059024
 20
178.1569118478219
 10
143.1695556282701
 20
178.0638942697201
 10
143.1695556282701
 20
178.0638942697201
 10
143.1581868131688
 20
177.8578775597022
 10
143.1581868131688
 20
177.8578775597022
 10
143.1581868131688
 20
177.8578775597022
 10
142.120179543463
 20
178.0440849706799
 10
142.120179543463
 20
178.0440849706799
 10
142.120179543463
 20
178.0440849706799
 10
142.120179543463
 20
179.0312770819783
 10
142.120179543463
 20
179.0312770819783
 10
142.120179543463
 20
179.0312770819783
 10
142.3317084062573
 20
179.0312770819783
 10
142.3317084062573
 20
179.0312770819783
 10
142.3317084062573
 20
179.0312770819783
 10
142.3317084062573
 20
178.224607974107
 10
142.3317084062573
 20
178.224607974107
 10
142.3317084062573
 20
178.224607974107
 10
142.9073838618426
 20
178.1174655045158
 10
142.9073838618426
 20
178.1174655045158
 10
142.9073838618426
 20
178.1174655045158
 10
142.912896014619
 20
178.1231499120664
 10
142.912896014619
 20
178.1231499120664
 10
142.8140217741923
 20
178.2104830826175
 10
142.7688910233355
 20
178.3600002266773
 10
142.7688910233355
 20
178.4953924792477
 10
142.7688910233355
 20
178.8507540785512
 10
142.9945447776194
 20
179.141347882732
 10
143.4544650249003
 20
179.141347882732
 10
143.7931179111003
 20
179.141347882732
 10
144.1200574726505
 20
178.9072536445093
 10
144.1200574726505
 20
178.441821244452
 10
144.1200574726505
 20
178.0949001290874
 10
143.9085286098562
 20
177.8127468088454
 10
143.547482603002
 20
177.8043063249065
 10
143.547482603002
 20
177.8043063249065
 10
143.547482603002
 20
178.0440849706799
 10
143.547482603002
 20
178.0440849706799
 97
        0
 97
        1
330
234
 75
     2
 76
     1
 98
        1
 10
0.0
 20
0.0
450
        0
451
        0
460
0.0
461
0.0
452
        0
462
0.0
453
        0
470

  0
ENDBLK
  5
230
330
22D
100
AcDbEntity
  8
0
100
AcDbBlockEnd
  0
BLOCK
  5
238
330
236
100
AcDbEntity
  8
0
100
AcDbBlockBegin
  2
Block_28
 70
     0
 10
0.0
 20
0.0
 30
0.0
  3
Block_28
  1

  0
INSERT
  5
23B
330
236
100
AcDbEntity
  8
Bemaßung (ISO)
100
AcDbBlockReference
  2
Block_29
 10
0.0
 20
0.0
 30
0.0
  0
ENDBLK
  5
239
330
236
100
AcDbEntity
  8
0
100
AcDbBlockEnd
  0
BLOCK
  5
23C
330
23A
100
AcDbEntity
  8
0
100
AcDbBlockBegin
  2
Block_29
 70
     0
 10
0.0
 20
0.0
 30
0.0
  3
Block_29
  1

  0
LINE
  5
23E
330
23A
100
AcDbEntity
  8
Bemaßung (ISO)
 62
    18
420
        0
370
     5
100
AcDbLine
 10
141.0470000020375
 20
185.1680687335474
 30
0.0
 11
141.0470000020375
 21
170.2451747044819
 31
0.0
  0
INSERT
  5
240
330
23A
100
AcDbEntity
  8
Bemaßung (ISO)
100
AcDbBlockReference
  2
Block_30
 10
0.0
 20
0.0
 30
0.0
  0
INSERT
  5
246
330
23A
100
AcDbEntity
  8
Bemaßung (ISO)
100
AcDbBlockReference
  2
Block_31
 10
0.0
 20
0.0
 30
0.0
  0
ENDBLK
  5
23D
330
23A
100
AcDbEntity
  8
0
100
AcDbBlockEnd
  0
BLOCK
  5
241
330
23F
100
AcDbEntity
  8
0
100
AcDbBlockBegin
  2
Block_30
 70
     0
 10
0.0
 20
0.0
 30
0.0
  3
Block_30
  1

  0
LWPOLYLINE
  5
243
330
23F
100
AcDbEntity
  8
Bemaßung (ISO)
100
AcDbPolyline
 90
        3
 70
     1
 43
0.0
 10
140.8256849148804
 20
184.5356137979959
 10
141.0463109829404
 20
186.216798862951
 10
141.2683150891946
 20
184.5356137979959
  0
HATCH
  5
244
330
23F
100
AcDbEntity
  8
Bemaßung (ISO)
 62
    18
420
        0
440
 33554687
100
AcDbHatch
 10
0.0
 20
0.0
 30
0.0
210
0.0
220
0.0
230
1.0
  2
SOLID
 70
     1
 71
     1
 91
        1
 92
        1
 93
        3
 72
     1
 10
140.8256849148804
 20
184.5356137979959
 11
141.0463109829404
 21
186.216798862951
 72
     1
 10
141.0463109829404
 20
186.216798862951
 11
141.2683150891946
 21
184.5356137979959
 72
     1
 10
141.2683150891946
 20
184.5356137979959
 11
140.8256849148804
 21
184.5356137979959
 97
        1
330
243
 75
     2
 76
     1
 98
        1
 10
0.0
 20
0.0
450
        0
451
        0
460
0.0
461
0.0
452
        0
462
0.0
453
        0
470

  0
ENDBLK
  5
242
330
23F
100
AcDbEntity
  8
0
100
AcDbBlockEnd
  0
BLOCK
  5
247
330
245
100
AcDbEntity
  8
0
100
AcDbBlockBegin
  2
Block_31
 70
     0
 10
0.0
 20
0.0
 30
0.0
  3
Block_31
  1

  0
LWPOLYLINE
  5
249
330
245
100
AcDbEntity
  8
Bemaßung (ISO)
100
AcDbPolyline
 90
        3
 70
     1
 43
0.0
 10
140.8256849148804
 20
170.8776296400334
 10
141.0463109829404
 20
169.1964553410016
 10
141.2683150891946
 20
170.8776296400334
  0
HATCH
  5
24A
330
245
100
AcDbEntity
  8
Bemaßung (ISO)
 62
    18
420
        0
440
 33554687
100
AcDbHatch
 10
0.0
 20
0.0
 30
0.0
210
0.0
220
0.0
230
1.0
  2
SOLID
 70
     1
 71
     1
 91
        1
 92
        1
 93
        3
 72
     1
 10
140.8256849148804
 20
170.8776296400334
 11
141.0463109829404
 21
169.1964553410016
 72
     1
 10
141.0463109829404
 20
169.1964553410016
 11
141.2683150891946
 21
170.8776296400334
 72
     1
 10
141.2683150891946
 20
170.8776296400334
 11
140.8256849148804
 21
170.8776296400334
 97
        1
330
249
 75
     2
 76
     1
 98
        1
 10
0.0
 20
0.0
450
        0
451
        0
460
0.0
461
0.0
452
        0
462
0.0
453
        0
470

  0
ENDBLK
  5
248
330
245
100
AcDbEntity
  8
0
100
AcDbBlockEnd
  0
BLOCK
  5
24D
330
24B
100
AcDbEntity
  8
0
100
AcDbBlockBegin
  2
Block_32
 70
     0
 10
0.0
 20
0.0
 30
0.0
  3
Block_32
  1

  0
INSERT
  5
250
330
24B
100
AcDbEntity
  8
Bemaßung (ISO)
100
AcDbBlockReference
  2
Block_33
 10
0.0
 20
0.0
 30
0.0
  0
ENDBLK
  5
24E
330
24B
100
AcDbEntity
  8
0
100
AcDbBlockEnd
  0
BLOCK
  5
251
330
24F
100
AcDbEntity
  8
0
100
AcDbBlockBegin
  2
Block_33
 70
     0
 10
0.0
 20
0.0
 30
0.0
  3
Block_33
  1

  0
SPLINE
  5
253
330
24F
100
AcDbEntity
  8
Bemaßung (ISO)
100
AcDbSpline
210
0.0
220
0.0
230
1.0
 70
    11
 71
     3
 72
    26
 73
    22
 74
     0
 42
0.0000000001
 43
0.0000000001
 40
0.0
 40
0.0
 40
0.0
 40
0.0
 40
1.0
 40
1.0
 40
1.0
 40
2.0
 40
2.0
 40
2.0
 40
3.0
 40
3.0
 40
3.0
 40
4.0
 40
4.0
 40
4.0
 40
5.0
 40
5.0
 40
5.0
 40
6.0
 40
6.0
 40
6.0
 40
7.0
 40
7.0
 40
7.0
 40
7.0
 10
132.3319742507711
 20
179.5940334294938
 30
0.0
 10
132.3319742507711
 20
179.5940334294938
 30
0.0
 10
132.3319742507711
 20
179.075029794641
 30
0.0
 10
132.3319742507711
 20
179.075029794641
 30
0.0
 10
132.3319742507711
 20
179.075029794641
 30
0.0
 10
132.1400824322427
 20
179.075029794641
 30
0.0
 10
132.1400824322427
 20
179.075029794641
 30
0.0
 10
132.1400824322427
 20
179.3485703761698
 30
0.0
 10
132.0694579747951
 20
179.596789505882
 30
0.0
 10
131.764911533899
 20
179.6503607406777
 30
0.0
 10
131.764911533899
 20
179.6503607406777
 30
0.0
 10
131.764911533899
 20
179.833639820493
 30
0.0
 10
131.764911533899
 20
179.833639820493
 30
0.0
 10
131.764911533899
 20
179.833639820493
 30
0.0
 10
133.7647894630866
 20
179.833639820493
 30
0.0
 10
133.7647894630866
 20
179.833639820493
 30
0.0
 10
133.7647894630866
 20
179.833639820493
 30
0.0
 10
133.7647894630866
 20
179.5940334294938
 30
0.0
 10
133.7647894630866
 20
179.5940334294938
 30
0.0
 10
133.7647894630866
 20
179.5940334294938
 30
0.0
 10
132.3319742507711
 20
179.5940334294938
 30
0.0
 10
132.3319742507711
 20
179.5940334294938
 30
0.0
  0
HATCH
  5
254
330
24F
100
AcDbEntity
  8
Bemaßung (ISO)
 62
   250
420
  2039067
440
 33554687
100
AcDbHatch
 10
0.0
 20
0.0
 30
0.0
210
0.0
220
0.0
230
1.0
  2
SOLID
 70
     1
 71
     1
 91
        1
 92
        1
 93
        1
 72
     4
 94
        3
 73
     0
 74
     0
 95
       26
 96
       22
 40
0.0
 40
0.0
 40
0.0
 40
0.0
 40
1.0
 40
1.0
 40
1.0
 40
2.0
 40
2.0
 40
2.0
 40
3.0
 40
3.0
 40
3.0
 40
4.0
 40
4.0
 40
4.0
 40
5.0
 40
5.0
 40
5.0
 40
6.0
 40
6.0
 40
6.0
 40
7.0
 40
7.0
 40
7.0
 40
7.0
 10
132.3319742507711
 20
179.5940334294938
 10
132.3319742507711
 20
179.5940334294938
 10
132.3319742507711
 20
179.075029794641
 10
132.3319742507711
 20
179.075029794641
 10
132.3319742507711
 20
179.075029794641
 10
132.1400824322427
 20
179.075029794641
 10
132.1400824322427
 20
179.075029794641
 10
132.1400824322427
 20
179.3485703761698
 10
132.0694579747951
 20
179.596789505882
 10
131.764911533899
 20
179.6503607406777
 10
131.764911533899
 20
179.6503607406777
 10
131.764911533899
 20
179.833639820493
 10
131.764911533899
 20
179.833639820493
 10
131.764911533899
 20
179.833639820493
 10
133.7647894630866
 20
179.833639820493
 10
133.7647894630866
 20
179.833639820493
 10
133.7647894630866
 20
179.833639820493
 10
133.7647894630866
 20
179.5940334294938
 10
133.7647894630866
 20
179.5940334294938
 10
133.7647894630866
 20
179.5940334294938
 10
132.3319742507711
 20
179.5940334294938
 10
132.3319742507711
 20
179.5940334294938
 97
        0
 97
        1
330
253
 75
     2
 76
     1
 98
        1
 10
0.0
 20
0.0
450
        0
451
        0
460
0.0
461
0.0
452
        0
462
0.0
453
        0
470

  0
SPLINE
  5
255
330
24F
100
AcDbEntity
  8
Bemaßung (ISO)
100
AcDbSpline
210
0.0
220
0.0
230
1.0
 70
     9
 71
     3
 72
    53
 73
    49
 74
     0
 42
0.0000000001
 43
0.0000000001
 40
0.0
 40
0.0
 40
0.0
 40
0.0
 40
1.0
 40
1.0
 40
1.0
 40
2.0
 40
2.0
 40
2.0
 40
3.0
 40
3.0
 40
3.0
 40
4.0
 40
4.0
 40
4.0
 40
5.0
 40
5.0
 40
5.0
 40
6.0
 40
6.0
 40
6.0
 40
7.0
 40
7.0
 40
7.0
 40
8.0
 40
8.0
 40
8.0
 40
9.0
 40
9.0
 40
9.0
 40
10.0
 40
10.0
 40
10.0
 40
11.0
 40
11.0
 40
11.0
 40
12.0
 40
12.0
 40
12.0
 40
13.0
 40
13.0
 40
13.0
 40
14.0
 40
14.0
 40
14.0
 40
15.0
 40
15.0
 40
15.0
 40
16.0
 40
16.0
 40
16.0
 40
16.0
 10
133.2259765291935
 20
180.7371161114997
 30
0.0
 10
133.4319932392114
 20
180.7512410029892
 30
0.0
 10
133.5870225360477
 20
180.9176391149268
 30
0.0
 10
133.5870225360477
 20
181.1574177607002
 30
0.0
 10
133.5870225360477
 20
181.3858275913723
 30
0.0
 10
133.4292371628232
 20
181.5804754862889
 30
0.0
 10
133.1133219068258
 20
181.5804754862889
 30
0.0
 10
132.8508056308498
 20
181.5804754862889
 30
0.0
 10
132.6592583218699
 20
181.3999524828618
 30
0.0
 10
132.6592583218699
 20
181.1291679777212
 30
0.0
 10
132.6592583218699
 20
180.9739664261106
 30
0.0
 10
132.7353949320939
 20
180.8499429886417
 30
0.0
 10
132.8480495544616
 20
180.7569254105399
 30
0.0
 10
132.8480495544616
 20
180.7569254105399
 30
0.0
 10
132.8366807393603
 20
180.550908700522
 30
0.0
 10
132.8366807393603
 20
180.550908700522
 30
0.0
 10
132.8366807393603
 20
180.550908700522
 30
0.0
 10
131.7986734696545
 20
180.7371161114997
 30
0.0
 10
131.7986734696545
 20
180.7371161114997
 30
0.0
 10
131.7986734696545
 20
180.7371161114997
 30
0.0
 10
131.7986734696545
 20
181.7243082227981
 30
0.0
 10
131.7986734696545
 20
181.7243082227981
 30
0.0
 10
131.7986734696545
 20
181.7243082227981
 30
0.0
 10
132.0102023324488
 20
181.7243082227981
 30
0.0
 10
132.0102023324488
 20
181.7243082227981
 30
0.0
 10
132.0102023324488
 20
181.7243082227981
 30
0.0
 10
132.0102023324488
 20
180.9176391149268
 30
0.0
 10
132.0102023324488
 20
180.9176391149268
 30
0.0
 10
132.0102023324488
 20
180.9176391149268
 30
0.0
 10
132.5858777880341
 20
180.8104966453355
 30
0.0
 10
132.5858777880341
 20
180.8104966453355
 30
0.0
 10
132.5858777880341
 20
180.8104966453355
 30
0.0
 10
132.5913899408105
 20
180.8161810528862
 30
0.0
 10
132.5913899408105
 20
180.8161810528862
 30
0.0
 10
132.4925157003838
 20
180.9035142234373
 30
0.0
 10
132.447384949527
 20
181.0530313674972
 30
0.0
 10
132.447384949527
 20
181.1884236200675
 30
0.0
 10
132.447384949527
 20
181.543785219371
 30
0.0
 10
132.6730387038109
 20
181.8343790235518
 30
0.0
 10
133.1329589510918
 20
181.8343790235518
 30
0.0
 10
133.4716118372918
 20
181.8343790235518
 30
0.0
 10
133.798551398842
 20
181.6002847853291
 30
0.0
 10
133.798551398842
 20
181.1348523852718
 30
0.0
 10
133.798551398842
 20
180.7879312699072
 30
0.0
 10
133.5870225360477
 20
180.5057779496652
 30
0.0
 10
133.2259765291935
 20
180.4973374657263
 30
0.0
 10
133.2259765291935
 20
180.4973374657263
 30
0.0
 10
133.2259765291935
 20
180.7371161114997
 30
0.0
 10
133.2259765291935
 20
180.7371161114997
 30
0.0
  0
HATCH
  5
256
330
24F
100
AcDbEntity
  8
Bemaßung (ISO)
 62
   250
420
  2039067
440
 33554687
100
AcDbHatch
 10
0.0
 20
0.0
 30
0.0
210
0.0
220
0.0
230
1.0
  2
SOLID
 70
     1
 71
     1
 91
        1
 92
        1
 93
        1
 72
     4
 94
        3
 73
     0
 74
     0
 95
       53
 96
       49
 40
0.0
 40
0.0
 40
0.0
 40
0.0
 40
1.0
 40
1.0
 40
1.0
 40
2.0
 40
2.0
 40
2.0
 40
3.0
 40
3.0
 40
3.0
 40
4.0
 40
4.0
 40
4.0
 40
5.0
 40
5.0
 40
5.0
 40
6.0
 40
6.0
 40
6.0
 40
7.0
 40
7.0
 40
7.0
 40
8.0
 40
8.0
 40
8.0
 40
9.0
 40
9.0
 40
9.0
 40
10.0
 40
10.0
 40
10.0
 40
11.0
 40
11.0
 40
11.0
 40
12.0
 40
12.0
 40
12.0
 40
13.0
 40
13.0
 40
13.0
 40
14.0
 40
14.0
 40
14.0
 40
15.0
 40
15.0
 40
15.0
 40
16.0
 40
16.0
 40
16.0
 40
16.0
 10
133.2259765291935
 20
180.7371161114997
 10
133.4319932392114
 20
180.7512410029892
 10
133.5870225360477
 20
180.9176391149268
 10
133.5870225360477
 20
181.1574177607002
 10
133.5870225360477
 20
181.3858275913723
 10
133.4292371628232
 20
181.5804754862889
 10
133.1133219068258
 20
181.5804754862889
 10
132.8508056308498
 20
181.5804754862889
 10
132.6592583218699
 20
181.3999524828618
 10
132.6592583218699
 20
181.1291679777212
 10
132.6592583218699
 20
180.9739664261106
 10
132.7353949320939
 20
180.8499429886417
 10
132.8480495544616
 20
180.7569254105399
 10
132.8480495544616
 20
180.7569254105399
 10
132.8366807393603
 20
180.550908700522
 10
132.8366807393603
 20
180.550908700522
 10
132.8366807393603
 20
180.550908700522
 10
131.7986734696545
 20
180.7371161114997
 10
131.7986734696545
 20
180.7371161114997
 10
131.7986734696545
 20
180.7371161114997
 10
131.7986734696545
 20
181.7243082227981
 10
131.7986734696545
 20
181.7243082227981
 10
131.7986734696545
 20
181.7243082227981
 10
132.0102023324488
 20
181.7243082227981
 10
132.0102023324488
 20
181.7243082227981
 10
132.0102023324488
 20
181.7243082227981
 10
132.0102023324488
 20
180.9176391149268
 10
132.0102023324488
 20
180.9176391149268
 10
132.0102023324488
 20
180.9176391149268
 10
132.5858777880341
 20
180.8104966453355
 10
132.5858777880341
 20
180.8104966453355
 10
132.5858777880341
 20
180.8104966453355
 10
132.5913899408105
 20
180.8161810528862
 10
132.5913899408105
 20
180.8161810528862
 10
132.4925157003838
 20
180.9035142234373
 10
132.447384949527
 20
181.0530313674972
 10
132.447384949527
 20
181.1884236200675
 10
132.447384949527
 20
181.543785219371
 10
132.6730387038109
 20
181.8343790235518
 10
133.1329589510918
 20
181.8343790235518
 10
133.4716118372918
 20
181.8343790235518
 10
133.798551398842
 20
181.6002847853291
 10
133.798551398842
 20
181.1348523852718
 10
133.798551398842
 20
180.7879312699072
 10
133.5870225360477
 20
180.5057779496652
 10
133.2259765291935
 20
180.4973374657263
 10
133.2259765291935
 20
180.4973374657263
 10
133.2259765291935
 20
180.7371161114997
 10
133.2259765291935
 20
180.7371161114997
 97
        0
 97
        1
330
255
 75
     2
 76
     1
 98
        1
 10
0.0
 20
0.0
450
        0
451
        0
460
0.0
461
0.0
452
        0
462
0.0
453
        0
470

  0
ENDBLK
  5
252
330
24F
100
AcDbEntity
  8
0
100
AcDbBlockEnd
  0
BLOCK
  5
259
330
257
100
AcDbEntity
  8
0
100
AcDbBlockBegin
  2
Block_34
 70
     0
 10
0.0
 20
0.0
 30
0.0
  3
Block_34
  1

  0
INSERT
  5
25C
330
257
100
AcDbEntity
  8
Bemaßung (ISO)
100
AcDbBlockReference
  2
Block_35
 10
0.0
 20
0.0
 30
0.0
  0
ENDBLK
  5
25A
330
257
100
AcDbEntity
  8
0
100
AcDbBlockEnd
  0
BLOCK
  5
25D
330
25B
100
AcDbEntity
  8
0
100
AcDbBlockBegin
  2
Block_35
 70
     0
 10
0.0
 20
0.0
 30
0.0
  3
Block_35
  1

  0
SPLINE
  5
25F
330
25B
100
AcDbEntity
  8
Bemaßung (ISO)
100
AcDbSpline
210
0.0
220
0.0
230
1.0
 70
     9
 71
     3
 72
    41
 73
    37
 74
     0
 42
0.0000000001
 43
0.0000000001
 40
0.0
 40
0.0
 40
0.0
 40
0.0
 40
1.0
 40
1.0
 40
1.0
 40
2.0
 40
2.0
 40
2.0
 40
3.0
 40
3.0
 40
3.0
 40
4.0
 40
4.0
 40
4.0
 40
5.0
 40
5.0
 40
5.0
 40
6.0
 40
6.0
 40
6.0
 40
7.0
 40
7.0
 40
7.0
 40
8.0
 40
8.0
 40
8.0
 40
9.0
 40
9.0
 40
9.0
 40
10.0
 40
10.0
 40
10.0
 40
11.0
 40
11.0
 40
11.0
 40
12.0
 40
12.0
 40
12.0
 40
12.0
 10
133.2380343633918
 20
171.8201754670276
 30
0.0
 10
133.0265055005975
 20
172.1586560984534
 30
0.0
 10
132.9079942159049
 20
172.3305663631674
 30
0.0
 10
132.6285969720512
 20
172.3305663631674
 30
0.0
 10
132.4115559564804
 20
172.3305663631674
 30
0.0
 10
132.267550965197
 20
172.1557277672909
 30
0.0
 10
132.267550965197
 20
171.9441989044966
 30
0.0
 10
132.267550965197
 20
171.6649739154171
 30
0.0
 10
132.5242105788481
 20
171.5464626307245
 30
0.0
 10
132.7639892246215
 20
171.5549031146633
 30
0.0
 10
132.7639892246215
 20
171.5549031146633
 30
0.0
 10
132.7639892246215
 20
171.3152967236642
 30
0.0
 10
132.7639892246215
 20
171.3152967236642
 30
0.0
 10
132.3578124669105
 20
171.2925590934616
 30
0.0
 10
132.0560221024026
 20
171.5352660703974
 30
0.0
 10
132.0560221024026
 20
171.9583237959861
 30
0.0
 10
132.0560221024026
 20
172.3052449113508
 30
0.0
 10
132.2592827360324
 20
172.5844699004303
 30
0.0
 10
132.6313530484394
 20
172.5844699004303
 30
0.0
 10
132.9841308261289
 20
172.5844699004303
 30
0.0
 10
133.1587971672311
 20
172.3476195858193
 30
0.0
 10
133.3169270500041
 20
172.0994004561071
 30
0.0
 10
133.4664441940639
 20
171.8511813263948
 30
0.0
 10
133.5990803702461
 20
171.5831528976424
 30
0.0
 10
133.8443711687958
 20
171.5380221467856
 30
0.0
 10
133.8443711687958
 20
171.5380221467856
 30
0.0
 10
133.8443711687958
 20
172.5648328561643
 30
0.0
 10
133.8443711687958
 20
172.5648328561643
 30
0.0
 10
133.8443711687958
 20
172.5648328561643
 30
0.0
 10
134.0559000315902
 20
172.5648328561643
 30
0.0
 10
134.0559000315902
 20
172.5648328561643
 30
0.0
 10
134.0559000315902
 20
172.5648328561643
 30
0.0
 10
134.0559000315902
 20
171.2587971577061
 30
0.0
 10
134.0559000315902
 20
171.2587971577061
 30
0.0
 10
133.5849554787565
 20
171.295487424624
 30
0.0
 10
133.4071885517176
 20
171.5380221467856
 30
0.0
 10
133.2380343633918
 20
171.8201754670276
 30
0.0
  0
HATCH
  5
260
330
25B
100
AcDbEntity
  8
Bemaßung (ISO)
 62
   250
420
  2039067
440
 33554687
100
AcDbHatch
 10
0.0
 20
0.0
 30
0.0
210
0.0
220
0.0
230
1.0
  2
SOLID
 70
     1
 71
     1
 91
        1
 92
        1
 93
        1
 72
     4
 94
        3
 73
     0
 74
     0
 95
       41
 96
       37
 40
0.0
 40
0.0
 40
0.0
 40
0.0
 40
1.0
 40
1.0
 40
1.0
 40
2.0
 40
2.0
 40
2.0
 40
3.0
 40
3.0
 40
3.0
 40
4.0
 40
4.0
 40
4.0
 40
5.0
 40
5.0
 40
5.0
 40
6.0
 40
6.0
 40
6.0
 40
7.0
 40
7.0
 40
7.0
 40
8.0
 40
8.0
 40
8.0
 40
9.0
 40
9.0
 40
9.0
 40
10.0
 40
10.0
 40
10.0
 40
11.0
 40
11.0
 40
11.0
 40
12.0
 40
12.0
 40
12.0
 40
12.0
 10
133.2380343633918
 20
171.8201754670276
 10
133.0265055005975
 20
172.1586560984534
 10
132.9079942159049
 20
172.3305663631674
 10
132.6285969720512
 20
172.3305663631674
 10
132.4115559564804
 20
172.3305663631674
 10
132.267550965197
 20
172.1557277672909
 10
132.267550965197
 20
171.9441989044966
 10
132.267550965197
 20
171.6649739154171
 10
132.5242105788481
 20
171.5464626307245
 10
132.7639892246215
 20
171.5549031146633
 10
132.7639892246215
 20
171.5549031146633
 10
132.7639892246215
 20
171.3152967236642
 10
132.7639892246215
 20
171.3152967236642
 10
132.3578124669105
 20
171.2925590934616
 10
132.0560221024026
 20
171.5352660703974
 10
132.0560221024026
 20
171.9583237959861
 10
132.0560221024026
 20
172.3052449113508
 10
132.2592827360324
 20
172.5844699004303
 10
132.6313530484394
 20
172.5844699004303
 10
132.9841308261289
 20
172.5844699004303
 10
133.1587971672311
 20
172.3476195858193
 10
133.3169270500041
 20
172.0994004561071
 10
133.4664441940639
 20
171.8511813263948
 10
133.5990803702461
 20
171.5831528976424
 10
133.8443711687958
 20
171.5380221467856
 10
133.8443711687958
 20
171.5380221467856
 10
133.8443711687958
 20
172.5648328561643
 10
133.8443711687958
 20
172.5648328561643
 10
133.8443711687958
 20
172.5648328561643
 10
134.0559000315902
 20
172.5648328561643
 10
134.0559000315902
 20
172.5648328561643
 10
134.0559000315902
 20
172.5648328561643
 10
134.0559000315902
 20
171.2587971577061
 10
134.0559000315902
 20
171.2587971577061
 10
133.5849554787565
 20
171.295487424624
 10
133.4071885517176
 20
171.5380221467856
 10
133.2380343633918
 20
171.8201754670276
 97
        0
 97
        1
330
25F
 75
     2
 76
     1
 98
        1
 10
0.0
 20
0.0
450
        0
451
        0
460
0.0
461
0.0
452
        0
462
0.0
453
        0
470

  0
SPLINE
  5
261
330
25B
100
AcDbEntity
  8
Bemaßung (ISO)
100
AcDbSpline
210
0.0
220
0.0
230
1.0
 70
     9
 71
     3
 72
    53
 73
    49
 74
     0
 42
0.0000000001
 43
0.0000000001
 40
0.0
 40
0.0
 40
0.0
 40
0.0
 40
1.0
 40
1.0
 40
1.0
 40
2.0
 40
2.0
 40
2.0
 40
3.0
 40
3.0
 40
3.0
 40
4.0
 40
4.0
 40
4.0
 40
5.0
 40
5.0
 40
5.0
 40
6.0
 40
6.0
 40
6.0
 40
7.0
 40
7.0
 40
7.0
 40
8.0
 40
8.0
 40
8.0
 40
9.0
 40
9.0
 40
9.0
 40
10.0
 40
10.0
 40
10.0
 40
11.0
 40
11.0
 40
11.0
 40
12.0
 40
12.0
 40
12.0
 40
13.0
 40
13.0
 40
13.0
 40
14.0
 40
14.0
 40
14.0
 40
15.0
 40
15.0
 40
15.0
 40
16.0
 40
16.0
 40
16.0
 40
16.0
 10
133.5170870976971
 20
173.0986504016038
 30
0.0
 10
133.723103807715
 20
173.1127752930933
 30
0.0
 10
133.8781331045513
 20
173.2791734050309
 30
0.0
 10
133.8781331045513
 20
173.5189520508043
 30
0.0
 10
133.8781331045513
 20
173.7473618814763
 30
0.0
 10
133.7203477313268
 20
173.942009776393
 30
0.0
 10
133.4044324753294
 20
173.942009776393
 30
0.0
 10
133.1419161993534
 20
173.942009776393
 30
0.0
 10
132.9503688903735
 20
173.7614867729659
 30
0.0
 10
132.9503688903735
 20
173.4907022678252
 30
0.0
 10
132.9503688903735
 20
173.3355007162147
 30
0.0
 10
133.0265055005975
 20
173.2114772787457
 30
0.0
 10
133.1391601229652
 20
173.118459700644
 30
0.0
 10
133.1391601229652
 20
173.118459700644
 30
0.0
 10
133.1277913078639
 20
172.912442990626
 30
0.0
 10
133.1277913078639
 20
172.912442990626
 30
0.0
 10
133.1277913078639
 20
172.912442990626
 30
0.0
 10
132.0897840381581
 20
173.0986504016038
 30
0.0
 10
132.0897840381581
 20
173.0986504016038
 30
0.0
 10
132.0897840381581
 20
173.0986504016038
 30
0.0
 10
132.0897840381581
 20
174.0858425129021
 30
0.0
 10
132.0897840381581
 20
174.0858425129021
 30
0.0
 10
132.0897840381581
 20
174.0858425129021
 30
0.0
 10
132.3013129009524
 20
174.0858425129021
 30
0.0
 10
132.3013129009524
 20
174.0858425129021
 30
0.0
 10
132.3013129009524
 20
174.0858425129021
 30
0.0
 10
132.3013129009524
 20
173.2791734050309
 30
0.0
 10
132.3013129009524
 20
173.2791734050309
 30
0.0
 10
132.3013129009524
 20
173.2791734050309
 30
0.0
 10
132.8769883565377
 20
173.1720309354396
 30
0.0
 10
132.8769883565377
 20
173.1720309354396
 30
0.0
 10
132.8769883565377
 20
173.1720309354396
 30
0.0
 10
132.8825005093141
 20
173.1777153429903
 30
0.0
 10
132.8825005093141
 20
173.1777153429903
 30
0.0
 10
132.7836262688874
 20
173.2650485135414
 30
0.0
 10
132.7384955180306
 20
173.4145656576012
 30
0.0
 10
132.7384955180306
 20
173.5499579101715
 30
0.0
 10
132.7384955180306
 20
173.9053195094751
 30
0.0
 10
132.9641492723145
 20
174.1959133136559
 30
0.0
 10
133.4240695195954
 20
174.1959133136559
 30
0.0
 10
133.7627224057954
 20
174.1959133136559
 30
0.0
 10
134.0896619673456
 20
173.9618190754331
 30
0.0
 10
134.0896619673456
 20
173.4963866753759
 30
0.0
 10
134.0896619673456
 20
173.1494655600112
 30
0.0
 10
133.8781331045513
 20
172.8673122397693
 30
0.0
 10
133.5170870976971
 20
172.8588717558304
 30
0.0
 10
133.5170870976971
 20
172.8588717558304
 30
0.0
 10
133.5170870976971
 20
173.0986504016038
 30
0.0
 10
133.5170870976971
 20
173.0986504016038
 30
0.0
  0
HATCH
  5
262
330
25B
100
AcDbEntity
  8
Bemaßung (ISO)
 62
   250
420
  2039067
440
 33554687
100
AcDbHatch
 10
0.0
 20
0.0
 30
0.0
210
0.0
220
0.0
230
1.0
  2
SOLID
 70
     1
 71
     1
 91
        1
 92
        1
 93
        1
 72
     4
 94
        3
 73
     0
 74
     0
 95
       53
 96
       49
 40
0.0
 40
0.0
 40
0.0
 40
0.0
 40
1.0
 40
1.0
 40
1.0
 40
2.0
 40
2.0
 40
2.0
 40
3.0
 40
3.0
 40
3.0
 40
4.0
 40
4.0
 40
4.0
 40
5.0
 40
5.0
 40
5.0
 40
6.0
 40
6.0
 40
6.0
 40
7.0
 40
7.0
 40
7.0
 40
8.0
 40
8.0
 40
8.0
 40
9.0
 40
9.0
 40
9.0
 40
10.0
 40
10.0
 40
10.0
 40
11.0
 40
11.0
 40
11.0
 40
12.0
 40
12.0
 40
12.0
 40
13.0
 40
13.0
 40
13.0
 40
14.0
 40
14.0
 40
14.0
 40
15.0
 40
15.0
 40
15.0
 40
16.0
 40
16.0
 40
16.0
 40
16.0
 10
133.5170870976971
 20
173.0986504016038
 10
133.723103807715
 20
173.1127752930933
 10
133.8781331045513
 20
173.2791734050309
 10
133.8781331045513
 20
173.5189520508043
 10
133.8781331045513
 20
173.7473618814763
 10
133.7203477313268
 20
173.942009776393
 10
133.4044324753294
 20
173.942009776393
 10
133.1419161993534
 20
173.942009776393
 10
132.9503688903735
 20
173.7614867729659
 10
132.9503688903735
 20
173.4907022678252
 10
132.9503688903735
 20
173.3355007162147
 10
133.0265055005975
 20
173.2114772787457
 10
133.1391601229652
 20
173.118459700644
 10
133.1391601229652
 20
173.118459700644
 10
133.1277913078639
 20
172.912442990626
 10
133.1277913078639
 20
172.912442990626
 10
133.1277913078639
 20
172.912442990626
 10
132.0897840381581
 20
173.0986504016038
 10
132.0897840381581
 20
173.0986504016038
 10
132.0897840381581
 20
173.0986504016038
 10
132.0897840381581
 20
174.0858425129021
 10
132.0897840381581
 20
174.0858425129021
 10
132.0897840381581
 20
174.0858425129021
 10
132.3013129009524
 20
174.0858425129021
 10
132.3013129009524
 20
174.0858425129021
 10
132.3013129009524
 20
174.0858425129021
 10
132.3013129009524
 20
173.2791734050309
 10
132.3013129009524
 20
173.2791734050309
 10
132.3013129009524
 20
173.2791734050309
 10
132.8769883565377
 20
173.1720309354396
 10
132.8769883565377
 20
173.1720309354396
 10
132.8769883565377
 20
173.1720309354396
 10
132.8825005093141
 20
173.1777153429903
 10
132.8825005093141
 20
173.1777153429903
 10
132.7836262688874
 20
173.2650485135414
 10
132.7384955180306
 20
173.4145656576012
 10
132.7384955180306
 20
173.5499579101715
 10
132.7384955180306
 20
173.9053195094751
 10
132.9641492723145
 20
174.1959133136559
 10
133.4240695195954
 20
174.1959133136559
 10
133.7627224057954
 20
174.1959133136559
 10
134.0896619673456
 20
173.9618190754331
 10
134.0896619673456
 20
173.4963866753759
 10
134.0896619673456
 20
173.1494655600112
 10
133.8781331045513
 20
172.8673122397693
 10
133.5170870976971
 20
172.8588717558304
 10
133.5170870976971
 20
172.8588717558304
 10
133.5170870976971
 20
173.0986504016038
 10
133.5170870976971
 20
173.0986504016038
 97
        0
 97
        1
330
261
 75
     2
 76
     1
 98
        1
 10
0.0
 20
0.0
450
        0
451
        0
460
0.0
461
0.0
452
        0
462
0.0
453
        0
470

  0
ENDBLK
  5
25E
330
25B
100
AcDbEntity
  8
0
100
AcDbBlockEnd
  0
BLOCK
  5
265
330
263
100
AcDbEntity
  8
0
100
AcDbBlockBegin
  2
Block_36
 70
     0
 10
0.0
 20
0.0
 30
0.0
  3
Block_36
  1

  0
INSERT
  5
268
330
263
100
AcDbEntity
  8
Bemaßung (ISO)
100
AcDbBlockReference
  2
Block_37
 10
0.0
 20
0.0
 30
0.0
  0
ENDBLK
  5
266
330
263
100
AcDbEntity
  8
0
100
AcDbBlockEnd
  0
BLOCK
  5
269
330
267
100
AcDbEntity
  8
0
100
AcDbBlockBegin
  2
Block_37
 70
     0
 10
0.0
 20
0.0
 30
0.0
  3
Block_37
  1

  0
SPLINE
  5
26B
330
267
100
AcDbEntity
  8
Bemaßung (ISO)
100
AcDbSpline
210
0.0
220
0.0
230
1.0
 70
     9
 71
     3
 72
    41
 73
    37
 74
     0
 42
0.0000000001
 43
0.0000000001
 40
0.0
 40
0.0
 40
0.0
 40
0.0
 40
1.0
 40
1.0
 40
1.0
 40
2.0
 40
2.0
 40
2.0
 40
3.0
 40
3.0
 40
3.0
 40
4.0
 40
4.0
 40
4.0
 40
5.0
 40
5.0
 40
5.0
 40
6.0
 40
6.0
 40
6.0
 40
7.0
 40
7.0
 40
7.0
 40
8.0
 40
8.0
 40
8.0
 40
9.0
 40
9.0
 40
9.0
 40
10.0
 40
10.0
 40
10.0
 40
11.0
 40
11.0
 40
11.0
 40
12.0
 40
12.0
 40
12.0
 40
12.0
 10
127.4926486226407
 20
176.9912637903876
 30
0.0
 10
127.2811197598464
 20
177.3297444218134
 30
0.0
 10
127.1626084751538
 20
177.5016546865273
 30
0.0
 10
126.8832112313
 20
177.5016546865273
 30
0.0
 10
126.6661702157293
 20
177.5016546865273
 30
0.0
 10
126.5221652244458
 20
177.3268160906509
 30
0.0
 10
126.5221652244458
 20
177.1152872278566
 30
0.0
 10
126.5221652244458
 20
176.8360622387771
 30
0.0
 10
126.7788248380969
 20
176.7175509540845
 30
0.0
 10
127.0186034838703
 20
176.7259914380234
 30
0.0
 10
127.0186034838703
 20
176.7259914380234
 30
0.0
 10
127.0186034838703
 20
176.4863850470242
 30
0.0
 10
127.0186034838703
 20
176.4863850470242
 30
0.0
 10
126.6124267261594
 20
176.4636474168216
 30
0.0
 10
126.3106363616515
 20
176.7063543937574
 30
0.0
 10
126.3106363616515
 20
177.1294121193461
 30
0.0
 10
126.3106363616515
 20
177.4763332347108
 30
0.0
 10
126.5138969952812
 20
177.7555582237902
 30
0.0
 10
126.8859673076882
 20
177.7555582237902
 30
0.0
 10
127.2387450853778
 20
177.7555582237902
 30
0.0
 10
127.41341142648
 20
177.5187079091793
 30
0.0
 10
127.5715413092529
 20
177.2704887794671
 30
0.0
 10
127.7210584533128
 20
177.0222696497548
 30
0.0
 10
127.8536946294949
 20
176.7542412210024
 30
0.0
 10
128.0989854280447
 20
176.7091104701456
 30
0.0
 10
128.0989854280447
 20
176.7091104701456
 30
0.0
 10
128.0989854280447
 20
177.7359211795243
 30
0.0
 10
128.0989854280447
 20
177.7359211795243
 30
0.0
 10
128.0989854280447
 20
177.7359211795243
 30
0.0
 10
128.310514290839
 20
177.7359211795243
 30
0.0
 10
128.310514290839
 20
177.7359211795243
 30
0.0
 10
128.310514290839
 20
177.7359211795243
 30
0.0
 10
128.310514290839
 20
176.4298854810661
 30
0.0
 10
128.310514290839
 20
176.4298854810661
 30
0.0
 10
127.8395697380054
 20
176.466575747984
 30
0.0
 10
127.6618028109665
 20
176.7091104701456
 30
0.0
 10
127.4926486226407
 20
176.9912637903876
 30
0.0
  0
HATCH
  5
26C
330
267
100
AcDbEntity
  8
Bemaßung (ISO)
 62
   250
420
  2039067
440
 33554687
100
AcDbHatch
 10
0.0
 20
0.0
 30
0.0
210
0.0
220
0.0
230
1.0
  2
SOLID
 70
     1
 71
     1
 91
        1
 92
        1
 93
        1
 72
     4
 94
        3
 73
     0
 74
     0
 95
       41
 96
       37
 40
0.0
 40
0.0
 40
0.0
 40
0.0
 40
1.0
 40
1.0
 40
1.0
 40
2.0
 40
2.0
 40
2.0
 40
3.0
 40
3.0
 40
3.0
 40
4.0
 40
4.0
 40
4.0
 40
5.0
 40
5.0
 40
5.0
 40
6.0
 40
6.0
 40
6.0
 40
7.0
 40
7.0
 40
7.0
 40
8.0
 40
8.0
 40
8.0
 40
9.0
 40
9.0
 40
9.0
 40
10.0
 40
10.0
 40
10.0
 40
11.0
 40
11.0
 40
11.0
 40
12.0
 40
12.0
 40
12.0
 40
12.0
 10
127.4926486226407
 20
176.9912637903876
 10
127.2811197598464
 20
177.3297444218134
 10
127.1626084751538
 20
177.5016546865273
 10
126.8832112313
 20
177.5016546865273
 10
126.6661702157293
 20
177.5016546865273
 10
126.5221652244458
 20
177.3268160906509
 10
126.5221652244458
 20
177.1152872278566
 10
126.5221652244458
 20
176.8360622387771
 10
126.7788248380969
 20
176.7175509540845
 10
127.0186034838703
 20
176.7259914380234
 10
127.0186034838703
 20
176.7259914380234
 10
127.0186034838703
 20
176.4863850470242
 10
127.0186034838703
 20
176.4863850470242
 10
126.6124267261594
 20
176.4636474168216
 10
126.3106363616515
 20
176.7063543937574
 10
126.3106363616515
 20
177.1294121193461
 10
126.3106363616515
 20
177.4763332347108
 10
126.5138969952812
 20
177.7555582237902
 10
126.8859673076882
 20
177.7555582237902
 10
127.2387450853778
 20
177.7555582237902
 10
127.41341142648
 20
177.5187079091793
 10
127.5715413092529
 20
177.2704887794671
 10
127.7210584533128
 20
177.0222696497548
 10
127.8536946294949
 20
176.7542412210024
 10
128.0989854280447
 20
176.7091104701456
 10
128.0989854280447
 20
176.7091104701456
 10
128.0989854280447
 20
177.7359211795243
 10
128.0989854280447
 20
177.7359211795243
 10
128.0989854280447
 20
177.7359211795243
 10
128.310514290839
 20
177.7359211795243
 10
128.310514290839
 20
177.7359211795243
 10
128.310514290839
 20
177.7359211795243
 10
128.310514290839
 20
176.4298854810661
 10
128.310514290839
 20
176.4298854810661
 10
127.8395697380054
 20
176.466575747984
 10
127.6618028109665
 20
176.7091104701456
 10
127.4926486226407
 20
176.9912637903876
 97
        0
 97
        1
330
26B
 75
     2
 76
     1
 98
        1
 10
0.0
 20
0.0
450
        0
451
        0
460
0.0
461
0.0
452
        0
462
0.0
453
        0
470

  0
SPLINE
  5
26D
330
267
100
AcDbEntity
  8
Bemaßung (ISO)
100
AcDbSpline
210
0.0
220
0.0
230
1.0
 70
     9
 71
     3
 72
    17
 73
    13
 74
     0
 42
0.0000000001
 43
0.0000000001
 40
0.0
 40
0.0
 40
0.0
 40
0.0
 40
1.0
 40
1.0
 40
1.0
 40
2.0
 40
2.0
 40
2.0
 40
3.0
 40
3.0
 40
3.0
 40
4.0
 40
4.0
 40
4.0
 40
4.0
 10
127.3262505107031
 20
179.1272229912425
 30
0.0
 10
127.0299722989717
 20
179.1272229912425
 30
0.0
 10
126.5221652244458
 20
179.1244669148543
 30
0.0
 10
126.5221652244458
 20
178.7153618259809
 30
0.0
 10
126.5221652244458
 20
178.3064289918817
 30
0.0
 10
127.0299722989717
 20
178.3036729154935
 30
0.0
 10
127.3262505107031
 20
178.3036729154935
 30
0.0
 10
127.6249402892743
 20
178.3036729154935
 30
0.0
 10
128.1327473638001
 20
178.3064289918817
 30
0.0
 10
128.1327473638001
 20
178.7153618259809
 30
0.0
 10
128.1327473638001
 20
179.1244669148543
 30
0.0
 10
127.6249402892743
 20
179.1272229912425
 30
0.0
 10
127.3262505107031
 20
179.1272229912425
 30
0.0
  0
SPLINE
  5
26E
330
267
100
AcDbEntity
  8
Bemaßung (ISO)
100
AcDbSpline
210
0.0
220
0.0
230
1.0
 70
     9
 71
     3
 72
    17
 73
    13
 74
     0
 42
0.0000000001
 43
0.0000000001
 40
0.0
 40
0.0
 40
0.0
 40
0.0
 40
1.0
 40
1.0
 40
1.0
 40
2.0
 40
2.0
 40
2.0
 40
3.0
 40
3.0
 40
3.0
 40
4.0
 40
4.0
 40
4.0
 40
4.0
 10
127.3290065870913
 20
178.0497693782306
 30
0.0
 10
126.8887233840764
 20
178.0497693782306
 30
0.0
 10
126.3106363616515
 20
178.0892157215367
 30
0.0
 10
126.3106363616515
 20
178.7153618259809
 30
0.0
 10
126.3106363616515
 20
179.3416801851993
 30
0.0
 10
126.8887233840764
 20
179.3811265285054
 30
0.0
 10
127.3290065870913
 20
179.3811265285054
 30
0.0
 10
127.7689452805577
 20
179.3811265285054
 30
0.0
 10
128.3442762265945
 20
179.3416801851993
 30
0.0
 10
128.3442762265945
 20
178.7153618259809
 30
0.0
 10
128.3442762265945
 20
178.0892157215367
 30
0.0
 10
127.7689452805577
 20
178.0497693782306
 30
0.0
 10
127.3290065870913
 20
178.0497693782306
 30
0.0
  0
HATCH
  5
26F
330
267
100
AcDbEntity
  8
Bemaßung (ISO)
 62
   250
420
  2039067
440
 33554687
100
AcDbHatch
 10
0.0
 20
0.0
 30
0.0
210
0.0
220
0.0
230
1.0
  2
SOLID
 70
     1
 71
     1
 91
        2
 92
        1
 93
        1
 72
     4
 94
        3
 73
     0
 74
     0
 95
       17
 96
       13
 40
0.0
 40
0.0
 40
0.0
 40
0.0
 40
1.0
 40
1.0
 40
1.0
 40
2.0
 40
2.0
 40
2.0
 40
3.0
 40
3.0
 40
3.0
 40
4.0
 40
4.0
 40
4.0
 40
4.0
 10
127.3262505107031
 20
179.1272229912425
 10
127.0299722989717
 20
179.1272229912425
 10
126.5221652244458
 20
179.1244669148543
 10
126.5221652244458
 20
178.7153618259809
 10
126.5221652244458
 20
178.3064289918817
 10
127.0299722989717
 20
178.3036729154935
 10
127.3262505107031
 20
178.3036729154935
 10
127.6249402892743
 20
178.3036729154935
 10
128.1327473638001
 20
178.3064289918817
 10
128.1327473638001
 20
178.7153618259809
 10
128.1327473638001
 20
179.1244669148543
 10
127.6249402892743
 20
179.1272229912425
 10
127.3262505107031
 20
179.1272229912425
 97
        0
 97
        1
330
26D
 92
        1
 93
        1
 72
     4
 94
        3
 73
     0
 74
     0
 95
       17
 96
       13
 40
0.0
 40
0.0
 40
0.0
 40
0.0
 40
1.0
 40
1.0
 40
1.0
 40
2.0
 40
2.0
 40
2.0
 40
3.0
 40
3.0
 40
3.0
 40
4.0
 40
4.0
 40
4.0
 40
4.0
 10
127.3290065870913
 20
178.0497693782306
 10
126.8887233840764
 20
178.0497693782306
 10
126.3106363616515
 20
178.0892157215367
 10
126.3106363616515
 20
178.7153618259809
 10
126.3106363616515
 20
179.3416801851993
 10
126.8887233840764
 20
179.3811265285054
 10
127.3290065870913
 20
179.3811265285054
 10
127.7689452805577
 20
179.3811265285054
 10
128.3442762265945
 20
179.3416801851993
 10
128.3442762265945
 20
178.7153618259809
 10
128.3442762265945
 20
178.0892157215367
 10
127.7689452805577
 20
178.0497693782306
 10
127.3290065870913
 20
178.0497693782306
 97
        0
 97
        1
330
26E
 75
     2
 76
     1
 98
        1
 10
0.0
 20
0.0
450
        0
451
        0
460
0.0
461
0.0
452
        0
462
0.0
453
        0
470

  0
ENDBLK
  5
26A
330
267
100
AcDbEntity
  8
0
100
AcDbBlockEnd
  0
BLOCK
  5
279
330
277
100
AcDbEntity
  8
0
100
AcDbBlockBegin
  2
Block_38
 70
     0
 10
0.0
 20
0.0
 30
0.0
  3
Block_38
  1

  0
INSERT
  5
27C
330
277
100
AcDbEntity
  8
Bemaßung (ISO)
100
AcDbBlockReference
  2
Block_39
 10
0.0
 20
0.0
 30
0.0
  0
ENDBLK
  5
27A
330
277
100
AcDbEntity
  8
0
100
AcDbBlockEnd
  0
BLOCK
  5
27D
330
27B
100
AcDbEntity
  8
0
100
AcDbBlockBegin
  2
Block_39
 70
     0
 10
0.0
 20
0.0
 30
0.0
  3
Block_39
  1

  0
LINE
  5
27F
330
27B
100
AcDbEntity
  8
Bemaßung (ISO)
 62
    18
420
        0
370
     5
100
AcDbLine
 10
131.0916645146175
 20
178.2863505447567
 30
0.0
 11
131.0916645146175
 21
183.1838875206645
 31
0.0
  0
INSERT
  5
281
330
27B
100
AcDbEntity
  8
Bemaßung (ISO)
100
AcDbBlockReference
  2
Block_40
 10
0.0
 20
0.0
 30
0.0
  0
ENDBLK
  5
27E
330
27B
100
AcDbEntity
  8
0
100
AcDbBlockEnd
  0
BLOCK
  5
282
330
280
100
AcDbEntity
  8
0
100
AcDbBlockBegin
  2
Block_40
 70
     0
 10
0.0
 20
0.0
 30
0.0
  3
Block_40
  1

  0
LWPOLYLINE
  5
284
330
280
100
AcDbEntity
  8
Bemaßung (ISO)
100
AcDbPolyline
 90
        3
 70
     1
 43
0.0
 10
131.3129688358512
 20
182.551432585113
 10
131.0923427677911
 20
184.2326176500682
 10
130.8703494274604
 20
182.551432585113
  0
HATCH
  5
285
330
280
100
AcDbEntity
  8
Bemaßung (ISO)
 62
    18
420
        0
440
 33554687
100
AcDbHatch
 10
0.0
 20
0.0
 30
0.0
210
0.0
220
0.0
230
1.0
  2
SOLID
 70
     1
 71
     1
 91
        1
 92
        1
 93
        3
 72
     1
 10
131.3129688358512
 20
182.551432585113
 11
131.0923427677911
 21
184.2326176500682
 72
     1
 10
131.0923427677911
 20
184.2326176500682
 11
130.8703494274604
 21
182.551432585113
 72
     1
 10
130.8703494274604
 20
182.551432585113
 11
131.3129688358512
 21
182.551432585113
 97
        1
330
284
 75
     2
 76
     1
 98
        1
 10
0.0
 20
0.0
450
        0
451
        0
460
0.0
461
0.0
452
        0
462
0.0
453
        0
470

  0
ENDBLK
  5
283
330
280
100
AcDbEntity
  8
0
100
AcDbBlockEnd
  0
BLOCK
  5
288
330
286
100
AcDbEntity
  8
0
100
AcDbBlockBegin
  2
Block_41
 70
     0
 10
0.0
 20
0.0
 30
0.0
  3
Block_41
  1

  0
INSERT
  5
28B
330
286
100
AcDbEntity
  8
Bemaßung (ISO)
100
AcDbBlockReference
  2
Block_42
 10
0.0
 20
0.0
 30
0.0
  0
ENDBLK
  5
289
330
286
100
AcDbEntity
  8
0
100
AcDbBlockEnd
  0
BLOCK
  5
28C
330
28A
100
AcDbEntity
  8
0
100
AcDbBlockBegin
  2
Block_42
 70
     0
 10
0.0
 20
0.0
 30
0.0
  3
Block_42
  1

  0
LINE
  5
28E
330
28A
100
AcDbEntity
  8
Bemaßung (ISO)
 62
    18
420
        0
370
     5
100
AcDbLine
 10
131.0916645146175
 20
171.5623531336505
 30
0.0
 11
131.0916645146175
 21
174.0384939818267
 31
0.0
  0
INSERT
  5
290
330
28A
100
AcDbEntity
  8
Bemaßung (ISO)
100
AcDbBlockReference
  2
Block_43
 10
0.0
 20
0.0
 30
0.0
  0
INSERT
  5
296
330
28A
100
AcDbEntity
  8
Bemaßung (ISO)
100
AcDbBlockReference
  2
Block_44
 10
0.0
 20
0.0
 30
0.0
  0
ENDBLK
  5
28D
330
28A
100
AcDbEntity
  8
0
100
AcDbBlockEnd
  0
BLOCK
  5
291
330
28F
100
AcDbEntity
  8
0
100
AcDbBlockBegin
  2
Block_43
 70
     0
 10
0.0
 20
0.0
 30
0.0
  3
Block_43
  1

  0
LWPOLYLINE
  5
293
330
28F
100
AcDbEntity
  8
Bemaßung (ISO)
100
AcDbPolyline
 90
        3
 70
     1
 43
0.0
 10
131.3129688358512
 20
172.1948080692017
 10
131.0923427677911
 20
170.5136230042466
 10
130.8703494274604
 20
172.1948080692017
  0
HATCH
  5
294
330
28F
100
AcDbEntity
  8
Bemaßung (ISO)
 62
    18
420
        0
440
 33554687
100
AcDbHatch
 10
0.0
 20
0.0
 30
0.0
210
0.0
220
0.0
230
1.0
  2
SOLID
 70
     1
 71
     1
 91
        1
 92
        1
 93
        3
 72
     1
 10
131.3129688358512
 20
172.1948080692017
 11
131.0923427677911
 21
170.5136230042466
 72
     1
 10
131.0923427677911
 20
170.5136230042466
 11
130.8703494274604
 21
172.1948080692017
 72
     1
 10
130.8703494274604
 20
172.1948080692017
 11
131.3129688358512
 21
172.1948080692017
 97
        1
330
293
 75
     2
 76
     1
 98
        1
 10
0.0
 20
0.0
450
        0
451
        0
460
0.0
461
0.0
452
        0
462
0.0
453
        0
470

  0
ENDBLK
  5
292
330
28F
100
AcDbEntity
  8
0
100
AcDbBlockEnd
  0
BLOCK
  5
297
330
295
100
AcDbEntity
  8
0
100
AcDbBlockBegin
  2
Block_44
 70
     0
 10
0.0
 20
0.0
 30
0.0
  3
Block_44
  1

  0
LWPOLYLINE
  5
299
330
295
100
AcDbEntity
  8
Bemaßung (ISO)
100
AcDbPolyline
 90
        3
 70
     1
 43
0.0
 10
131.3129688358512
 20
173.4060390462752
 10
131.0923427677911
 20
175.087213345307
 10
130.8703494274604
 20
173.4060390462752
  0
HATCH
  5
29A
330
295
100
AcDbEntity
  8
Bemaßung (ISO)
 62
    18
420
        0
440
 33554687
100
AcDbHatch
 10
0.0
 20
0.0
 30
0.0
210
0.0
220
0.0
230
1.0
  2
SOLID
 70
     1
 71
     1
 91
        1
 92
        1
 93
        3
 72
     1
 10
131.3129688358512
 20
173.4060390462752
 11
131.0923427677911
 21
175.087213345307
 72
     1
 10
131.0923427677911
 20
175.087213345307
 11
130.8703494274604
 21
173.4060390462752
 72
     1
 10
130.8703494274604
 20
173.4060390462752
 11
131.3129688358512
 21
173.4060390462752
 97
        1
330
299
 75
     2
 76
     1
 98
        1
 10
0.0
 20
0.0
450
        0
451
        0
460
0.0
461
0.0
452
        0
462
0.0
453
        0
470

  0
ENDBLK
  5
298
330
295
100
AcDbEntity
  8
0
100
AcDbBlockEnd
  0
BLOCK
  5
29E
330
29C
100
AcDbEntity
  8
0
100
AcDbBlockBegin
  2
Block_45
 70
     0
 10
0.0
 20
0.0
 30
0.0
  3
Block_45
  1

  0
INSERT
  5
2A1
330
29C
100
AcDbEntity
  8
Bemaßung (ISO)
100
AcDbBlockReference
  2
Block_46
 10
0.0
 20
0.0
 30
0.0
  0
ENDBLK
  5
29F
330
29C
100
AcDbEntity
  8
0
100
AcDbBlockEnd
  0
BLOCK
  5
2A2
330
2A0
100
AcDbEntity
  8
0
100
AcDbBlockBegin
  2
Block_46
 70
     0
 10
0.0
 20
0.0
 30
0.0
  3
Block_46
  1

  0
LINE
  5
2A4
330
2A0
100
AcDbEntity
  8
Bemaßung (ISO)
 62
    18
420
        0
370
     5
100
AcDbLine
 10
125.6185705082818
 20
175.2239513383012
 30
0.0
 11
125.6185705082818
 21
179.5806836844885
 31
0.0
  0
INSERT
  5
2A6
330
2A0
100
AcDbEntity
  8
Bemaßung (ISO)
100
AcDbBlockReference
  2
Block_47
 10
0.0
 20
0.0
 30
0.0
  0
ENDBLK
  5
2A3
330
2A0
100
AcDbEntity
  8
0
100
AcDbBlockEnd
  0
BLOCK
  5
2A7
330
2A5
100
AcDbEntity
  8
0
100
AcDbBlockBegin
  2
Block_47
 70
     0
 10
0.0
 20
0.0
 30
0.0
  3
Block_47
  1

  0
LWPOLYLINE
  5
2A9
330
2A5
100
AcDbEntity
  8
Bemaßung (ISO)
100
AcDbPolyline
 90
        3
 70
     1
 43
0.0
 10
125.8398855954389
 20
175.856406273853
 10
125.6192595273788
 20
174.1752212088976
 10
125.397266187048
 20
175.856406273853
  0
HATCH
  5
2AA
330
2A5
100
AcDbEntity
  8
Bemaßung (ISO)
 62
    18
420
        0
440
 33554687
100
AcDbHatch
 10
0.0
 20
0.0
 30
0.0
210
0.0
220
0.0
230
1.0
  2
SOLID
 70
     1
 71
     1
 91
        1
 92
        1
 93
        3
 72
     1
 10
125.8398855954389
 20
175.856406273853
 11
125.6192595273788
 21
174.1752212088976
 72
     1
 10
125.6192595273788
 20
174.1752212088976
 11
125.397266187048
 21
175.856406273853
 72
     1
 10
125.397266187048
 20
175.856406273853
 11
125.8398855954389
 21
175.856406273853
 97
        1
330
2A9
 75
     2
 76
     1
 98
        1
 10
0.0
 20
0.0
450
        0
451
        0
460
0.0
461
0.0
452
        0
462
0.0
453
        0
470

  0
ENDBLK
  5
2A8
330
2A5
100
AcDbEntity
  8
0
100
AcDbBlockEnd
  0
ENDSEC
  0
SECTION
  2
ENTITIES
  0
INSERT
  5
7A
330
70
100
AcDbEntity
  8
Sichtbar schmal (ISO)
100
AcDbBlockReference
  2
Block_0
 10
0.0
 20
0.0
 30
0.0
  0
INSERT
  5
80
330
70
100
AcDbEntity
  8
Sichtbar schmal (ISO)
100
AcDbBlockReference
  2
Block_1
 10
0.0
 20
0.0
 30
0.0
  0
INSERT
  5
8A
330
70
100
AcDbEntity
  8
Bemaßung (ISO)
100
AcDbBlockReference
  2
Block_2
 10
0.0
 20
0.0
 30
0.0
  0
INSERT
  5
104
330
70
100
AcDbEntity
  8
Bemaßung (ISO)
100
AcDbBlockReference
  2
Block_3
 10
0.0
 20
0.0
 30
0.0
  0
LINE
  5
193
330
70
100
AcDbEntity
  8
Bemaßung (ISO)
 62
    18
420
        0
370
     5
100
AcDbLine
 10
114.0618056159673
 20
160.0309960943425
 30
0.0
 11
137.1471584727726
 21
160.0309925665648
 31
0.0
  0
LINE
  5
194
330
70
100
AcDbEntity
  8
Bemaßung (ISO)
 62
    18
420
        0
370
     5
100
AcDbLine
 10
114.0618056159673
 20
126.2041652192042
 30
0.0
 11
137.1471584727726
 21
126.2041616914265
 31
0.0
  0
LINE
  5
195
330
70
100
AcDbEntity
  8
Bemaßung (ISO)
 62
    18
420
        0
370
     5
100
AcDbLine
 10
142.7290998778693
 20
161.1163471927563
 30
0.0
 11
115.1471584782725
 21
161.1163471927563
 31
0.0
  0
LINE
  5
196
330
70
100
AcDbEntity
  8
Bemaßung (ISO)
 62
    18
420
        0
370
     5
100
AcDbLine
 10
142.7290998778693
 20
125.118810593012
 30
0.0
 11
115.1471584782725
 21
125.118810593012
 31
0.0
  0
LINE
  5
197
330
70
100
AcDbEntity
  8
Bemaßung (ISO)
 62
    18
420
        0
370
     5
100
AcDbLine
 10
127.508942762707
 20
132.3906747704479
 30
0.0
 11
101.8877643437944
 21
132.3906747704479
 31
0.0
  0
INSERT
  5
199
330
70
100
AcDbEntity
  8
Bemaßung (ISO)
100
AcDbBlockReference
  2
Block_4
 10
0.0
 20
0.0
 30
0.0
  0
INSERT
  5
1AE
330
70
100
AcDbEntity
  8
Bemaßung (ISO)
100
AcDbBlockReference
  2
Block_8
 10
0.0
 20
0.0
 30
0.0
  0
INSERT
  5
1BE
330
70
100
AcDbEntity
  8
Bemaßung (ISO)
100
AcDbBlockReference
  2
Block_9
 10
0.0
 20
0.0
 30
0.0
  0
INSERT
  5
1CC
330
70
100
AcDbEntity
  8
Bemaßung (ISO)
100
AcDbBlockReference
  2
Block_11
 10
0.0
 20
0.0
 30
0.0
  0
INSERT
  5
1D8
330
70
100
AcDbEntity
  8
Bemaßung (ISO)
100
AcDbBlockReference
  2
Block_13
 10
0.0
 20
0.0
 30
0.0
  0
LINE
  5
1E6
330
70
100
AcDbEntity
  8
Bemaßung (ISO)
 62
    18
420
        0
370
     5
100
AcDbLine
 10
102.9640725989114
 20
125.6614870241646
 30
0.0
 11
102.9640725989114
 21
112.7871769573844
 31
0.0
  0
LINE
  5
1E7
330
70
100
AcDbEntity
  8
Bemaßung (ISO)
 62
    18
420
        0
370
     5
100
AcDbLine
 10
91.35984157944646
 20
125.6614870241646
 30
0.0
 11
91.35984157944646
 21
112.7570263085775
 31
0.0
  0
INSERT
  5
1E9
330
70
100
AcDbEntity
  8
Bemaßung (ISO)
100
AcDbBlockReference
  2
Block_14
 10
0.0
 20
0.0
 30
0.0
  0
INSERT
  5
1FE
330
70
100
AcDbEntity
  8
Bemaßung (ISO)
100
AcDbBlockReference
  2
Block_18
 10
0.0
 20
0.0
 30
0.0
  0
INSERT
  5
213
330
70
100
AcDbEntity
  8
Bemaßung (ISO)
100
AcDbBlockReference
  2
Block_22
 10
0.0
 20
0.0
 30
0.0
  0
LINE
  5
227
330
70
100
AcDbEntity
  8
Bemaßung (ISO)
 62
    18
420
        0
370
     5
100
AcDbLine
 10
115.6185722757625
 20
186.2340300738876
 30
0.0
 11
143.0470008479284
 21
186.2312053438456
 31
0.0
  0
LINE
  5
228
330
70
100
AcDbEntity
  8
Bemaßung (ISO)
 62
    18
420
        0
370
     5
100
AcDbLine
 10
110.1406084288095
 20
169.1912757386325
 30
0.0
 11
143.0470008479284
 21
169.1912757386325
 31
0.0
  0
INSERT
  5
22A
330
70
100
AcDbEntity
  8
Bemaßung (ISO)
100
AcDbBlockReference
  2
Block_26
 10
0.0
 20
0.0
 30
0.0
  0
INSERT
  5
237
330
70
100
AcDbEntity
  8
Bemaßung (ISO)
100
AcDbBlockReference
  2
Block_28
 10
0.0
 20
0.0
 30
0.0
  0
INSERT
  5
24C
330
70
100
AcDbEntity
  8
Bemaßung (ISO)
100
AcDbBlockReference
  2
Block_32
 10
0.0
 20
0.0
 30
0.0
  0
INSERT
  5
258
330
70
100
AcDbEntity
  8
Bemaßung (ISO)
100
AcDbBlockReference
  2
Block_34
 10
0.0
 20
0.0
 30
0.0
  0
INSERT
  5
264
330
70
100
AcDbEntity
  8
Bemaßung (ISO)
100
AcDbBlockReference
  2
Block_36
 10
0.0
 20
0.0
 30
0.0
  0
LINE
  5
270
330
70
100
AcDbEntity
  8
Bemaßung (ISO)
  6
AI-Linetype-0
 62
    18
420
        0
370
     5
100
AcDbLine
 10
113.5518533917181
 20
184.2326177093666
 30
0.0
 11
133.0581113187199
 21
184.2326177093666
 31
0.0
  0
LINE
  5
272
330
70
100
AcDbEntity
  8
Bemaßung (ISO)
 62
    18
420
        0
370
     5
100
AcDbLine
 10
109.1227406447343
 20
175.0872134707887
 30
0.0
 11
133.091659516255
 21
175.0872134707887
 31
0.0
  0
LINE
  5
273
330
70
100
AcDbEntity
  8
Bemaßung (ISO)
 62
    18
420
        0
370
     5
100
AcDbLine
 10
104.0954534739798
 20
174.1859134335082
 30
0.0
 11
127.618572272763
 21
174.1859134335082
 31
0.0
  0
LINE
  5
274
330
70
100
AcDbEntity
  8
Bemaßung (ISO)
 62
    18
420
        0
370
     5
100
AcDbLine
 10
104.0954534739798
 20
170.5136265792206
 30
0.0
 11
133.091659516255
 21
170.5136265792206
 31
0.0
  0
LINE
  5
275
330
70
100
AcDbEntity
  8
Bemaßung (ISO)
  6
AI-Linetype-1
 62
    18
420
        0
370
     5
100
AcDbLine
 10
131.0916595167541
 20
184.2326177093666
 30
0.0
 11
131.0916595167541
 21
186.2326177088664
 31
0.0
  0
INSERT
  5
278
330
70
100
AcDbEntity
  8
Bemaßung (ISO)
100
AcDbBlockReference
  2
Block_38
 10
0.0
 20
0.0
 30
0.0
  0
INSERT
  5
287
330
70
100
AcDbEntity
  8
Bemaßung (ISO)
100
AcDbBlockReference
  2
Block_41
 10
0.0
 20
0.0
 30
0.0
  0
LINE
  5
29B
330
70
100
AcDbEntity
  8
Bemaßung (ISO)
 62
    18
420
        0
370
     5
100
AcDbLine
 10
125.6185722732634
 20
170.5167702261538
 30
0.0
 11
125.6185722732634
 21
174.1966023327529
 31
0.0
  0
INSERT
  5
29D
330
70
100
AcDbEntity
  8
Bemaßung (ISO)
100
AcDbBlockReference
  2
Block_45
 10
0.0
 20
0.0
 30
0.0
  0
LWPOLYLINE
  5
2AB
330
70
100
AcDbEntity
  8
Bemaßung (ISO)
 62
    18
420
        0
370
     5
100
AcDbPolyline
 90
        1
 70
     0
 43
0.0
 10
125.6185722732634
 20
174.1859134335082
  0
LWPOLYLINE
  5
2AC
330
70
100
AcDbEntity
  8
Bemaßung (ISO)
 62
    18
420
        0
370
     5
100
AcDbPolyline
 90
        1
 70
     0
 43
0.0
 10
127.618572272763
 20
174.1859134335082
  0
LWPOLYLINE
  5
2AD
330
70
100
AcDbEntity
  8
Bemaßung (ISO)
 62
    18
420
   197121
370
    13
100
AcDbPolyline
 90
        1
 70
     0
 43
0.0
 10
141.0470008484276
 20
184.991777939293
  0
LWPOLYLINE
  5
2AE
330
70
100
AcDbEntity
  8
Bemaßung (ISO)
 62
    18
420
   197121
370
    13
100
AcDbPolyline
 90
        1
 70
     0
 43
0.0
 10
115.6185722757631
 20
184.991777939293
  0
ENDSEC
  0
SECTION
  2
OBJECTS
  0
DICTIONARY
  5
C
330
0
100
AcDbDictionary
281
     1
  3
ACAD_COLOR
350
63
  3
ACAD_DETAILVIEWSTYLE
350
6A
  3
ACAD_GROUP
350
D
  3
ACAD_LAYOUT
350
62
  3
ACAD_MATERIAL
350
10
  3
ACAD_MLEADERSTYLE
350
66
  3
ACAD_MLINESTYLE
350
5F
  3
ACAD_PLOTSETTINGS
350
61
  3
ACAD_PLOTSTYLENAME
350
E
  3
ACAD_SCALELIST
350
42
  3
ACAD_SECTIONVIEWSTYLE
350
68
  3
ACAD_TABLESTYLE
350
64
  3
ACAD_VISUALSTYLE
350
29
  3
ACDB_RECOMPOSE_DATA
350
2B7
  3
AcDbVariableDictionary
350
2AF
  0
DICTIONARY
  5
63
102
{ACAD_REACTORS
330
C
102
}
330
C
100
AcDbDictionary
281
     1
  0
DICTIONARY
  5
6A
102
{ACAD_REACTORS
330
C
102
}
330
C
100
AcDbDictionary
281
     1
  3
Imperial24
350
6B
  0
DICTIONARY
  5
D
102
{ACAD_REACTORS
330
C
102
}
330
C
100
AcDbDictionary
281
     1
  0
DICTIONARY
  5
62
102
{ACAD_REACTORS
330
C
102
}
330
C
100
AcDbDictionary
281
     1
  3
Layout1
350
6F
  3
Layout2
350
77
  3
Model
350
73
  0
DICTIONARY
  5
10
102
{ACAD_REACTORS
330
C
102
}
330
C
100
AcDbDictionary
281
     1
  3
ByBlock
350
19
  3
ByLayer
350
11
  3
Global
350
21
  0
DICTIONARY
  5
66
102
{ACAD_REACTORS
330
C
102
}
330
C
100
AcDbDictionary
281
     1
  3
Standard
350
67
  0
DICTIONARY
  5
5F
102
{ACAD_REACTORS
330
C
102
}
330
C
100
AcDbDictionary
281
     1
  3
Standard
350
60
  0
DICTIONARY
  5
61
102
{ACAD_REACTORS
330
C
102
}
330
C
100
AcDbDictionary
281
     1
  0
ACDBDICTIONARYWDFLT
  5
E
102
{ACAD_REACTORS
330
C
102
}
330
C
100
AcDbDictionary
281
     1
  3
Normal
350
F
100
AcDbDictionaryWithDefault
340
F
  0
DICTIONARY
  5
42
102
{ACAD_REACTORS
330
C
102
}
330
C
100
AcDbDictionary
281
     1
  3
A0
350
43
  3
A1
350
44
  3
A2
350
45
  3
A3
350
46
  3
A4
350
47
  3
A5
350
48
  3
A6
350
49
  3
A7
350
4A
  3
A8
350
4B
  3
A9
350
4C
  3
B0
350
4D
  3
B1
350
4E
  3
B2
350
4F
  3
B3
350
50
  3
B4
350
51
  3
B5
350
52
  3
B6
350
53
  0
DICTIONARY
  5
68
102
{ACAD_REACTORS
330
C
102
}
330
C
100
AcDbDictionary
281
     1
  3
Imperial24
350
69
  0
DICTIONARY
  5
64
102
{ACAD_REACTORS
330
C
102
}
330
C
100
AcDbDictionary
281
     1
  3
Standard
350
65
  0
DICTIONARY
  5
29
102
{ACAD_REACTORS
330
C
102
}
330
C
100
AcDbDictionary
281
     1
  3
2dWireframe
350
2F
  3
Basic
350
2E
  3
Brighten
350
35
  3
ColorChange
350
39
  3
Conceptual
350
32
  3
Dim
350
34
  3
EdgeColorOff
350
41
  3
Facepattern
350
38
  3
Flat
350
2A
  3
FlatWithEdges
350
2B
  3
Gouraud
350
2C
  3
GouraudWithEdges
350
2D
  3
Hidden
350
31
  3
JitterOff
350
3F
  3
Linepattern
350
37
  3
OverhangOff
350
40
  3
Realistic
350
33
  3
Shaded
350
3E
  3
Shaded with edges
350
3D
  3
Shades of Gray
350
3A
  3
Sketchy
350
3B
  3
Thicken
350
36
  3
Wireframe
350
30
  3
X-Ray
350
3C
  0
XRECORD
  5
2B7
102
{ACAD_REACTORS
330
C
102
}
330
C
100
AcDbXrecord
280
     1
 90
        1
330
65
  0
DICTIONARY
  5
2AF
102
{ACAD_REACTORS
330
C
102
}
330
C
100
AcDbDictionary
281
     1
  3
CANNOSCALE
350
2B4
  3
CMLEADERSTYLE
350
2B1
  3
CTABLESTYLE
350
2B0
  3
CVIEWDETAILSTYLE
350
2B2
  3
CVIEWSECTIONSTYLE
350
2B3
  0
ACDBDETAILVIEWSTYLE
  5
6B
102
{ACAD_REACTORS
330
6A
102
}
330
6A
100
AcDbModelDocViewStyle
 70
     0
  3
Imperial24
290
     1
300
Imperial24
 90
        0
100
AcDbDetailViewStyle
 70
     0
 71
     0
 90
        3
 71
     1
340
55
 62
   256
 40
0.24
340
0
 62
   256
 40
0.24
300

 40
0.36
280
     3
 71
     2
340
5D
 90
       25
 62
   256
 71
     3
340
55
 62
   256
 40
0.24
 90
        1
 40
0.75
 90
        1
300
%<\AcVar ViewType \f "%tc1">% %<\AcVar ViewDetailId>%\PSCALE %<\AcVar ViewScale \f "%sn">%
 71
     4
340
5D
 90
       25
 62
   256
340
5D
 90
       25
 62
   256
280
     0
  0
LAYOUT
  5
6F
102
{ACAD_REACTORS
330
62
102
}
330
62
100
AcDbPlotSettings
  1

  2

  4

  6

 40
0.0
 41
0.0
 42
0.0
 43
0.0
 44
0.0
 45
0.0
 46
0.0
 47
0.0
 48
0.0
 49
0.0
140
0.0
141
0.0
142
1.0
143
1.0
 70
   688
 72
     0
 73
     0
 74
     5
  7

 75
    16
147
1.0
 76
     0
 77
     2
 78
   300
148
0.0
149
0.0
100
AcDbLayout
  1
Layout1
 70
     1
 71
     1
 10
0.0
 20
0.0
 11
12.0
 21
9.0
 12
0.0
 22
0.0
 32
0.0
 14
0.0
 24
0.0
 34
0.0
 15
0.0
 25
0.0
 35
0.0
146
0.0
 13
0.0
 23
0.0
 33
0.0
 16
1.0
 26
0.0
 36
0.0
 17
0.0
 27
1.0
 37
0.0
 76
     0
330
6C
  0
LAYOUT
  5
77
102
{ACAD_REACTORS
330
62
102
}
330
62
100
AcDbPlotSettings
  1

  2

  4

  6

 40
0.0
 41
0.0
 42
0.0
 43
0.0
 44
0.0
 45
0.0
 46
0.0
 47
0.0
 48
0.0
 49
0.0
140
0.0
141
0.0
142
1.0
143
1.0
 70
   688
 72
     0
 73
     0
 74
     5
  7

 75
    16
147
1.0
 76
     0
 77
     2
 78
   300
148
0.0
149
0.0
100
AcDbLayout
  1
Layout2
 70
     1
 71
     2
 10
0.0
 20
0.0
 11
12.0
 21
9.0
 12
0.0
 22
0.0
 32
0.0
 14
0.0
 24
0.0
 34
0.0
 15
0.0
 25
0.0
 35
0.0
146
0.0
 13
0.0
 23
0.0
 33
0.0
 16
1.0
 26
0.0
 36
0.0
 17
0.0
 27
1.0
 37
0.0
 76
     0
330
74
  0
LAYOUT
  5
73
102
{ACAD_REACTORS
330
62
102
}
330
62
100
AcDbPlotSettings
  1

  2

  4

  6

 40
0.0
 41
0.0
 42
0.0
 43
0.0
 44
0.0
 45
0.0
 46
0.0
 47
0.0
 48
0.0
 49
0.0
140
0.0
141
0.0
142
1.0
143
1.0
 70
  1712
 72
     0
 73
     0
 74
     0
  7

 75
     0
147
1.0
 76
     0
 77
     2
 78
   300
148
0.0
149
0.0
100
AcDbLayout
  1
Model
 70
     1
 71
     0
 10
0.0
 20
0.0
 11
12.0
 21
9.0
 12
0.0
 22
0.0
 32
0.0
 14
0.0
 24
0.0
 34
0.0
 15
0.0
 25
0.0
 35
0.0
146
0.0
 13
0.0
 23
0.0
 33
0.0
 16
1.0
 26
0.0
 36
0.0
 17
0.0
 27
1.0
 37
0.0
 76
     0
330
70
  0
MATERIAL
  5
19
102
{ACAD_XDICTIONARY
360
1A
102
}
102
{ACAD_REACTORS
330
10
102
}
330
10
100
AcDbMaterial
  1
ByBlock
 72
     0
 43
0.0208333333333333
 43
0.0
 43
0.0
 43
0.0
 43
0.0
 43
0.0208333333333333
 43
0.0
 43
0.0
 43
0.0
 43
0.0
 43
1.0
 43
0.0
 43
0.0
 43
0.0
 43
0.0
 43
1.0
 77
     0
 47
0.0208333333333333
 47
0.0
 47
0.0
 47
0.0
 47
0.0
 47
0.0208333333333333
 47
0.0
 47
0.0
 47
0.0
 47
0.0
 47
1.0
 47
0.0
 47
0.0
 47
0.0
 47
0.0
 47
1.0
171
     0
 49
0.0208333333333333
 49
0.0
 49
0.0
 49
0.0
 49
0.0
 49
0.0208333333333333
 49
0.0
 49
0.0
 49
0.0
 49
0.0
 49
1.0
 49
0.0
 49
0.0
 49
0.0
 49
0.0
 49
1.0
175
     0
142
0.0208333333333333
142
0.0
142
0.0
142
0.0
142
0.0
142
0.0208333333333333
142
0.0
142
0.0
142
0.0
142
0.0
142
1.0
142
0.0
142
0.0
142
0.0
142
0.0
142
1.0
179
     0
144
0.0208333333333333
144
0.0
144
0.0
144
0.0
144
0.0
144
0.0208333333333333
144
0.0
144
0.0
144
0.0
144
0.0
144
1.0
144
0.0
144
0.0
144
0.0
144
0.0
144
1.0
147
0.0208333333333333
147
0.0
147
0.0
147
0.0
147
0.0
147
0.0208333333333333
147
0.0
147
0.0
147
0.0
147
0.0
147
1.0
147
0.0
147
0.0
147
0.0
147
0.0
147
1.0
  0
MATERIAL
  5
11
102
{ACAD_XDICTIONARY
360
12
102
}
102
{ACAD_REACTORS
330
10
102
}
330
10
100
AcDbMaterial
  1
ByLayer
 72
     0
 43
0.0208333333333333
 43
0.0
 43
0.0
 43
0.0
 43
0.0
 43
0.0208333333333333
 43
0.0
 43
0.0
 43
0.0
 43
0.0
 43
1.0
 43
0.0
 43
0.0
 43
0.0
 43
0.0
 43
1.0
 77
     0
 47
0.0208333333333333
 47
0.0
 47
0.0
 47
0.0
 47
0.0
 47
0.0208333333333333
 47
0.0
 47
0.0
 47
0.0
 47
0.0
 47
1.0
 47
0.0
 47
0.0
 47
0.0
 47
0.0
 47
1.0
171
     0
 49
0.0208333333333333
 49
0.0
 49
0.0
 49
0.0
 49
0.0
 49
0.0208333333333333
 49
0.0
 49
0.0
 49
0.0
 49
0.0
 49
1.0
 49
0.0
 49
0.0
 49
0.0
 49
0.0
 49
1.0
175
     0
142
0.0208333333333333
142
0.0
142
0.0
142
0.0
142
0.0
142
0.0208333333333333
142
0.0
142
0.0
142
0.0
142
0.0
142
1.0
142
0.0
142
0.0
142
0.0
142
0.0
142
1.0
179
     0
144
0.0208333333333333
144
0.0
144
0.0
144
0.0
144
0.0
144
0.0208333333333333
144
0.0
144
0.0
144
0.0
144
0.0
144
1.0
144
0.0
144
0.0
144
0.0
144
0.0
144
1.0
147
0.0208333333333333
147
0.0
147
0.0
147
0.0
147
0.0
147
0.0208333333333333
147
0.0
147
0.0
147
0.0
147
0.0
147
1.0
147
0.0
147
0.0
147
0.0
147
0.0
147
1.0
  0
MATERIAL
  5
21
102
{ACAD_XDICTIONARY
360
22
102
}
102
{ACAD_REACTORS
330
10
102
}
330
10
100
AcDbMaterial
  1
Global
 72
     0
 43
0.0208333333333333
 43
0.0
 43
0.0
 43
0.0
 43
0.0
 43
0.0208333333333333
 43
0.0
 43
0.0
 43
0.0
 43
0.0
 43
1.0
 43
0.0
 43
0.0
 43
0.0
 43
0.0
 43
1.0
 77
     0
 47
0.0208333333333333
 47
0.0
 47
0.0
 47
0.0
 47
0.0
 47
0.0208333333333333
 47
0.0
 47
0.0
 47
0.0
 47
0.0
 47
1.0
 47
0.0
 47
0.0
 47
0.0
 47
0.0
 47
1.0
171
     0
 49
0.0208333333333333
 49
0.0
 49
0.0
 49
0.0
 49
0.0
 49
0.0208333333333333
 49
0.0
 49
0.0
 49
0.0
 49
0.0
 49
1.0
 49
0.0
 49
0.0
 49
0.0
 49
0.0
 49
1.0
175
     0
142
0.0208333333333333
142
0.0
142
0.0
142
0.0
142
0.0
142
0.0208333333333333
142
0.0
142
0.0
142
0.0
142
0.0
142
1.0
142
0.0
142
0.0
142
0.0
142
0.0
142
1.0
179
     0
144
0.0208333333333333
144
0.0
144
0.0
144
0.0
144
0.0
144
0.0208333333333333
144
0.0
144
0.0
144
0.0
144
0.0
144
1.0
144
0.0
144
0.0
144
0.0
144
0.0
144
1.0
147
0.0208333333333333
147
0.0
147
0.0
147
0.0
147
0.0
147
0.0208333333333333
147
0.0
147
0.0
147
0.0
147
0.0
147
1.0
147
0.0
147
0.0
147
0.0
147
0.0
147
1.0
  0
MLEADERSTYLE
  5
67
102
{ACAD_REACTORS
330
66
102
}
330
66
100
AcDbMLeaderStyle
179
     2
170
     2
171
     1
172
     0
 90
        2
 40
0.0
 41
0.0
173
     1
 91
-1056964608
340
5B
 92
       -2
290
     1
 42
0.09
291
     1
 43
0.36
  3
Standard
 44
0.18
300

342
55
174
     1
178
     6
175
     1
176
     0
 93
-1056964608
 45
0.18
292
     0
297
     0
 46
0.18
 94
-1056964608
 47
1.0
 49
1.0
140
1.0
293
     1
141
0.0
294
     1
177
     0
142
1.0
295
     1
296
     0
143
0.125
271
     0
272
     9
273
     9
298
     1
  0
MLINESTYLE
  5
60
102
{ACAD_REACTORS
330
5F
102
}
330
5F
100
AcDbMlineStyle
  2
STANDARD
 70
     0
  3

 62
   256
 51
90.0
 52
90.0
 71
     2
 49
0.5
 62
   256
  6
BYLAYER
 49
-0.5
 62
   256
  6
BYLAYER
  0
ACDBPLACEHOLDER
  5
F
102
{ACAD_REACTORS
330
E
102
}
330
E
  0
SCALE
  5
43
102
{ACAD_REACTORS
330
42
102
}
330
42
100
AcDbScale
 70
     0
300
1:1
140
1.0
141
1.0
290
     1
  0
SCALE
  5
44
102
{ACAD_REACTORS
330
42
102
}
330
42
100
AcDbScale
 70
     0
300
1/128" = 1'-0"
140
0.0078125
141
12.0
290
     0
  0
SCALE
  5
45
102
{ACAD_REACTORS
330
42
102
}
330
42
100
AcDbScale
 70
     0
300
1/64" = 1'-0"
140
0.015625
141
12.0
290
     0
  0
SCALE
  5
46
102
{ACAD_REACTORS
330
42
102
}
330
42
100
AcDbScale
 70
     0
300
1/32" = 1'-0"
140
0.03125
141
12.0
290
     0
  0
SCALE
  5
47
102
{ACAD_REACTORS
330
42
102
}
330
42
100
AcDbScale
 70
     0
300
1/16" = 1'-0"
140
0.0625
141
12.0
290
     0
  0
SCALE
  5
48
102
{ACAD_REACTORS
330
42
102
}
330
42
100
AcDbScale
 70
     0
300
3/32" = 1'-0"
140
0.09375
141
12.0
290
     0
  0
SCALE
  5
49
102
{ACAD_REACTORS
330
42
102
}
330
42
100
AcDbScale
 70
     0
300
1/8" = 1'-0"
140
0.125
141
12.0
290
     0
  0
SCALE
  5
4A
102
{ACAD_REACTORS
330
42
102
}
330
42
100
AcDbScale
 70
     0
300
3/16" = 1'-0"
140
0.1875
141
12.0
290
     0
  0
SCALE
  5
4B
102
{ACAD_REACTORS
330
42
102
}
330
42
100
AcDbScale
 70
     0
300
1/4" = 1'-0"
140
0.25
141
12.0
290
     0
  0
SCALE
  5
4C
102
{ACAD_REACTORS
330
42
102
}
330
42
100
AcDbScale
 70
     0
300
3/8" = 1'-0"
140
0.375
141
12.0
290
     0
  0
SCALE
  5
4D
102
{ACAD_REACTORS
330
42
102
}
330
42
100
AcDbScale
 70
     0
300
1/2" = 1'-0"
140
0.5
141
12.0
290
     0
  0
SCALE
  5
4E
102
{ACAD_REACTORS
330
42
102
}
330
42
100
AcDbScale
 70
     0
300
3/4" = 1'-0"
140
0.75
141
12.0
290
     0
  0
SCALE
  5
4F
102
{ACAD_REACTORS
330
42
102
}
330
42
100
AcDbScale
 70
     0
300
1" = 1'-0"
140
1.0
141
12.0
290
     0
  0
SCALE
  5
50
102
{ACAD_REACTORS
330
42
102
}
330
42
100
AcDbScale
 70
     0
300
1-1/2" = 1'-0"
140
1.5
141
12.0
290
     0
  0
SCALE
  5
51
102
{ACAD_REACTORS
330
42
102
}
330
42
100
AcDbScale
 70
     0
300
3" = 1'-0"
140
3.0
141
12.0
290
     0
  0
SCALE
  5
52
102
{ACAD_REACTORS
330
42
102
}
330
42
100
AcDbScale
 70
     0
300
6" = 1'-0"
140
6.0
141
12.0
290
     0
  0
SCALE
  5
53
102
{ACAD_REACTORS
330
42
102
}
330
42
100
AcDbScale
 70
     0
300
1'-0" = 1'-0"
140
12.0
141
12.0
290
     0
  0
ACDBSECTIONVIEWSTYLE
  5
69
102
{ACAD_REACTORS
330
68
102
}
330
68
100
AcDbModelDocViewStyle
 70
     0
  3
Imperial24
290
     1
300
Imperial24
 90
        0
100
AcDbSectionViewStyle
 70
     0
 71
     0
 90
       78
 71
     1
340
55
 62
   256
 40
0.24
340
0
340
0
 62
   256
 40
0.24
300
I, O, Q, S, X, Z
 40
0.48
 90
        3
 40
0.18
 90
        1
 71
     2
340
5D
 90
       25
 62
   256
340
5D
 90
       50
 62
   256
 40
0.24
 40
0.0
 40
0.24
 71
     3
340
55
 62
   256
 40
0.24
 90
        1
 40
0.75
 90
        1
300
%<\AcVar ViewType \f "%tc1">% %<\AcVar ViewSectionStartId>%-%<\AcVar ViewSectionEndId>%\PSCALE %<\AcVar ViewScale \f "%sn">%
 71
     4
 62
   256
 62
   257
300
ANSI31
 40
1.0
 90
        0
290
     0
290
     0
 90
        6
 40
0.0
 40
1.570796326794896
 40
0.2617993877991494
 40
1.308996938995747
 40
-0.2617993877991494
 40
1.832595714594046
  0
TABLESTYLE
  5
65
102
{ACAD_XDICTIONARY
360
2B5
102
}
102
{ACAD_REACTORS
330
64
102
}
330
64
100
AcDbTableStyle
280
     0
  3
Standard
 70
     0
 71
     0
 40
0.06
 41
0.06
280
     0
281
     0
  7
Standard
140
0.18
170
     2
 62
     0
 63
     7
283
     0
 90
      512
 91
        0
  1

274
    -2
284
     1
 64
     0
275
    -2
285
     1
 65
     0
276
    -2
286
     1
 66
     0
277
    -2
287
     1
 67
     0
278
    -2
288
     1
 68
     0
279
    -2
289
     1
 69
     0
  7
Standard
140
0.25
170
     5
 62
     0
 63
     7
283
     0
 90
      512
 91
        0
  1

274
    -2
284
     1
 64
     0
275
    -2
285
     1
 65
     0
276
    -2
286
     1
 66
     0
277
    -2
287
     1
 67
     0
278
    -2
288
     1
 68
     0
279
    -2
289
     1
 69
     0
  7
Standard
140
0.18
170
     5
 62
     0
 63
     7
283
     0
 90
      512
 91
        0
  1

274
    -2
284
     1
 64
     0
275
    -2
285
     1
 65
     0
276
    -2
286
     1
 66
     0
277
    -2
287
     1
 67
     0
278
    -2
288
     1
 68
     0
279
    -2
289
     1
 69
     0
  0
VISUALSTYLE
  5
2F
102
{ACAD_REACTORS
330
29
102
}
330
29
100
AcDbVisualStyle
  2
2dWireframe
 70
     4
177
     3
291
     0
 70
    58
 90
        0
176
     1
 90
        2
176
     1
 90
        0
176
     1
 90
        0
176
     1
 40
0.6
176
     1
 40
30.0
176
     1
 62
     7
420
 16777215
176
     1
 90
        1
176
     1
 90
        4
176
     1
 62
     7
176
     1
 62
   257
176
     1
 90
        1
176
     1
 90
        1
176
     1
 40
1.0
176
     1
 90
        0
176
     1
 62
   257
176
     1
 40
1.0
176
     1
 90
        1
176
     1
 90
        6
176
     1
 90
        2
176
     1
 62
     7
176
     1
 90
        5
176
     1
 90
        0
176
     1
 90
        0
176
     1
290
     0
176
     1
 90
        1
176
     1
 40
0.0
176
     1
 90
        0
176
     1
290
     1
176
     1
290
     1
176
     1
290
     0
176
     1
290
     0
176
     1
290
     0
176
     1
290
     0
176
     1
290
     0
176
     1
290
     0
176
     1
290
     0
176
     1
 90
       50
176
     1
 40
0.0
176
     1
 40
1.0
176
     1
 90
        0
176
     1
 62
    18
420
        0
176
     1
 90
       50
176
     1
 90
        3
176
     1
 62
     5
420
      255
176
     1
290
     0
176
     1
 90
       50
176
     1
 90
       50
176
     1
 90
       50
176
     1
290
     0
176
     1
 90
       50
176
     1
 62
   256
176
     0
 40
1.0
176
     0
 90
        2
176
     1
  1
strokes_ogs.tif
176
     1
290
     0
176
     1
 40
1.0
176
     1
 40
1.0
176
     1
  0
VISUALSTYLE
  5
2E
102
{ACAD_REACTORS
330
29
102
}
330
29
100
AcDbVisualStyle
  2
Basic
 70
     7
177
     3
291
     1
 70
    58
 90
        1
176
     1
 90
        0
176
     1
 90
        1
176
     1
 90
        0
176
     1
 40
0.6
176
     1
 40
30.0
176
     1
 62
     7
420
 16777215
176
     1
 90
        0
176
     1
 90
        4
176
     1
 62
     7
176
     1
 62
   257
176
     1
 90
        1
176
     1
 90
        1
176
     1
 40
1.0
176
     1
 90
        8
176
     1
 62
     7
176
     1
 40
1.0
176
     1
 90
        1
176
     1
 90
        6
176
     1
 90
        2
176
     1
 62
     7
176
     1
 90
        5
176
     1
 90
        0
176
     1
 90
        0
176
     1
290
     0
176
     1
 90
        1
176
     1
 40
0.0
176
     1
 90
        0
176
     1
290
     0
176
     1
290
     1
176
     1
290
     1
176
     1
290
     0
176
     1
290
     0
176
     1
290
     0
176
     1
290
     0
176
     1
290
     0
176
     1
290
     0
176
     1
 90
       50
176
     1
 40
0.0
176
     1
 40
1.0
176
     1
 90
        0
176
     1
 62
    18
420
        0
176
     1
 90
       50
176
     1
 90
        3
176
     1
 62
     5
420
      255
176
     1
290
     0
176
     1
 90
       50
176
     1
 90
       50
176
     1
 90
       50
176
     1
290
     0
176
     1
 90
       50
176
     1
 62
   256
176
     0
 40
1.0
176
     0
 90
        2
176
     1
  1
strokes_ogs.tif
176
     1
290
     0
176
     1
 40
1.0
176
     1
 40
1.0
176
     1
  0
VISUALSTYLE
  5
35
102
{ACAD_REACTORS
330
29
102
}
330
29
100
AcDbVisualStyle
  2
Brighten
 70
    12
177
     3
291
     1
 70
    58
 90
        2
176
     1
 90
        2
176
     1
 90
        0
176
     1
 90
        0
176
     1
 40
0.6
176
     1
 40
30.0
176
     1
 62
     7
420
 16777215
176
     1
 90
        1
176
     1
 90
        4
176
     1
 62
     7
176
     1
 62
   257
176
     1
 90
        1
176
     1
 90
        1
176
     1
 40
1.0
176
     1
 90
        8
176
     1
 62
     7
176
     1
 40
1.0
176
     1
 90
        1
176
     1
 90
        6
176
     1
 90
        2
176
     1
 62
     7
176
     1
 90
        5
176
     1
 90
        0
176
     1
 90
        0
176
     1
290
     0
176
     1
 90
        1
176
     1
 40
50.0
176
     1
 90
        0
176
     1
290
     0
176
     1
290
     1
176
     1
290
     1
176
     1
290
     0
176
     1
290
     0
176
     1
290
     0
176
     1
290
     0
176
     1
290
     0
176
     1
290
     0
176
     1
 90
       50
176
     1
 40
0.0
176
     1
 40
1.0
176
     1
 90
        0
176
     1
 62
    18
420
        0
176
     1
 90
       50
176
     1
 90
        3
176
     1
 62
     5
420
      255
176
     1
290
     0
176
     1
 90
       50
176
     1
 90
       50
176
     1
 90
       50
176
     1
290
     0
176
     1
 90
       50
176
     1
 62
   256
176
     0
 40
1.0
176
     0
 90
        2
176
     1
  1
strokes_ogs.tif
176
     1
290
     0
176
     1
 40
1.0
176
     1
 40
1.0
176
     1
  0
VISUALSTYLE
  5
39
102
{ACAD_REACTORS
330
29
102
}
330
29
100
AcDbVisualStyle
  2
ColorChange
 70
    16
177
     3
291
     1
 70
    58
 90
        2
176
     1
 90
        2
176
     1
 90
        3
176
     1
 90
        0
176
     1
 40
0.6
176
     1
 40
30.0
176
     1
 62
     8
420
  8421504
176
     1
 90
        1
176
     1
 90
        4
176
     1
 62
     7
176
     1
 62
   257
176
     1
 90
        1
176
     1
 90
        1
176
     1
 40
1.0
176
     1
 90
        8
176
     1
 62
     8
420
  8421504
176
     1
 40
1.0
176
     1
 90
        1
176
     1
 90
        6
176
     1
 90
        2
176
     1
 62
     7
176
     1
 90
        5
176
     1
 90
        0
176
     1
 90
        0
176
     1
290
     0
176
     1
 90
        1
176
     1
 40
0.0
176
     1
 90
        0
176
     1
290
     0
176
     1
290
     1
176
     1
290
     1
176
     1
290
     0
176
     1
290
     0
176
     1
290
     0
176
     1
290
     0
176
     1
290
     0
176
     1
290
     0
176
     1
 90
       50
176
     1
 40
0.0
176
     1
 40
1.0
176
     1
 90
        0
176
     1
 62
    18
420
        0
176
     1
 90
       50
176
     1
 90
        3
176
     1
 62
     5
420
      255
176
     1
290
     0
176
     1
 90
       50
176
     1
 90
       50
176
     1
 90
       50
176
     1
290
     0
176
     1
 90
       50
176
     1
 62
   256
176
     0
 40
1.0
176
     0
 90
        2
176
     1
  1
strokes_ogs.tif
176
     1
290
     0
176
     1
 40
1.0
176
     1
 40
1.0
176
     1
  0
VISUALSTYLE
  5
32
102
{ACAD_REACTORS
330
29
102
}
330
29
100
AcDbVisualStyle
  2
Conceptual
 70
     9
177
     3
291
     0
 70
    58
 90
        3
176
     1
 90
        2
176
     1
 90
        0
176
     1
 90
        0
176
     1
 40
0.6
176
     1
 40
30.0
176
     1
 62
     7
420
 16777215
176
     1
 90
        2
176
     1
 90
        2
176
     1
 62
     7
176
     1
 62
   257
176
     1
 90
        1
176
     1
 90
        1
176
     1
 40
179.0
176
     1
 90
        8
176
     1
 62
     7
176
     1
 40
1.0
176
     1
 90
        1
176
     1
 90
        6
176
     1
 90
        2
176
     1
 62
     7
176
     1
 90
        3
176
     1
 90
        0
176
     1
 90
        0
176
     1
290
     0
176
     1
 90
        1
176
     1
 40
0.0
176
     1
 90
        0
176
     1
290
     0
176
     1
290
     1
176
     1
290
     1
176
     1
290
     0
176
     1
290
     0
176
     1
290
     0
176
     1
290
     0
176
     1
290
     0
176
     1
290
     0
176
     1
 90
       50
176
     1
 40
0.0
176
     1
 40
1.0
176
     1
 90
        0
176
     1
 62
    18
420
        0
176
     1
 90
       50
176
     1
 90
        3
176
     1
 62
     5
420
      255
176
     1
290
     0
176
     1
 90
       50
176
     1
 90
       50
176
     1
 90
       50
176
     1
290
     0
176
     1
 90
       50
176
     1
 62
   256
176
     0
 40
1.0
176
     0
 90
        2
176
     1
  1
strokes_ogs.tif
176
     1
290
     0
176
     1
 40
1.0
176
     1
 40
1.0
176
     1
  0
VISUALSTYLE
  5
34
102
{ACAD_REACTORS
330
29
102
}
330
29
100
AcDbVisualStyle
  2
Dim
 70
    11
177
     3
291
     1
 70
    58
 90
        2
176
     1
 90
        2
176
     1
 90
        0
176
     1
 90
        0
176
     1
 40
0.6
176
     1
 40
30.0
176
     1
 62
     7
420
 16777215
176
     1
 90
        1
176
     1
 90
        4
176
     1
 62
     7
176
     1
 62
   257
176
     1
 90
        1
176
     1
 90
        1
176
     1
 40
1.0
176
     1
 90
        8
176
     1
 62
     7
176
     1
 40
1.0
176
     1
 90
        1
176
     1
 90
        6
176
     1
 90
        2
176
     1
 62
     7
176
     1
 90
        5
176
     1
 90
        0
176
     1
 90
        0
176
     1
290
     0
176
     1
 90
        1
176
     1
 40
-50.0
176
     1
 90
        0
176
     1
290
     0
176
     1
290
     1
176
     1
290
     1
176
     1
290
     0
176
     1
290
     0
176
     1
290
     0
176
     1
290
     0
176
     1
290
     0
176
     1
290
     0
176
     1
 90
       50
176
     1
 40
0.0
176
     1
 40
1.0
176
     1
 90
        0
176
     1
 62
    18
420
        0
176
     1
 90
       50
176
     1
 90
        3
176
     1
 62
     5
420
      255
176
     1
290
     0
176
     1
 90
       50
176
     1
 90
       50
176
     1
 90
       50
176
     1
290
     0
176
     1
 90
       50
176
     1
 62
   256
176
     0
 40
1.0
176
     0
 90
        2
176
     1
  1
strokes_ogs.tif
176
     1
290
     0
176
     1
 40
1.0
176
     1
 40
1.0
176
     1
  0
VISUALSTYLE
  5
41
102
{ACAD_REACTORS
330
29
102
}
330
29
100
AcDbVisualStyle
  2
EdgeColorOff
 70
    22
177
     3
291
     1
 70
    58
 90
        2
176
     0
 90
        2
176
     0
 90
        0
176
     0
 90
        0
176
     0
 40
0.6
176
     0
 40
30.0
176
     0
 62
     7
420
 16777215
176
     0
 90
        1
176
     0
 90
        4
176
     0
 62
     7
176
     0
 62
   257
176
     0
 90
        1
176
     0
 90
        1
176
     0
 40
1.0
176
     0
 90
        8
176
     2
 62
     7
176
     0
 40
1.0
176
     0
 90
        1
176
     0
 90
        6
176
     0
 90
        2
176
     0
 62
     7
176
     0
 90
        5
176
     0
 90
        0
176
     0
 90
        0
176
     0
290
     0
176
     0
 90
        1
176
     0
 40
0.0
176
     0
 90
        0
176
     0
290
     0
176
     0
290
     1
176
     0
290
     1
176
     0
290
     0
176
     0
290
     0
176
     0
290
     0
176
     0
290
     0
176
     0
290
     0
176
     0
290
     0
176
     0
 90
       50
176
     0
 40
0.0
176
     0
 40
1.0
176
     0
 90
        0
176
     0
 62
    18
420
        0
176
     0
 90
       50
176
     0
 90
        3
176
     0
 62
     5
420
      255
176
     0
290
     0
176
     0
 90
       50
176
     0
 90
       50
176
     0
 90
       50
176
     0
290
     0
176
     0
 90
       50
176
     0
 62
   256
176
     0
 40
1.0
176
     0
 90
        2
176
     0
  1
strokes_ogs.tif
176
     0
290
     0
176
     0
 40
1.0
176
     0
 40
1.0
176
     0
  0
VISUALSTYLE
  5
38
102
{ACAD_REACTORS
330
29
102
}
330
29
100
AcDbVisualStyle
  2
Facepattern
 70
    15
177
     3
291
     1
 70
    58
 90
        2
176
     1
 90
        2
176
     1
 90
        0
176
     1
 90
        0
176
     1
 40
0.6
176
     1
 40
30.0
176
     1
 62
     7
420
 16777215
176
     1
 90
        1
176
     1
 90
        4
176
     1
 62
     7
176
     1
 62
   257
176
     1
 90
        1
176
     1
 90
        1
176
     1
 40
1.0
176
     1
 90
        8
176
     1
 62
     7
176
     1
 40
1.0
176
     1
 90
        1
176
     1
 90
        6
176
     1
 90
        2
176
     1
 62
     7
176
     1
 90
        5
176
     1
 90
        0
176
     1
 90
        0
176
     1
290
     0
176
     1
 90
        1
176
     1
 40
0.0
176
     1
 90
        0
176
     1
290
     0
176
     1
290
     1
176
     1
290
     1
176
     1
290
     0
176
     1
290
     0
176
     1
290
     0
176
     1
290
     0
176
     1
290
     0
176
     1
290
     0
176
     1
 90
       50
176
     1
 40
0.0
176
     1
 40
1.0
176
     1
 90
        0
176
     1
 62
    18
420
        0
176
     1
 90
       50
176
     1
 90
        3
176
     1
 62
     5
420
      255
176
     1
290
     0
176
     1
 90
       50
176
     1
 90
       50
176
     1
 90
       50
176
     1
290
     0
176
     1
 90
       50
176
     1
 62
   256
176
     0
 40
1.0
176
     0
 90
        2
176
     1
  1
strokes_ogs.tif
176
     1
290
     0
176
     1
 40
1.0
176
     1
 40
1.0
176
     1
  0
VISUALSTYLE
  5
2A
102
{ACAD_REACTORS
330
29
102
}
330
29
100
AcDbVisualStyle
  2
Flat
 70
     0
177
     3
291
     1
 70
    58
 90
        2
176
     1
 90
        1
176
     1
 90
        1
176
     1
 90
        2
176
     1
 40
0.6
176
     1
 40
30.0
176
     1
 62
     7
420
 16777215
176
     1
 90
        0
176
     1
 90
        0
176
     1
 62
     7
176
     1
 62
   257
176
     1
 90
        1
176
     1
 90
        1
176
     1
 40
1.0
176
     1
 90
        8
176
     1
 62
     7
176
     1
 40
1.0
176
     1
 90
        1
176
     1
 90
        6
176
     1
 90
        2
176
     1
 62
     7
176
     1
 90
        5
176
     1
 90
        0
176
     1
 90
        0
176
     1
290
     0
176
     1
 90
       13
176
     1
 40
0.0
176
     1
 90
        0
176
     1
290
     0
176
     1
290
     1
176
     1
290
     1
176
     1
290
     0
176
     1
290
     0
176
     1
290
     0
176
     1
290
     0
176
     1
290
     0
176
     1
290
     0
176
     1
 90
       50
176
     1
 40
0.0
176
     1
 40
1.0
176
     1
 90
        0
176
     1
 62
    18
420
        0
176
     1
 90
       50
176
     1
 90
        3
176
     1
 62
     5
420
      255
176
     1
290
     0
176
     1
 90
       50
176
     1
 90
       50
176
     1
 90
       50
176
     1
290
     0
176
     1
 90
       50
176
     1
 62
   256
176
     0
 40
1.0
176
     0
 90
        2
176
     1
  1
strokes_ogs.tif
176
     1
290
     0
176
     1
 40
1.0
176
     1
 40
1.0
176
     1
  0
VISUALSTYLE
  5
2B
102
{ACAD_REACTORS
330
29
102
}
330
29
100
AcDbVisualStyle
  2
FlatWithEdges
 70
     1
177
     3
291
     1
 70
    58
 90
        2
176
     1
 90
        1
176
     1
 90
        1
176
     1
 90
        2
176
     1
 40
0.6
176
     1
 40
30.0
176
     1
 62
     7
420
 16777215
176
     1
 90
        1
176
     1
 90
        0
176
     1
 62
     7
176
     1
 62
   257
176
     1
 90
        1
176
     1
 90
        1
176
     1
 40
1.0
176
     1
 90
        0
176
     1
 62
   257
176
     1
 40
1.0
176
     1
 90
        1
176
     1
 90
        6
176
     1
 90
        2
176
     1
 62
     7
176
     1
 90
        5
176
     1
 90
        0
176
     1
 90
        0
176
     1
290
     0
176
     1
 90
       13
176
     1
 40
0.0
176
     1
 90
        0
176
     1
290
     0
176
     1
290
     1
176
     1
290
     1
176
     1
290
     0
176
     1
290
     0
176
     1
290
     0
176
     1
290
     0
176
     1
290
     0
176
     1
290
     0
176
     1
 90
       50
176
     1
 40
0.0
176
     1
 40
1.0
176
     1
 90
        0
176
     1
 62
    18
420
        0
176
     1
 90
       50
176
     1
 90
        3
176
     1
 62
     5
420
      255
176
     1
290
     0
176
     1
 90
       50
176
     1
 90
       50
176
     1
 90
       50
176
     1
290
     0
176
     1
 90
       50
176
     1
 62
   256
176
     0
 40
1.0
176
     0
 90
        2
176
     1
  1
strokes_ogs.tif
176
     1
290
     0
176
     1
 40
1.0
176
     1
 40
1.0
176
     1
  0
VISUALSTYLE
  5
2C
102
{ACAD_REACTORS
330
29
102
}
330
29
100
AcDbVisualStyle
  2
Gouraud
 70
     2
177
     3
291
     1
 70
    58
 90
        2
176
     1
 90
        2
176
     1
 90
        1
176
     1
 90
        2
176
     1
 40
0.6
176
     1
 40
30.0
176
     1
 62
     7
420
 16777215
176
     1
 90
        0
176
     1
 90
        0
176
     1
 62
     7
176
     1
 62
   257
176
     1
 90
        1
176
     1
 90
        1
176
     1
 40
1.0
176
     1
 90
        0
176
     1
 62
     7
176
     1
 40
1.0
176
     1
 90
        1
176
     1
 90
        6
176
     1
 90
        2
176
     1
 62
     7
176
     1
 90
        5
176
     1
 90
        0
176
     1
 90
        0
176
     1
290
     0
176
     1
 90
       13
176
     1
 40
0.0
176
     1
 90
        0
176
     1
290
     0
176
     1
290
     1
176
     1
290
     1
176
     1
290
     0
176
     1
290
     0
176
     1
290
     0
176
     1
290
     0
176
     1
290
     0
176
     1
290
     0
176
     1
 90
       50
176
     1
 40
0.0
176
     1
 40
1.0
176
     1
 90
        0
176
     1
 62
    18
420
        0
176
     1
 90
       50
176
     1
 90
        3
176
     1
 62
     5
420
      255
176
     1
290
     0
176
     1
 90
       50
176
     1
 90
       50
176
     1
 90
       50
176
     1
290
     0
176
     1
 90
       50
176
     1
 62
   256
176
     0
 40
1.0
176
     0
 90
        2
176
     1
  1
strokes_ogs.tif
176
     1
290
     0
176
     1
 40
1.0
176
     1
 40
1.0
176
     1
  0
VISUALSTYLE
  5
2D
102
{ACAD_REACTORS
330
29
102
}
330
29
100
AcDbVisualStyle
  2
GouraudWithEdges
 70
     3
177
     3
291
     1
 70
    58
 90
        2
176
     1
 90
        2
176
     1
 90
        1
176
     1
 90
        2
176
     1
 40
0.6
176
     1
 40
30.0
176
     1
 62
     7
420
 16777215
176
     1
 90
        1
176
     1
 90
        0
176
     1
 62
     7
176
     1
 62
   257
176
     1
 90
        1
176
     1
 90
        1
176
     1
 40
1.0
176
     1
 90
        0
176
     1
 62
   257
176
     1
 40
1.0
176
     1
 90
        1
176
     1
 90
        6
176
     1
 90
        2
176
     1
 62
     7
176
     1
 90
        5
176
     1
 90
        0
176
     1
 90
        0
176
     1
290
     0
176
     1
 90
       13
176
     1
 40
0.0
176
     1
 90
        0
176
     1
290
     0
176
     1
290
     1
176
     1
290
     1
176
     1
290
     0
176
     1
290
     0
176
     1
290
     0
176
     1
290
     0
176
     1
290
     0
176
     1
290
     0
176
     1
 90
       50
176
     1
 40
0.0
176
     1
 40
1.0
176
     1
 90
        0
176
     1
 62
    18
420
        0
176
     1
 90
       50
176
     1
 90
        3
176
     1
 62
     5
420
      255
176
     1
290
     0
176
     1
 90
       50
176
     1
 90
       50
176
     1
 90
       50
176
     1
290
     0
176
     1
 90
       50
176
     1
 62
   256
176
     0
 40
1.0
176
     0
 90
        2
176
     1
  1
strokes_ogs.tif
176
     1
290
     0
176
     1
 40
1.0
176
     1
 40
1.0
176
     1
  0
VISUALSTYLE
  5
31
102
{ACAD_REACTORS
330
29
102
}
330
29
100
AcDbVisualStyle
  2
Hidden
 70
     6
177
     3
291
     0
 70
    58
 90
        1
176
     1
 90
        2
176
     1
 90
        2
176
     1
 90
        0
176
     1
 40
0.6
176
     1
 40
30.0
176
     1
 62
     7
420
 16777215
176
     1
 90
        2
176
     1
 90
        2
176
     1
 62
     7
176
     1
 62
   257
176
     1
 90
        2
176
     1
 90
        1
176
     1
 40
40.0
176
     1
 90
        0
176
     1
 62
   257
176
     1
 40
1.0
176
     1
 90
        1
176
     1
 90
        6
176
     1
 90
        2
176
     1
 62
     7
176
     1
 90
        3
176
     1
 90
        0
176
     1
 90
        0
176
     1
290
     0
176
     1
 90
        1
176
     1
 40
0.0
176
     1
 90
        0
176
     1
290
     0
176
     1
290
     1
176
     1
290
     1
176
     1
290
     0
176
     1
290
     0
176
     1
290
     0
176
     1
290
     0
176
     1
290
     0
176
     1
290
     0
176
     1
 90
       50
176
     1
 40
0.0
176
     1
 40
1.0
176
     1
 90
        0
176
     1
 62
    18
420
        0
176
     1
 90
       50
176
     1
 90
        3
176
     1
 62
     5
420
      255
176
     1
290
     0
176
     1
 90
       50
176
     1
 90
       50
176
     1
 90
       50
176
     1
290
     0
176
     1
 90
       50
176
     1
 62
   256
176
     0
 40
1.0
176
     0
 90
        2
176
     1
  1
strokes_ogs.tif
176
     1
290
     0
176
     1
 40
1.0
176
     1
 40
1.0
176
     1
  0
VISUALSTYLE
  5
3F
102
{ACAD_REACTORS
330
29
102
}
330
29
100
AcDbVisualStyle
  2
JitterOff
 70
    20
177
     3
291
     1
 70
    58
 90
        2
176
     0
 90
        2
176
     0
 90
        0
176
     0
 90
        0
176
     0
 40
0.6
176
     0
 40
30.0
176
     0
 62
     7
420
 16777215
176
     0
 90
        1
176
     0
 90
        4
176
     0
 62
     7
176
     0
 62
   257
176
     0
 90
        1
176
     0
 90
        1
176
     0
 40
1.0
176
     0
 90
       10
176
     2
 62
     7
176
     0
 40
1.0
176
     0
 90
        1
176
     0
 90
        6
176
     0
 90
        2
176
     0
 62
     7
176
     0
 90
        5
176
     0
 90
        0
176
     0
 90
        0
176
     0
290
     0
176
     0
 90
        1
176
     0
 40
0.0
176
     0
 90
        0
176
     0
290
     0
176
     0
290
     1
176
     0
290
     1
176
     0
290
     0
176
     0
290
     0
176
     0
290
     0
176
     0
290
     0
176
     0
290
     0
176
     0
290
     0
176
     0
 90
       50
176
     0
 40
0.0
176
     0
 40
1.0
176
     0
 90
        0
176
     0
 62
    18
420
        0
176
     0
 90
       50
176
     0
 90
        3
176
     0
 62
     5
420
      255
176
     0
290
     0
176
     0
 90
       50
176
     0
 90
       50
176
     0
 90
       50
176
     0
290
     0
176
     0
 90
       50
176
     0
 62
   256
176
     0
 40
1.0
176
     0
 90
        2
176
     0
  1
strokes_ogs.tif
176
     0
290
     0
176
     0
 40
1.0
176
     0
 40
1.0
176
     0
  0
VISUALSTYLE
  5
37
102
{ACAD_REACTORS
330
29
102
}
330
29
100
AcDbVisualStyle
  2
Linepattern
 70
    14
177
     3
291
     1
 70
    58
 90
        2
176
     1
 90
        2
176
     1
 90
        0
176
     1
 90
        0
176
     1
 40
0.6
176
     1
 40
30.0
176
     1
 62
     7
420
 16777215
176
     1
 90
        1
176
     1
 90
        4
176
     1
 62
     7
176
     1
 62
   257
176
     1
 90
        7
176
     1
 90
        7
176
     1
 40
1.0
176
     1
 90
        8
176
     1
 62
     7
176
     1
 40
1.0
176
     1
 90
        1
176
     1
 90
        6
176
     1
 90
        2
176
     1
 62
     7
176
     1
 90
        5
176
     1
 90
        0
176
     1
 90
        0
176
     1
290
     0
176
     1
 90
        1
176
     1
 40
0.0
176
     1
 90
        0
176
     1
290
     0
176
     1
290
     1
176
     1
290
     1
176
     1
290
     0
176
     1
290
     0
176
     1
290
     0
176
     1
290
     0
176
     1
290
     0
176
     1
290
     0
176
     1
 90
       50
176
     1
 40
0.0
176
     1
 40
1.0
176
     1
 90
        0
176
     1
 62
    18
420
        0
176
     1
 90
       50
176
     1
 90
        3
176
     1
 62
     5
420
      255
176
     1
290
     0
176
     1
 90
       50
176
     1
 90
       50
176
     1
 90
       50
176
     1
290
     0
176
     1
 90
       50
176
     1
 62
   256
176
     0
 40
1.0
176
     0
 90
        2
176
     1
  1
strokes_ogs.tif
176
     1
290
     0
176
     1
 40
1.0
176
     1
 40
1.0
176
     1
  0
VISUALSTYLE
  5
40
102
{ACAD_REACTORS
330
29
102
}
330
29
100
AcDbVisualStyle
  2
OverhangOff
 70
    21
177
     3
291
     1
 70
    58
 90
        2
176
     0
 90
        2
176
     0
 90
        0
176
     0
 90
        0
176
     0
 40
0.6
176
     0
 40
30.0
176
     0
 62
     7
420
 16777215
176
     0
 90
        1
176
     0
 90
        4
176
     0
 62
     7
176
     0
 62
   257
176
     0
 90
        1
176
     0
 90
        1
176
     0
 40
1.0
176
     0
 90
        9
176
     2
 62
     7
176
     0
 40
1.0
176
     0
 90
        1
176
     0
 90
        6
176
     0
 90
        2
176
     0
 62
     7
176
     0
 90
        5
176
     0
 90
        0
176
     0
 90
        0
176
     0
290
     0
176
     0
 90
        1
176
     0
 40
0.0
176
     0
 90
        0
176
     0
290
     0
176
     0
290
     1
176
     0
290
     1
176
     0
290
     0
176
     0
290
     0
176
     0
290
     0
176
     0
290
     0
176
     0
290
     0
176
     0
290
     0
176
     0
 90
       50
176
     0
 40
0.0
176
     0
 40
1.0
176
     0
 90
        0
176
     0
 62
    18
420
        0
176
     0
 90
       50
176
     0
 90
        3
176
     0
 62
     5
420
      255
176
     0
290
     0
176
     0
 90
       50
176
     0
 90
       50
176
     0
 90
       50
176
     0
290
     0
176
     0
 90
       50
176
     0
 62
   256
176
     0
 40
1.0
176
     0
 90
        2
176
     0
  1
strokes_ogs.tif
176
     0
290
     0
176
     0
 40
1.0
176
     0
 40
1.0
176
     0
  0
VISUALSTYLE
  5
33
102
{ACAD_REACTORS
330
29
102
}
330
29
100
AcDbVisualStyle
  2
Realistic
 70
     8
177
     3
291
     0
 70
    58
 90
        2
176
     1
 90
        3
176
     1
 90
        0
176
     1
 90
        2
176
     1
 40
0.6
176
     1
 40
30.0
176
     1
 62
     7
420
 16777215
176
     1
 90
        0
176
     1
 90
        0
176
     1
 62
     7
176
     1
 62
   257
176
     1
 90
        1
176
     1
 90
        1
176
     1
 40
1.0
176
     1
 90
        8
176
     1
 62
   257
176
     1
 40
1.0
176
     1
 90
        1
176
     1
 90
        6
176
     1
 90
        2
176
     1
 62
     7
176
     1
 90
        3
176
     1
 90
        0
176
     1
 90
        0
176
     1
290
     0
176
     1
 90
       13
176
     1
 40
0.0
176
     1
 90
        0
176
     1
290
     0
176
     1
290
     1
176
     1
290
     1
176
     1
290
     0
176
     1
290
     0
176
     1
290
     0
176
     1
290
     0
176
     1
290
     0
176
     1
290
     0
176
     1
 90
       50
176
     1
 40
0.0
176
     1
 40
1.0
176
     1
 90
        0
176
     1
 62
    18
420
        0
176
     1
 90
       50
176
     1
 90
        3
176
     1
 62
     5
420
      255
176
     1
290
     0
176
     1
 90
       50
176
     1
 90
       50
176
     1
 90
       50
176
     1
290
     0
176
     1
 90
       50
176
     1
 62
   256
176
     0
 40
1.0
176
     0
 90
        2
176
     1
  1
strokes_ogs.tif
176
     1
290
     0
176
     1
 40
1.0
176
     1
 40
1.0
176
     1
  0
VISUALSTYLE
  5
3E
102
{ACAD_REACTORS
330
29
102
}
330
29
100
AcDbVisualStyle
  2
Shaded
 70
    27
177
     3
291
     0
 70
    58
 90
        2
176
     1
 90
        2
176
     1
 90
        1
176
     1
 90
        2
176
     1
 40
0.6
176
     1
 40
30.0
176
     1
 62
     7
420
 16777215
176
     1
 90
        0
176
     1
 90
        4
176
     1
 62
     7
176
     1
 62
   257
176
     1
 90
        1
176
     1
 90
        1
176
     1
 40
1.0
176
     1
 90
        8
176
     1
 62
   257
176
     1
 40
1.0
176
     1
 90
        1
176
     1
 90
        6
176
     1
 90
        2
176
     1
 62
     8
420
  7895160
176
     1
 90
        3
176
     1
 90
        0
176
     1
 90
        0
176
     1
290
     0
176
     1
 90
        5
176
     1
 40
0.0
176
     1
 90
        0
176
     1
290
     0
176
     1
290
     1
176
     1
290
     1
176
     1
290
     0
176
     1
290
     0
176
     1
290
     0
176
     1
290
     0
176
     1
290
     0
176
     1
290
     0
176
     1
 90
       50
176
     1
 40
0.0
176
     1
 40
1.0
176
     1
 90
        0
176
     1
 62
    18
420
        0
176
     1
 90
       50
176
     1
 90
        3
176
     1
 62
     5
420
      255
176
     1
290
     0
176
     1
 90
       50
176
     1
 90
       50
176
     1
 90
       50
176
     1
290
     0
176
     1
 90
       50
176
     1
 62
   256
176
     0
 40
1.0
176
     0
 90
        2
176
     1
  1
strokes_ogs.tif
176
     1
290
     0
176
     1
 40
1.0
176
     1
 40
1.0
176
     1
  0
VISUALSTYLE
  5
3D
102
{ACAD_REACTORS
330
29
102
}
330
29
100
AcDbVisualStyle
  2
Shaded with edges
 70
    26
177
     3
291
     0
 70
    58
 90
        2
176
     1
 90
        2
176
     1
 90
        1
176
     1
 90
        2
176
     1
 40
0.6
176
     1
 40
30.0
176
     1
 62
     7
420
 16777215
176
     1
 90
        1
176
     1
 90
        2
176
     1
 62
     7
176
     1
 62
   257
176
     1
 90
        2
176
     1
 90
        1
176
     1
 40
1.0
176
     1
 90
        8
176
     1
 62
   257
176
     1
 40
1.0
176
     1
 90
        1
176
     1
 90
        6
176
     1
 90
        2
176
     1
 62
     7
176
     1
 90
        3
176
     1
 90
        0
176
     1
 90
        0
176
     1
290
     0
176
     1
 90
        5
176
     1
 40
0.0
176
     1
 90
        0
176
     1
290
     0
176
     1
290
     1
176
     1
290
     1
176
     1
290
     0
176
     1
290
     0
176
     1
290
     0
176
     1
290
     0
176
     1
290
     0
176
     1
290
     0
176
     1
 90
       50
176
     1
 40
0.0
176
     1
 40
1.0
176
     1
 90
        0
176
     1
 62
    18
420
        0
176
     1
 90
       50
176
     1
 90
        3
176
     1
 62
     5
420
      255
176
     1
290
     0
176
     1
 90
       50
176
     1
 90
       50
176
     1
 90
       50
176
     1
290
     0
176
     1
 90
       50
176
     1
 62
   256
176
     0
 40
1.0
176
     0
 90
        2
176
     1
  1
strokes_ogs.tif
176
     1
290
     0
176
     1
 40
1.0
176
     1
 40
1.0
176
     1
  0
VISUALSTYLE
  5
3A
102
{ACAD_REACTORS
330
29
102
}
330
29
100
AcDbVisualStyle
  2
Shades of Gray
 70
    23
177
     3
291
     0
 70
    58
 90
        2
176
     1
 90
        2
176
     1
 90
        3
176
     1
 90
        0
176
     1
 40
0.6
176
     1
 40
30.0
176
     1
 62
     7
420
 16777215
176
     1
 90
        2
176
     1
 90
        2
176
     1
 62
     7
176
     1
 62
     7
176
     1
 90
        1
176
     1
 90
        1
176
     1
 40
40.0
176
     1
 90
        8
176
     1
 62
     7
176
     1
 40
1.0
176
     1
 90
        1
176
     1
 90
        6
176
     1
 90
        2
176
     1
 62
     7
176
     1
 90
        3
176
     1
 90
        0
176
     1
 90
        0
176
     1
290
     0
176
     1
 90
        1
176
     1
 40
0.0
176
     1
 90
        0
176
     1
290
     0
176
     1
290
     1
176
     1
290
     1
176
     1
290
     0
176
     1
290
     0
176
     1
290
     0
176
     1
290
     0
176
     1
290
     0
176
     1
290
     0
176
     1
 90
       50
176
     1
 40
0.0
176
     1
 40
1.0
176
     1
 90
        0
176
     1
 62
    18
420
        0
176
     1
 90
       50
176
     1
 90
        3
176
     1
 62
     5
420
      255
176
     1
290
     0
176
     1
 90
       50
176
     1
 90
       50
176
     1
 90
       50
176
     1
290
     0
176
     1
 90
       50
176
     1
 62
   256
176
     0
 40
1.0
176
     0
 90
        2
176
     1
  1
strokes_ogs.tif
176
     1
290
     0
176
     1
 40
1.0
176
     1
 40
1.0
176
     1
  0
VISUALSTYLE
  5
3B
102
{ACAD_REACTORS
330
29
102
}
330
29
100
AcDbVisualStyle
  2
Sketchy
 70
    24
177
     3
291
     0
 70
    58
 90
        1
176
     1
 90
        2
176
     1
 90
        2
176
     1
 90
        0
176
     1
 40
0.6
176
     1
 40
30.0
176
     1
 62
     7
420
 16777215
176
     1
 90
        2
176
     1
 90
        2
176
     1
 62
     7
176
     1
 62
     7
176
     1
 90
        1
176
     1
 90
        1
176
     1
 40
40.0
176
     1
 90
       11
176
     1
 62
     7
176
     1
 40
1.0
176
     1
 90
        1
176
     1
 90
        6
176
     1
 90
        2
176
     1
 62
     7
176
     1
 90
        6
176
     1
 90
        0
176
     1
 90
        0
176
     1
290
     0
176
     1
 90
        1
176
     1
 40
0.0
176
     1
 90
        0
176
     1
290
     0
176
     1
290
     1
176
     1
290
     1
176
     1
290
     0
176
     1
290
     0
176
     1
290
     0
176
     1
290
     0
176
     1
290
     0
176
     1
290
     0
176
     1
 90
       50
176
     1
 40
0.0
176
     1
 40
1.0
176
     1
 90
        0
176
     1
 62
    18
420
        0
176
     1
 90
       50
176
     1
 90
        3
176
     1
 62
     5
420
      255
176
     1
290
     0
176
     1
 90
       50
176
     1
 90
       50
176
     1
 90
       50
176
     1
290
     0
176
     1
 90
       50
176
     1
 62
   256
176
     0
 40
1.0
176
     0
 90
        2
176
     1
  1
strokes_ogs.tif
176
     1
290
     0
176
     1
 40
1.0
176
     1
 40
1.0
176
     1
  0
VISUALSTYLE
  5
36
102
{ACAD_REACTORS
330
29
102
}
330
29
100
AcDbVisualStyle
  2
Thicken
 70
    13
177
     3
291
     1
 70
    58
 90
        2
176
     1
 90
        2
176
     1
 90
        0
176
     1
 90
        0
176
     1
 40
0.6
176
     1
 40
30.0
176
     1
 62
     7
420
 16777215
176
     1
 90
        1
176
     1
 90
        4
176
     1
 62
     7
176
     1
 62
   257
176
     1
 90
        1
176
     1
 90
        1
176
     1
 40
1.0
176
     1
 90
       12
176
     1
 62
     7
176
     1
 40
1.0
176
     1
 90
        1
176
     1
 90
        6
176
     1
 90
        2
176
     1
 62
     7
176
     1
 90
        5
176
     1
 90
        0
176
     1
 90
        0
176
     1
290
     0
176
     1
 90
        1
176
     1
 40
0.0
176
     1
 90
        0
176
     1
290
     0
176
     1
290
     1
176
     1
290
     1
176
     1
290
     0
176
     1
290
     0
176
     1
290
     0
176
     1
290
     0
176
     1
290
     0
176
     1
290
     0
176
     1
 90
       50
176
     1
 40
0.0
176
     1
 40
1.0
176
     1
 90
        0
176
     1
 62
    18
420
        0
176
     1
 90
       50
176
     1
 90
        3
176
     1
 62
     5
420
      255
176
     1
290
     0
176
     1
 90
       50
176
     1
 90
       50
176
     1
 90
       50
176
     1
290
     0
176
     1
 90
       50
176
     1
 62
   256
176
     0
 40
1.0
176
     0
 90
        2
176
     1
  1
strokes_ogs.tif
176
     1
290
     0
176
     1
 40
1.0
176
     1
 40
1.0
176
     1
  0
VISUALSTYLE
  5
30
102
{ACAD_REACTORS
330
29
102
}
330
29
100
AcDbVisualStyle
  2
Wireframe
 70
     5
177
     3
291
     0
 70
    58
 90
        0
176
     1
 90
        2
176
     1
 90
        0
176
     1
 90
        0
176
     1
 40
0.6
176
     1
 40
30.0
176
     1
 62
     7
420
 16777215
176
     1
 90
        1
176
     1
 90
        4
176
     1
 62
     7
176
     1
 62
   257
176
     1
 90
        1
176
     1
 90
        1
176
     1
 40
1.0
176
     1
 90
        0
176
     1
 62
   257
176
     1
 40
1.0
176
     1
 90
        1
176
     1
 90
        6
176
     1
 90
        2
176
     1
 62
     7
176
     1
 90
        3
176
     1
 90
        0
176
     1
 90
        0
176
     1
290
     0
176
     1
 90
        1
176
     1
 40
0.0
176
     1
 90
        0
176
     1
290
     0
176
     1
290
     1
176
     1
290
     1
176
     1
290
     0
176
     1
290
     0
176
     1
290
     0
176
     1
290
     0
176
     1
290
     0
176
     1
290
     0
176
     1
 90
       50
176
     1
 40
0.0
176
     1
 40
1.0
176
     1
 90
        0
176
     1
 62
    18
420
        0
176
     1
 90
       50
176
     1
 90
        3
176
     1
 62
     5
420
      255
176
     1
290
     0
176
     1
 90
       50
176
     1
 90
       50
176
     1
 90
       50
176
     1
290
     0
176
     1
 90
       50
176
     1
 62
   256
176
     0
 40
1.0
176
     0
 90
        2
176
     1
  1
strokes_ogs.tif
176
     1
290
     0
176
     1
 40
1.0
176
     1
 40
1.0
176
     1
  0
VISUALSTYLE
  5
3C
102
{ACAD_REACTORS
330
29
102
}
330
29
100
AcDbVisualStyle
  2
X-Ray
 70
    25
177
     3
291
     0
 70
    58
 90
        2
176
     1
 90
        2
176
     1
 90
        1
176
     1
 90
        1
176
     1
 40
0.5
176
     1
 40
30.0
176
     1
 62
     7
420
 16777215
176
     1
 90
        1
176
     1
 90
        0
176
     1
 62
     7
176
     1
 62
   257
176
     1
 90
        1
176
     1
 90
        1
176
     1
 40
1.0
176
     1
 90
        8
176
     1
 62
     7
176
     1
 40
1.0
176
     1
 90
        1
176
     1
 90
        6
176
     1
 90
        2
176
     1
 62
     7
176
     1
 90
        3
176
     1
 90
        0
176
     1
 90
        0
176
     1
290
     0
176
     1
 90
       13
176
     1
 40
0.0
176
     1
 90
        0
176
     1
290
     0
176
     1
290
     1
176
     1
290
     1
176
     1
290
     0
176
     1
290
     0
176
     1
290
     0
176
     1
290
     0
176
     1
290
     0
176
     1
290
     0
176
     1
 90
       50
176
     1
 40
0.0
176
     1
 40
1.0
176
     1
 90
        0
176
     1
 62
    18
420
        0
176
     1
 90
       50
176
     1
 90
        3
176
     1
 62
     5
420
      255
176
     1
290
     0
176
     1
 90
       50
176
     1
 90
       50
176
     1
 90
       50
176
     1
290
     0
176
     1
 90
       50
176
     1
 62
   256
176
     0
 40
1.0
176
     0
 90
        2
176
     1
  1
strokes_ogs.tif
176
     1
290
     0
176
     1
 40
1.0
176
     1
 40
1.0
176
     1
  0
DICTIONARYVAR
  5
2B4
102
{ACAD_REACTORS
330
2AF
102
}
330
2AF
100
DictionaryVariables
280
     0
  1
1:1
  0
DICTIONARYVAR
  5
2B1
102
{ACAD_REACTORS
330
2AF
102
}
330
2AF
100
DictionaryVariables
280
     0
  1
STANDARD
  0
DICTIONARYVAR
  5
2B0
102
{ACAD_REACTORS
330
2AF
102
}
330
2AF
100
DictionaryVariables
280
     0
  1
STANDARD
  0
DICTIONARYVAR
  5
2B2
102
{ACAD_REACTORS
330
2AF
102
}
330
2AF
100
DictionaryVariables
280
     0
  1
Imperial24
  0
DICTIONARYVAR
  5
2B3
102
{ACAD_REACTORS
330
2AF
102
}
330
2AF
100
DictionaryVariables
280
     0
  1
Imperial24
  0
DICTIONARY
  5
1A
330
19
100
AcDbDictionary
280
     1
281
     1
  3
BUMPTILE
360
1C
  3
DIFFUSETILE
360
1B
  3
OPACITYTILE
360
1F
  3
REFLECTIONTILE
360
1E
  3
REFRACTIONTILE
360
20
  3
SPECULARTILE
360
1D
  0
DICTIONARY
  5
12
330
11
100
AcDbDictionary
280
     1
281
     1
  3
BUMPTILE
360
14
  3
DIFFUSETILE
360
13
  3
OPACITYTILE
360
17
  3
REFLECTIONTILE
360
16
  3
REFRACTIONTILE
360
18
  3
SPECULARTILE
360
15
  0
DICTIONARY
  5
22
330
21
100
AcDbDictionary
280
     1
281
     1
  3
BUMPTILE
360
24
  3
DIFFUSETILE
360
23
  3
OPACITYTILE
360
27
  3
REFLECTIONTILE
360
26
  3
REFRACTIONTILE
360
28
  3
SPECULARTILE
360
25
  0
DICTIONARY
  5
2B5
330
65
100
AcDbDictionary
280
     1
281
     1
  3
ACAD_ROUNDTRIP_2008_TABLESTYLE_CELLSTYLEMAP
360
2B6
  0
XRECORD
  5
1C
102
{ACAD_REACTORS
330
1A
102
}
330
1A
100
AcDbXrecord
280
     1
270
     1
271
     1
  0
XRECORD
  5
1B
102
{ACAD_REACTORS
330
1A
102
}
330
1A
100
AcDbXrecord
280
     1
270
     1
271
     1
  0
XRECORD
  5
1F
102
{ACAD_REACTORS
330
1A
102
}
330
1A
100
AcDbXrecord
280
     1
270
     1
271
     1
  0
XRECORD
  5
1E
102
{ACAD_REACTORS
330
1A
102
}
330
1A
100
AcDbXrecord
280
     1
270
     1
271
     1
  0
XRECORD
  5
20
102
{ACAD_REACTORS
330
1A
102
}
330
1A
100
AcDbXrecord
280
     1
270
     1
271
     1
  0
XRECORD
  5
1D
102
{ACAD_REACTORS
330
1A
102
}
330
1A
100
AcDbXrecord
280
     1
270
     1
271
     1
  0
XRECORD
  5
14
102
{ACAD_REACTORS
330
12
102
}
330
12
100
AcDbXrecord
280
     1
270
     1
271
     1
  0
XRECORD
  5
13
102
{ACAD_REACTORS
330
12
102
}
330
12
100
AcDbXrecord
280
     1
270
     1
271
     1
  0
XRECORD
  5
17
102
{ACAD_REACTORS
330
12
102
}
330
12
100
AcDbXrecord
280
     1
270
     1
271
     1
  0
XRECORD
  5
16
102
{ACAD_REACTORS
330
12
102
}
330
12
100
AcDbXrecord
280
     1
270
     1
271
     1
  0
XRECORD
  5
18
102
{ACAD_REACTORS
330
12
102
}
330
12
100
AcDbXrecord
280
     1
270
     1
271
     1
  0
XRECORD
  5
15
102
{ACAD_REACTORS
330
12
102
}
330
12
100
AcDbXrecord
280
     1
270
     1
271
     1
  0
XRECORD
  5
24
102
{ACAD_REACTORS
330
22
102
}
330
22
100
AcDbXrecord
280
     1
270
     1
271
     1
  0
XRECORD
  5
23
102
{ACAD_REACTORS
330
22
102
}
330
22
100
AcDbXrecord
280
     1
270
     1
271
     1
  0
XRECORD
  5
27
102
{ACAD_REACTORS
330
22
102
}
330
22
100
AcDbXrecord
280
     1
270
     1
271
     1
  0
XRECORD
  5
26
102
{ACAD_REACTORS
330
22
102
}
330
22
100
AcDbXrecord
280
     1
270
     1
271
     1
  0
XRECORD
  5
28
102
{ACAD_REACTORS
330
22
102
}
330
22
100
AcDbXrecord
280
     1
270
     1
271
     1
  0
XRECORD
  5
25
102
{ACAD_REACTORS
330
22
102
}
330
22
100
AcDbXrecord
280
     1
270
     1
271
     1
  0
CELLSTYLEMAP
  5
2B6
102
{ACAD_REACTORS
330
2B5
102
}
330
2B5
100
AcDbCellStyleMap
 90
        3
300
CELLSTYLE
  1
TABLEFORMAT_BEGIN
 90
        5
170
     1
 91
        0
 92
    32768
 62
   257
 93
        1
300
CONTENTFORMAT
  1
CONTENTFORMAT_BEGIN
 90
        0
 91
        0
 92
      512
 93
        0
300

 40
0.0
140
1.0
 94
        5
 62
     0
340
55
144
0.25
309
CONTENTFORMAT_END
171
     0
 94
        0
309
TABLEFORMAT_END
  1
CELLSTYLE_BEGIN
 90
        1
 91
        1
300
_TITLE
309
CELLSTYLE_END
300
CELLSTYLE
  1
TABLEFORMAT_BEGIN
 90
        5
170
     1
 91
        0
 92
        0
 62
   257
 93
        1
300
CONTENTFORMAT
  1
CONTENTFORMAT_BEGIN
 90
        0
 91
        0
 92
      512
 93
        0
300

 40
0.0
140
1.0
 94
        5
 62
     0
340
55
144
0.18
309
CONTENTFORMAT_END
171
     0
 94
        0
309
TABLEFORMAT_END
  1
CELLSTYLE_BEGIN
 90
        2
 91
        1
300
_HEADER
309
CELLSTYLE_END
300
CELLSTYLE
  1
TABLEFORMAT_BEGIN
 90
        5
170
     1
 91
        0
 92
        0
 62
   257
 93
        1
300
CONTENTFORMAT
  1
CONTENTFORMAT_BEGIN
 90
        0
 91
        0
 92
      512
 93
        0
300

 40
0.0
140
1.0
 94
        2
 62
     0
340
55
144
0.18
309
CONTENTFORMAT_END
171
     0
 94
        0
309
TABLEFORMAT_END
  1
CELLSTYLE_BEGIN
 90
        3
 91
        2
300
_DATA
309
CELLSTYLE_END
  0
ENDSEC
  0
EOF
