  0
SECTION
  2
HEADER
  9
$ACADVER
  1
AC1032
  9
$ACADMAINTVER
 90
      251
  9
$DWGCODEPAGE
  3
ANSI_1252
  9
$REQUIREDVERSIONS
160
                 0
  9
$INSBASE
 10
0.0
 20
0.0
 30
0.0
  9
$EXTMIN
 10
1.000000000000000E+20
 20
1.000000000000000E+20
 30
1.000000000000000E+20
  9
$EXTMAX
 10
-1.000000000000000E+20
 20
-1.000000000000000E+20
 30
-1.000000000000000E+20
  9
$LIMMIN
 10
0.0
 20
0.0
  9
$LIMMAX
 10
12.0
 20
9.0
  9
$ORTHOMODE
 70
     0
  9
$REGENMODE
 70
     1
  9
$FILLMODE
 70
     1
  9
$QTEXTMODE
 70
     0
  9
$MIRRTEXT
 70
     0
  9
$LTSCALE
 40
1.0
  9
$ATTMODE
 70
     1
  9
$TEXTSIZE
 40
0.2
  9
$TRACEWID
 40
0.05
  9
$TEXTSTYLE
  7
Standard
  9
$CLAYER
  8
0
  9
$CELTYPE
  6
ByLayer
  9
$CECOLOR
 62
   256
  9
$CELTSCALE
 40
1.0
  9
$DISPSILH
 70
     0
  9
$DIMSCALE
 40
1.0
  9
$DIMASZ
 40
0.18
  9
$DIMEXO
 40
0.0625
  9
$DIMDLI
 40
0.38
  9
$DIMRND
 40
0.0
  9
$DIMDLE
 40
0.0
  9
$DIMEXE
 40
0.18
  9
$DIMTP
 40
0.0
  9
$DIMTM
 40
0.0
  9
$DIMTXT
 40
0.18
  9
$DIMCEN
 40
0.09
  9
$DIMTSZ
 40
0.0
  9
$DIMTOL
 70
     0
  9
$DIMLIM
 70
     0
  9
$DIMTIH
 70
     1
  9
$DIMTOH
 70
     1
  9
$DIMSE1
 70
     0
  9
$DIMSE2
 70
     0
  9
$DIMTAD
 70
     0
  9
$DIMZIN
 70
     0
  9
$DIMBLK
  1

  9
$DIMASO
 70
     1
  9
$DIMSHO
 70
     1
  9
$DIMPOST
  1

  9
$DIMAPOST
  1

  9
$DIMALT
 70
     0
  9
$DIMALTD
 70
     2
  9
$DIMALTF
 40
25.4
  9
$DIMLFAC
 40
1.0
  9
$DIMTOFL
 70
     0
  9
$DIMTVP
 40
0.0
  9
$DIMTIX
 70
     0
  9
$DIMSOXD
 70
     0
  9
$DIMSAH
 70
     0
  9
$DIMBLK1
  1

  9
$DIMBLK2
  1

  9
$DIMSTYLE
  2
Standard
  9
$DIMCLRD
 70
     0
  9
$DIMCLRE
 70
     0
  9
$DIMCLRT
 70
     0
  9
$DIMTFAC
 40
1.0
  9
$DIMGAP
 40
0.09
  9
$DIMJUST
 70
     0
  9
$DIMSD1
 70
     0
  9
$DIMSD2
 70
     0
  9
$DIMTOLJ
 70
     1
  9
$DIMTZIN
 70
     0
  9
$DIMALTZ
 70
     0
  9
$DIMALTTZ
 70
     0
  9
$DIMUPT
 70
     0
  9
$DIMDEC
 70
     4
  9
$DIMTDEC
 70
     4
  9
$DIMALTU
 70
     2
  9
$DIMALTTD
 70
     2
  9
$DIMTXSTY
  7
Standard
  9
$DIMAUNIT
 70
     0
  9
$DIMADEC
 70
     0
  9
$DIMALTRND
 40
0.0
  9
$DIMAZIN
 70
     0
  9
$DIMDSEP
 70
    46
  9
$DIMATFIT
 70
     3
  9
$DIMFRAC
 70
     0
  9
$DIMLDRBLK
  1

  9
$DIMLUNIT
 70
     2
  9
$DIMLWD
 70
    -2
  9
$DIMLWE
 70
    -2
  9
$DIMTMOVE
 70
     0
  9
$DIMFXL
 40
1.0
  9
$DIMFXLON
 70
     0
  9
$DIMJOGANG
 40
0.7853981633974483
  9
$DIMTFILL
 70
     0
  9
$DIMTFILLCLR
 70
     0
  9
$DIMARCSYM
 70
     0
  9
$DIMLTYPE
  6

  9
$DIMLTEX1
  6

  9
$DIMLTEX2
  6

  9
$DIMTXTDIRECTION
 70
     0
  9
$LUNITS
 70
     2
  9
$LUPREC
 70
     4
  9
$SKETCHINC
 40
0.1
  9
$FILLETRAD
 40
0.0
  9
$AUNITS
 70
     0
  9
$AUPREC
 70
     0
  9
$MENU
  1
.
  9
$ELEVATION
 40
0.0
  9
$PELEVATION
 40
0.0
  9
$THICKNESS
 40
0.0
  9
$LIMCHECK
 70
     0
  9
$CHAMFERA
 40
0.0
  9
$CHAMFERB
 40
0.0
  9
$CHAMFERC
 40
0.0
  9
$CHAMFERD
 40
0.0
  9
$SKPOLY
 70
     0
  9
$TDCREATE
 40
2459963.400370371
  9
$TDUCREATE
 40
2459963.358703704
  9
$TDUPDATE
 40
2459963.400370371
  9
$TDUUPDATE
 40
2459963.358703704
  9
$TDINDWG
 40
0.0000000000
  9
$TDUSRTIMER
 40
0.0000000000
  9
$USRTIMER
 70
     1
  9
$ANGBASE
 50
0.0
  9
$ANGDIR
 70
     0
  9
$PDMODE
 70
     0
  9
$PDSIZE
 40
0.0
  9
$PLINEWID
 40
0.0
  9
$SPLFRAME
 70
     0
  9
$SPLINETYPE
 70
     6
  9
$SPLINESEGS
 70
     8
  9
$HANDSEED
  5
28B
  9
$SURFTAB1
 70
     6
  9
$SURFTAB2
 70
     6
  9
$SURFTYPE
 70
     6
  9
$SURFU
 70
     6
  9
$SURFV
 70
     6
  9
$UCSBASE
  2

  9
$UCSNAME
  2

  9
$UCSORG
 10
0.0
 20
0.0
 30
0.0
  9
$UCSXDIR
 10
1.0
 20
0.0
 30
0.0
  9
$UCSYDIR
 10
0.0
 20
1.0
 30
0.0
  9
$UCSORTHOREF
  2

  9
$UCSORTHOVIEW
 70
     0
  9
$UCSORGTOP
 10
0.0
 20
0.0
 30
0.0
  9
$UCSORGBOTTOM
 10
0.0
 20
0.0
 30
0.0
  9
$UCSORGLEFT
 10
0.0
 20
0.0
 30
0.0
  9
$UCSORGRIGHT
 10
0.0
 20
0.0
 30
0.0
  9
$UCSORGFRONT
 10
0.0
 20
0.0
 30
0.0
  9
$UCSORGBACK
 10
0.0
 20
0.0
 30
0.0
  9
$PUCSBASE
  2

  9
$PUCSNAME
  2

  9
$PUCSORG
 10
0.0
 20
0.0
 30
0.0
  9
$PUCSXDIR
 10
1.0
 20
0.0
 30
0.0
  9
$PUCSYDIR
 10
0.0
 20
1.0
 30
0.0
  9
$PUCSORTHOREF
  2

  9
$PUCSORTHOVIEW
 70
     0
  9
$PUCSORGTOP
 10
0.0
 20
0.0
 30
0.0
  9
$PUCSORGBOTTOM
 10
0.0
 20
0.0
 30
0.0
  9
$PUCSORGLEFT
 10
0.0
 20
0.0
 30
0.0
  9
$PUCSORGRIGHT
 10
0.0
 20
0.0
 30
0.0
  9
$PUCSORGFRONT
 10
0.0
 20
0.0
 30
0.0
  9
$PUCSORGBACK
 10
0.0
 20
0.0
 30
0.0
  9
$USERI1
 70
     0
  9
$USERI2
 70
     0
  9
$USERI3
 70
     0
  9
$USERI4
 70
     0
  9
$USERI5
 70
     0
  9
$USERR1
 40
0.0
  9
$USERR2
 40
0.0
  9
$USERR3
 40
0.0
  9
$USERR4
 40
0.0
  9
$USERR5
 40
0.0
  9
$WORLDVIEW
 70
     1
  9
$SHADEDGE
 70
     3
  9
$SHADEDIF
 70
    70
  9
$TILEMODE
 70
     1
  9
$MAXACTVP
 70
    64
  9
$PINSBASE
 10
0.0
 20
0.0
 30
0.0
  9
$PLIMCHECK
 70
     0
  9
$PEXTMIN
 10
1.000000000000000E+20
 20
1.000000000000000E+20
 30
1.000000000000000E+20
  9
$PEXTMAX
 10
-1.000000000000000E+20
 20
-1.000000000000000E+20
 30
-1.000000000000000E+20
  9
$PLIMMIN
 10
0.0
 20
0.0
  9
$PLIMMAX
 10
12.0
 20
9.0
  9
$UNITMODE
 70
     0
  9
$VISRETAIN
 70
     1
  9
$PLINEGEN
 70
     0
  9
$PSLTSCALE
 70
     1
  9
$TREEDEPTH
 70
  3020
  9
$CMLSTYLE
  2
Standard
  9
$CMLJUST
 70
     0
  9
$CMLSCALE
 40
1.0
  9
$PROXYGRAPHICS
 70
     1
  9
$MEASUREMENT
 70
     0
  9
$CELWEIGHT
370
    -1
  9
$ENDCAPS
280
     0
  9
$JOINSTYLE
280
     0
  9
$LWDISPLAY
290
     1
  9
$INSUNITS
 70
     4
  9
$HYPERLINKBASE
  1

  9
$STYLESHEET
  1

  9
$XEDIT
290
     1
  9
$CEPSNTYPE
380
     0
  9
$PSTYLEMODE
290
     1
  9
$FINGERPRINTGUID
  2
{7EEF8371-1AD9-A346-8F99-4CE867372FD4}
  9
$VERSIONGUID
  2
{78D624B9-D3E8-2C49-81BA-FF29E1174651}
  9
$EXTNAMES
290
     1
  9
$PSVPSCALE
 40
0.0
  9
$OLESTARTUP
290
     0
  9
$SORTENTS
280
   127
  9
$INDEXCTL
280
     0
  9
$HIDETEXT
280
     1
  9
$XCLIPFRAME
280
     2
  9
$HALOGAP
280
     0
  9
$OBSCOLOR
 70
   257
  9
$OBSLTYPE
280
     0
  9
$INTERSECTIONDISPLAY
280
     0
  9
$INTERSECTIONCOLOR
 70
   257
  9
$DIMASSOC
280
     2
  9
$PROJECTNAME
  1

  9
$CAMERADISPLAY
290
     0
  9
$LENSLENGTH
 40
50.0
  9
$CAMERAHEIGHT
 40
0.0
  9
$STEPSPERSEC
 40
2.0
  9
$STEPSIZE
 40
6.0
  9
$3DDWFPREC
 40
2.0
  9
$PSOLWIDTH
 40
0.25
  9
$PSOLHEIGHT
 40
4.0
  9
$LOFTANG1
 40
1.570796326794896
  9
$LOFTANG2
 40
1.570796326794896
  9
$LOFTMAG1
 40
0.0
  9
$LOFTMAG2
 40
0.0
  9
$LOFTPARAM
 70
     7
  9
$LOFTNORMALS
280
     1
  9
$LATITUDE
 40
37.795
  9
$LONGITUDE
 40
-122.394
  9
$NORTHDIRECTION
 40
0.0
  9
$TIMEZONE
 70
 -8000
  9
$LIGHTGLYPHDISPLAY
280
     1
  9
$TILEMODELIGHTSYNCH
280
     1
  9
$CMATERIAL
347
11
  9
$SOLIDHIST
280
     0
  9
$SHOWHIST
280
     1
  9
$DWFFRAME
280
     2
  9
$DGNFRAME
280
     0
  9
$REALWORLDSCALE
290
     1
  9
$INTERFERECOLOR
 62
     1
  9
$INTERFEREOBJVS
345
33
  9
$INTERFEREVPVS
346
30
  9
$CSHADOW
280
     0
  9
$SHADOWPLANELOCATION
 40
0.0
  0
ENDSEC
  0
SECTION
  2
CLASSES
  0
CLASS
  1
ACDBDICTIONARYWDFLT
  2
AcDbDictionaryWithDefault
  3
ObjectDBX Classes
 90
        0
 91
        1
280
     0
281
     0
  0
CLASS
  1
MATERIAL
  2
AcDbMaterial
  3
ObjectDBX Classes
 90
     1153
 91
        3
280
     0
281
     0
  0
CLASS
  1
VISUALSTYLE
  2
AcDbVisualStyle
  3
ObjectDBX Classes
 90
     4095
 91
       24
280
     0
281
     0
  0
CLASS
  1
SCALE
  2
AcDbScale
  3
ObjectDBX Classes
 90
     1153
 91
       17
280
     0
281
     0
  0
CLASS
  1
TABLESTYLE
  2
AcDbTableStyle
  3
ObjectDBX Classes
 90
     4095
 91
        1
280
     0
281
     0
  0
CLASS
  1
MLEADERSTYLE
  2
AcDbMLeaderStyle
  3
ACDB_MLEADERSTYLE_CLASS
 90
     4095
 91
        1
280
     0
281
     0
  0
CLASS
  1
ACDBSECTIONVIEWSTYLE
  2
AcDbSectionViewStyle
  3
ObjectDBX Classes
 90
     1025
 91
        1
280
     0
281
     0
  0
CLASS
  1
ACDBDETAILVIEWSTYLE
  2
AcDbDetailViewStyle
  3
ObjectDBX Classes
 90
     1025
 91
        1
280
     0
281
     0
  0
CLASS
  1
DICTIONARYVAR
  2
AcDbDictionaryVar
  3
ObjectDBX Classes
 90
        0
 91
        5
280
     0
281
     0
  0
CLASS
  1
CELLSTYLEMAP
  2
AcDbCellStyleMap
  3
ObjectDBX Classes
 90
     1152
 91
        1
280
     0
281
     0
  0
ENDSEC
  0
SECTION
  2
TABLES
  0
TABLE
  2
VPORT
  5
8
330
0
100
AcDbSymbolTable
 70
     1
  0
VPORT
  5
57
330
8
100
AcDbSymbolTableRecord
100
AcDbViewportTableRecord
  2
*Active
 70
     0
 10
0.0
 20
0.0
 11
1.0
 21
1.0
 12
0.0
 22
0.0
 13
0.0
 23
0.0
 14
1.0
 24
1.0
 15
0.0
 25
0.0
 16
0.0
 26
0.0
 36
1.0
 17
105.0000721959721
 27
148.5000416295418
 37
0.0
 40
89.75999997755987
 41
1.0
 42
50.0
 43
0.0
 44
0.0
 50
0.0
 51
0.0
 71
     0
 72
   100
 73
     1
 74
     1
 75
     0
 76
     0
 77
     0
 78
     0
281
     0
 65
     1
110
0.0
120
0.0
130
0.0
111
1.0
121
0.0
131
0.0
112
0.0
122
1.0
132
0.0
 79
     0
146
0.0
 60
     3
 61
     5
292
     1
282
     1
141
0.0
142
0.0
 63
   250
421
  3355443
  0
ENDTAB
  0
TABLE
  2
LTYPE
  5
5
330
0
100
AcDbSymbolTable
 70
     3
  0
LTYPE
  5
5B
330
5
100
AcDbSymbolTableRecord
100
AcDbLinetypeTableRecord
  2
ByBlock
 70
     0
  3

 72
    65
 73
     0
 40
0.0
  0
LTYPE
  5
5C
330
5
100
AcDbSymbolTableRecord
100
AcDbLinetypeTableRecord
  2
ByLayer
 70
     0
  3

 72
    65
 73
     0
 40
0.0
  0
LTYPE
  5
5D
330
5
100
AcDbSymbolTableRecord
100
AcDbLinetypeTableRecord
  2
Continuous
 70
     0
  3
Solid line
 72
    65
 73
     0
 40
0.0
  0
LTYPE
  5
1BA
330
5
100
AcDbSymbolTableRecord
100
AcDbLinetypeTableRecord
  2
AI-Linetype-0
 70
     0
  3
Adobe Illustrator Linetype No. 0
 72
    65
 73
     2
 40
1.411111110758333
 49
0.7055555553791667
 74
     0
 49
-0.7055555553791667
 74
     0
  0
LTYPE
  5
1BC
330
5
100
AcDbSymbolTableRecord
100
AcDbLinetypeTableRecord
  2
AI-Linetype-1
 70
     0
  3
Adobe Illustrator Linetype No. 1
 72
    65
 73
     2
 40
1.411111110758333
 49
0.7055555553791667
 74
     0
 49
-0.7055555553791667
 74
     0
  0
ENDTAB
  0
TABLE
  2
LAYER
  5
2
330
0
100
AcDbSymbolTable
 70
     3
  0
LAYER
  5
54
330
2
100
AcDbSymbolTableRecord
100
AcDbLayerTableRecord
  2
0
 70
     0
 62
     7
  6
Continuous
370
    -3
390
F
347
21
348
0
  0
LAYER
  5
78
330
2
100
AcDbSymbolTableRecord
100
AcDbLayerTableRecord
  2
Sichtbar (ANSI)
 70
     0
 62
     7
  6
Continuous
370
     0
390
F
347
21
348
0
  0
LAYER
  5
79
330
2
100
AcDbSymbolTableRecord
100
AcDbLayerTableRecord
  2
Sichtbar schmal (ANSI)
 70
     0
 62
     7
  6
Continuous
370
     0
390
F
347
21
348
0
  0
ENDTAB
  0
TABLE
  2
STYLE
  5
3
330
0
100
AcDbSymbolTable
 70
     2
  0
STYLE
  5
55
330
3
100
AcDbSymbolTableRecord
100
AcDbTextStyleTableRecord
  2
Standard
 70
     0
 40
0.0
 41
1.0
 50
0.0
 71
     0
 42
0.2
  3
txt
  4

  0
STYLE
  5
5A
330
3
100
AcDbSymbolTableRecord
100
AcDbTextStyleTableRecord
  2
Annotative
 70
     0
 40
0.0
 41
1.0
 50
0.0
 71
     0
 42
0.2
  3
txt
  4

1001
AcadAnnotative
1000
AnnotativeData
1002
{
1070
     1
1070
     1
1002
}
  0
ENDTAB
  0
TABLE
  2
VIEW
  5
6
330
0
100
AcDbSymbolTable
 70
     0
  0
ENDTAB
  0
TABLE
  2
UCS
  5
7
330
0
100
AcDbSymbolTable
 70
     0
  0
ENDTAB
  0
TABLE
  2
APPID
  5
9
330
0
100
AcDbSymbolTable
 70
     2
  0
APPID
  5
56
330
9
100
AcDbSymbolTableRecord
100
AcDbRegAppTableRecord
  2
ACAD
 70
     0
  0
APPID
  5
5E
330
9
100
AcDbSymbolTableRecord
100
AcDbRegAppTableRecord
  2
AcadAnnotative
 70
     0
  0
ENDTAB
  0
TABLE
  2
DIMSTYLE
  5
A
330
0
100
AcDbSymbolTable
 70
     2
100
AcDbDimStyleTable
 71
     0
  0
DIMSTYLE
105
58
330
A
100
AcDbSymbolTableRecord
100
AcDbDimStyleTableRecord
  2
Standard
 70
     0
340
55
  0
DIMSTYLE
105
59
330
A
100
AcDbSymbolTableRecord
100
AcDbDimStyleTableRecord
  2
Annotative
 70
     0
340
55
1001
AcadAnnotative
1000
AnnotativeData
1002
{
1070
     1
1070
     1
1002
}
  0
ENDTAB
  0
TABLE
  2
BLOCK_RECORD
  5
1
330
0
100
AcDbSymbolTable
 70
    49
  0
BLOCK_RECORD
  5
70
330
1
100
AcDbSymbolTableRecord
100
AcDbBlockTableRecord
  2
*Model_Space
340
73
 70
     0
280
     1
281
     0
  0
BLOCK_RECORD
  5
6C
330
1
100
AcDbSymbolTableRecord
100
AcDbBlockTableRecord
  2
*Paper_Space
340
6F
 70
     0
280
     1
281
     0
  0
BLOCK_RECORD
  5
74
330
1
100
AcDbSymbolTableRecord
100
AcDbBlockTableRecord
  2
*Paper_Space0
340
77
 70
     0
280
     1
281
     0
  0
BLOCK_RECORD
  5
7A
330
1
100
AcDbSymbolTableRecord
100
AcDbBlockTableRecord
  2
Block_0
340
0
102
{BLKREFS
331
7B
102
}
 70
     0
280
     1
281
     0
  0
BLOCK_RECORD
  5
80
330
1
100
AcDbSymbolTableRecord
100
AcDbBlockTableRecord
  2
Block_1
340
0
102
{BLKREFS
331
81
102
}
 70
     0
280
     1
281
     0
  0
BLOCK_RECORD
  5
E6
330
1
100
AcDbSymbolTableRecord
100
AcDbBlockTableRecord
  2
Block_2
340
0
102
{BLKREFS
331
E7
102
}
 70
     0
280
     1
281
     0
  0
BLOCK_RECORD
  5
EA
330
1
100
AcDbSymbolTableRecord
100
AcDbBlockTableRecord
  2
Block_3
340
0
102
{BLKREFS
331
EB
102
}
 70
     0
280
     1
281
     0
  0
BLOCK_RECORD
  5
F8
330
1
100
AcDbSymbolTableRecord
100
AcDbBlockTableRecord
  2
Block_4
340
0
102
{BLKREFS
331
F9
102
}
 70
     0
280
     1
281
     0
  0
BLOCK_RECORD
  5
FC
330
1
100
AcDbSymbolTableRecord
100
AcDbBlockTableRecord
  2
Block_5
340
0
102
{BLKREFS
331
FD
102
}
 70
     0
280
     1
281
     0
  0
BLOCK_RECORD
  5
101
330
1
100
AcDbSymbolTableRecord
100
AcDbBlockTableRecord
  2
Block_6
340
0
102
{BLKREFS
331
102
102
}
 70
     0
280
     1
281
     0
  0
BLOCK_RECORD
  5
107
330
1
100
AcDbSymbolTableRecord
100
AcDbBlockTableRecord
  2
Block_7
340
0
102
{BLKREFS
331
108
102
}
 70
     0
280
     1
281
     0
  0
BLOCK_RECORD
  5
10D
330
1
100
AcDbSymbolTableRecord
100
AcDbBlockTableRecord
  2
Block_8
340
0
102
{BLKREFS
331
10E
102
}
 70
     0
280
     1
281
     0
  0
BLOCK_RECORD
  5
18B
330
1
100
AcDbSymbolTableRecord
100
AcDbBlockTableRecord
  2
Block_9
340
0
102
{BLKREFS
331
18C
102
}
 70
     0
280
     1
281
     0
  0
BLOCK_RECORD
  5
18F
330
1
100
AcDbSymbolTableRecord
100
AcDbBlockTableRecord
  2
Block_10
340
0
102
{BLKREFS
331
190
102
}
 70
     0
280
     1
281
     0
  0
BLOCK_RECORD
  5
198
330
1
100
AcDbSymbolTableRecord
100
AcDbBlockTableRecord
  2
Block_11
340
0
102
{BLKREFS
331
199
102
}
 70
     0
280
     1
281
     0
  0
BLOCK_RECORD
  5
19C
330
1
100
AcDbSymbolTableRecord
100
AcDbBlockTableRecord
  2
Block_12
340
0
102
{BLKREFS
331
19D
102
}
 70
     0
280
     1
281
     0
  0
BLOCK_RECORD
  5
1A1
330
1
100
AcDbSymbolTableRecord
100
AcDbBlockTableRecord
  2
Block_13
340
0
102
{BLKREFS
331
1A2
102
}
 70
     0
280
     1
281
     0
  0
BLOCK_RECORD
  5
1A7
330
1
100
AcDbSymbolTableRecord
100
AcDbBlockTableRecord
  2
Block_14
340
0
102
{BLKREFS
331
1A8
102
}
 70
     0
280
     1
281
     0
  0
BLOCK_RECORD
  5
1AD
330
1
100
AcDbSymbolTableRecord
100
AcDbBlockTableRecord
  2
Block_15
340
0
102
{BLKREFS
331
1AE
102
}
 70
     0
280
     1
281
     0
  0
BLOCK_RECORD
  5
1B1
330
1
100
AcDbSymbolTableRecord
100
AcDbBlockTableRecord
  2
Block_16
340
0
102
{BLKREFS
331
1B2
102
}
 70
     0
280
     1
281
     0
  0
BLOCK_RECORD
  5
1BD
330
1
100
AcDbSymbolTableRecord
100
AcDbBlockTableRecord
  2
Block_17
340
0
102
{BLKREFS
331
1BE
102
}
 70
     0
280
     1
281
     0
  0
BLOCK_RECORD
  5
1C1
330
1
100
AcDbSymbolTableRecord
100
AcDbBlockTableRecord
  2
Block_18
340
0
102
{BLKREFS
331
1C2
102
}
 70
     0
280
     1
281
     0
  0
BLOCK_RECORD
  5
1C6
330
1
100
AcDbSymbolTableRecord
100
AcDbBlockTableRecord
  2
Block_19
340
0
102
{BLKREFS
331
1C7
102
}
 70
     0
280
     1
281
     0
  0
BLOCK_RECORD
  5
1CC
330
1
100
AcDbSymbolTableRecord
100
AcDbBlockTableRecord
  2
Block_20
340
0
102
{BLKREFS
331
1CD
102
}
 70
     0
280
     1
281
     0
  0
BLOCK_RECORD
  5
1D9
330
1
100
AcDbSymbolTableRecord
100
AcDbBlockTableRecord
  2
Block_21
340
0
102
{BLKREFS
331
1DA
102
}
 70
     0
280
     1
281
     0
  0
BLOCK_RECORD
  5
1DD
330
1
100
AcDbSymbolTableRecord
100
AcDbBlockTableRecord
  2
Block_22
340
0
102
{BLKREFS
331
1DE
102
}
 70
     0
280
     1
281
     0
  0
BLOCK_RECORD
  5
1E2
330
1
100
AcDbSymbolTableRecord
100
AcDbBlockTableRecord
  2
Block_23
340
0
102
{BLKREFS
331
1E3
102
}
 70
     0
280
     1
281
     0
  0
BLOCK_RECORD
  5
1E8
330
1
100
AcDbSymbolTableRecord
100
AcDbBlockTableRecord
  2
Block_24
340
0
102
{BLKREFS
331
1E9
102
}
 70
     0
280
     1
281
     0
  0
BLOCK_RECORD
  5
1EE
330
1
100
AcDbSymbolTableRecord
100
AcDbBlockTableRecord
  2
Block_25
340
0
102
{BLKREFS
331
1EF
102
}
 70
     0
280
     1
281
     0
  0
BLOCK_RECORD
  5
1FB
330
1
100
AcDbSymbolTableRecord
100
AcDbBlockTableRecord
  2
Block_26
340
0
102
{BLKREFS
331
1FC
102
}
 70
     0
280
     1
281
     0
  0
BLOCK_RECORD
  5
1FF
330
1
100
AcDbSymbolTableRecord
100
AcDbBlockTableRecord
  2
Block_27
340
0
102
{BLKREFS
331
200
102
}
 70
     0
280
     1
281
     0
  0
BLOCK_RECORD
  5
207
330
1
100
AcDbSymbolTableRecord
100
AcDbBlockTableRecord
  2
Block_28
340
0
102
{BLKREFS
331
208
102
}
 70
     0
280
     1
281
     0
  0
BLOCK_RECORD
  5
215
330
1
100
AcDbSymbolTableRecord
100
AcDbBlockTableRecord
  2
Block_29
340
0
102
{BLKREFS
331
216
102
}
 70
     0
280
     1
281
     0
  0
BLOCK_RECORD
  5
219
330
1
100
AcDbSymbolTableRecord
100
AcDbBlockTableRecord
  2
Block_30
340
0
102
{BLKREFS
331
21A
102
}
 70
     0
280
     1
281
     0
  0
BLOCK_RECORD
  5
21E
330
1
100
AcDbSymbolTableRecord
100
AcDbBlockTableRecord
  2
Block_31
340
0
102
{BLKREFS
331
21F
102
}
 70
     0
280
     1
281
     0
  0
BLOCK_RECORD
  5
224
330
1
100
AcDbSymbolTableRecord
100
AcDbBlockTableRecord
  2
Block_32
340
0
102
{BLKREFS
331
225
102
}
 70
     0
280
     1
281
     0
  0
BLOCK_RECORD
  5
22A
330
1
100
AcDbSymbolTableRecord
100
AcDbBlockTableRecord
  2
Block_33
340
0
102
{BLKREFS
331
22B
102
}
 70
     0
280
     1
281
     0
  0
BLOCK_RECORD
  5
22E
330
1
100
AcDbSymbolTableRecord
100
AcDbBlockTableRecord
  2
Block_34
340
0
102
{BLKREFS
331
22F
102
}
 70
     0
280
     1
281
     0
  0
BLOCK_RECORD
  5
233
330
1
100
AcDbSymbolTableRecord
100
AcDbBlockTableRecord
  2
Block_35
340
0
102
{BLKREFS
331
234
102
}
 70
     0
280
     1
281
     0
  0
BLOCK_RECORD
  5
239
330
1
100
AcDbSymbolTableRecord
100
AcDbBlockTableRecord
  2
Block_36
340
0
102
{BLKREFS
331
23A
102
}
 70
     0
280
     1
281
     0
  0
BLOCK_RECORD
  5
23F
330
1
100
AcDbSymbolTableRecord
100
AcDbBlockTableRecord
  2
Block_37
340
0
102
{BLKREFS
331
240
102
}
 70
     0
280
     1
281
     0
  0
BLOCK_RECORD
  5
243
330
1
100
AcDbSymbolTableRecord
100
AcDbBlockTableRecord
  2
Block_38
340
0
102
{BLKREFS
331
244
102
}
 70
     0
280
     1
281
     0
  0
BLOCK_RECORD
  5
24B
330
1
100
AcDbSymbolTableRecord
100
AcDbBlockTableRecord
  2
Block_39
340
0
102
{BLKREFS
331
24C
102
}
 70
     0
280
     1
281
     0
  0
BLOCK_RECORD
  5
24F
330
1
100
AcDbSymbolTableRecord
100
AcDbBlockTableRecord
  2
Block_40
340
0
102
{BLKREFS
331
250
102
}
 70
     0
280
     1
281
     0
  0
BLOCK_RECORD
  5
25B
330
1
100
AcDbSymbolTableRecord
100
AcDbBlockTableRecord
  2
Block_41
340
0
102
{BLKREFS
331
25C
102
}
 70
     0
280
     1
281
     0
  0
BLOCK_RECORD
  5
25F
330
1
100
AcDbSymbolTableRecord
100
AcDbBlockTableRecord
  2
Block_42
340
0
102
{BLKREFS
331
260
102
}
 70
     0
280
     1
281
     0
  0
BLOCK_RECORD
  5
264
330
1
100
AcDbSymbolTableRecord
100
AcDbBlockTableRecord
  2
Block_43
340
0
102
{BLKREFS
331
265
102
}
 70
     0
280
     1
281
     0
  0
BLOCK_RECORD
  5
26A
330
1
100
AcDbSymbolTableRecord
100
AcDbBlockTableRecord
  2
Block_44
340
0
102
{BLKREFS
331
26B
102
}
 70
     0
280
     1
281
     0
  0
BLOCK_RECORD
  5
271
330
1
100
AcDbSymbolTableRecord
100
AcDbBlockTableRecord
  2
Block_45
340
0
102
{BLKREFS
331
272
102
}
 70
     0
280
     1
281
     0
  0
BLOCK_RECORD
  5
275
330
1
100
AcDbSymbolTableRecord
100
AcDbBlockTableRecord
  2
Block_46
340
0
102
{BLKREFS
331
276
102
}
 70
     0
280
     1
281
     0
  0
BLOCK_RECORD
  5
27A
330
1
100
AcDbSymbolTableRecord
100
AcDbBlockTableRecord
  2
Block_47
340
0
102
{BLKREFS
331
27B
102
}
 70
     0
280
     1
281
     0
  0
ENDTAB
  0
ENDSEC
  0
SECTION
  2
BLOCKS
  0
BLOCK
  5
71
330
70
100
AcDbEntity
  8
0
100
AcDbBlockBegin
  2
*Model_Space
 70
     0
 10
0.0
 20
0.0
 30
0.0
  3
*Model_Space
  1

  0
ENDBLK
  5
72
330
70
100
AcDbEntity
  8
0
100
AcDbBlockEnd
  0
BLOCK
  5
6D
330
6C
100
AcDbEntity
 67
     1
  8
0
100
AcDbBlockBegin
  2
*Paper_Space
 70
     0
 10
0.0
 20
0.0
 30
0.0
  3
*Paper_Space
  1

  0
ENDBLK
  5
6E
330
6C
100
AcDbEntity
 67
     1
  8
0
100
AcDbBlockEnd
  0
BLOCK
  5
75
330
74
100
AcDbEntity
 67
     1
  8
0
100
AcDbBlockBegin
  2
*Paper_Space0
 70
     0
 10
0.0
 20
0.0
 30
0.0
  3
*Paper_Space0
  1

  0
ENDBLK
  5
76
330
74
100
AcDbEntity
 67
     1
  8
0
100
AcDbBlockEnd
  0
BLOCK
  5
7C
330
7A
100
AcDbEntity
  8
0
100
AcDbBlockBegin
  2
Block_0
 70
     0
 10
0.0
 20
0.0
 30
0.0
  3
Block_0
  1

  0
SPLINE
  5
7E
330
7A
100
AcDbEntity
  8
Sichtbar schmal (ANSI)
100
AcDbSpline
210
0.0
220
0.0
230
1.0
 70
     8
 71
     3
 72
    38
 73
    34
 74
     0
 42
0.0000000001
 43
0.0000000001
 40
0.0
 40
0.0
 40
0.0
 40
0.0
 40
1.0
 40
1.0
 40
1.0
 40
2.0
 40
2.0
 40
2.0
 40
3.0
 40
3.0
 40
3.0
 40
4.0
 40
4.0
 40
4.0
 40
5.0
 40
5.0
 40
5.0
 40
6.0
 40
6.0
 40
6.0
 40
7.0
 40
7.0
 40
7.0
 40
8.0
 40
8.0
 40
8.0
 40
9.0
 40
9.0
 40
9.0
 40
10.0
 40
10.0
 40
10.0
 40
11.0
 40
11.0
 40
11.0
 40
11.0
 10
110.0159596283537
 20
184.904858925807
 30
0.0
 10
110.0159596283537
 20
184.904858925807
 30
0.0
 10
110.417969678505
 20
184.904858925807
 30
0.0
 10
110.417969678505
 20
184.904858925807
 30
0.0
 10
110.417969678505
 20
184.904858925807
 30
0.0
 10
110.417969678505
 20
183.3350453632517
 30
0.0
 10
110.417969678505
 20
183.3350453632517
 30
0.0
 10
110.417969678505
 20
183.3350453632517
 30
0.0
 10
110.417969678505
 20
183.1775861989667
 30
0.0
 10
110.417969678505
 20
183.1775861989667
 30
0.0
 10
110.417969678505
 20
183.0269630854143
 30
0.0
 10
110.1479906332453
 20
182.9048589263074
 30
0.0
 10
109.8149546032781
 20
182.9048589263074
 30
0.0
 10
109.8149546032781
 20
182.9048589263074
 30
0.0
 10
71.02098476373197
 20
182.9048589263074
 30
0.0
 10
71.02098476373197
 20
182.9048589263074
 30
0.0
 10
70.68794873376737
 20
182.9048589263074
 30
0.0
 10
70.41796968850573
 20
183.0269630854143
 30
0.0
 10
70.41796968850573
 20
183.1775861989667
 30
0.0
 10
70.41796968850573
 20
183.1775861989667
 30
0.0
 10
70.41796968850573
 20
183.3350453632517
 30
0.0
 10
70.41796968850573
 20
183.3350453632517
 30
0.0
 10
70.41796968850573
 20
183.3350453632517
 30
0.0
 10
70.41796968850573
 20
184.904858925807
 30
0.0
 10
70.41796968850573
 20
184.904858925807
 30
0.0
 10
70.41796968850573
 20
184.904858925807
 30
0.0
 10
70.81997973865731
 20
184.904858925807
 30
0.0
 10
70.81997973865731
 20
184.904858925807
 30
0.0
 10
70.81997973865731
 20
184.904858925807
 30
0.0
 10
70.84008024116468
 20
184.904858925807
 30
0.0
 10
70.84008024116468
 20
184.904858925807
 30
0.0
 10
70.84008024116468
 20
184.904858925807
 30
0.0
 10
109.9958591258454
 20
184.904858925807
 30
0.0
 10
109.9958591258454
 20
184.904858925807
 30
0.0
  0
HATCH
  5
7F
330
7A
100
AcDbEntity
  8
Sichtbar schmal (ANSI)
 62
   254
420
 14606046
440
 33554687
100
AcDbHatch
 10
0.0
 20
0.0
 30
0.0
210
0.0
220
0.0
230
1.0
  2
SOLID
 70
     1
 71
     1
 91
        1
 92
        1
 93
        2
 72
     4
 94
        3
 73
     0
 74
     0
 95
       38
 96
       34
 40
0.0
 40
0.0
 40
0.0
 40
0.0
 40
1.0
 40
1.0
 40
1.0
 40
2.0
 40
2.0
 40
2.0
 40
3.0
 40
3.0
 40
3.0
 40
4.0
 40
4.0
 40
4.0
 40
5.0
 40
5.0
 40
5.0
 40
6.0
 40
6.0
 40
6.0
 40
7.0
 40
7.0
 40
7.0
 40
8.0
 40
8.0
 40
8.0
 40
9.0
 40
9.0
 40
9.0
 40
10.0
 40
10.0
 40
10.0
 40
11.0
 40
11.0
 40
11.0
 40
11.0
 10
110.0159596283537
 20
184.904858925807
 10
110.0159596283537
 20
184.904858925807
 10
110.417969678505
 20
184.904858925807
 10
110.417969678505
 20
184.904858925807
 10
110.417969678505
 20
184.904858925807
 10
110.417969678505
 20
183.3350453632517
 10
110.417969678505
 20
183.3350453632517
 10
110.417969678505
 20
183.3350453632517
 10
110.417969678505
 20
183.1775861989667
 10
110.417969678505
 20
183.1775861989667
 10
110.417969678505
 20
183.0269630854143
 10
110.1479906332453
 20
182.9048589263074
 10
109.8149546032781
 20
182.9048589263074
 10
109.8149546032781
 20
182.9048589263074
 10
71.02098476373197
 20
182.9048589263074
 10
71.02098476373197
 20
182.9048589263074
 10
70.68794873376737
 20
182.9048589263074
 10
70.41796968850573
 20
183.0269630854143
 10
70.41796968850573
 20
183.1775861989667
 10
70.41796968850573
 20
183.1775861989667
 10
70.41796968850573
 20
183.3350453632517
 10
70.41796968850573
 20
183.3350453632517
 10
70.41796968850573
 20
183.3350453632517
 10
70.41796968850573
 20
184.904858925807
 10
70.41796968850573
 20
184.904858925807
 10
70.41796968850573
 20
184.904858925807
 10
70.81997973865731
 20
184.904858925807
 10
70.81997973865731
 20
184.904858925807
 10
70.81997973865731
 20
184.904858925807
 10
70.84008024116468
 20
184.904858925807
 10
70.84008024116468
 20
184.904858925807
 10
70.84008024116468
 20
184.904858925807
 10
109.9958591258454
 20
184.904858925807
 10
109.9958591258454
 20
184.904858925807
 97
        0
 72
     1
 10
109.9958591258454
 20
184.904858925807
 11
110.0159596283537
 21
184.904858925807
 97
        0
 75
     2
 76
     1
 98
        1
 10
0.0
 20
0.0
450
        0
451
        0
460
0.0
461
0.0
452
        0
462
0.0
453
        0
470

  0
ENDBLK
  5
7D
330
7A
100
AcDbEntity
  8
0
100
AcDbBlockEnd
  0
BLOCK
  5
82
330
80
100
AcDbEntity
  8
0
100
AcDbBlockBegin
  2
Block_1
 70
     0
 10
0.0
 20
0.0
 30
0.0
  3
Block_1
  1

  0
LINE
  5
84
330
80
100
AcDbEntity
  8
Sichtbar schmal (ANSI)
 62
    18
420
        0
370
     5
100
AcDbLine
 10
68.44060790823032
 20
166.6405855478005
 30
0.0
 11
112.7585961067063
 21
166.6405855478005
 31
0.0
  0
LINE
  5
85
330
80
100
AcDbEntity
  8
Sichtbar schmal (ANSI)
 62
    18
420
        0
370
     5
100
AcDbLine
 10
112.7771375001427
 20
166.2697576790409
 30
0.0
 11
68.46320718338978
 21
166.2697576790409
 31
0.0
  0
LINE
  5
86
330
80
100
AcDbEntity
  8
Sichtbar schmal (ANSI)
 62
    18
420
        0
370
     5
100
AcDbLine
 10
68.46320718338978
 20
121.9558273622816
 30
0.0
 11
112.7771375001446
 21
121.9558273622816
 31
0.0
  0
LINE
  5
87
330
80
100
AcDbEntity
  8
Sichtbar schmal (ANSI)
 62
    18
420
        0
370
     5
100
AcDbLine
 10
112.8174829868899
 20
121.5849994935221
 30
0.0
 11
68.43526646317681
 21
121.5849994935221
 31
0.0
  0
LINE
  5
88
330
80
100
AcDbEntity
  8
Sichtbar schmal (ANSI)
 62
    18
420
        0
370
     5
100
AcDbLine
 10
68.09237931463027
 20
166.6405855478005
 30
0.0
 11
68.09237931463027
 21
121.5849994935221
 31
0.0
  0
LINE
  5
89
330
80
100
AcDbEntity
  8
Sichtbar schmal (ANSI)
 62
    18
420
        0
370
     5
100
AcDbLine
 10
68.46320718338978
 20
121.9558273622816
 30
0.0
 11
68.46320718338978
 21
166.2697576790409
 31
0.0
  0
LINE
  5
8A
330
80
100
AcDbEntity
  8
Sichtbar schmal (ANSI)
 62
    18
420
        0
370
     5
100
AcDbLine
 10
68.09237931463027
 20
166.6405855478005
 30
0.0
 11
68.44060790823032
 21
166.6405855478005
 31
0.0
  0
LINE
  5
8B
330
80
100
AcDbEntity
  8
Sichtbar schmal (ANSI)
 62
    18
420
        0
370
     5
100
AcDbLine
 10
68.09237931463027
 20
121.5849994935221
 30
0.0
 11
68.43526646317681
 21
121.5849994935221
 31
0.0
  0
LINE
  5
8C
330
80
100
AcDbEntity
  8
Sichtbar schmal (ANSI)
 62
    18
420
        0
370
     5
100
AcDbLine
 10
113.1479653689035
 20
166.6405855478005
 30
0.0
 11
113.1479653689035
 21
121.5849994935221
 31
0.0
  0
LINE
  5
8D
330
80
100
AcDbEntity
  8
Sichtbar schmal (ANSI)
 62
    18
420
        0
370
     5
100
AcDbLine
 10
112.7771375001446
 20
121.9558273622816
 30
0.0
 11
112.7771375001446
 21
166.2697576790393
 31
0.0
  0
LINE
  5
8E
330
80
100
AcDbEntity
  8
Sichtbar schmal (ANSI)
 62
    18
420
        0
370
     5
100
AcDbLine
 10
113.1479653689035
 20
121.5849994935221
 30
0.0
 11
112.8174829868899
 21
121.5849994935221
 31
0.0
  0
LINE
  5
8F
330
80
100
AcDbEntity
  8
Sichtbar schmal (ANSI)
 62
    18
420
        0
370
     5
100
AcDbLine
 10
113.1479653689035
 20
166.6405855478005
 30
0.0
 11
112.7585961067063
 21
166.6405855478005
 31
0.0
  0
LINE
  5
90
330
80
100
AcDbEntity
  8
Sichtbar schmal (ANSI)
 62
    18
420
        0
370
     5
100
AcDbLine
 10
67.90696538021392
 20
138.1980880140243
 30
0.0
 11
67.90696538021392
 21
137.0485216207188
 31
0.0
  0
LINE
  5
91
330
80
100
AcDbEntity
  8
Sichtbar schmal (ANSI)
 62
    18
420
        0
370
     5
100
AcDbLine
 10
68.07383792119253
 20
138.3649605548912
 30
0.0
 11
68.09237931463027
 21
138.3649605548912
 31
0.0
  0
LINE
  5
92
330
80
100
AcDbEntity
  8
Sichtbar schmal (ANSI)
 62
    18
420
        0
370
     5
100
AcDbLine
 10
68.07383792129233
 20
136.8816490798531
 30
0.0
 11
68.09237931463027
 21
136.8816490798531
 31
0.0
  0
SPLINE
  5
93
330
80
100
AcDbEntity
  8
Sichtbar schmal (ANSI)
 62
    18
420
        0
370
     5
100
AcDbSpline
210
0.0
220
0.0
230
1.0
 70
     8
 71
     3
 72
     8
 73
     4
 74
     0
 42
0.0000000001
 43
0.0000000001
 40
0.0
 40
0.0
 40
0.0
 40
0.0
 40
1.0
 40
1.0
 40
1.0
 40
1.0
 10
67.90696538021392
 20
137.0485216207188
 30
0.0
 10
67.90696538031081
 20
136.9563604611836
 30
0.0
 10
67.98167676175712
 20
136.8816490798159
 30
0.0
 10
68.07383792129233
 20
136.8816490798159
 30
0.0
  0
SPLINE
  5
94
330
80
100
AcDbEntity
  8
Sichtbar schmal (ANSI)
 62
    18
420
        0
370
     5
100
AcDbSpline
210
0.0
220
0.0
230
1.0
 70
     8
 71
     3
 72
     8
 73
     4
 74
     0
 42
0.0000000001
 43
0.0000000001
 40
0.0
 40
0.0
 40
0.0
 40
0.0
 40
1.0
 40
1.0
 40
1.0
 40
1.0
 10
68.07383792129233
 20
138.3649605549271
 30
0.0
 10
67.98167676175712
 20
138.3649605549271
 30
0.0
 10
67.90696538031081
 20
138.2902491735569
 30
0.0
 10
67.90696538021392
 20
138.1980880140243
 30
0.0
  0
SPLINE
  5
95
330
80
100
AcDbEntity
  8
Sichtbar schmal (ANSI)
 62
    18
420
        0
370
     5
100
AcDbSpline
210
0.0
220
0.0
230
1.0
 70
     8
 71
     3
 72
     8
 73
     4
 74
     0
 42
0.0000000001
 43
0.0000000001
 40
0.0
 40
0.0
 40
0.0
 40
0.0
 40
1.0
 40
1.0
 40
1.0
 40
1.0
 10
110.5757209450982
 20
122.1412412966652
 30
0.0
 10
111.0225418837686
 20
121.8940227174913
 30
0.0
 10
111.5651101664399
 20
121.8940227174913
 30
0.0
 10
112.0119311051136
 20
122.1412412966652
 30
0.0
  0
SPLINE
  5
96
330
80
100
AcDbEntity
  8
Sichtbar schmal (ANSI)
 62
    18
420
        0
370
     5
100
AcDbSpline
210
0.0
220
0.0
230
1.0
 70
     8
 71
     3
 72
     8
 73
     4
 74
     0
 42
0.0000000001
 43
0.0000000001
 40
0.0
 40
0.0
 40
0.0
 40
0.0
 40
1.0
 40
1.0
 40
1.0
 40
1.0
 10
112.5917235657642
 20
122.7210337573165
 30
0.0
 10
112.8389421449362
 20
123.1678546959857
 30
0.0
 10
112.8389421449362
 20
123.7104229786576
 30
0.0
 10
112.5917235657642
 20
124.1572439173319
 30
0.0
  0
SPLINE
  5
97
330
80
100
AcDbEntity
  8
Sichtbar schmal (ANSI)
 62
    18
420
        0
370
     5
100
AcDbSpline
210
0.0
220
0.0
230
1.0
 70
     8
 71
     3
 72
     8
 73
     4
 74
     0
 42
0.0000000001
 43
0.0000000001
 40
0.0
 40
0.0
 40
0.0
 40
0.0
 40
1.0
 40
1.0
 40
1.0
 40
1.0
 10
112.0119311051136
 20
166.0843437446615
 30
0.0
 10
111.5651101664399
 20
166.3315623238322
 30
0.0
 10
111.0225418837686
 20
166.3315623238322
 30
0.0
 10
110.5757209450982
 20
166.0843437446615
 30
0.0
  0
SPLINE
  5
98
330
80
100
AcDbEntity
  8
Sichtbar schmal (ANSI)
 62
    18
420
        0
370
     5
100
AcDbSpline
210
0.0
220
0.0
230
1.0
 70
     8
 71
     3
 72
     8
 73
     4
 74
     0
 42
0.0000000001
 43
0.0000000001
 40
0.0
 40
0.0
 40
0.0
 40
0.0
 40
1.0
 40
1.0
 40
1.0
 40
1.0
 10
112.5917235657642
 20
164.0683411239952
 30
0.0
 10
112.8389421449362
 20
164.5151620626653
 30
0.0
 10
112.8389421449362
 20
165.0577303453375
 30
0.0
 10
112.5917235657642
 20
165.5045512840109
 30
0.0
  0
SPLINE
  5
99
330
80
100
AcDbEntity
  8
Sichtbar schmal (ANSI)
 62
    18
420
        0
370
     5
100
AcDbSpline
210
0.0
220
0.0
230
1.0
 70
     8
 71
     3
 72
     8
 73
     4
 74
     0
 42
0.0000000001
 43
0.0000000001
 40
0.0
 40
0.0
 40
0.0
 40
0.0
 40
1.0
 40
1.0
 40
1.0
 40
1.0
 10
70.66462373843556
 20
166.0843437446615
 30
0.0
 10
70.21780279976258
 20
166.3315623238322
 30
0.0
 10
69.67523451709062
 20
166.3315623238322
 30
0.0
 10
69.22841357842084
 20
166.0843437446615
 30
0.0
  0
SPLINE
  5
9A
330
80
100
AcDbEntity
  8
Sichtbar schmal (ANSI)
 62
    18
420
        0
370
     5
100
AcDbSpline
210
0.0
220
0.0
230
1.0
 70
     8
 71
     3
 72
     8
 73
     4
 74
     0
 42
0.0000000001
 43
0.0000000001
 40
0.0
 40
0.0
 40
0.0
 40
0.0
 40
1.0
 40
1.0
 40
1.0
 40
1.0
 10
68.64862111777019
 20
165.5045512840109
 30
0.0
 10
68.40140253859567
 20
165.0577303453375
 30
0.0
 10
68.40140253859567
 20
164.5151620626653
 30
0.0
 10
68.64862111777019
 20
164.0683411239952
 30
0.0
  0
SPLINE
  5
9B
330
80
100
AcDbEntity
  8
Sichtbar schmal (ANSI)
 62
    18
420
        0
370
     5
100
AcDbSpline
210
0.0
220
0.0
230
1.0
 70
     8
 71
     3
 72
     8
 73
     4
 74
     0
 42
0.0000000001
 43
0.0000000001
 40
0.0
 40
0.0
 40
0.0
 40
0.0
 40
1.0
 40
1.0
 40
1.0
 40
1.0
 10
69.22841357842084
 20
122.1412412966652
 30
0.0
 10
69.67523451709062
 20
121.8940227174913
 30
0.0
 10
70.21780279976258
 20
121.8940227174913
 30
0.0
 10
70.66462373843556
 20
122.1412412966652
 30
0.0
  0
SPLINE
  5
9C
330
80
100
AcDbEntity
  8
Sichtbar schmal (ANSI)
 62
    18
420
        0
370
     5
100
AcDbSpline
210
0.0
220
0.0
230
1.0
 70
     8
 71
     3
 72
     8
 73
     4
 74
     0
 42
0.0000000001
 43
0.0000000001
 40
0.0
 40
0.0
 40
0.0
 40
0.0
 40
1.0
 40
1.0
 40
1.0
 40
1.0
 10
68.64862111777019
 20
124.1572439173319
 30
0.0
 10
68.40140253859567
 20
123.7104229786576
 30
0.0
 10
68.40140253859567
 20
123.1678546959857
 30
0.0
 10
68.64862111777019
 20
122.7210337573165
 30
0.0
  0
LINE
  5
9D
330
80
100
AcDbEntity
  8
Sichtbar schmal (ANSI)
 62
    18
420
        0
370
     5
100
AcDbLine
 10
85.7623272610189
 20
129.0386396555893
 30
0.0
 11
85.7623272610189
 21
129.4465503112243
 31
0.0
  0
LINE
  5
9E
330
80
100
AcDbEntity
  8
Sichtbar schmal (ANSI)
 62
    18
420
        0
370
     5
100
AcDbLine
 10
85.7623272610189
 20
129.4465503112243
 30
0.0
 11
88.06146004732694
 21
129.4465503112243
 31
0.0
  0
LINE
  5
9F
330
80
100
AcDbEntity
  8
Sichtbar schmal (ANSI)
 62
    18
420
        0
370
     5
100
AcDbLine
 10
88.06146004732694
 20
129.4465503112243
 30
0.0
 11
88.06146004732694
 21
129.0386396555893
 31
0.0
  0
LINE
  5
A0
330
80
100
AcDbEntity
  8
Sichtbar schmal (ANSI)
 62
    18
420
        0
370
     5
100
AcDbLine
 10
93.17888463620684
 20
129.0386396555893
 30
0.0
 11
92.84513955432275
 21
129.0386396555893
 31
0.0
  0
LINE
  5
A1
330
80
100
AcDbEntity
  8
Sichtbar schmal (ANSI)
 62
    18
420
        0
370
     5
100
AcDbLine
 10
88.39520512921103
 20
129.0386396555893
 30
0.0
 11
88.06146004732694
 21
129.0386396555893
 31
0.0
  0
LINE
  5
A2
330
80
100
AcDbEntity
  8
Sichtbar schmal (ANSI)
 62
    18
420
        0
370
     5
100
AcDbLine
 10
93.17888463620684
 20
129.0386396555893
 30
0.0
 11
93.17888463620684
 21
129.4465503112243
 31
0.0
  0
LINE
  5
A3
330
80
100
AcDbEntity
  8
Sichtbar schmal (ANSI)
 62
    18
420
        0
370
     5
100
AcDbLine
 10
93.17888463620684
 20
129.4465503112243
 30
0.0
 11
95.4780174225155
 21
129.4465503112243
 31
0.0
  0
LINE
  5
A4
330
80
100
AcDbEntity
  8
Sichtbar schmal (ANSI)
 62
    18
420
        0
370
     5
100
AcDbLine
 10
95.4780174225155
 20
129.4465503112243
 30
0.0
 11
95.4780174225155
 21
129.0386396555893
 31
0.0
  0
LINE
  5
A5
330
80
100
AcDbEntity
  8
Sichtbar schmal (ANSI)
 62
    18
420
        0
370
     5
100
AcDbLine
 10
102.514476232226
 20
129.0386396555893
 30
0.0
 11
95.4780174225155
 21
129.0386396555893
 31
0.0
  0
LINE
  5
A6
330
80
100
AcDbEntity
  8
Sichtbar schmal (ANSI)
 62
    18
420
        0
370
     5
100
AcDbLine
 10
102.514476232226
 20
122.1412412966652
 30
0.0
 11
102.514476232226
 21
129.0386396555893
 31
0.0
  0
LINE
  5
A7
330
80
100
AcDbEntity
  8
Sichtbar schmal (ANSI)
 62
    18
420
        0
370
     5
100
AcDbLine
 10
112.0354817626249
 20
145.6424574792953
 30
0.0
 11
112.0354817626249
 21
142.5831275620305
 31
0.0
  0
LINE
  5
A8
330
80
100
AcDbEntity
  8
Sichtbar schmal (ANSI)
 62
    18
420
        0
370
     5
100
AcDbLine
 10
69.20486292090884
 20
145.6424574792953
 30
0.0
 11
69.20486292090884
 21
142.5831275620305
 31
0.0
  0
LINE
  5
A9
330
80
100
AcDbEntity
  8
Sichtbar schmal (ANSI)
 62
    18
420
        0
370
     5
100
AcDbLine
 10
78.72586845130776
 20
122.1412412966652
 30
0.0
 11
78.72586845130776
 21
129.0386396555893
 31
0.0
  0
LINE
  5
AA
330
80
100
AcDbEntity
  8
Sichtbar schmal (ANSI)
 62
    18
420
        0
370
     5
100
AcDbLine
 10
85.7623272610189
 20
129.0386396555893
 30
0.0
 11
78.72586845130776
 21
129.0386396555893
 31
0.0
  0
LINE
  5
AB
330
80
100
AcDbEntity
  8
Sichtbar schmal (ANSI)
 62
    18
420
        0
370
     5
100
AcDbLine
 10
68.64862111777019
 20
166.0843437446615
 30
0.0
 11
112.5917235657642
 21
166.0843437446615
 31
0.0
  0
LINE
  5
AC
330
80
100
AcDbEntity
  8
Sichtbar schmal (ANSI)
 62
    18
420
        0
370
     5
100
AcDbLine
 10
112.5917235657642
 20
166.0843437446615
 30
0.0
 11
112.5917235657642
 21
165.7363632886777
 31
0.0
  0
LINE
  5
AD
330
80
100
AcDbEntity
  8
Sichtbar schmal (ANSI)
 62
    18
420
        0
370
     5
100
AcDbLine
 10
68.64862111777019
 20
166.0843437446615
 30
0.0
 11
68.64862111777019
 21
165.7431711077656
 31
0.0
  0
LINE
  5
AE
330
80
100
AcDbEntity
  8
Sichtbar schmal (ANSI)
 62
    18
420
        0
370
     5
100
AcDbLine
 10
78.72586845130776
 20
122.1412412966652
 30
0.0
 11
68.64862111777019
 21
122.1412412966652
 31
0.0
  0
LINE
  5
AF
330
80
100
AcDbEntity
  8
Sichtbar schmal (ANSI)
 62
    18
420
        0
370
     5
100
AcDbLine
 10
112.5917235657642
 20
122.1412412966652
 30
0.0
 11
102.514476232226
 21
122.1412412966652
 31
0.0
  0
LINE
  5
B0
330
80
100
AcDbEntity
  8
Sichtbar schmal (ANSI)
 62
    18
420
        0
370
     5
100
AcDbLine
 10
68.64862111777019
 20
122.1412412966652
 30
0.0
 11
68.64862111777019
 21
122.521339862142
 31
0.0
  0
LINE
  5
B1
330
80
100
AcDbEntity
  8
Sichtbar schmal (ANSI)
 62
    18
420
        0
370
     5
100
AcDbLine
 10
112.5917235657642
 20
122.1412412966652
 30
0.0
 11
112.5917235657642
 21
122.4986597725288
 31
0.0
  0
LINE
  5
B2
330
80
100
AcDbEntity
  8
Sichtbar schmal (ANSI)
 62
    18
420
        0
370
     5
100
AcDbLine
 10
112.5917235657642
 20
165.7363632886777
 30
0.0
 11
112.5917235657642
 21
122.4986597725288
 31
0.0
  0
LINE
  5
B3
330
80
100
AcDbEntity
  8
Sichtbar schmal (ANSI)
 62
    18
420
        0
370
     5
100
AcDbLine
 10
68.64862111777019
 20
165.7431711077656
 30
0.0
 11
68.64862111777019
 21
122.521339862142
 31
0.0
  0
LINE
  5
B4
330
80
100
AcDbEntity
  8
Sichtbar schmal (ANSI)
 62
    18
420
        0
370
     5
100
AcDbLine
 10
79.4767948855447
 20
122.1412412966652
 30
0.0
 11
79.47257625296867
 21
122.1412412966652
 31
0.0
  0
LINE
  5
B5
330
80
100
AcDbEntity
  8
Sichtbar schmal (ANSI)
 62
    18
420
        0
370
     5
100
AcDbLine
 10
79.43549911397845
 20
122.1412412966652
 30
0.0
 11
79.14615712862569
 21
122.1412412966652
 31
0.0
  0
LINE
  5
B6
330
80
100
AcDbEntity
  8
Sichtbar schmal (ANSI)
 62
    18
420
        0
370
     5
100
AcDbLine
 10
88.39520512921103
 20
129.3353019505979
 30
0.0
 11
88.39520512921103
 21
129.0386396555893
 31
0.0
  0
SPLINE
  5
B7
330
80
100
AcDbEntity
  8
Sichtbar schmal (ANSI)
 62
    18
420
        0
370
     5
100
AcDbSpline
210
0.0
220
0.0
230
1.0
 70
     8
 71
     3
 72
     8
 73
     4
 74
     0
 42
0.0000000001
 43
0.0000000001
 40
0.0
 40
0.0
 40
0.0
 40
0.0
 40
1.0
 40
1.0
 40
1.0
 40
1.0
 10
88.43228791608646
 20
129.3723847374734
 30
0.0
 10
88.41180765841436
 20
129.3723847374734
 30
0.0
 10
88.39520512921103
 20
129.3557822082697
 30
0.0
 10
88.39520512921103
 20
129.3353019505979
 30
0.0
  0
LINE
  5
B8
330
80
100
AcDbEntity
  8
Sichtbar schmal (ANSI)
 62
    18
420
        0
370
     5
100
AcDbLine
 10
88.43228791608646
 20
129.3723847374734
 30
0.0
 11
92.80805676744796
 21
129.3723847374734
 31
0.0
  0
SPLINE
  5
B9
330
80
100
AcDbEntity
  8
Sichtbar schmal (ANSI)
 62
    18
420
        0
370
     5
100
AcDbSpline
210
0.0
220
0.0
230
1.0
 70
     8
 71
     3
 72
     8
 73
     4
 74
     0
 42
0.0000000001
 43
0.0000000001
 40
0.0
 40
0.0
 40
0.0
 40
0.0
 40
1.0
 40
1.0
 40
1.0
 40
1.0
 10
92.84513955432275
 20
129.3353019505979
 30
0.0
 10
92.84513955432275
 20
129.3557822082697
 30
0.0
 10
92.82853702511973
 20
129.3723847374734
 30
0.0
 10
92.80805676744796
 20
129.3723847374734
 30
0.0
  0
LINE
  5
BA
330
80
100
AcDbEntity
  8
Sichtbar schmal (ANSI)
 62
    18
420
        0
370
     5
100
AcDbLine
 10
92.84513955432275
 20
129.3353019505979
 30
0.0
 11
92.84513955432275
 21
129.0386396555893
 31
0.0
  0
LINE
  5
BB
330
80
100
AcDbEntity
  8
Sichtbar schmal (ANSI)
 62
    18
420
        0
370
     5
100
AcDbLine
 10
102.8574920108273
 20
128.0344904486877
 30
0.0
 11
102.8574920108273
 21
128.015949761244
 31
0.0
  0
LINE
  5
BC
330
80
100
AcDbEntity
  8
Sichtbar schmal (ANSI)
 62
    18
420
        0
370
     5
100
AcDbLine
 10
102.8574920108273
 20
122.6974830998007
 30
0.0
 11
102.8574920108273
 21
128.015949761244
 31
0.0
  0
LINE
  5
BD
330
80
100
AcDbEntity
  8
Sichtbar schmal (ANSI)
 62
    18
420
        0
370
     5
100
AcDbLine
 10
101.7635497979871
 20
122.1412412966652
 30
0.0
 11
101.7677684305664
 21
122.1412412966652
 31
0.0
  0
LINE
  5
BE
330
80
100
AcDbEntity
  8
Sichtbar schmal (ANSI)
 62
    18
420
        0
370
     5
100
AcDbLine
 10
101.8048455695563
 20
122.1412412966652
 30
0.0
 11
102.0941875549081
 21
122.1412412966652
 31
0.0
  0
LINE
  5
BF
330
80
100
AcDbEntity
  8
Sichtbar schmal (ANSI)
 62
    18
420
        0
370
     5
100
AcDbLine
 10
102.1668412816665
 20
122.1412412966652
 30
0.0
 11
102.1584262515241
 21
122.1412413064267
 31
0.0
  0
SPLINE
  5
C0
330
80
100
AcDbEntity
  8
Sichtbar schmal (ANSI)
 62
    18
420
        0
370
     5
100
AcDbSpline
210
0.0
220
0.0
230
1.0
 70
     8
 71
     3
 72
    17
 73
    13
 74
     0
 42
0.0000000001
 43
0.0000000001
 40
0.0
 40
0.0
 40
0.0
 40
0.0
 40
1.0
 40
1.0
 40
1.0
 40
2.0
 40
2.0
 40
2.0
 40
3.0
 40
3.0
 40
3.0
 40
4.0
 40
4.0
 40
4.0
 40
4.0
 10
102.0941875549048
 20
122.1412412966652
 30
0.0
 10
102.0992415347981
 20
122.1412412966652
 30
0.0
 10
102.1042547653932
 20
122.1412412966652
 30
0.0
 10
102.1091248209508
 20
122.1412412966652
 30
0.0
 10
102.1142626328294
 20
122.1412412966652
 30
0.0
 10
102.1191745993979
 20
122.1412412966652
 30
0.0
 10
102.1238529494171
 20
122.1412412966652
 30
0.0
 10
102.1363697487325
 20
122.1412412966652
 30
0.0
 10
102.1468076563198
 20
122.1412412966652
 30
0.0
 10
102.1564790486343
 20
122.1412412966652
 30
0.0
 10
102.1572345157516
 20
122.1412412966652
 30
0.0
 10
102.1576710471871
 20
122.1412413186293
 30
0.0
 10
102.15842589337
 20
122.1412413186293
 30
0.0
  0
LINE
  5
C1
330
80
100
AcDbEntity
  8
Sichtbar schmal (ANSI)
 62
    18
420
        0
370
     5
100
AcDbLine
 10
101.8048455695563
 20
122.1412412966652
 30
0.0
 11
101.7677684305689
 21
122.1412412966652
 31
0.0
  0
LINE
  5
C2
330
80
100
AcDbEntity
  8
Sichtbar schmal (ANSI)
 62
    18
420
        0
370
     5
100
AcDbLine
 10
102.4866641420684
 20
122.1412412966652
 30
0.0
 11
102.1668412816665
 21
122.1412412966652
 31
0.0
  0
SPLINE
  5
C3
330
80
100
AcDbEntity
  8
Sichtbar schmal (ANSI)
 62
    18
420
        0
370
     5
100
AcDbSpline
210
0.0
220
0.0
230
1.0
 70
     8
 71
     3
 72
     8
 73
     4
 74
     0
 42
0.0000000001
 43
0.0000000001
 40
0.0
 40
0.0
 40
0.0
 40
0.0
 40
1.0
 40
1.0
 40
1.0
 40
1.0
 10
102.8574920108273
 20
128.0344904486825
 30
0.0
 10
102.8574920108273
 20
128.0548444433297
 30
0.0
 10
102.8410860478366
 20
128.0713942037026
 30
0.0
 10
102.8207328282073
 20
128.0715718235583
 30
0.0
  0
LINE
  5
C4
330
80
100
AcDbEntity
  8
Sichtbar schmal (ANSI)
 62
    18
420
        0
370
     5
100
AcDbLine
 10
102.8207328282073
 20
128.0715718235583
 30
0.0
 11
102.514476232226
 21
128.0742444843808
 31
0.0
  0
LINE
  5
C5
330
80
100
AcDbEntity
  8
Sichtbar schmal (ANSI)
 62
    18
420
        0
370
     5
100
AcDbLine
 10
78.75368054146595
 20
122.1412412966652
 30
0.0
 11
79.07350340186788
 21
122.1412412966652
 31
0.0
  0
LINE
  5
C6
330
80
100
AcDbEntity
  8
Sichtbar schmal (ANSI)
 62
    18
420
        0
370
     5
100
AcDbLine
 10
79.07350340186788
 20
122.1412412966652
 30
0.0
 11
79.08191843200964
 21
122.1412413064267
 31
0.0
  0
SPLINE
  5
C7
330
80
100
AcDbEntity
  8
Sichtbar schmal (ANSI)
 62
    18
420
        0
370
     5
100
AcDbSpline
210
0.0
220
0.0
230
1.0
 70
     8
 71
     3
 72
    17
 73
    13
 74
     0
 42
0.0000000001
 43
0.0000000001
 40
0.0
 40
0.0
 40
0.0
 40
0.0
 40
1.0
 40
1.0
 40
1.0
 40
2.0
 40
2.0
 40
2.0
 40
3.0
 40
3.0
 40
3.0
 40
4.0
 40
4.0
 40
4.0
 40
4.0
 10
79.14615712862569
 20
122.1412412966652
 30
0.0
 10
79.14110314873564
 20
122.1412412966652
 30
0.0
 10
79.13608991814086
 20
122.1412412966652
 30
0.0
 10
79.13121986258072
 20
122.1412412966652
 30
0.0
 10
79.12608205070528
 20
122.1412412966652
 30
0.0
 10
79.12117008413713
 20
122.1412412966652
 30
0.0
 10
79.11649173411703
 20
122.1412412966652
 30
0.0
 10
79.10397493480158
 20
122.1412412966652
 30
0.0
 10
79.09353702721396
 20
122.1412412966652
 30
0.0
 10
79.08386563489941
 20
122.1412412966652
 30
0.0
 10
79.08311016778212
 20
122.1412412966652
 30
0.0
 10
79.08267363634668
 20
122.1412413186293
 30
0.0
 10
79.0819187901637
 20
122.1412413186293
 30
0.0
  0
LINE
  5
C8
330
80
100
AcDbEntity
  8
Sichtbar schmal (ANSI)
 62
    18
420
        0
370
     5
100
AcDbLine
 10
79.43549911397845
 20
122.1412412966652
 30
0.0
 11
79.47257625296514
 21
122.1412412966652
 31
0.0
  0
LINE
  5
C9
330
80
100
AcDbEntity
  8
Sichtbar schmal (ANSI)
 62
    18
420
        0
370
     5
100
AcDbLine
 10
78.38285267270642
 20
122.6974830998007
 30
0.0
 11
78.38285267270642
 21
128.015949761244
 31
0.0
  0
LINE
  5
CA
330
80
100
AcDbEntity
  8
Sichtbar schmal (ANSI)
 62
    18
420
        0
370
     5
100
AcDbLine
 10
78.38285267270642
 20
128.0344904486877
 30
0.0
 11
78.38285267270642
 21
128.015949761244
 31
0.0
  0
LINE
  5
CB
330
80
100
AcDbEntity
  8
Sichtbar schmal (ANSI)
 62
    18
420
        0
370
     5
100
AcDbLine
 10
78.41961185532646
 20
128.0715718235583
 30
0.0
 11
78.72586845130776
 21
128.0742444843808
 31
0.0
  0
SPLINE
  5
CC
330
80
100
AcDbEntity
  8
Sichtbar schmal (ANSI)
 62
    18
420
        0
370
     5
100
AcDbSpline
210
0.0
220
0.0
230
1.0
 70
     8
 71
     3
 72
     8
 73
     4
 74
     0
 42
0.0000000001
 43
0.0000000001
 40
0.0
 40
0.0
 40
0.0
 40
0.0
 40
1.0
 40
1.0
 40
1.0
 40
1.0
 10
78.41961185532646
 20
128.0715718235583
 30
0.0
 10
78.39925863569778
 20
128.0713942037026
 30
0.0
 10
78.38285267270642
 20
128.0548444433297
 30
0.0
 10
78.38285267270642
 20
128.0344904486825
 30
0.0
  0
CIRCLE
  5
CD
330
80
100
AcDbEntity
  8
Sichtbar schmal (ANSI)
 62
    18
420
        0
370
     5
100
AcDbCircle
 10
86.91189365417292
 20
129.9286265406127
 30
0.0
 40
0.2688502048507837
  0
CIRCLE
  5
CE
330
80
100
AcDbEntity
  8
Sichtbar schmal (ANSI)
 62
    18
420
        0
370
     5
100
AcDbCircle
 10
94.328451029361
 20
129.9286265406127
 30
0.0
 40
0.2688502048507035
  0
LINE
  5
CF
330
80
100
AcDbEntity
  8
Sichtbar schmal (ANSI)
 62
    18
420
        0
370
     5
100
AcDbLine
 10
78.72586845130776
 20
122.1412412966652
 30
0.0
 11
78.75368054146595
 21
122.1412412966652
 31
0.0
  0
LINE
  5
D0
330
80
100
AcDbEntity
  8
Sichtbar schmal (ANSI)
 62
    18
420
        0
370
     5
100
AcDbLine
 10
79.4767948855447
 20
122.1412412966652
 30
0.0
 11
101.7635497979871
 21
122.1412412966652
 31
0.0
  0
LINE
  5
D1
330
80
100
AcDbEntity
  8
Sichtbar schmal (ANSI)
 62
    18
420
        0
370
     5
100
AcDbLine
 10
102.4866641420684
 20
122.1412412966652
 30
0.0
 11
102.514476232226
 21
122.1412412966652
 31
0.0
  0
LINE
  5
D2
330
80
100
AcDbEntity
  8
Sichtbar schmal (ANSI)
 62
    18
420
        0
370
     5
100
AcDbLine
 10
102.8574920108273
 20
122.6974830998007
 30
0.0
 11
112.0354817626249
 21
122.6974830998007
 31
0.0
  0
LINE
  5
D3
330
80
100
AcDbEntity
  8
Sichtbar schmal (ANSI)
 62
    18
420
        0
370
     5
100
AcDbLine
 10
112.0354817626249
 20
122.6974830998007
 30
0.0
 11
112.0354817626249
 21
142.5831275620305
 31
0.0
  0
LINE
  5
D4
330
80
100
AcDbEntity
  8
Sichtbar schmal (ANSI)
 62
    18
420
        0
370
     5
100
AcDbLine
 10
112.0354817626249
 20
145.6424574792953
 30
0.0
 11
112.0354817626249
 21
165.5281019415219
 31
0.0
  0
LINE
  5
D5
330
80
100
AcDbEntity
  8
Sichtbar schmal (ANSI)
 62
    18
420
        0
370
     5
100
AcDbLine
 10
112.0354817626249
 20
165.5281019415219
 30
0.0
 11
69.20486292090884
 21
165.5281019415219
 31
0.0
  0
LINE
  5
D6
330
80
100
AcDbEntity
  8
Sichtbar schmal (ANSI)
 62
    18
420
        0
370
     5
100
AcDbLine
 10
69.20486292090884
 20
145.6424574792953
 30
0.0
 11
69.20486292090884
 21
165.5281019415219
 31
0.0
  0
LINE
  5
D7
330
80
100
AcDbEntity
  8
Sichtbar schmal (ANSI)
 62
    18
420
        0
370
     5
100
AcDbLine
 10
69.20486292090884
 20
122.6974830998007
 30
0.0
 11
69.20486292090884
 21
142.5831275620305
 31
0.0
  0
LINE
  5
D8
330
80
100
AcDbEntity
  8
Sichtbar schmal (ANSI)
 62
    18
420
        0
370
     5
100
AcDbLine
 10
69.20486292090884
 20
122.6974830998007
 30
0.0
 11
78.38285267270642
 21
122.6974830998007
 31
0.0
  0
SPLINE
  5
D9
330
80
100
AcDbEntity
  8
Sichtbar schmal (ANSI)
 62
    18
420
        0
370
     5
100
AcDbSpline
210
0.0
220
0.0
230
1.0
 70
     8
 71
     3
 72
    11
 73
     7
 74
     0
 42
0.0000000001
 43
0.0000000001
 40
0.0
 40
0.0
 40
0.0
 40
0.0
 40
1.0
 40
1.0
 40
1.0
 40
2.0
 40
2.0
 40
2.0
 40
2.0
 10
79.1476576798419
 20
128.6817340083119
 30
0.0
 10
79.10670598582306
 20
128.6817365911531
 30
0.0
 10
79.07350598471004
 20
128.6485407776487
 30
0.0
 10
79.07350340186788
 20
128.6075890836302
 30
0.0
 10
79.07350340167152
 20
128.6075859658661
 30
0.0
 10
79.07350340167152
 20
128.607582848102
 30
0.0
 10
79.07350340186788
 20
128.607579730334
 30
0.0
  0
LINE
  5
DA
330
80
100
AcDbEntity
  8
Sichtbar schmal (ANSI)
 62
    18
420
        0
370
     5
100
AcDbLine
 10
79.07350340186788
 20
122.1783240835407
 30
0.0
 11
79.07350340186788
 21
128.607579730334
 31
0.0
  0
LINE
  5
DB
330
80
100
AcDbEntity
  8
Sichtbar schmal (ANSI)
 62
    18
420
        0
370
     5
100
AcDbLine
 10
79.1476576798419
 20
128.6817340083119
 30
0.0
 11
102.0926870036893
 21
128.6817340083119
 31
0.0
  0
SPLINE
  5
DC
330
80
100
AcDbEntity
  8
Sichtbar schmal (ANSI)
 62
    18
420
        0
370
     5
100
AcDbSpline
210
0.0
220
0.0
230
1.0
 70
     8
 71
     3
 72
    11
 73
     7
 74
     0
 42
0.0000000001
 43
0.0000000001
 40
0.0
 40
0.0
 40
0.0
 40
0.0
 40
1.0
 40
1.0
 40
1.0
 40
2.0
 40
2.0
 40
2.0
 40
2.0
 10
102.1668412816665
 20
128.607579730334
 30
0.0
 10
102.1668438645084
 20
128.6485314243539
 30
0.0
 10
102.1336480510058
 20
128.6817314254707
 30
0.0
 10
102.0926963569867
 20
128.6817340083119
 30
0.0
 10
102.0926932392194
 20
128.6817340085057
 30
0.0
 10
102.0926901214559
 20
128.6817340085057
 30
0.0
 10
102.0926901214559
 20
128.6817340085057
 30
0.0
  0
LINE
  5
DD
330
80
100
AcDbEntity
  8
Sichtbar schmal (ANSI)
 62
    18
420
        0
370
     5
100
AcDbLine
 10
102.1668412816665
 20
122.1783240835407
 30
0.0
 11
102.1668412816665
 21
128.607579730334
 31
0.0
  0
LINE
  5
DE
330
80
100
AcDbEntity
  8
Sichtbar schmal (ANSI)
 62
    18
420
        0
370
     5
100
AcDbLine
 10
102.1668412816665
 20
122.1412412966652
 30
0.0
 11
102.1668412816665
 21
122.1783240835407
 31
0.0
  0
LINE
  5
DF
330
80
100
AcDbEntity
  8
Sichtbar schmal (ANSI)
 62
    18
420
        0
370
     5
100
AcDbLine
 10
79.07350340186788
 20
122.1412412966652
 30
0.0
 11
79.07350340186788
 21
122.1783240835407
 31
0.0
  0
LINE
  5
E0
330
80
100
AcDbEntity
  8
Sichtbar schmal (ANSI)
 62
    18
420
        0
370
     5
100
AcDbLine
 10
93.22001686636316
 20
122.8603090214619
 30
0.0
 11
88.02032781717127
 21
122.8603090214619
 31
0.0
  0
SPLINE
  5
E1
330
80
100
AcDbEntity
  8
Sichtbar schmal (ANSI)
 62
    18
420
        0
370
     5
100
AcDbSpline
210
0.0
220
0.0
230
1.0
 70
     8
 71
     3
 72
    11
 73
     7
 74
     0
 42
0.0000000001
 43
0.0000000001
 40
0.0
 40
0.0
 40
0.0
 40
0.0
 40
1.0
 40
1.0
 40
1.0
 40
2.0
 40
2.0
 40
2.0
 40
2.0
 10
87.94616506741625
 20
122.9344717712172
 30
0.0
 10
87.94616458013761
 20
122.8935133028037
 30
0.0
 10
87.97936758415636
 20
122.8603095087437
 30
0.0
 10
88.02032605256949
 20
122.8603090214619
 30
0.0
 10
88.02032605256949
 20
122.8603090214619
 30
0.0
 10
88.02032781717127
 20
122.8603090214619
 30
0.0
 10
88.02032781717127
 20
122.8603090214619
 30
0.0
  0
LINE
  5
E2
330
80
100
AcDbEntity
  8
Sichtbar schmal (ANSI)
 62
    18
420
        0
370
     5
100
AcDbLine
 10
87.94616506741625
 20
126.8015191970408
 30
0.0
 11
87.94616506741625
 21
122.9344717712172
 31
0.0
  0
LINE
  5
E3
330
80
100
AcDbEntity
  8
Sichtbar schmal (ANSI)
 62
    18
420
        0
370
     5
100
AcDbLine
 10
87.94616506741625
 20
126.8015191970408
 30
0.0
 11
93.29417961611785
 21
126.8015191970408
 31
0.0
  0
LINE
  5
E4
330
80
100
AcDbEntity
  8
Sichtbar schmal (ANSI)
 62
    18
420
        0
370
     5
100
AcDbLine
 10
93.29417961611785
 20
126.8015191970408
 30
0.0
 11
93.29417961611785
 21
122.9344717712172
 31
0.0
  0
SPLINE
  5
E5
330
80
100
AcDbEntity
  8
Sichtbar schmal (ANSI)
 62
    18
420
        0
370
     5
100
AcDbSpline
210
0.0
220
0.0
230
1.0
 70
     8
 71
     3
 72
    11
 73
     7
 74
     0
 42
0.0000000001
 43
0.0000000001
 40
0.0
 40
0.0
 40
0.0
 40
0.0
 40
1.0
 40
1.0
 40
1.0
 40
2.0
 40
2.0
 40
2.0
 40
2.0
 10
93.22001686636316
 20
122.8603090214619
 30
0.0
 10
93.26097533477629
 20
122.86030853418
 30
0.0
 10
93.29417912883597
 20
122.8935115382058
 30
0.0
 10
93.29417961611785
 20
122.9344700066154
 30
0.0
 10
93.29417961611785
 20
122.9344700066154
 30
0.0
 10
93.29417961611785
 20
122.9344717712172
 30
0.0
 10
93.29417961611785
 20
122.9344717712172
 30
0.0
  0
ENDBLK
  5
83
330
80
100
AcDbEntity
  8
0
100
AcDbBlockEnd
  0
BLOCK
  5
E8
330
E6
100
AcDbEntity
  8
0
100
AcDbBlockBegin
  2
Block_2
 70
     0
 10
0.0
 20
0.0
 30
0.0
  3
Block_2
  1

  0
INSERT
  5
EB
330
E6
100
AcDbEntity
  8
Sichtbar schmal (ANSI)
100
AcDbBlockReference
  2
Block_3
 10
0.0
 20
0.0
 30
0.0
  0
ENDBLK
  5
E9
330
E6
100
AcDbEntity
  8
0
100
AcDbBlockEnd
  0
BLOCK
  5
EC
330
EA
100
AcDbEntity
  8
0
100
AcDbBlockBegin
  2
Block_3
 70
     0
 10
0.0
 20
0.0
 30
0.0
  3
Block_3
  1

  0
SPLINE
  5
EE
330
EA
100
AcDbEntity
  8
Sichtbar schmal (ANSI)
100
AcDbSpline
210
0.0
220
0.0
230
1.0
 70
    11
 71
     3
 72
    26
 73
    22
 74
     0
 42
0.0000000001
 43
0.0000000001
 40
0.0
 40
0.0
 40
0.0
 40
0.0
 40
1.0
 40
1.0
 40
1.0
 40
2.0
 40
2.0
 40
2.0
 40
3.0
 40
3.0
 40
3.0
 40
4.0
 40
4.0
 40
4.0
 40
5.0
 40
5.0
 40
5.0
 40
6.0
 40
6.0
 40
6.0
 40
7.0
 40
7.0
 40
7.0
 40
7.0
 10
89.04452173338123
 20
110.1049071990362
 30
0.0
 10
89.04452173338123
 20
110.1049071990362
 30
0.0
 10
88.52551809852835
 20
110.1049071990362
 30
0.0
 10
88.52551809852835
 20
110.1049071990362
 30
0.0
 10
88.52551809852835
 20
110.1049071990362
 30
0.0
 10
88.52551809852835
 20
110.2967990175647
 30
0.0
 10
88.52551809852835
 20
110.2967990175647
 30
0.0
 10
88.79905868005719
 20
110.2967990175647
 30
0.0
 10
89.04727780976944
 20
110.3674234750123
 30
0.0
 10
89.10084904456507
 20
110.6719699159084
 30
0.0
 10
89.10084904456507
 20
110.6719699159084
 30
0.0
 10
89.28430037915463
 20
110.6719699159084
 30
0.0
 10
89.28430037915463
 20
110.6719699159084
 30
0.0
 10
89.28430037915463
 20
110.6719699159084
 30
0.0
 10
89.28430037915463
 20
108.6720919867208
 30
0.0
 10
89.28430037915463
 20
108.6720919867208
 30
0.0
 10
89.28430037915463
 20
108.6720919867208
 30
0.0
 10
89.04452173338123
 20
108.6720919867208
 30
0.0
 10
89.04452173338123
 20
108.6720919867208
 30
0.0
 10
89.04452173338123
 20
108.6720919867208
 30
0.0
 10
89.04452173338123
 20
110.1049071990362
 30
0.0
 10
89.04452173338123
 20
110.1049071990362
 30
0.0
  0
HATCH
  5
EF
330
EA
100
AcDbEntity
  8
Sichtbar schmal (ANSI)
 62
   250
420
  2039067
440
 33554687
100
AcDbHatch
 10
0.0
 20
0.0
 30
0.0
210
0.0
220
0.0
230
1.0
  2
SOLID
 70
     1
 71
     1
 91
        1
 92
        1
 93
        1
 72
     4
 94
        3
 73
     0
 74
     0
 95
       26
 96
       22
 40
0.0
 40
0.0
 40
0.0
 40
0.0
 40
1.0
 40
1.0
 40
1.0
 40
2.0
 40
2.0
 40
2.0
 40
3.0
 40
3.0
 40
3.0
 40
4.0
 40
4.0
 40
4.0
 40
5.0
 40
5.0
 40
5.0
 40
6.0
 40
6.0
 40
6.0
 40
7.0
 40
7.0
 40
7.0
 40
7.0
 10
89.04452173338123
 20
110.1049071990362
 10
89.04452173338123
 20
110.1049071990362
 10
88.52551809852835
 20
110.1049071990362
 10
88.52551809852835
 20
110.1049071990362
 10
88.52551809852835
 20
110.1049071990362
 10
88.52551809852835
 20
110.2967990175647
 10
88.52551809852835
 20
110.2967990175647
 10
88.79905868005719
 20
110.2967990175647
 10
89.04727780976944
 20
110.3674234750123
 10
89.10084904456507
 20
110.6719699159084
 10
89.10084904456507
 20
110.6719699159084
 10
89.28430037915463
 20
110.6719699159084
 10
89.28430037915463
 20
110.6719699159084
 10
89.28430037915463
 20
110.6719699159084
 10
89.28430037915463
 20
108.6720919867208
 10
89.28430037915463
 20
108.6720919867208
 10
89.28430037915463
 20
108.6720919867208
 10
89.04452173338123
 20
108.6720919867208
 10
89.04452173338123
 20
108.6720919867208
 10
89.04452173338123
 20
108.6720919867208
 10
89.04452173338123
 20
110.1049071990362
 10
89.04452173338123
 20
110.1049071990362
 97
        0
 97
        1
330
EE
 75
     2
 76
     1
 98
        1
 10
0.0
 20
0.0
450
        0
451
        0
460
0.0
461
0.0
452
        0
462
0.0
453
        0
470

  0
SPLINE
  5
F0
330
EA
100
AcDbEntity
  8
Sichtbar schmal (ANSI)
100
AcDbSpline
210
0.0
220
0.0
230
1.0
 70
     9
 71
     3
 72
    41
 73
    37
 74
     0
 42
0.0000000001
 43
0.0000000001
 40
0.0
 40
0.0
 40
0.0
 40
0.0
 40
1.0
 40
1.0
 40
1.0
 40
2.0
 40
2.0
 40
2.0
 40
3.0
 40
3.0
 40
3.0
 40
4.0
 40
4.0
 40
4.0
 40
5.0
 40
5.0
 40
5.0
 40
6.0
 40
6.0
 40
6.0
 40
7.0
 40
7.0
 40
7.0
 40
8.0
 40
8.0
 40
8.0
 40
9.0
 40
9.0
 40
9.0
 40
10.0
 40
10.0
 40
10.0
 40
11.0
 40
11.0
 40
11.0
 40
12.0
 40
12.0
 40
12.0
 40
12.0
 10
90.47837047434221
 20
109.4899576549192
 30
0.0
 10
90.81685110576801
 20
109.7014865177135
 30
0.0
 10
90.98893362525624
 20
109.8199978024061
 30
0.0
 10
90.98893362525624
 20
110.0993950462598
 30
0.0
 10
90.98893362525624
 20
110.3164360618306
 30
0.0
 10
90.81392277460556
 20
110.4604410531141
 30
0.0
 10
90.6023939118112
 20
110.4604410531141
 30
0.0
 10
90.3231689227317
 20
110.4604410531141
 30
0.0
 10
90.20465763803912
 20
110.2037814394629
 30
0.0
 10
90.21309812197797
 20
109.9640027936895
 30
0.0
 10
90.21309812197797
 20
109.9640027936895
 30
0.0
 10
89.97331947620459
 20
109.9640027936895
 30
0.0
 10
89.97331947620459
 20
109.9640027936895
 30
0.0
 10
89.95092635555046
 20
110.3701795514005
 30
0.0
 10
90.19346107771205
 20
110.6719699159084
 30
0.0
 10
90.61651880330073
 20
110.6719699159084
 30
0.0
 10
90.9634399186654
 20
110.6719699159084
 30
0.0
 10
91.24266490774489
 20
110.4687092822786
 30
0.0
 10
91.24266490774489
 20
110.0966389698716
 30
0.0
 10
91.24266490774489
 20
109.7438611921821
 30
0.0
 10
91.00581459313396
 20
109.5691948510799
 30
0.0
 10
90.75759546342172
 20
109.4110649683069
 30
0.0
 10
90.50937633370947
 20
109.2615478242471
 30
0.0
 10
90.24134790495702
 20
109.128911648065
 30
0.0
 10
90.19621715410025
 20
108.8836208495152
 30
0.0
 10
90.19621715410025
 20
108.8836208495152
 30
0.0
 10
91.22302786347898
 20
108.8836208495152
 30
0.0
 10
91.22302786347898
 20
108.8836208495152
 30
0.0
 10
91.22302786347898
 20
108.8836208495152
 30
0.0
 10
91.22302786347898
 20
108.6720919867208
 30
0.0
 10
91.22302786347898
 20
108.6720919867208
 30
0.0
 10
91.22302786347898
 20
108.6720919867208
 30
0.0
 10
89.91699216502075
 20
108.6720919867208
 30
0.0
 10
89.91699216502075
 20
108.6720919867208
 30
0.0
 10
89.95368243193867
 20
109.1430365395545
 30
0.0
 10
90.19621715410025
 20
109.3208034665934
 30
0.0
 10
90.47837047434221
 20
109.4899576549192
 30
0.0
  0
HATCH
  5
F1
330
EA
100
AcDbEntity
  8
Sichtbar schmal (ANSI)
 62
   250
420
  2039067
440
 33554687
100
AcDbHatch
 10
0.0
 20
0.0
 30
0.0
210
0.0
220
0.0
230
1.0
  2
SOLID
 70
     1
 71
     1
 91
        1
 92
        1
 93
        1
 72
     4
 94
        3
 73
     0
 74
     0
 95
       41
 96
       37
 40
0.0
 40
0.0
 40
0.0
 40
0.0
 40
1.0
 40
1.0
 40
1.0
 40
2.0
 40
2.0
 40
2.0
 40
3.0
 40
3.0
 40
3.0
 40
4.0
 40
4.0
 40
4.0
 40
5.0
 40
5.0
 40
5.0
 40
6.0
 40
6.0
 40
6.0
 40
7.0
 40
7.0
 40
7.0
 40
8.0
 40
8.0
 40
8.0
 40
9.0
 40
9.0
 40
9.0
 40
10.0
 40
10.0
 40
10.0
 40
11.0
 40
11.0
 40
11.0
 40
12.0
 40
12.0
 40
12.0
 40
12.0
 10
90.47837047434221
 20
109.4899576549192
 10
90.81685110576801
 20
109.7014865177135
 10
90.98893362525624
 20
109.8199978024061
 10
90.98893362525624
 20
110.0993950462598
 10
90.98893362525624
 20
110.3164360618306
 10
90.81392277460556
 20
110.4604410531141
 10
90.6023939118112
 20
110.4604410531141
 10
90.3231689227317
 20
110.4604410531141
 10
90.20465763803912
 20
110.2037814394629
 10
90.21309812197797
 20
109.9640027936895
 10
90.21309812197797
 20
109.9640027936895
 10
89.97331947620459
 20
109.9640027936895
 10
89.97331947620459
 20
109.9640027936895
 10
89.95092635555046
 20
110.3701795514005
 10
90.19346107771205
 20
110.6719699159084
 10
90.61651880330073
 20
110.6719699159084
 10
90.9634399186654
 20
110.6719699159084
 10
91.24266490774489
 20
110.4687092822786
 10
91.24266490774489
 20
110.0966389698716
 10
91.24266490774489
 20
109.7438611921821
 10
91.00581459313396
 20
109.5691948510799
 10
90.75759546342172
 20
109.4110649683069
 10
90.50937633370947
 20
109.2615478242471
 10
90.24134790495702
 20
109.128911648065
 10
90.19621715410025
 20
108.8836208495152
 10
90.19621715410025
 20
108.8836208495152
 10
91.22302786347898
 20
108.8836208495152
 10
91.22302786347898
 20
108.8836208495152
 10
91.22302786347898
 20
108.8836208495152
 10
91.22302786347898
 20
108.6720919867208
 10
91.22302786347898
 20
108.6720919867208
 10
91.22302786347898
 20
108.6720919867208
 10
89.91699216502075
 20
108.6720919867208
 10
89.91699216502075
 20
108.6720919867208
 10
89.95368243193867
 20
109.1430365395545
 10
90.19621715410025
 20
109.3208034665934
 10
90.47837047434221
 20
109.4899576549192
 97
        0
 97
        1
330
F0
 75
     2
 76
     1
 98
        1
 10
0.0
 20
0.0
450
        0
451
        0
460
0.0
461
0.0
452
        0
462
0.0
453
        0
470

  0
SPLINE
  5
F2
330
EA
100
AcDbEntity
  8
Sichtbar schmal (ANSI)
100
AcDbSpline
210
0.0
220
0.0
230
1.0
 70
     9
 71
     3
 72
    17
 73
    13
 74
     0
 42
0.0000000001
 43
0.0000000001
 40
0.0
 40
0.0
 40
0.0
 40
0.0
 40
1.0
 40
1.0
 40
1.0
 40
2.0
 40
2.0
 40
2.0
 40
3.0
 40
3.0
 40
3.0
 40
4.0
 40
4.0
 40
4.0
 40
4.0
 10
92.54112139613555
 20
110.1527940262812
 30
0.0
 10
92.54112139613555
 20
110.356054659911
 30
0.0
 10
92.40004473601457
 20
110.4604410531141
 30
0.0
 10
92.20556909587221
 20
110.4604410531141
 30
0.0
 10
92.0136772773438
 20
110.4604410531141
 30
0.0
 10
91.8557196493451
 20
110.3532985835228
 30
0.0
 10
91.8557196493451
 20
110.1527940262812
 30
0.0
 10
91.8557196493451
 20
109.9357530107105
 30
0.0
 10
92.01660560850626
 20
109.8313666175074
 30
0.0
 10
92.21108124864862
 20
109.8313666175074
 30
0.0
 10
92.40297306717705
 20
109.8313666175074
 30
0.0
 10
92.54112139613555
 20
109.9498779022
 30
0.0
 10
92.54112139613555
 20
110.1527940262812
 30
0.0
  0
SPLINE
  5
F3
330
EA
100
AcDbEntity
  8
Sichtbar schmal (ANSI)
100
AcDbSpline
210
0.0
220
0.0
230
1.0
 70
     9
 71
     3
 72
    17
 73
    13
 74
     0
 42
0.0000000001
 43
0.0000000001
 40
0.0
 40
0.0
 40
0.0
 40
0.0
 40
1.0
 40
1.0
 40
1.0
 40
2.0
 40
2.0
 40
2.0
 40
3.0
 40
3.0
 40
3.0
 40
4.0
 40
4.0
 40
4.0
 40
4.0
 10
92.21108124864862
 20
108.8498589137597
 30
0.0
 10
92.450859894422
 20
108.8498589137597
 30
0.0
 10
92.62018633752203
 20
109.0162570256973
 30
0.0
 10
92.62018633752203
 20
109.239154703593
 30
0.0
 10
92.62018633752203
 20
109.4534396427755
 30
0.0
 10
92.43397892654428
 20
109.6198377547131
 30
0.0
 10
92.20832517226041
 20
109.6198377547131
 30
0.0
 10
91.97147485764949
 20
109.6198377547131
 30
0.0
 10
91.78526744667173
 20
109.4703206106532
 30
0.0
 10
91.78526744667173
 20
109.2363986272048
 30
0.0
 10
91.78526744667173
 20
108.9966199814314
 30
0.0
 10
91.96286211893637
 20
108.8498589137597
 30
0.0
 10
92.21108124864862
 20
108.8498589137597
 30
0.0
  0
SPLINE
  5
F4
330
EA
100
AcDbEntity
  8
Sichtbar schmal (ANSI)
100
AcDbSpline
210
0.0
220
0.0
230
1.0
 70
     9
 71
     3
 72
    29
 73
    25
 74
     0
 42
0.0000000001
 43
0.0000000001
 40
0.0
 40
0.0
 40
0.0
 40
0.0
 40
1.0
 40
1.0
 40
1.0
 40
2.0
 40
2.0
 40
2.0
 40
3.0
 40
3.0
 40
3.0
 40
4.0
 40
4.0
 40
4.0
 40
5.0
 40
5.0
 40
5.0
 40
6.0
 40
6.0
 40
6.0
 40
7.0
 40
7.0
 40
7.0
 40
8.0
 40
8.0
 40
8.0
 40
8.0
 10
91.88121335593596
 20
109.7466172685703
 30
0.0
 10
91.71188691283592
 20
109.8144856496297
 30
0.0
 10
91.60181611208219
 20
109.9808837615673
 30
0.0
 10
91.60181611208219
 20
110.1614067649943
 30
0.0
 10
91.60181611208219
 20
110.4886908360931
 30
0.0
 10
91.88121335593596
 20
110.6719699159084
 30
0.0
 10
92.18851587322024
 20
110.6719699159084
 30
0.0
 10
92.62569849029844
 20
110.6719699159084
 30
0.0
 10
92.79502493339846
 20
110.4180663786455
 30
0.0
 10
92.79502493339846
 20
110.1614067649943
 30
0.0
 10
92.79502493339846
 20
109.9808837615673
 30
0.0
 10
92.68495413264473
 20
109.8227538787943
 30
0.0
 10
92.51855602070717
 20
109.7466172685703
 30
0.0
 10
92.75833466648057
 20
109.6704806583463
 30
0.0
 10
92.87408987478496
 20
109.4958143172441
 30
0.0
 10
92.87408987478496
 20
109.2474229327576
 30
0.0
 10
92.87408987478496
 20
108.8612277288611
 30
0.0
 10
92.58056773944167
 20
108.6383300509654
 30
0.0
 10
92.21108124864862
 20
108.6383300509654
 30
0.0
 10
91.82746986636606
 20
108.6383300509654
 30
0.0
 10
91.53136390940883
 20
108.8412461750466
 30
0.0
 10
91.53136390940883
 20
109.2474229327576
 30
0.0
 10
91.53136390940883
 20
109.4844455021428
 30
0.0
 10
91.65555960165209
 20
109.6677245819581
 30
0.0
 10
91.88121335593596
 20
109.7466172685703
 30
0.0
  0
HATCH
  5
F5
330
EA
100
AcDbEntity
  8
Sichtbar schmal (ANSI)
 62
   250
420
  2039067
440
 33554687
100
AcDbHatch
 10
0.0
 20
0.0
 30
0.0
210
0.0
220
0.0
230
1.0
  2
SOLID
 70
     1
 71
     1
 91
        3
 92
        1
 93
        1
 72
     4
 94
        3
 73
     0
 74
     0
 95
       17
 96
       13
 40
0.0
 40
0.0
 40
0.0
 40
0.0
 40
1.0
 40
1.0
 40
1.0
 40
2.0
 40
2.0
 40
2.0
 40
3.0
 40
3.0
 40
3.0
 40
4.0
 40
4.0
 40
4.0
 40
4.0
 10
92.54112139613555
 20
110.1527940262812
 10
92.54112139613555
 20
110.356054659911
 10
92.40004473601457
 20
110.4604410531141
 10
92.20556909587221
 20
110.4604410531141
 10
92.0136772773438
 20
110.4604410531141
 10
91.8557196493451
 20
110.3532985835228
 10
91.8557196493451
 20
110.1527940262812
 10
91.8557196493451
 20
109.9357530107105
 10
92.01660560850626
 20
109.8313666175074
 10
92.21108124864862
 20
109.8313666175074
 10
92.40297306717705
 20
109.8313666175074
 10
92.54112139613555
 20
109.9498779022
 10
92.54112139613555
 20
110.1527940262812
 97
        0
 97
        1
330
F2
 92
        1
 93
        1
 72
     4
 94
        3
 73
     0
 74
     0
 95
       17
 96
       13
 40
0.0
 40
0.0
 40
0.0
 40
0.0
 40
1.0
 40
1.0
 40
1.0
 40
2.0
 40
2.0
 40
2.0
 40
3.0
 40
3.0
 40
3.0
 40
4.0
 40
4.0
 40
4.0
 40
4.0
 10
92.21108124864862
 20
108.8498589137597
 10
92.450859894422
 20
108.8498589137597
 10
92.62018633752203
 20
109.0162570256973
 10
92.62018633752203
 20
109.239154703593
 10
92.62018633752203
 20
109.4534396427755
 10
92.43397892654428
 20
109.6198377547131
 10
92.20832517226041
 20
109.6198377547131
 10
91.97147485764949
 20
109.6198377547131
 10
91.78526744667173
 20
109.4703206106532
 10
91.78526744667173
 20
109.2363986272048
 10
91.78526744667173
 20
108.9966199814314
 10
91.96286211893637
 20
108.8498589137597
 10
92.21108124864862
 20
108.8498589137597
 97
        0
 97
        1
330
F3
 92
        1
 93
        1
 72
     4
 94
        3
 73
     0
 74
     0
 95
       29
 96
       25
 40
0.0
 40
0.0
 40
0.0
 40
0.0
 40
1.0
 40
1.0
 40
1.0
 40
2.0
 40
2.0
 40
2.0
 40
3.0
 40
3.0
 40
3.0
 40
4.0
 40
4.0
 40
4.0
 40
5.0
 40
5.0
 40
5.0
 40
6.0
 40
6.0
 40
6.0
 40
7.0
 40
7.0
 40
7.0
 40
8.0
 40
8.0
 40
8.0
 40
8.0
 10
91.88121335593596
 20
109.7466172685703
 10
91.71188691283592
 20
109.8144856496297
 10
91.60181611208219
 20
109.9808837615673
 10
91.60181611208219
 20
110.1614067649943
 10
91.60181611208219
 20
110.4886908360931
 10
91.88121335593596
 20
110.6719699159084
 10
92.18851587322024
 20
110.6719699159084
 10
92.62569849029844
 20
110.6719699159084
 10
92.79502493339846
 20
110.4180663786455
 10
92.79502493339846
 20
110.1614067649943
 10
92.79502493339846
 20
109.9808837615673
 10
92.68495413264473
 20
109.8227538787943
 10
92.51855602070717
 20
109.7466172685703
 10
92.75833466648057
 20
109.6704806583463
 10
92.87408987478496
 20
109.4958143172441
 10
92.87408987478496
 20
109.2474229327576
 10
92.87408987478496
 20
108.8612277288611
 10
92.58056773944167
 20
108.6383300509654
 10
92.21108124864862
 20
108.6383300509654
 10
91.82746986636606
 20
108.6383300509654
 10
91.53136390940883
 20
108.8412461750466
 10
91.53136390940883
 20
109.2474229327576
 10
91.53136390940883
 20
109.4844455021428
 10
91.65555960165209
 20
109.6677245819581
 10
91.88121335593596
 20
109.7466172685703
 97
        0
 97
        1
330
F4
 75
     2
 76
     1
 98
        1
 10
0.0
 20
0.0
450
        0
451
        0
460
0.0
461
0.0
452
        0
462
0.0
453
        0
470

  0
ENDBLK
  5
ED
330
EA
100
AcDbEntity
  8
0
100
AcDbBlockEnd
  0
BLOCK
  5
FA
330
F8
100
AcDbEntity
  8
0
100
AcDbBlockBegin
  2
Block_4
 70
     0
 10
0.0
 20
0.0
 30
0.0
  3
Block_4
  1

  0
INSERT
  5
FD
330
F8
100
AcDbEntity
  8
Sichtbar schmal (ANSI)
100
AcDbBlockReference
  2
Block_5
 10
0.0
 20
0.0
 30
0.0
  0
ENDBLK
  5
FB
330
F8
100
AcDbEntity
  8
0
100
AcDbBlockEnd
  0
BLOCK
  5
FE
330
FC
100
AcDbEntity
  8
0
100
AcDbBlockBegin
  2
Block_5
 70
     0
 10
0.0
 20
0.0
 30
0.0
  3
Block_5
  1

  0
LINE
  5
100
330
FC
100
AcDbEntity
  8
Sichtbar schmal (ANSI)
 62
    18
420
        0
370
     5
100
AcDbLine
 10
79.80240175583337
 20
111.6870780665606
 30
0.0
 11
101.4518501028108
 21
111.6870780665606
 31
0.0
  0
INSERT
  5
102
330
FC
100
AcDbEntity
  8
Sichtbar schmal (ANSI)
100
AcDbBlockReference
  2
Block_6
 10
0.0
 20
0.0
 30
0.0
  0
INSERT
  5
108
330
FC
100
AcDbEntity
  8
Sichtbar schmal (ANSI)
100
AcDbBlockReference
  2
Block_7
 10
0.0
 20
0.0
 30
0.0
  0
ENDBLK
  5
FF
330
FC
100
AcDbEntity
  8
0
100
AcDbBlockEnd
  0
BLOCK
  5
103
330
101
100
AcDbEntity
  8
0
100
AcDbBlockBegin
  2
Block_6
 70
     0
 10
0.0
 20
0.0
 30
0.0
  3
Block_6
  1

  0
LWPOLYLINE
  5
105
330
101
100
AcDbEntity
  8
Sichtbar schmal (ANSI)
100
AcDbPolyline
 90
        3
 70
     1
 43
0.0
 10
80.43485669138489
 20
111.4657737453269
 10
78.75368239235314
 20
111.686399813387
 10
80.43485669138489
 20
111.9083931537178
  0
HATCH
  5
106
330
101
100
AcDbEntity
  8
Sichtbar schmal (ANSI)
 62
    18
420
        0
440
 33554687
100
AcDbHatch
 10
0.0
 20
0.0
 30
0.0
210
0.0
220
0.0
230
1.0
  2
SOLID
 70
     1
 71
     1
 91
        1
 92
        1
 93
        3
 72
     1
 10
80.43485669138489
 20
111.4657737453269
 11
78.75368239235314
 21
111.686399813387
 72
     1
 10
78.75368239235314
 20
111.686399813387
 11
80.43485669138489
 21
111.9083931537178
 72
     1
 10
80.43485669138489
 20
111.9083931537178
 11
80.43485669138489
 21
111.4657737453269
 97
        1
330
105
 75
     2
 76
     1
 98
        1
 10
0.0
 20
0.0
450
        0
451
        0
460
0.0
461
0.0
452
        0
462
0.0
453
        0
470

  0
ENDBLK
  5
104
330
101
100
AcDbEntity
  8
0
100
AcDbBlockEnd
  0
BLOCK
  5
109
330
107
100
AcDbEntity
  8
0
100
AcDbBlockBegin
  2
Block_7
 70
     0
 10
0.0
 20
0.0
 30
0.0
  3
Block_7
  1

  0
LWPOLYLINE
  5
10B
330
107
100
AcDbEntity
  8
Sichtbar schmal (ANSI)
100
AcDbPolyline
 90
        3
 70
     1
 43
0.0
 10
100.8193951672593
 20
111.4657737453269
 10
102.5005694662911
 20
111.686399813387
 10
100.8193951672593
 20
111.9083931537178
  0
HATCH
  5
10C
330
107
100
AcDbEntity
  8
Sichtbar schmal (ANSI)
 62
    18
420
        0
440
 33554687
100
AcDbHatch
 10
0.0
 20
0.0
 30
0.0
210
0.0
220
0.0
230
1.0
  2
SOLID
 70
     1
 71
     1
 91
        1
 92
        1
 93
        3
 72
     1
 10
100.8193951672593
 20
111.4657737453269
 11
102.5005694662911
 21
111.686399813387
 72
     1
 10
102.5005694662911
 20
111.686399813387
 11
100.8193951672593
 21
111.9083931537178
 72
     1
 10
100.8193951672593
 20
111.9083931537178
 11
100.8193951672593
 21
111.4657737453269
 97
        1
330
10B
 75
     2
 76
     1
 98
        1
 10
0.0
 20
0.0
450
        0
451
        0
460
0.0
461
0.0
452
        0
462
0.0
453
        0
470

  0
ENDBLK
  5
10A
330
107
100
AcDbEntity
  8
0
100
AcDbBlockEnd
  0
BLOCK
  5
10F
330
10D
100
AcDbEntity
  8
0
100
AcDbBlockBegin
  2
Block_8
 70
     0
 10
0.0
 20
0.0
 30
0.0
  3
Block_8
  1

  0
LINE
  5
111
330
10D
100
AcDbEntity
  8
Sichtbar schmal (ANSI)
 62
    18
420
        0
370
     5
100
AcDbLine
 10
68.60196676889365
 20
168.8243605183888
 30
0.0
 11
68.60196676889365
 21
168.4650197718569
 31
0.0
  0
LINE
  5
112
330
10D
100
AcDbEntity
  8
Sichtbar schmal (ANSI)
 62
    18
420
        0
370
     5
100
AcDbLine
 10
68.42229639562614
 20
168.8243605183888
 30
0.0
 11
68.42229639562614
 21
168.4650197718569
 31
0.0
  0
LINE
  5
113
330
10D
100
AcDbEntity
  8
Sichtbar schmal (ANSI)
 62
    18
420
        0
370
     5
100
AcDbLine
 10
68.42229639562614
 20
168.8243605183888
 30
0.0
 11
68.42229639562614
 21
184.904858925807
 31
0.0
  0
LINE
  5
114
330
10D
100
AcDbEntity
  8
Sichtbar schmal (ANSI)
 62
    18
420
        0
370
     5
100
AcDbLine
 10
113.1602193391666
 20
181.0419459005617
 30
0.0
 11
113.1602193391666
 21
184.904858925807
 31
0.0
  0
LINE
  5
115
330
10D
100
AcDbEntity
  8
Sichtbar schmal (ANSI)
 62
    18
420
        0
370
     5
100
AcDbLine
 10
113.1602193391666
 20
168.8243605183888
 30
0.0
 11
113.1602193391666
 21
181.0419459005617
 31
0.0
  0
LINE
  5
116
330
10D
100
AcDbEntity
  8
Sichtbar schmal (ANSI)
 62
    18
420
        0
370
     5
100
AcDbLine
 10
113.1602193391666
 20
168.4650197718569
 30
0.0
 11
113.1602193391666
 21
168.8243605183888
 31
0.0
  0
LINE
  5
117
330
10D
100
AcDbEntity
  8
Sichtbar schmal (ANSI)
 62
    18
420
        0
370
     5
100
AcDbLine
 10
112.9805489658998
 20
168.4650197718569
 30
0.0
 11
112.9805489658998
 21
168.8243605183888
 31
0.0
  0
LINE
  5
118
330
10D
100
AcDbEntity
  8
Sichtbar schmal (ANSI)
 62
    18
420
        0
370
     5
100
AcDbLine
 10
113.1602193391666
 20
181.0419459005617
 30
0.0
 11
112.8008785926329
 21
181.0419459005617
 31
0.0
  0
LINE
  5
119
330
10D
100
AcDbEntity
  8
Sichtbar schmal (ANSI)
 62
    18
420
        0
370
     5
100
AcDbLine
 10
113.1602193391666
 20
168.8243605183888
 30
0.0
 11
112.8008785926329
 21
168.8243605183888
 31
0.0
  0
SPLINE
  5
11A
330
10D
100
AcDbEntity
  8
Sichtbar schmal (ANSI)
 62
    18
420
        0
370
     5
100
AcDbSpline
210
0.0
220
0.0
230
1.0
 70
     8
 71
     3
 72
     8
 73
     4
 74
     0
 42
0.0000000001
 43
0.0000000001
 40
0.0
 40
0.0
 40
0.0
 40
0.0
 40
1.0
 40
1.0
 40
1.0
 40
1.0
 10
112.845796185951
 20
168.2910546809881
 30
0.0
 10
112.9251239688902
 20
168.3115370264701
 30
0.0
 10
112.9805489658998
 20
168.383090389932
 30
0.0
 10
112.9805489658998
 20
168.4650197718569
 30
0.0
  0
SPLINE
  5
11B
330
10D
100
AcDbEntity
  8
Sichtbar schmal (ANSI)
 62
    18
420
        0
370
     5
100
AcDbSpline
210
0.0
220
0.0
230
1.0
 70
     8
 71
     3
 72
     8
 73
     4
 74
     0
 42
0.0000000001
 43
0.0000000001
 40
0.0
 40
0.0
 40
0.0
 40
0.0
 40
1.0
 40
1.0
 40
1.0
 40
1.0
 10
112.845796185951
 20
168.1084974276329
 30
0.0
 10
113.0254665592186
 20
168.1311337669502
 30
0.0
 10
113.1602193391666
 20
168.2839290573301
 30
0.0
 10
113.1602193391666
 20
168.4650197718569
 30
0.0
  0
LINE
  5
11C
330
10D
100
AcDbEntity
  8
Sichtbar schmal (ANSI)
 62
    18
420
        0
370
     5
100
AcDbLine
 10
90.80397786986058
 20
168.2853493985904
 30
0.0
 11
90.98364824312776
 21
168.2853493985904
 31
0.0
  0
LINE
  5
11D
330
10D
100
AcDbEntity
  8
Sichtbar schmal (ANSI)
 62
    18
420
        0
370
     5
100
AcDbLine
 10
90.98364824312776
 20
168.2853493985904
 30
0.0
 11
91.13357513607835
 21
168.2853493985904
 31
0.0
  0
LINE
  5
11E
330
10D
100
AcDbEntity
  8
Sichtbar schmal (ANSI)
 62
    18
420
        0
370
     5
100
AcDbLine
 10
108.9738996420429
 20
168.2853493985904
 30
0.0
 11
109.1535700153104
 21
168.2853493985904
 31
0.0
  0
LINE
  5
11F
330
10D
100
AcDbEntity
  8
Sichtbar schmal (ANSI)
 62
    18
420
        0
370
     5
100
AcDbLine
 10
90.98364824312776
 20
168.1056790253229
 30
0.0
 11
109.1535700153104
 21
168.1056790253229
 31
0.0
  0
LINE
  5
120
330
10D
100
AcDbEntity
  8
Sichtbar schmal (ANSI)
 62
    18
420
        0
370
     5
100
AcDbLine
 10
90.98364824312776
 20
168.1056790253229
 30
0.0
 11
90.80397786986058
 21
168.1056790253229
 31
0.0
  0
LINE
  5
121
330
10D
100
AcDbEntity
  8
Sichtbar schmal (ANSI)
 62
    18
420
        0
370
     5
100
AcDbLine
 10
90.80397786986058
 20
168.1056790253229
 30
0.0
 11
90.80397786986058
 21
168.2853493985904
 31
0.0
  0
SPLINE
  5
122
330
10D
100
AcDbEntity
  8
Sichtbar schmal (ANSI)
 62
    18
420
        0
370
     5
100
AcDbSpline
210
0.0
220
0.0
230
1.0
 70
     8
 71
     3
 72
     8
 73
     4
 74
     0
 42
0.0000000001
 43
0.0000000001
 40
0.0
 40
0.0
 40
0.0
 40
0.0
 40
1.0
 40
1.0
 40
1.0
 40
1.0
 10
68.60196676889365
 20
168.4650197718569
 30
0.0
 10
68.60196676889365
 20
168.3657905647048
 30
0.0
 10
68.6824079350106
 20
168.2853493985904
 30
0.0
 10
68.78163714216083
 20
168.2853493985904
 30
0.0
  0
LINE
  5
123
330
10D
100
AcDbEntity
  8
Sichtbar schmal (ANSI)
 62
    18
420
        0
370
     5
100
AcDbLine
 10
68.78163714216083
 20
168.2853493985904
 30
0.0
 11
68.9253734407749
 21
168.2853493985904
 31
0.0
  0
LINE
  5
124
330
10D
100
AcDbEntity
  8
Sichtbar schmal (ANSI)
 62
    18
420
        0
370
     5
100
AcDbLine
 10
72.42894571948649
 20
168.2853493985904
 30
0.0
 11
72.60861609275337
 21
168.2853493985904
 31
0.0
  0
LINE
  5
125
330
10D
100
AcDbEntity
  8
Sichtbar schmal (ANSI)
 62
    18
420
        0
370
     5
100
AcDbLine
 10
90.45476542851124
 20
168.2853493985904
 30
0.0
 11
90.59886749166855
 21
168.2853493985904
 31
0.0
  0
LINE
  5
126
330
10D
100
AcDbEntity
  8
Sichtbar schmal (ANSI)
 62
    18
420
        0
370
     5
100
AcDbLine
 10
90.59886749166855
 20
168.2853493985904
 30
0.0
 11
90.77853786493575
 21
168.2853493985904
 31
0.0
  0
SPLINE
  5
127
330
10D
100
AcDbEntity
  8
Sichtbar schmal (ANSI)
 62
    18
420
        0
370
     5
100
AcDbSpline
210
0.0
220
0.0
230
1.0
 70
     8
 71
     3
 72
     8
 73
     4
 74
     0
 42
0.0000000001
 43
0.0000000001
 40
0.0
 40
0.0
 40
0.0
 40
0.0
 40
1.0
 40
1.0
 40
1.0
 40
1.0
 10
68.42229639562614
 20
168.4650197718569
 30
0.0
 10
68.42229639562614
 20
168.2665613575533
 30
0.0
 10
68.58317872785812
 20
168.1056790253229
 30
0.0
 10
68.78163714216083
 20
168.1056790253229
 30
0.0
  0
LINE
  5
128
330
10D
100
AcDbEntity
  8
Sichtbar schmal (ANSI)
 62
    18
420
        0
370
     5
100
AcDbLine
 10
90.77853786493575
 20
168.1056790253229
 30
0.0
 11
90.59886749166855
 21
168.1056790253229
 31
0.0
  0
LINE
  5
129
330
10D
100
AcDbEntity
  8
Sichtbar schmal (ANSI)
 62
    18
420
        0
370
     5
100
AcDbLine
 10
68.78163714216083
 20
168.1056790253229
 30
0.0
 11
68.9253734407749
 21
168.1056790253229
 31
0.0
  0
LINE
  5
12A
330
10D
100
AcDbEntity
  8
Sichtbar schmal (ANSI)
 62
    18
420
        0
370
     5
100
AcDbLine
 10
72.42894571948649
 20
168.1056790253229
 30
0.0
 11
90.59886749166855
 21
168.1056790253229
 31
0.0
  0
LINE
  5
12B
330
10D
100
AcDbEntity
  8
Sichtbar schmal (ANSI)
 62
    18
420
        0
370
     5
100
AcDbLine
 10
68.42229639562614
 20
168.8243605183888
 30
0.0
 11
68.78163714216083
 21
168.8243605183888
 31
0.0
  0
LINE
  5
12C
330
10D
100
AcDbEntity
  8
Sichtbar schmal (ANSI)
 62
    18
420
        0
370
     5
100
AcDbLine
 10
68.9253734407749
 20
168.8243605183888
 30
0.0
 11
68.78163714216083
 21
168.8243605183888
 31
0.0
  0
LINE
  5
12D
330
10D
100
AcDbEntity
  8
Sichtbar schmal (ANSI)
 62
    18
420
        0
370
     5
100
AcDbLine
 10
68.9253734407749
 20
168.8243605183888
 30
0.0
 11
68.9253734407749
 21
168.0158438386875
 31
0.0
  0
LINE
  5
12E
330
10D
100
AcDbEntity
  8
Sichtbar schmal (ANSI)
 62
    18
420
        0
370
     5
100
AcDbLine
 10
68.9253734407749
 20
168.0158438386875
 30
0.0
 11
72.42894571948649
 21
168.0158438386875
 31
0.0
  0
LINE
  5
12F
330
10D
100
AcDbEntity
  8
Sichtbar schmal (ANSI)
 62
    18
420
        0
370
     5
100
AcDbLine
 10
72.42894571948649
 20
168.0158438386875
 30
0.0
 11
72.42894571948649
 21
168.8243605183888
 31
0.0
  0
LINE
  5
130
330
10D
100
AcDbEntity
  8
Sichtbar schmal (ANSI)
 62
    18
420
        0
370
     5
100
AcDbLine
 10
72.60861609275337
 20
168.8243605183888
 30
0.0
 11
72.42894571948649
 21
168.8243605183888
 31
0.0
  0
LINE
  5
131
330
10D
100
AcDbEntity
  8
Sichtbar schmal (ANSI)
 62
    18
420
        0
370
     5
100
AcDbLine
 10
72.60861609275337
 20
168.6446901451244
 30
0.0
 11
72.60861609275337
 21
168.8243605183888
 31
0.0
  0
SPLINE
  5
132
330
10D
100
AcDbEntity
  8
Sichtbar schmal (ANSI)
 62
    18
420
        0
370
     5
100
AcDbSpline
210
0.0
220
0.0
230
1.0
 70
     8
 71
     3
 72
    11
 73
     7
 74
     0
 42
0.0000000001
 43
0.0000000001
 40
0.0
 40
0.0
 40
0.0
 40
0.0
 40
1.0
 40
1.0
 40
1.0
 40
2.0
 40
2.0
 40
2.0
 40
2.0
 10
91.10089618188837
 20
168.6446901451187
 30
0.0
 10
90.98182113330713
 20
168.8156986641762
 30
0.0
 10
90.74666193853728
 20
168.8577990602753
 30
0.0
 10
90.57565341948075
 20
168.7387240116928
 30
0.0
 10
90.53898866322088
 20
168.7131939523903
 30
0.0
 10
90.50714961221043
 20
168.6813549013798
 30
0.0
 10
90.48161955290826
 20
168.6446901451187
 30
0.0
  0
LINE
  5
133
330
10D
100
AcDbEntity
  8
Sichtbar schmal (ANSI)
 62
    18
420
        0
370
     5
100
AcDbLine
 10
108.9738996420429
 20
168.8243605183888
 30
0.0
 11
108.9738996420429
 21
168.6446901451244
 31
0.0
  0
LINE
  5
134
330
10D
100
AcDbEntity
  8
Sichtbar schmal (ANSI)
 62
    18
420
        0
370
     5
100
AcDbLine
 10
109.1535700153104
 20
168.8243605183888
 30
0.0
 11
108.9738996420429
 21
168.8243605183888
 31
0.0
  0
LINE
  5
135
330
10D
100
AcDbEntity
  8
Sichtbar schmal (ANSI)
 62
    18
420
        0
370
     5
100
AcDbLine
 10
109.1535700153104
 20
168.8243605183888
 30
0.0
 11
109.1535700153104
 21
168.0158438386875
 31
0.0
  0
LINE
  5
136
330
10D
100
AcDbEntity
  8
Sichtbar schmal (ANSI)
 62
    18
420
        0
370
     5
100
AcDbLine
 10
109.1535700153104
 20
168.0158438386875
 30
0.0
 11
112.845796185951
 21
168.0158438386875
 31
0.0
  0
LINE
  5
137
330
10D
100
AcDbEntity
  8
Sichtbar schmal (ANSI)
 62
    18
420
        0
370
     5
100
AcDbLine
 10
112.845796185951
 20
168.0158438386875
 30
0.0
 11
112.845796185951
 21
168.8243605183888
 31
0.0
  0
LINE
  5
138
330
10D
100
AcDbEntity
  8
Sichtbar schmal (ANSI)
 62
    18
420
        0
370
     5
100
AcDbLine
 10
112.845796185951
 20
181.0419459005617
 30
0.0
 11
112.845796185951
 21
184.904858925807
 31
0.0
  0
SPLINE
  5
139
330
10D
100
AcDbEntity
  8
Sichtbar schmal (ANSI)
 62
    18
420
        0
370
     5
100
AcDbSpline
210
0.0
220
0.0
230
1.0
 70
     8
 71
     3
 72
    11
 73
     7
 74
     0
 42
0.0000000001
 43
0.0000000001
 40
0.0
 40
0.0
 40
0.0
 40
0.0
 40
1.0
 40
1.0
 40
1.0
 40
2.0
 40
2.0
 40
2.0
 40
2.0
 10
81.3495797522053
 20
169.2393867382584
 30
0.0
 10
82.36073218959008
 20
169.2840398814757
 30
0.0
 10
83.14423467342422
 20
170.1399394148152
 30
0.0
 10
83.09958153020662
 20
171.151091852202
 30
0.0
 10
83.0576904830635
 20
172.0996977368039
 30
0.0
 10
82.29818563680858
 20
172.8592025830588
 30
0.0
 10
81.3495797522053
 20
172.9010936302016
 30
0.0
  0
SPLINE
  5
13A
330
10D
100
AcDbEntity
  8
Sichtbar schmal (ANSI)
 62
    18
420
        0
370
     5
100
AcDbSpline
210
0.0
220
0.0
230
1.0
 70
     8
 71
     3
 72
    11
 73
     7
 74
     0
 42
0.0000000001
 43
0.0000000001
 40
0.0
 40
0.0
 40
0.0
 40
0.0
 40
1.0
 40
1.0
 40
1.0
 40
2.0
 40
2.0
 40
2.0
 40
2.0
 10
81.18787641626402
 20
172.9010936302016
 30
0.0
 10
80.17672397887926
 20
172.8564404869834
 30
0.0
 10
79.39322149504512
 20
172.0005409536448
 30
0.0
 10
79.43787463826272
 20
170.9893885162607
 30
0.0
 10
79.47976568540584
 20
170.0407826316558
 30
0.0
 10
80.23927053166074
 20
169.2812777854012
 30
0.0
 10
81.18787641626402
 20
169.2393867382584
 30
0.0
  0
SPLINE
  5
13B
330
10D
100
AcDbEntity
  8
Sichtbar schmal (ANSI)
 62
    18
420
        0
370
     5
100
AcDbSpline
210
0.0
220
0.0
230
1.0
 70
     8
 71
     3
 72
    11
 73
     7
 74
     0
 42
0.0000000001
 43
0.0000000001
 40
0.0
 40
0.0
 40
0.0
 40
0.0
 40
1.0
 40
1.0
 40
1.0
 40
2.0
 40
2.0
 40
2.0
 40
2.0
 10
76.49847967398965
 20
169.2390352382266
 30
0.0
 10
77.75789925736145
 20
169.2836883814442
 30
0.0
 10
78.74266202840877
 20
170.340848201997
 30
0.0
 10
78.69800888519086
 20
171.6002677853685
 30
0.0
 10
78.65557769978353
 20
172.7970181594098
 30
0.0
 10
77.69523004802934
 20
173.7573658111623
 30
0.0
 10
76.49847967398965
 20
173.79979699657
 30
0.0
  0
SPLINE
  5
13C
330
10D
100
AcDbEntity
  8
Sichtbar schmal (ANSI)
 62
    18
420
        0
370
     5
100
AcDbSpline
210
0.0
220
0.0
230
1.0
 70
     8
 71
     3
 72
    11
 73
     7
 74
     0
 42
0.0000000001
 43
0.0000000001
 40
0.0
 40
0.0
 40
0.0
 40
0.0
 40
1.0
 40
1.0
 40
1.0
 40
2.0
 40
2.0
 40
2.0
 40
2.0
 10
76.33677633804869
 20
173.79979699657
 30
0.0
 10
75.0773567546769
 20
173.7551438533517
 30
0.0
 10
74.09259398362827
 20
172.6979840328
 30
0.0
 10
74.13724712684748
 20
171.4385644494275
 30
0.0
 10
74.17967831225545
 20
170.2418140753898
 30
0.0
 10
75.14002596400932
 20
169.2814664236343
 30
0.0
 10
76.33677633804869
 20
169.2390352382266
 30
0.0
  0
LINE
  5
13D
330
10D
100
AcDbEntity
  8
Sichtbar schmal (ANSI)
 62
    18
420
        0
370
     5
100
AcDbLine
 10
81.40348086418432
 20
170.3515586911626
 30
0.0
 11
81.1339753042834
 21
170.3515586911626
 31
0.0
  0
LINE
  5
13E
330
10D
100
AcDbEntity
  8
Sichtbar schmal (ANSI)
 62
    18
420
        0
370
     5
100
AcDbLine
 10
81.1339753042834
 20
170.3515586911626
 30
0.0
 11
81.1339753042834
 21
171.7889216773007
 31
0.0
  0
LINE
  5
13F
330
10D
100
AcDbEntity
  8
Sichtbar schmal (ANSI)
 62
    18
420
        0
370
     5
100
AcDbLine
 10
81.1339753042834
 20
171.7889216773007
 30
0.0
 11
81.40348086418432
 21
171.7889216773007
 31
0.0
  0
LINE
  5
140
330
10D
100
AcDbEntity
  8
Sichtbar schmal (ANSI)
 62
    18
420
        0
370
     5
100
AcDbLine
 10
81.40348086418432
 20
171.7889216773007
 30
0.0
 11
81.40348086418432
 21
170.3515586911626
 31
0.0
  0
LINE
  5
141
330
10D
100
AcDbEntity
  8
Sichtbar schmal (ANSI)
 62
    18
420
        0
370
     5
100
AcDbLine
 10
76.55238078596901
 20
170.8007346243288
 30
0.0
 11
76.28287522606806
 21
170.8007346243288
 31
0.0
  0
LINE
  5
142
330
10D
100
AcDbEntity
  8
Sichtbar schmal (ANSI)
 62
    18
420
        0
370
     5
100
AcDbLine
 10
76.28287522606806
 20
170.8007346243288
 30
0.0
 11
76.28287522606806
 21
172.2380976104679
 31
0.0
  0
LINE
  5
143
330
10D
100
AcDbEntity
  8
Sichtbar schmal (ANSI)
 62
    18
420
        0
370
     5
100
AcDbLine
 10
76.28287522606806
 20
172.2380976104679
 30
0.0
 11
76.55238078596901
 21
172.2380976104679
 31
0.0
  0
LINE
  5
144
330
10D
100
AcDbEntity
  8
Sichtbar schmal (ANSI)
 62
    18
420
        0
370
     5
100
AcDbLine
 10
76.55238078596901
 20
172.2380976104679
 30
0.0
 11
76.55238078596901
 21
170.8007346243288
 31
0.0
  0
SPLINE
  5
145
330
10D
100
AcDbEntity
  8
Sichtbar schmal (ANSI)
 62
    18
420
        0
370
     5
100
AcDbSpline
210
0.0
220
0.0
230
1.0
 70
     8
 71
     3
 72
    11
 73
     7
 74
     0
 42
0.0000000001
 43
0.0000000001
 40
0.0
 40
0.0
 40
0.0
 40
0.0
 40
1.0
 40
1.0
 40
1.0
 40
2.0
 40
2.0
 40
2.0
 40
2.0
 10
100.2329359825916
 20
172.9010936302016
 30
0.0
 10
99.22178354520625
 20
172.8564404869834
 30
0.0
 10
98.43828106137209
 20
172.0005409536448
 30
0.0
 10
98.48293420458936
 20
170.9893885162607
 30
0.0
 10
98.52482525173282
 20
170.0407826316558
 30
0.0
 10
99.28433009798741
 20
169.2812777854012
 30
0.0
 10
100.2329359825916
 20
169.2393867382584
 30
0.0
  0
SPLINE
  5
146
330
10D
100
AcDbEntity
  8
Sichtbar schmal (ANSI)
 62
    18
420
        0
370
     5
100
AcDbSpline
210
0.0
220
0.0
230
1.0
 70
     8
 71
     3
 72
    11
 73
     7
 74
     0
 42
0.0000000001
 43
0.0000000001
 40
0.0
 40
0.0
 40
0.0
 40
0.0
 40
1.0
 40
1.0
 40
1.0
 40
2.0
 40
2.0
 40
2.0
 40
2.0
 10
100.3946393185316
 20
169.2393867382584
 30
0.0
 10
101.405791755917
 20
169.2840398814757
 30
0.0
 10
102.1892942397512
 20
170.1399394148152
 30
0.0
 10
102.1446410965332
 20
171.151091852202
 30
0.0
 10
102.1027500493904
 20
172.0996977368039
 30
0.0
 10
101.3432452031359
 20
172.8592025830588
 30
0.0
 10
100.3946393185316
 20
172.9010936302016
 30
0.0
  0
SPLINE
  5
147
330
10D
100
AcDbEntity
  8
Sichtbar schmal (ANSI)
 62
    18
420
        0
370
     5
100
AcDbSpline
210
0.0
220
0.0
230
1.0
 70
     8
 71
     3
 72
    11
 73
     7
 74
     0
 42
0.0000000001
 43
0.0000000001
 40
0.0
 40
0.0
 40
0.0
 40
0.0
 40
1.0
 40
1.0
 40
1.0
 40
2.0
 40
2.0
 40
2.0
 40
2.0
 10
105.0840360608066
 20
173.79979699657
 30
0.0
 10
103.8246164774348
 20
173.7551438533517
 30
0.0
 10
102.8398537063872
 20
172.6979840328
 30
0.0
 10
102.8845068496058
 20
171.4385644494275
 30
0.0
 10
102.9269380350128
 20
170.2418140753898
 30
0.0
 10
103.8872856867669
 20
169.2814664236343
 30
0.0
 10
105.0840360608066
 20
169.2390352382266
 30
0.0
  0
SPLINE
  5
148
330
10D
100
AcDbEntity
  8
Sichtbar schmal (ANSI)
 62
    18
420
        0
370
     5
100
AcDbSpline
210
0.0
220
0.0
230
1.0
 70
     8
 71
     3
 72
    11
 73
     7
 74
     0
 42
0.0000000001
 43
0.0000000001
 40
0.0
 40
0.0
 40
0.0
 40
0.0
 40
1.0
 40
1.0
 40
1.0
 40
2.0
 40
2.0
 40
2.0
 40
2.0
 10
105.2457393967473
 20
169.2390352382266
 30
0.0
 10
106.5051589801191
 20
169.2836883814442
 30
0.0
 10
107.489921751168
 20
170.340848201997
 30
0.0
 10
107.4452686079488
 20
171.6002677853685
 30
0.0
 10
107.4028374225411
 20
172.7970181594098
 30
0.0
 10
106.442489770787
 20
173.7573658111623
 30
0.0
 10
105.2457393967473
 20
173.79979699657
 30
0.0
  0
LINE
  5
149
330
10D
100
AcDbEntity
  8
Sichtbar schmal (ANSI)
 62
    18
420
        0
370
     5
100
AcDbLine
 10
100.1790348706116
 20
170.3515586911626
 30
0.0
 11
100.1790348706116
 21
171.7889216773007
 31
0.0
  0
LINE
  5
14A
330
10D
100
AcDbEntity
  8
Sichtbar schmal (ANSI)
 62
    18
420
        0
370
     5
100
AcDbLine
 10
100.1790348706116
 20
171.7889216773007
 30
0.0
 11
100.4485404305129
 21
171.7889216773007
 31
0.0
  0
LINE
  5
14B
330
10D
100
AcDbEntity
  8
Sichtbar schmal (ANSI)
 62
    18
420
        0
370
     5
100
AcDbLine
 10
100.4485404305129
 20
171.7889216773007
 30
0.0
 11
100.4485404305129
 21
170.3515586911626
 31
0.0
  0
LINE
  5
14C
330
10D
100
AcDbEntity
  8
Sichtbar schmal (ANSI)
 62
    18
420
        0
370
     5
100
AcDbLine
 10
100.4485404305129
 20
170.3515586911626
 30
0.0
 11
100.1790348706116
 21
170.3515586911626
 31
0.0
  0
LINE
  5
14D
330
10D
100
AcDbEntity
  8
Sichtbar schmal (ANSI)
 62
    18
420
        0
370
     5
100
AcDbLine
 10
105.0301349488273
 20
170.8007346243288
 30
0.0
 11
105.0301349488273
 21
172.2380976104679
 31
0.0
  0
LINE
  5
14E
330
10D
100
AcDbEntity
  8
Sichtbar schmal (ANSI)
 62
    18
420
        0
370
     5
100
AcDbLine
 10
105.0301349488273
 20
172.2380976104679
 30
0.0
 11
105.2996405087285
 21
172.2380976104679
 31
0.0
  0
LINE
  5
14F
330
10D
100
AcDbEntity
  8
Sichtbar schmal (ANSI)
 62
    18
420
        0
370
     5
100
AcDbLine
 10
105.2996405087285
 20
172.2380976104679
 30
0.0
 11
105.2996405087285
 21
170.8007346243288
 31
0.0
  0
LINE
  5
150
330
10D
100
AcDbEntity
  8
Sichtbar schmal (ANSI)
 62
    18
420
        0
370
     5
100
AcDbLine
 10
105.2996405087285
 20
170.8007346243288
 30
0.0
 11
105.0301349488273
 21
170.8007346243288
 31
0.0
  0
LINE
  5
151
330
10D
100
AcDbEntity
  8
Sichtbar schmal (ANSI)
 62
    18
420
        0
370
     5
100
AcDbLine
 10
72.60861609275337
 20
168.6446901451244
 30
0.0
 11
72.60861609275337
 21
168.2853493985904
 31
0.0
  0
SPLINE
  5
152
330
10D
100
AcDbEntity
  8
Sichtbar schmal (ANSI)
 62
    18
420
        0
370
     5
100
AcDbSpline
210
0.0
220
0.0
230
1.0
 70
     8
 71
     3
 72
    65
 73
    61
 74
     0
 42
0.0000000001
 43
0.0000000001
 40
0.0
 40
0.0
 40
0.0
 40
0.0
 40
1.0
 40
1.0
 40
1.0
 40
2.0
 40
2.0
 40
2.0
 40
3.0
 40
3.0
 40
3.0
 40
4.0
 40
4.0
 40
4.0
 40
5.0
 40
5.0
 40
5.0
 40
6.0
 40
6.0
 40
6.0
 40
7.0
 40
7.0
 40
7.0
 40
8.0
 40
8.0
 40
8.0
 40
9.0
 40
9.0
 40
9.0
 40
10.0
 40
10.0
 40
10.0
 40
11.0
 40
11.0
 40
11.0
 40
12.0
 40
12.0
 40
12.0
 40
13.0
 40
13.0
 40
13.0
 40
14.0
 40
14.0
 40
14.0
 40
15.0
 40
15.0
 40
15.0
 40
16.0
 40
16.0
 40
16.0
 40
17.0
 40
17.0
 40
17.0
 40
18.0
 40
18.0
 40
18.0
 40
19.0
 40
19.0
 40
19.0
 40
20.0
 40
20.0
 40
20.0
 40
20.0
 10
91.16856565125909
 20
168.3609327456472
 30
0.0
 10
91.16856565125909
 20
168.3643033374987
 30
0.0
 10
91.16851342680446
 20
168.3677735803354
 30
0.0
 10
91.16840901713867
 20
168.3713396285162
 30
0.0
 10
91.16830460747317
 20
168.3749056767003
 30
0.0
 10
91.16814801259682
 20
168.3785675302288
 30
0.0
 10
91.16793903496157
 20
168.3823219825259
 30
0.0
 10
91.16773005732666
 20
168.3860764348204
 30
0.0
 10
91.16746869693093
 20
168.3899234858867
 30
0.0
 10
91.1671547730158
 20
168.3938572840334
 30
0.0
 10
91.16684084910101
 20
168.3977910821833
 30
0.0
 10
91.1664743616655
 20
168.4018116274146
 30
0.0
 10
91.16605481054183
 20
168.4059153273884
 30
0.0
 10
91.16563525941652
 20
168.4100190273595
 30
0.0
 10
91.16516264460305
 20
168.4142058820712
 30
0.0
 10
91.16463626549885
 20
168.418471300432
 30
0.0
 10
91.16410988639591
 20
168.4227367187935
 30
0.0
 10
91.1635297430023
 20
168.4270807008009
 30
0.0
 10
91.16289525972323
 20
168.431498415001
 30
0.0
 10
91.16226077644416
 20
168.4359161291985
 30
0.0
 10
91.16157195328092
 20
168.4404075755908
 30
0.0
 10
91.16082795389337
 20
168.4449685607923
 30
0.0
 10
91.16008395450583
 20
168.4495295459941
 30
0.0
 10
91.15928477889525
 20
168.4541600700074
 30
0.0
 10
91.15842965157058
 20
168.4588538463768
 30
0.0
 10
91.15757452424466
 20
168.4635476227462
 30
0.0
 10
91.15666344520592
 20
168.4683046514749
 30
0.0
 10
91.15569545801191
 20
168.4731187173158
 30
0.0
 10
91.15472747081664
 20
168.4779327831601
 30
0.0
 10
91.15370257546514
 20
168.4828038861165
 30
0.0
 10
91.15261909819261
 20
168.4877273337424
 30
0.0
 10
91.15153562092201
 20
168.4926507813687
 30
0.0
 10
91.1503935617301
 20
168.4976265736588
 30
0.0
 10
91.14919156106322
 20
168.5026489196645
 30
0.0
 10
91.14798956039633
 20
168.5076712656704
 30
0.0
 10
91.14672761825671
 20
168.512740165385
 30
0.0
 10
91.14540437045544
 20
168.5178498182851
 30
0.0
 10
91.14408112265449
 20
168.5229594711814
 30
0.0
 10
91.14269656919185
 20
168.5281098772565
 30
0.0
 10
91.14124882336104
 20
168.5332952394093
 30
0.0
 10
91.1398010775296
 20
168.5384806015587
 30
0.0
 10
91.1382901393274
 20
168.5437009197794
 30
0.0
 10
91.13671515448908
 20
168.5489459512312
 30
0.0
 10
91.13514016965011
 20
168.5541909826824
 30
0.0
 10
91.13350113817535
 20
168.5594607273625
 30
0.0
 10
91.13179506779166
 20
168.5647502258796
 30
0.0
 10
91.13008899740673
 20
168.5700397243935
 30
0.0
 10
91.12831588811319
 20
168.5753489767445
 30
0.0
 10
91.12647326538001
 20
168.5806720873736
 30
0.0
 10
91.1246306426452
 20
168.5859951980001
 30
0.0
 10
91.12271850647141
 20
168.5913321669066
 30
0.0
 10
91.1207343475776
 20
168.596676868379
 30
0.0
 10
91.1187501886838
 20
168.6020215698514
 30
0.0
 10
91.11669400707
 20
168.6073740038928
 30
0.0
 10
91.11456435719906
 20
168.6127235320373
 30
0.0
 10
91.1124347073275
 20
168.6180730601822
 30
0.0
 10
91.11023158919909
 20
168.6234196824295
 30
0.0
 10
91.10795441831973
 20
168.6287504428517
 30
0.0
 10
91.10567724743845
 20
168.63408120327
 30
0.0
 10
91.10332602380847
 20
168.639396101857
 30
0.0
 10
91.10089618189382
 20
168.6446901451244
 30
0.0
  0
SPLINE
  5
153
330
10D
100
AcDbEntity
  8
Sichtbar schmal (ANSI)
 62
    18
420
        0
370
     5
100
AcDbSpline
210
0.0
220
0.0
230
1.0
 70
     8
 71
     3
 72
    65
 73
    61
 74
     0
 42
0.0000000001
 43
0.0000000001
 40
0.0
 40
0.0
 40
0.0
 40
0.0
 40
1.0
 40
1.0
 40
1.0
 40
2.0
 40
2.0
 40
2.0
 40
3.0
 40
3.0
 40
3.0
 40
4.0
 40
4.0
 40
4.0
 40
5.0
 40
5.0
 40
5.0
 40
6.0
 40
6.0
 40
6.0
 40
7.0
 40
7.0
 40
7.0
 40
8.0
 40
8.0
 40
8.0
 40
9.0
 40
9.0
 40
9.0
 40
10.0
 40
10.0
 40
10.0
 40
11.0
 40
11.0
 40
11.0
 40
12.0
 40
12.0
 40
12.0
 40
13.0
 40
13.0
 40
13.0
 40
14.0
 40
14.0
 40
14.0
 40
15.0
 40
15.0
 40
15.0
 40
16.0
 40
16.0
 40
16.0
 40
17.0
 40
17.0
 40
17.0
 40
18.0
 40
18.0
 40
18.0
 40
19.0
 40
19.0
 40
19.0
 40
20.0
 40
20.0
 40
20.0
 40
20.0
 10
90.48161955290376
 20
168.6446901451244
 30
0.0
 10
90.47918971098752
 20
168.639396101857
 30
0.0
 10
90.47683848735754
 20
168.63408120327
 30
0.0
 10
90.47456131647658
 20
168.6287504428517
 30
0.0
 10
90.47228414559723
 20
168.6234196824295
 30
0.0
 10
90.4700810274685
 20
168.6180730601822
 30
0.0
 10
90.46795137759756
 20
168.6127235320373
 30
0.0
 10
90.46582172772598
 20
168.6073740038928
 30
0.0
 10
90.46376554611249
 20
168.6020215698514
 30
0.0
 10
90.4617813872187
 20
168.596676868379
 30
0.0
 10
90.45979722832489
 20
168.5913321669066
 30
0.0
 10
90.45788509215078
 20
168.5859951980001
 30
0.0
 10
90.45604246941632
 20
168.5806720873736
 30
0.0
 10
90.45419984668345
 20
168.5753489767445
 30
0.0
 10
90.45242673738959
 20
168.5700397243935
 30
0.0
 10
90.45072066700463
 20
168.5647502258796
 30
0.0
 10
90.44901459662128
 20
168.5594607273625
 30
0.0
 10
90.4473755651462
 20
168.5541909826824
 30
0.0
 10
90.44580058030755
 20
168.5489459512312
 30
0.0
 10
90.44422559546891
 20
168.5437009197794
 30
0.0
 10
90.44271465726671
 20
168.5384806015587
 30
0.0
 10
90.44126691143526
 20
168.5332952394093
 30
0.0
 10
90.43981916560413
 20
168.5281098772565
 30
0.0
 10
90.43843461214184
 20
168.5229594711814
 30
0.0
 10
90.43711136434087
 20
168.5178498182851
 30
0.0
 10
90.43578811653992
 20
168.512740165385
 30
0.0
 10
90.43452617439966
 20
168.5076712656704
 30
0.0
 10
90.4333241737331
 20
168.5026489196645
 30
0.0
 10
90.43212217306622
 20
168.4976265736588
 30
0.0
 10
90.4309801138743
 20
168.4926507813687
 30
0.0
 10
90.42989663660337
 20
168.4877273337424
 30
0.0
 10
90.42881315933119
 20
168.4828038861165
 30
0.0
 10
90.42778826397999
 20
168.4779327831601
 30
0.0
 10
90.4268202767844
 20
168.4731187173158
 30
0.0
 10
90.42585228959039
 20
168.4683046514749
 30
0.0
 10
90.42494121055167
 20
168.4635476227462
 30
0.0
 10
90.42408608322572
 20
168.4588538463768
 30
0.0
 10
90.42323095590139
 20
168.4541600700074
 30
0.0
 10
90.42243178029048
 20
168.4495295459941
 30
0.0
 10
90.42168778090292
 20
168.4449685607923
 30
0.0
 10
90.42094378151539
 20
168.4404075755908
 30
0.0
 10
90.42025495835247
 20
168.4359161291985
 30
0.0
 10
90.41962047507309
 20
168.431498415001
 30
0.0
 10
90.41898599179432
 20
168.4270807008009
 30
0.0
 10
90.41840584840038
 20
168.4227367187935
 30
0.0
 10
90.41787946929778
 20
168.418471300432
 30
0.0
 10
90.41735309019296
 20
168.4142058820712
 30
0.0
 10
90.41688047537947
 20
168.4100190273595
 30
0.0
 10
90.4164609242545
 20
168.4059153273884
 30
0.0
 10
90.41604137313081
 20
168.4018116274146
 30
0.0
 10
90.41567488569564
 20
168.3977910821833
 30
0.0
 10
90.41536096178019
 20
168.3938572840334
 30
0.0
 10
90.41504703786538
 20
168.3899234858867
 30
0.0
 10
90.41478567746965
 20
168.3860764348204
 30
0.0
 10
90.41457669983472
 20
168.3823219825259
 30
0.0
 10
90.41436772219981
 20
168.3785675302288
 30
0.0
 10
90.41421112732345
 20
168.3749056767003
 30
0.0
 10
90.41410671765765
 20
168.3713396285162
 30
0.0
 10
90.41400230799153
 20
168.3677735803354
 30
0.0
 10
90.41395008353754
 20
168.3643033374987
 30
0.0
 10
90.41395008353754
 20
168.3609327456472
 30
0.0
  0
SPLINE
  5
154
330
10D
100
AcDbEntity
  8
Sichtbar schmal (ANSI)
 62
    18
420
        0
370
     5
100
AcDbSpline
210
0.0
220
0.0
230
1.0
 70
     8
 71
     3
 72
    47
 73
    43
 74
     0
 42
0.0000000001
 43
0.0000000001
 40
0.0
 40
0.0
 40
0.0
 40
0.0
 40
1.0
 40
1.0
 40
1.0
 40
2.0
 40
2.0
 40
2.0
 40
3.0
 40
3.0
 40
3.0
 40
4.0
 40
4.0
 40
4.0
 40
5.0
 40
5.0
 40
5.0
 40
6.0
 40
6.0
 40
6.0
 40
7.0
 40
7.0
 40
7.0
 40
8.0
 40
8.0
 40
8.0
 40
9.0
 40
9.0
 40
9.0
 40
10.0
 40
10.0
 40
10.0
 40
11.0
 40
11.0
 40
11.0
 40
12.0
 40
12.0
 40
12.0
 40
13.0
 40
13.0
 40
13.0
 40
14.0
 40
14.0
 40
14.0
 40
14.0
 10
90.41395008353754
 20
168.3609327456472
 30
0.0
 10
90.41395008353754
 20
168.3574553832119
 30
0.0
 10
90.41400561360369
 20
168.3540840631805
 30
0.0
 10
90.4141166394683
 20
168.3508227628145
 30
0.0
 10
90.41422766533322
 20
168.3475614624486
 30
0.0
 10
90.41439418699855
 20
168.3444101602133
 30
0.0
 10
90.41461645242542
 20
168.3413716685296
 30
0.0
 10
90.41483871785326
 20
168.3383331768462
 30
0.0
 10
90.41511672704457
 20
168.3354075388054
 30
0.0
 10
90.41545080232671
 20
168.332598997989
 30
0.0
 10
90.41578487761112
 20
168.3297904571703
 30
0.0
 10
90.41617501898569
 20
168.327098977721
 30
0.0
 10
90.41662172806566
 20
168.3245271492468
 30
0.0
 10
90.41706843714562
 20
168.321955320771
 30
0.0
 10
90.41757171393062
 20
168.3195031433435
 30
0.0
 10
90.41813222119374
 20
168.3171730251214
 30
0.0
 10
90.41869272845719
 20
168.3148429068994
 30
0.0
 10
90.41931046620005
 20
168.3126348890504
 30
0.0
 10
90.41998599074682
 20
168.310552158359
 30
0.0
 10
90.42066151529329
 20
168.3084694276683
 30
0.0
 10
90.42139482664333
 20
168.3065119354437
 30
0.0
 10
90.42218710358305
 20
168.3046812650354
 30
0.0
 10
90.42297938052277
 20
168.3028505946241
 30
0.0
 10
90.42383062305054
 20
168.3011467655533
 30
0.0
 10
90.42474187894567
 20
168.2995715657257
 30
0.0
 10
90.42565313483956
 20
168.2979963658941
 30
0.0
 10
90.42662440409989
 20
168.296549820593
 30
0.0
 10
90.42765658626803
 20
168.295233706196
 30
0.0
 10
90.4286887684346
 20
168.2939175917959
 30
0.0
 10
90.42978186350962
 20
168.2927318674694
 30
0.0
 10
90.43093763254537
 20
168.2916772855973
 30
0.0
 10
90.4320934015821
 20
168.2906227037248
 30
0.0
 10
90.43331184457759
 20
168.2896992912215
 30
0.0
 10
90.43459455237725
 20
168.288907804994
 30
0.0
 10
90.43587726017499
 20
168.2881163187632
 30
0.0
 10
90.43722423277625
 20
168.2874567630302
 30
0.0
 10
90.43863690856163
 20
168.2869294233192
 30
0.0
 10
90.44004958434669
 20
168.2864020836104
 30
0.0
 10
90.44152796331909
 20
168.2860069564618
 30
0.0
 10
90.44307398227989
 20
168.2857437873382
 30
0.0
 10
90.44462000124195
 20
168.285480618213
 30
0.0
 10
90.44623366019402
 20
168.2853493985904
 30
0.0
 10
90.44791752660186
 20
168.2853493985904
 30
0.0
  0
LINE
  5
155
330
10D
100
AcDbEntity
  8
Sichtbar schmal (ANSI)
 62
    18
420
        0
370
     5
100
AcDbLine
 10
90.44791752660474
 20
168.2853493985904
 30
0.0
 11
90.45476542851124
 21
168.2853493985904
 31
0.0
  0
LINE
  5
156
330
10D
100
AcDbEntity
  8
Sichtbar schmal (ANSI)
 62
    18
420
        0
370
     5
100
AcDbLine
 10
90.77853786493575
 20
168.2853493985904
 30
0.0
 11
90.80397786986058
 21
168.2853493985904
 31
0.0
  0
LINE
  5
157
330
10D
100
AcDbEntity
  8
Sichtbar schmal (ANSI)
 62
    18
420
        0
370
     5
100
AcDbLine
 10
91.13357513607835
 20
168.2853493985904
 30
0.0
 11
91.13459820819125
 21
168.2853493985904
 31
0.0
  0
SPLINE
  5
158
330
10D
100
AcDbEntity
  8
Sichtbar schmal (ANSI)
 62
    18
420
        0
370
     5
100
AcDbSpline
210
0.0
220
0.0
230
1.0
 70
     8
 71
     3
 72
    47
 73
    43
 74
     0
 42
0.0000000001
 43
0.0000000001
 40
0.0
 40
0.0
 40
0.0
 40
0.0
 40
1.0
 40
1.0
 40
1.0
 40
2.0
 40
2.0
 40
2.0
 40
3.0
 40
3.0
 40
3.0
 40
4.0
 40
4.0
 40
4.0
 40
5.0
 40
5.0
 40
5.0
 40
6.0
 40
6.0
 40
6.0
 40
7.0
 40
7.0
 40
7.0
 40
8.0
 40
8.0
 40
8.0
 40
9.0
 40
9.0
 40
9.0
 40
10.0
 40
10.0
 40
10.0
 40
11.0
 40
11.0
 40
11.0
 40
12.0
 40
12.0
 40
12.0
 40
13.0
 40
13.0
 40
13.0
 40
14.0
 40
14.0
 40
14.0
 40
14.0
 10
91.13459820819413
 20
168.2853493985904
 30
0.0
 10
91.13628207460228
 20
168.2853493985904
 30
0.0
 10
91.13789573355436
 20
168.285480618213
 30
0.0
 10
91.13944175251674
 20
168.2857437873382
 30
0.0
 10
91.14098777147722
 20
168.2860069564618
 30
0.0
 10
91.1424661504496
 20
168.2864020836104
 30
0.0
 10
91.14387882623466
 20
168.2869294233192
 30
0.0
 10
91.14529150202038
 20
168.2874567630302
 30
0.0
 10
91.14663847462132
 20
168.2881163187632
 30
0.0
 10
91.14792118241874
 20
168.288907804994
 30
0.0
 10
91.1492038902184
 20
168.2896992912215
 30
0.0
 10
91.15042233321453
 20
168.2906227037248
 30
0.0
 10
91.15157810225126
 20
168.2916772855973
 30
0.0
 10
91.15273387128667
 20
168.2927318674694
 30
0.0
 10
91.15382696636045
 20
168.2939175917959
 30
0.0
 10
91.15485914852827
 20
168.295233706196
 30
0.0
 10
91.15589133069612
 20
168.296549820593
 30
0.0
 10
91.15686259995706
 20
168.2979963658941
 30
0.0
 10
91.15777385585062
 20
168.2995715657257
 30
0.0
 10
91.15868511174578
 20
168.3011467655533
 30
0.0
 10
91.15953635427354
 20
168.3028505946241
 30
0.0
 10
91.16032863121326
 20
168.3046812650354
 30
0.0
 10
91.16112090815297
 20
168.3065119354437
 30
0.0
 10
91.16185421950271
 20
168.3084694276683
 30
0.0
 10
91.16252974404948
 20
168.310552158359
 30
0.0
 10
91.16320526859594
 20
168.3126348890504
 30
0.0
 10
91.16382300633944
 20
168.3148429068994
 30
0.0
 10
91.16438351360288
 20
168.3171730251214
 30
0.0
 10
91.16494402086571
 20
168.3195031433435
 30
0.0
 10
91.16544729765102
 20
168.321955320771
 30
0.0
 10
91.16589400673065
 20
168.3245271492468
 30
0.0
 10
91.1663407158103
 20
168.327098977721
 30
0.0
 10
91.16673085718552
 20
168.3297904571703
 30
0.0
 10
91.1670649324696
 20
168.332598997989
 30
0.0
 10
91.16739900775206
 20
168.3354075388054
 30
0.0
 10
91.16767701694305
 20
168.3383331768462
 30
0.0
 10
91.16789928237121
 20
168.3413716685296
 30
0.0
 10
91.16812154779777
 20
168.3444101602133
 30
0.0
 10
91.16828806946307
 20
168.3475614624486
 30
0.0
 10
91.16839909532801
 20
168.3508227628145
 30
0.0
 10
91.16851012119294
 20
168.3540840631805
 30
0.0
 10
91.16856565125909
 20
168.3574553832119
 30
0.0
 10
91.16856565125909
 20
168.3609327456472
 30
0.0
  0
LINE
  5
159
330
10D
100
AcDbEntity
  8
Sichtbar schmal (ANSI)
 62
    18
420
        0
370
     5
100
AcDbLine
 10
108.9738996420429
 20
168.2853493985904
 30
0.0
 11
91.13459820819413
 21
168.2853493985904
 31
0.0
  0
LINE
  5
15A
330
10D
100
AcDbEntity
  8
Sichtbar schmal (ANSI)
 62
    18
420
        0
370
     5
100
AcDbLine
 10
90.44791752660186
 20
168.2853493985904
 30
0.0
 11
72.60861609275337
 21
168.2853493985904
 31
0.0
  0
LINE
  5
15B
330
10D
100
AcDbEntity
  8
Sichtbar schmal (ANSI)
 62
    18
420
        0
370
     5
100
AcDbLine
 10
90.77853786493575
 20
168.1056790253229
 30
0.0
 11
90.77853786493575
 21
168.2853493985904
 31
0.0
  0
LINE
  5
15C
330
10D
100
AcDbEntity
  8
Sichtbar schmal (ANSI)
 62
    18
420
        0
370
     5
100
AcDbLine
 10
109.2074711272879
 20
169.1837012649238
 30
0.0
 11
109.5668118738229
 21
168.8243605183888
 31
0.0
  0
LINE
  5
15D
330
10D
100
AcDbEntity
  8
Sichtbar schmal (ANSI)
 62
    18
420
        0
370
     5
100
AcDbLine
 10
109.5668118738229
 20
168.8243605183888
 30
0.0
 11
112.8008785926329
 21
168.8243605183888
 31
0.0
  0
LINE
  5
15E
330
10D
100
AcDbEntity
  8
Sichtbar schmal (ANSI)
 62
    18
420
        0
370
     5
100
AcDbLine
 10
112.8008785926329
 20
181.0419459005617
 30
0.0
 11
109.5668118738229
 21
181.0419459005617
 31
0.0
  0
LINE
  5
15F
330
10D
100
AcDbEntity
  8
Sichtbar schmal (ANSI)
 62
    18
420
        0
370
     5
100
AcDbLine
 10
109.5668118738229
 20
181.0419459005617
 30
0.0
 11
109.2074711272879
 21
180.6826051540273
 31
0.0
  0
LINE
  5
160
330
10D
100
AcDbEntity
  8
Sichtbar schmal (ANSI)
 62
    18
420
        0
370
     5
100
AcDbLine
 10
109.2074711272879
 20
180.6826051540273
 30
0.0
 11
109.2074711272879
 21
169.1837012649238
 31
0.0
  0
SPLINE
  5
161
330
10D
100
AcDbEntity
  8
Sichtbar schmal (ANSI)
 62
    18
420
        0
370
     5
100
AcDbSpline
210
0.0
220
0.0
230
1.0
 70
     8
 71
     3
 72
    11
 73
     7
 74
     0
 42
0.0000000001
 43
0.0000000001
 40
0.0
 40
0.0
 40
0.0
 40
0.0
 40
1.0
 40
1.0
 40
1.0
 40
2.0
 40
2.0
 40
2.0
 40
2.0
 10
109.4320590938748
 20
180.2334292208601
 30
0.0
 10
109.4320590938748
 20
179.8365123922521
 30
0.0
 10
109.753823758335
 20
179.514747727791
 30
0.0
 10
110.1507405869436
 20
179.514747727791
 30
0.0
 10
110.5476574155509
 20
179.514747727791
 30
0.0
 10
110.869422080011
 20
179.8365123922521
 30
0.0
 10
110.869422080011
 20
180.2334292208601
 30
0.0
  0
SPLINE
  5
162
330
10D
100
AcDbEntity
  8
Sichtbar schmal (ANSI)
 62
    18
420
        0
370
     5
100
AcDbSpline
210
0.0
220
0.0
230
1.0
 70
     8
 71
     3
 72
    11
 73
     7
 74
     0
 42
0.0000000001
 43
0.0000000001
 40
0.0
 40
0.0
 40
0.0
 40
0.0
 40
1.0
 40
1.0
 40
1.0
 40
2.0
 40
2.0
 40
2.0
 40
2.0
 10
110.8694220800463
 20
180.2334292208601
 30
0.0
 10
110.8694220800463
 20
180.6303460494864
 30
0.0
 10
110.5476574155695
 20
180.9521107139648
 30
0.0
 10
110.1507405869436
 20
180.9521107139648
 30
0.0
 10
109.7538237583157
 20
180.9521107139648
 30
0.0
 10
109.4320590938389
 20
180.6303460494864
 30
0.0
 10
109.4320590938389
 20
180.2334292208601
 30
0.0
  0
CIRCLE
  5
163
330
10D
100
AcDbEntity
  8
Sichtbar schmal (ANSI)
 62
    18
420
        0
370
     5
100
AcDbCircle
 10
110.1507405869432
 20
180.23342922086
 30
0.0
 40
0.1976374105941064
  0
SPLINE
  5
164
330
10D
100
AcDbEntity
  8
Sichtbar schmal (ANSI)
 62
    18
420
        0
370
     5
100
AcDbSpline
210
0.0
220
0.0
230
1.0
 70
     8
 71
     3
 72
    11
 73
     7
 74
     0
 42
0.0000000001
 43
0.0000000001
 40
0.0
 40
0.0
 40
0.0
 40
0.0
 40
1.0
 40
1.0
 40
1.0
 40
2.0
 40
2.0
 40
2.0
 40
2.0
 10
109.4320590938748
 20
171.1600753708638
 30
0.0
 10
109.4320590938748
 20
170.7631585422587
 30
0.0
 10
109.753823758335
 20
170.4413938777947
 30
0.0
 10
110.1507405869436
 20
170.4413938777947
 30
0.0
 10
110.5476574155509
 20
170.4413938777947
 30
0.0
 10
110.869422080011
 20
170.7631585422587
 30
0.0
 10
110.869422080011
 20
171.1600753708638
 30
0.0
  0
SPLINE
  5
165
330
10D
100
AcDbEntity
  8
Sichtbar schmal (ANSI)
 62
    18
420
        0
370
     5
100
AcDbSpline
210
0.0
220
0.0
230
1.0
 70
     8
 71
     3
 72
    11
 73
     7
 74
     0
 42
0.0000000001
 43
0.0000000001
 40
0.0
 40
0.0
 40
0.0
 40
0.0
 40
1.0
 40
1.0
 40
1.0
 40
2.0
 40
2.0
 40
2.0
 40
2.0
 10
110.8694220800463
 20
171.1600753708638
 30
0.0
 10
110.8694220800463
 20
171.5569921994923
 30
0.0
 10
110.5476574155695
 20
171.8787568639681
 30
0.0
 10
110.1507405869436
 20
171.8787568639681
 30
0.0
 10
109.7538237583157
 20
171.8787568639681
 30
0.0
 10
109.4320590938389
 20
171.5569921994923
 30
0.0
 10
109.4320590938389
 20
171.1600753708638
 30
0.0
  0
CIRCLE
  5
166
330
10D
100
AcDbEntity
  8
Sichtbar schmal (ANSI)
 62
    18
420
        0
370
     5
100
AcDbCircle
 10
110.1507405869432
 20
171.1600753708639
 30
0.0
 40
0.197637410594347
  0
LINE
  5
167
330
10D
100
AcDbEntity
  8
Sichtbar schmal (ANSI)
 62
    18
420
        0
370
     5
100
AcDbLine
 10
107.3029651705848
 20
167.9260086520207
 30
0.0
 11
108.416921484986
 21
167.9260086520207
 31
0.0
  0
LINE
  5
168
330
10D
100
AcDbEntity
  8
Sichtbar schmal (ANSI)
 62
    18
420
        0
370
     5
100
AcDbLine
 10
107.1412618347173
 20
168.0877119879931
 30
0.0
 11
107.1412618347173
 21
168.1056790253229
 31
0.0
  0
LINE
  5
169
330
10D
100
AcDbEntity
  8
Sichtbar schmal (ANSI)
 62
    18
420
        0
370
     5
100
AcDbLine
 10
108.5786248208542
 20
168.0877119879931
 30
0.0
 11
108.5786248208542
 21
168.1056790253229
 31
0.0
  0
SPLINE
  5
16A
330
10D
100
AcDbEntity
  8
Sichtbar schmal (ANSI)
 62
    18
420
        0
370
     5
100
AcDbSpline
210
0.0
220
0.0
230
1.0
 70
     8
 71
     3
 72
     8
 73
     4
 74
     0
 42
0.0000000001
 43
0.0000000001
 40
0.0
 40
0.0
 40
0.0
 40
0.0
 40
1.0
 40
1.0
 40
1.0
 40
1.0
 10
108.416921484986
 20
167.9260086520207
 30
0.0
 10
108.5062277714296
 20
167.9260086521109
 30
0.0
 10
108.5786248208888
 20
167.9984057016452
 30
0.0
 10
108.5786248208888
 20
168.0877119880903
 30
0.0
  0
SPLINE
  5
16B
330
10D
100
AcDbEntity
  8
Sichtbar schmal (ANSI)
 62
    18
420
        0
370
     5
100
AcDbSpline
210
0.0
220
0.0
230
1.0
 70
     8
 71
     3
 72
     8
 73
     4
 74
     0
 42
0.0000000001
 43
0.0000000001
 40
0.0
 40
0.0
 40
0.0
 40
0.0
 40
1.0
 40
1.0
 40
1.0
 40
1.0
 10
107.141261834682
 20
168.0877119880903
 30
0.0
 10
107.141261834682
 20
167.9984057016484
 30
0.0
 10
107.2136588841374
 20
167.9260086521141
 30
0.0
 10
107.302965170579
 20
167.9260086520207
 30
0.0
  0
LINE
  5
16C
330
10D
100
AcDbEntity
  8
Sichtbar schmal (ANSI)
 62
    18
420
        0
370
     5
100
AcDbLine
 10
73.16559424980993
 20
167.9260086520207
 30
0.0
 11
74.27955056421152
 21
167.9260086520207
 31
0.0
  0
LINE
  5
16D
330
10D
100
AcDbEntity
  8
Sichtbar schmal (ANSI)
 62
    18
420
        0
370
     5
100
AcDbLine
 10
73.00389091394213
 20
168.0877119879931
 30
0.0
 11
73.00389091394213
 21
168.1056790253229
 31
0.0
  0
LINE
  5
16E
330
10D
100
AcDbEntity
  8
Sichtbar schmal (ANSI)
 62
    18
420
        0
370
     5
100
AcDbLine
 10
74.44125390007932
 20
168.0877119879931
 30
0.0
 11
74.44125390007932
 21
168.1056790253229
 31
0.0
  0
SPLINE
  5
16F
330
10D
100
AcDbEntity
  8
Sichtbar schmal (ANSI)
 62
    18
420
        0
370
     5
100
AcDbSpline
210
0.0
220
0.0
230
1.0
 70
     8
 71
     3
 72
     8
 73
     4
 74
     0
 42
0.0000000001
 43
0.0000000001
 40
0.0
 40
0.0
 40
0.0
 40
0.0
 40
1.0
 40
1.0
 40
1.0
 40
1.0
 10
74.27955056421152
 20
167.9260086520207
 30
0.0
 10
74.36885685065442
 20
167.9260086521109
 30
0.0
 10
74.44125390011429
 20
167.9984057016452
 30
0.0
 10
74.44125390011429
 20
168.0877119880903
 30
0.0
  0
SPLINE
  5
170
330
10D
100
AcDbEntity
  8
Sichtbar schmal (ANSI)
 62
    18
420
        0
370
     5
100
AcDbSpline
210
0.0
220
0.0
230
1.0
 70
     8
 71
     3
 72
     8
 73
     4
 74
     0
 42
0.0000000001
 43
0.0000000001
 40
0.0
 40
0.0
 40
0.0
 40
0.0
 40
1.0
 40
1.0
 40
1.0
 40
1.0
 10
73.00389091390716
 20
168.0877119880903
 30
0.0
 10
73.00389091390716
 20
167.9984057016484
 30
0.0
 10
73.07628796336253
 20
167.9260086521141
 30
0.0
 10
73.16559424980416
 20
167.9260086520207
 30
0.0
  0
SPLINE
  5
171
330
10D
100
AcDbEntity
  8
Sichtbar schmal (ANSI)
 62
    18
420
        0
370
     5
100
AcDbSpline
210
0.0
220
0.0
230
1.0
 70
     8
 71
     3
 72
    11
 73
     7
 74
     0
 42
0.0000000001
 43
0.0000000001
 40
0.0
 40
0.0
 40
0.0
 40
0.0
 40
1.0
 40
1.0
 40
1.0
 40
2.0
 40
2.0
 40
2.0
 40
2.0
 10
72.19537423423931
 20
175.6518347025457
 30
0.0
 10
72.19537423423931
 20
175.254917873938
 30
0.0
 10
72.5171388987001
 20
174.9331532094763
 30
0.0
 10
72.9140557273087
 20
174.9331532094763
 30
0.0
 10
73.31097255591538
 20
174.9331532094763
 30
0.0
 10
73.63273722037617
 20
175.254917873938
 30
0.0
 10
73.63273722037617
 20
175.6518347025457
 30
0.0
  0
SPLINE
  5
172
330
10D
100
AcDbEntity
  8
Sichtbar schmal (ANSI)
 62
    18
420
        0
370
     5
100
AcDbSpline
210
0.0
220
0.0
230
1.0
 70
     8
 71
     3
 72
    11
 73
     7
 74
     0
 42
0.0000000001
 43
0.0000000001
 40
0.0
 40
0.0
 40
0.0
 40
0.0
 40
1.0
 40
1.0
 40
1.0
 40
2.0
 40
2.0
 40
2.0
 40
2.0
 10
73.63273722041146
 20
175.6518347025457
 30
0.0
 10
73.63273722041146
 20
176.0487515311716
 30
0.0
 10
73.31097255593495
 20
176.3705161956507
 30
0.0
 10
72.9140557273087
 20
176.3705161956507
 30
0.0
 10
72.51713889868117
 20
176.3705161956507
 30
0.0
 10
72.19537423420402
 20
176.0487515311716
 30
0.0
 10
72.19537423420402
 20
175.6518347025457
 30
0.0
  0
CIRCLE
  5
173
330
10D
100
AcDbEntity
  8
Sichtbar schmal (ANSI)
 62
    18
420
        0
370
     5
100
AcDbCircle
 10
72.91405572730822
 20
175.6518347025458
 30
0.0
 40
0.1976374105944273
  0
LINE
  5
174
330
10D
100
AcDbEntity
  8
Sichtbar schmal (ANSI)
 62
    18
420
        0
370
     5
100
AcDbLine
 10
113.4117578617429
 20
168.6446901451244
 30
0.0
 11
113.1602193391666
 21
168.6446901451244
 31
0.0
  0
LINE
  5
175
330
10D
100
AcDbEntity
  8
Sichtbar schmal (ANSI)
 62
    18
420
        0
370
     5
100
AcDbLine
 10
112.9625819285748
 20
168.6446901451244
 30
0.0
 11
112.9805489658998
 21
168.6446901451244
 31
0.0
  0
LINE
  5
176
330
10D
100
AcDbEntity
  8
Sichtbar schmal (ANSI)
 62
    18
420
        0
370
     5
100
AcDbLine
 10
112.9625819285748
 20
168.6446901451244
 30
0.0
 11
112.845796185951
 21
168.6446901451244
 31
0.0
  0
LINE
  5
177
330
10D
100
AcDbEntity
  8
Sichtbar schmal (ANSI)
 62
    18
420
        0
370
     5
100
AcDbLine
 10
113.1602193391666
 20
168.8243605183919
 30
0.0
 11
113.4117578617429
 21
168.8243605183919
 31
0.0
  0
LINE
  5
178
330
10D
100
AcDbEntity
  8
Sichtbar schmal (ANSI)
 62
    18
420
        0
370
     5
100
AcDbLine
 10
113.4117578617429
 20
168.8243605183919
 30
0.0
 11
113.4117578617429
 21
168.6446901451244
 31
0.0
  0
LINE
  5
179
330
10D
100
AcDbEntity
  8
Sichtbar schmal (ANSI)
 62
    18
420
        0
370
     5
100
AcDbLine
 10
68.42229639562614
 20
168.6446901451244
 30
0.0
 11
68.17075787305336
 21
168.6446901451244
 31
0.0
  0
LINE
  5
17A
330
10D
100
AcDbEntity
  8
Sichtbar schmal (ANSI)
 62
    18
420
        0
370
     5
100
AcDbLine
 10
68.79960417948836
 20
168.6446901451244
 30
0.0
 11
68.9253734407749
 21
168.6446901451244
 31
0.0
  0
LINE
  5
17B
330
10D
100
AcDbEntity
  8
Sichtbar schmal (ANSI)
 62
    18
420
        0
370
     5
100
AcDbLine
 10
68.79960417948836
 20
168.6446901451244
 30
0.0
 11
68.61993380622148
 21
168.6446901451244
 31
0.0
  0
LINE
  5
17C
330
10D
100
AcDbEntity
  8
Sichtbar schmal (ANSI)
 62
    18
420
        0
370
     5
100
AcDbLine
 10
68.60196676889365
 20
168.6446901451244
 30
0.0
 11
68.61993380622148
 21
168.6446901451244
 31
0.0
  0
LINE
  5
17D
330
10D
100
AcDbEntity
  8
Sichtbar schmal (ANSI)
 62
    18
420
        0
370
     5
100
AcDbLine
 10
68.17075787305336
 20
168.8243605183919
 30
0.0
 11
68.42229639562614
 21
168.8243605183919
 31
0.0
  0
LINE
  5
17E
330
10D
100
AcDbEntity
  8
Sichtbar schmal (ANSI)
 62
    18
420
        0
370
     5
100
AcDbLine
 10
68.17075787305336
 20
168.8243605183919
 30
0.0
 11
68.17075787305336
 21
168.6446901451244
 31
0.0
  0
LINE
  5
17F
330
10D
100
AcDbEntity
  8
Sichtbar schmal (ANSI)
 62
    18
420
        0
370
     5
100
AcDbLine
 10
113.1602193391666
 20
184.904858925807
 30
0.0
 11
112.845796185951
 21
184.904858925807
 31
0.0
  0
LINE
  5
180
330
10D
100
AcDbEntity
  8
Sichtbar schmal (ANSI)
 62
    18
420
        0
370
     5
100
AcDbLine
 10
68.78163714216083
 20
184.904858925807
 30
0.0
 11
68.42229639562614
 21
184.904858925807
 31
0.0
  0
LINE
  5
181
330
10D
100
AcDbEntity
  8
Sichtbar schmal (ANSI)
 62
    18
420
        0
370
     5
100
AcDbLine
 10
98.49283484380491
 20
171.2768611134869
 30
0.0
 11
98.49332085498614
 21
171.2768611134869
 31
0.0
  0
LINE
  5
182
330
10D
100
AcDbEntity
  8
Sichtbar schmal (ANSI)
 62
    18
420
        0
370
     5
100
AcDbLine
 10
112.8008785926329
 20
168.8243605183888
 30
0.0
 11
112.8008785926329
 21
181.0419459005617
 31
0.0
  0
LINE
  5
183
330
10D
100
AcDbEntity
  8
Sichtbar schmal (ANSI)
 62
    18
420
        0
370
     5
100
AcDbLine
 10
68.78163714216083
 20
168.8243605183888
 30
0.0
 11
68.78163714216083
 21
184.904858925807
 31
0.0
  0
LINE
  5
184
330
10D
100
AcDbEntity
  8
Sichtbar schmal (ANSI)
 62
    18
420
        0
370
     5
100
AcDbLine
 10
90.48161955290376
 20
168.6446901451244
 30
0.0
 11
72.60861609275337
 21
168.6446901451244
 31
0.0
  0
LINE
  5
185
330
10D
100
AcDbEntity
  8
Sichtbar schmal (ANSI)
 62
    18
420
        0
370
     5
100
AcDbLine
 10
108.9738996420429
 20
168.6446901451244
 30
0.0
 11
91.10089618189382
 21
168.6446901451244
 31
0.0
  0
CIRCLE
  5
186
330
10D
100
AcDbEntity
  8
Sichtbar schmal (ANSI)
 62
    18
420
        0
370
     5
100
AcDbCircle
 10
110.1507405869431
 20
180.2334292208604
 30
0.0
 40
0.5569781572016746
  0
CIRCLE
  5
187
330
10D
100
AcDbEntity
  8
Sichtbar schmal (ANSI)
 62
    18
420
        0
370
     5
100
AcDbCircle
 10
110.1507405869431
 20
171.1600753708636
 30
0.0
 40
0.556978157201434
  0
CIRCLE
  5
188
330
10D
100
AcDbEntity
  8
Sichtbar schmal (ANSI)
 62
    18
420
        0
370
     5
100
AcDbCircle
 10
72.9140557273083
 20
175.6518347025456
 30
0.0
 40
0.5569781572011131
  0
ENDBLK
  5
110
330
10D
100
AcDbEntity
  8
0
100
AcDbBlockEnd
  0
BLOCK
  5
18D
330
18B
100
AcDbEntity
  8
0
100
AcDbBlockBegin
  2
Block_9
 70
     0
 10
0.0
 20
0.0
 30
0.0
  3
Block_9
  1

  0
INSERT
  5
190
330
18B
100
AcDbEntity
  8
Sichtbar schmal (ANSI)
100
AcDbBlockReference
  2
Block_10
 10
0.0
 20
0.0
 30
0.0
  0
ENDBLK
  5
18E
330
18B
100
AcDbEntity
  8
0
100
AcDbBlockEnd
  0
BLOCK
  5
191
330
18F
100
AcDbEntity
  8
0
100
AcDbBlockBegin
  2
Block_10
 70
     0
 10
0.0
 20
0.0
 30
0.0
  3
Block_10
  1

  0
SPLINE
  5
193
330
18F
100
AcDbEntity
  8
Sichtbar schmal (ANSI)
100
AcDbSpline
210
0.0
220
0.0
230
1.0
 70
     9
 71
     3
 72
    17
 73
    13
 74
     0
 42
0.0000000001
 43
0.0000000001
 40
0.0
 40
0.0
 40
0.0
 40
0.0
 40
1.0
 40
1.0
 40
1.0
 40
2.0
 40
2.0
 40
2.0
 40
3.0
 40
3.0
 40
3.0
 40
4.0
 40
4.0
 40
4.0
 40
4.0
 10
140.4369058893699
 20
175.8543822802551
 30
0.0
 10
140.1912705812716
 20
175.8543822802551
 30
0.0
 10
139.9797417184773
 20
175.7105495437459
 30
0.0
 10
139.9797417184773
 20
175.4426933697678
 30
0.0
 10
139.9797417184773
 20
175.1577839731376
 30
0.0
 10
140.2081515491493
 20
175.0504692487721
 30
0.0
 10
140.4537868572476
 20
175.0504692487721
 30
0.0
 10
140.6708278728184
 20
175.0504692487721
 30
0.0
 10
140.8768445828363
 20
175.2141112843215
 30
0.0
 10
140.8768445828363
 20
175.445449446156
 30
0.0
 10
140.8768445828363
 20
175.6964246522564
 30
0.0
 10
140.6735839492066
 20
175.8543822802551
 30
0.0
 10
140.4369058893699
 20
175.8543822802551
 30
0.0
  0
SPLINE
  5
194
330
18F
100
AcDbEntity
  8
Sichtbar schmal (ANSI)
100
AcDbSpline
210
0.0
220
0.0
230
1.0
 70
     9
 71
     3
 72
    35
 73
    31
 74
     0
 42
0.0000000001
 43
0.0000000001
 40
0.0
 40
0.0
 40
0.0
 40
0.0
 40
1.0
 40
1.0
 40
1.0
 40
2.0
 40
2.0
 40
2.0
 40
3.0
 40
3.0
 40
3.0
 40
4.0
 40
4.0
 40
4.0
 40
5.0
 40
5.0
 40
5.0
 40
6.0
 40
6.0
 40
6.0
 40
7.0
 40
7.0
 40
7.0
 40
8.0
 40
8.0
 40
8.0
 40
9.0
 40
9.0
 40
9.0
 40
10.0
 40
10.0
 40
10.0
 40
10.0
 10
141.2857774169355
 20
175.0787190317511
 30
0.0
 10
141.4804253118521
 20
175.0985283307913
 30
0.0
 10
141.5903238578316
 20
175.2537298824018
 30
0.0
 10
141.5903238578316
 20
175.445449446156
 30
0.0
 10
141.5903238578316
 20
175.738799326725
 30
0.0
 10
141.3364203205687
 20
175.8826320632342
 30
0.0
 10
140.81758894049
 20
175.8967569547237
 30
0.0
 10
140.81758894049
 20
175.8967569547237
 30
0.0
 10
140.8117322781651
 20
175.8910725471731
 30
0.0
 10
140.8117322781651
 20
175.8910725471731
 30
0.0
 10
140.9812309760394
 20
175.8008110454595
 30
0.0
 10
141.0883734456306
 20
175.6232163731949
 30
0.0
 10
141.0883734456306
 20
175.4285684782783
 30
0.0
 10
141.0883734456306
 20
175.0194633894049
 30
0.0
 10
140.8148328641018
 20
174.7967379662834
 30
0.0
 10
140.4196804119437
 20
174.7967379662834
 30
0.0
 10
140.0362412844354
 20
174.7967379662834
 30
0.0
 10
139.7682128556829
 20
175.0675224714241
 30
0.0
 10
139.7682128556829
 20
175.4538899300948
 30
0.0
 10
139.7682128556829
 20
175.8263047520504
 30
0.0
 10
139.968372903376
 20
176.1392916768853
 30
0.0
 10
140.7245713623883
 20
176.1392916768853
 30
0.0
 10
141.4156575167294
 20
176.1392916768853
 30
0.0
 10
141.8018527206259
 20
175.9306911452534
 30
0.0
 10
141.8018527206259
 20
175.445449446156
 30
0.0
 10
141.8018527206259
 20
175.1097248911184
 30
0.0
 10
141.6299424559119
 20
174.869946245345
 30
0.0
 10
141.2857774169355
 20
174.8389403859777
 30
0.0
 10
141.2857774169355
 20
174.8389403859777
 30
0.0
 10
141.2857774169355
 20
175.0787190317511
 30
0.0
 10
141.2857774169355
 20
175.0787190317511
 30
0.0
  0
HATCH
  5
195
330
18F
100
AcDbEntity
  8
Sichtbar schmal (ANSI)
 62
   250
420
  2039067
440
 33554687
100
AcDbHatch
 10
0.0
 20
0.0
 30
0.0
210
0.0
220
0.0
230
1.0
  2
SOLID
 70
     1
 71
     1
 91
        2
 92
        1
 93
        1
 72
     4
 94
        3
 73
     0
 74
     0
 95
       17
 96
       13
 40
0.0
 40
0.0
 40
0.0
 40
0.0
 40
1.0
 40
1.0
 40
1.0
 40
2.0
 40
2.0
 40
2.0
 40
3.0
 40
3.0
 40
3.0
 40
4.0
 40
4.0
 40
4.0
 40
4.0
 10
140.4369058893699
 20
175.8543822802551
 10
140.1912705812716
 20
175.8543822802551
 10
139.9797417184773
 20
175.7105495437459
 10
139.9797417184773
 20
175.4426933697678
 10
139.9797417184773
 20
175.1577839731376
 10
140.2081515491493
 20
175.0504692487721
 10
140.4537868572476
 20
175.0504692487721
 10
140.6708278728184
 20
175.0504692487721
 10
140.8768445828363
 20
175.2141112843215
 10
140.8768445828363
 20
175.445449446156
 10
140.8768445828363
 20
175.6964246522564
 10
140.6735839492066
 20
175.8543822802551
 10
140.4369058893699
 20
175.8543822802551
 97
        0
 97
        1
330
193
 92
        1
 93
        1
 72
     4
 94
        3
 73
     0
 74
     0
 95
       35
 96
       31
 40
0.0
 40
0.0
 40
0.0
 40
0.0
 40
1.0
 40
1.0
 40
1.0
 40
2.0
 40
2.0
 40
2.0
 40
3.0
 40
3.0
 40
3.0
 40
4.0
 40
4.0
 40
4.0
 40
5.0
 40
5.0
 40
5.0
 40
6.0
 40
6.0
 40
6.0
 40
7.0
 40
7.0
 40
7.0
 40
8.0
 40
8.0
 40
8.0
 40
9.0
 40
9.0
 40
9.0
 40
10.0
 40
10.0
 40
10.0
 40
10.0
 10
141.2857774169355
 20
175.0787190317511
 10
141.4804253118521
 20
175.0985283307913
 10
141.5903238578316
 20
175.2537298824018
 10
141.5903238578316
 20
175.445449446156
 10
141.5903238578316
 20
175.738799326725
 10
141.3364203205687
 20
175.8826320632342
 10
140.81758894049
 20
175.8967569547237
 10
140.81758894049
 20
175.8967569547237
 10
140.8117322781651
 20
175.8910725471731
 10
140.8117322781651
 20
175.8910725471731
 10
140.9812309760394
 20
175.8008110454595
 10
141.0883734456306
 20
175.6232163731949
 10
141.0883734456306
 20
175.4285684782783
 10
141.0883734456306
 20
175.0194633894049
 10
140.8148328641018
 20
174.7967379662834
 10
140.4196804119437
 20
174.7967379662834
 10
140.0362412844354
 20
174.7967379662834
 10
139.7682128556829
 20
175.0675224714241
 10
139.7682128556829
 20
175.4538899300948
 10
139.7682128556829
 20
175.8263047520504
 10
139.968372903376
 20
176.1392916768853
 10
140.7245713623883
 20
176.1392916768853
 10
141.4156575167294
 20
176.1392916768853
 10
141.8018527206259
 20
175.9306911452534
 10
141.8018527206259
 20
175.445449446156
 10
141.8018527206259
 20
175.1097248911184
 10
141.6299424559119
 20
174.869946245345
 10
141.2857774169355
 20
174.8389403859777
 10
141.2857774169355
 20
174.8389403859777
 10
141.2857774169355
 20
175.0787190317511
 10
141.2857774169355
 20
175.0787190317511
 97
        0
 97
        1
330
194
 75
     2
 76
     1
 98
        1
 10
0.0
 20
0.0
450
        0
451
        0
460
0.0
461
0.0
452
        0
462
0.0
453
        0
470

  0
SPLINE
  5
196
330
18F
100
AcDbEntity
  8
Sichtbar schmal (ANSI)
100
AcDbSpline
210
0.0
220
0.0
230
1.0
 70
     9
 71
     3
 72
    53
 73
    49
 74
     0
 42
0.0000000001
 43
0.0000000001
 40
0.0
 40
0.0
 40
0.0
 40
0.0
 40
1.0
 40
1.0
 40
1.0
 40
2.0
 40
2.0
 40
2.0
 40
3.0
 40
3.0
 40
3.0
 40
4.0
 40
4.0
 40
4.0
 40
5.0
 40
5.0
 40
5.0
 40
6.0
 40
6.0
 40
6.0
 40
7.0
 40
7.0
 40
7.0
 40
8.0
 40
8.0
 40
8.0
 40
9.0
 40
9.0
 40
9.0
 40
10.0
 40
10.0
 40
10.0
 40
11.0
 40
11.0
 40
11.0
 40
12.0
 40
12.0
 40
12.0
 40
13.0
 40
13.0
 40
13.0
 40
14.0
 40
14.0
 40
14.0
 40
15.0
 40
15.0
 40
15.0
 40
16.0
 40
16.0
 40
16.0
 40
16.0
 10
141.2292778509774
 20
176.6085136819763
 30
0.0
 10
141.4352945609953
 20
176.6226385734658
 30
0.0
 10
141.5903238578316
 20
176.7890366854034
 30
0.0
 10
141.5903238578316
 20
177.0288153311768
 30
0.0
 10
141.5903238578316
 20
177.2572251618489
 30
0.0
 10
141.4325384846071
 20
177.4518730567655
 30
0.0
 10
141.1166232286097
 20
177.4518730567655
 30
0.0
 10
140.8541069526337
 20
177.4518730567655
 30
0.0
 10
140.6622151341053
 20
177.2713500533384
 30
0.0
 10
140.6622151341053
 20
177.0005655481978
 30
0.0
 10
140.6622151341053
 20
176.8453639965873
 30
0.0
 10
140.7386962538778
 20
176.7213405591183
 30
0.0
 10
140.8513508762455
 20
176.6283229810165
 30
0.0
 10
140.8513508762455
 20
176.6283229810165
 30
0.0
 10
140.8399820611442
 20
176.4223062709986
 30
0.0
 10
140.8399820611442
 20
176.4223062709986
 30
0.0
 10
140.8399820611442
 20
176.4223062709986
 30
0.0
 10
139.8019747914384
 20
176.6085136819763
 30
0.0
 10
139.8019747914384
 20
176.6085136819763
 30
0.0
 10
139.8019747914384
 20
176.6085136819763
 30
0.0
 10
139.8019747914384
 20
177.5957057932747
 30
0.0
 10
139.8019747914384
 20
177.5957057932747
 30
0.0
 10
139.8019747914384
 20
177.5957057932747
 30
0.0
 10
140.0135036542327
 20
177.5957057932747
 30
0.0
 10
140.0135036542327
 20
177.5957057932747
 30
0.0
 10
140.0135036542327
 20
177.5957057932747
 30
0.0
 10
140.0135036542327
 20
176.7890366854034
 30
0.0
 10
140.0135036542327
 20
176.7890366854034
 30
0.0
 10
140.0135036542327
 20
176.7890366854034
 30
0.0
 10
140.589179109818
 20
176.6818942158121
 30
0.0
 10
140.589179109818
 20
176.6818942158121
 30
0.0
 10
140.589179109818
 20
176.6818942158121
 30
0.0
 10
140.5946912625944
 20
176.6875786233628
 30
0.0
 10
140.5946912625944
 20
176.6875786233628
 30
0.0
 10
140.4958170221677
 20
176.7749117939139
 30
0.0
 10
140.4506862713109
 20
176.9244289379737
 30
0.0
 10
140.4506862713109
 20
177.0598211905441
 30
0.0
 10
140.4506862713109
 20
177.4151827898476
 30
0.0
 10
140.6763400255948
 20
177.7057765940284
 30
0.0
 10
141.1362602728756
 20
177.7057765940284
 30
0.0
 10
141.4745686495272
 20
177.7057765940284
 30
0.0
 10
141.8018527206259
 20
177.4716823558057
 30
0.0
 10
141.8018527206259
 20
177.0062499557484
 30
0.0
 10
141.8018527206259
 20
176.6593288403838
 30
0.0
 10
141.5903238578316
 20
176.3771755201418
 30
0.0
 10
141.2292778509774
 20
176.3687350362029
 30
0.0
 10
141.2292778509774
 20
176.3687350362029
 30
0.0
 10
141.2292778509774
 20
176.6085136819763
 30
0.0
 10
141.2292778509774
 20
176.6085136819763
 30
0.0
  0
HATCH
  5
197
330
18F
100
AcDbEntity
  8
Sichtbar schmal (ANSI)
 62
   250
420
  2039067
440
 33554687
100
AcDbHatch
 10
0.0
 20
0.0
 30
0.0
210
0.0
220
0.0
230
1.0
  2
SOLID
 70
     1
 71
     1
 91
        1
 92
        1
 93
        1
 72
     4
 94
        3
 73
     0
 74
     0
 95
       53
 96
       49
 40
0.0
 40
0.0
 40
0.0
 40
0.0
 40
1.0
 40
1.0
 40
1.0
 40
2.0
 40
2.0
 40
2.0
 40
3.0
 40
3.0
 40
3.0
 40
4.0
 40
4.0
 40
4.0
 40
5.0
 40
5.0
 40
5.0
 40
6.0
 40
6.0
 40
6.0
 40
7.0
 40
7.0
 40
7.0
 40
8.0
 40
8.0
 40
8.0
 40
9.0
 40
9.0
 40
9.0
 40
10.0
 40
10.0
 40
10.0
 40
11.0
 40
11.0
 40
11.0
 40
12.0
 40
12.0
 40
12.0
 40
13.0
 40
13.0
 40
13.0
 40
14.0
 40
14.0
 40
14.0
 40
15.0
 40
15.0
 40
15.0
 40
16.0
 40
16.0
 40
16.0
 40
16.0
 10
141.2292778509774
 20
176.6085136819763
 10
141.4352945609953
 20
176.6226385734658
 10
141.5903238578316
 20
176.7890366854034
 10
141.5903238578316
 20
177.0288153311768
 10
141.5903238578316
 20
177.2572251618489
 10
141.4325384846071
 20
177.4518730567655
 10
141.1166232286097
 20
177.4518730567655
 10
140.8541069526337
 20
177.4518730567655
 10
140.6622151341053
 20
177.2713500533384
 10
140.6622151341053
 20
177.0005655481978
 10
140.6622151341053
 20
176.8453639965873
 10
140.7386962538778
 20
176.7213405591183
 10
140.8513508762455
 20
176.6283229810165
 10
140.8513508762455
 20
176.6283229810165
 10
140.8399820611442
 20
176.4223062709986
 10
140.8399820611442
 20
176.4223062709986
 10
140.8399820611442
 20
176.4223062709986
 10
139.8019747914384
 20
176.6085136819763
 10
139.8019747914384
 20
176.6085136819763
 10
139.8019747914384
 20
176.6085136819763
 10
139.8019747914384
 20
177.5957057932747
 10
139.8019747914384
 20
177.5957057932747
 10
139.8019747914384
 20
177.5957057932747
 10
140.0135036542327
 20
177.5957057932747
 10
140.0135036542327
 20
177.5957057932747
 10
140.0135036542327
 20
177.5957057932747
 10
140.0135036542327
 20
176.7890366854034
 10
140.0135036542327
 20
176.7890366854034
 10
140.0135036542327
 20
176.7890366854034
 10
140.589179109818
 20
176.6818942158121
 10
140.589179109818
 20
176.6818942158121
 10
140.589179109818
 20
176.6818942158121
 10
140.5946912625944
 20
176.6875786233628
 10
140.5946912625944
 20
176.6875786233628
 10
140.4958170221677
 20
176.7749117939139
 10
140.4506862713109
 20
176.9244289379737
 10
140.4506862713109
 20
177.0598211905441
 10
140.4506862713109
 20
177.4151827898476
 10
140.6763400255948
 20
177.7057765940284
 10
141.1362602728756
 20
177.7057765940284
 10
141.4745686495272
 20
177.7057765940284
 10
141.8018527206259
 20
177.4716823558057
 10
141.8018527206259
 20
177.0062499557484
 10
141.8018527206259
 20
176.6593288403838
 10
141.5903238578316
 20
176.3771755201418
 10
141.2292778509774
 20
176.3687350362029
 10
141.2292778509774
 20
176.3687350362029
 10
141.2292778509774
 20
176.6085136819763
 10
141.2292778509774
 20
176.6085136819763
 97
        0
 97
        1
330
196
 75
     2
 76
     1
 98
        1
 10
0.0
 20
0.0
450
        0
451
        0
460
0.0
461
0.0
452
        0
462
0.0
453
        0
470

  0
ENDBLK
  5
192
330
18F
100
AcDbEntity
  8
0
100
AcDbBlockEnd
  0
BLOCK
  5
19A
330
198
100
AcDbEntity
  8
0
100
AcDbBlockBegin
  2
Block_11
 70
     0
 10
0.0
 20
0.0
 30
0.0
  3
Block_11
  1

  0
INSERT
  5
19D
330
198
100
AcDbEntity
  8
Sichtbar schmal (ANSI)
100
AcDbBlockReference
  2
Block_12
 10
0.0
 20
0.0
 30
0.0
  0
ENDBLK
  5
19B
330
198
100
AcDbEntity
  8
0
100
AcDbBlockEnd
  0
BLOCK
  5
19E
330
19C
100
AcDbEntity
  8
0
100
AcDbBlockBegin
  2
Block_12
 70
     0
 10
0.0
 20
0.0
 30
0.0
  3
Block_12
  1

  0
LINE
  5
1A0
330
19C
100
AcDbEntity
  8
Sichtbar schmal (ANSI)
 62
    18
420
        0
370
     5
100
AcDbLine
 10
138.7289782707106
 20
183.8546476116427
 30
0.0
 11
138.7289782707106
 21
168.9770135245146
 31
0.0
  0
INSERT
  5
1A2
330
19C
100
AcDbEntity
  8
Sichtbar schmal (ANSI)
100
AcDbBlockReference
  2
Block_13
 10
0.0
 20
0.0
 30
0.0
  0
INSERT
  5
1A8
330
19C
100
AcDbEntity
  8
Sichtbar schmal (ANSI)
100
AcDbBlockReference
  2
Block_14
 10
0.0
 20
0.0
 30
0.0
  0
ENDBLK
  5
19F
330
19C
100
AcDbEntity
  8
0
100
AcDbBlockEnd
  0
BLOCK
  5
1A3
330
1A1
100
AcDbEntity
  8
0
100
AcDbBlockBegin
  2
Block_13
 70
     0
 10
0.0
 20
0.0
 30
0.0
  3
Block_13
  1

  0
LWPOLYLINE
  5
1A5
330
1A1
100
AcDbEntity
  8
Sichtbar schmal (ANSI)
100
AcDbPolyline
 90
        3
 70
     1
 43
0.0
 10
138.5076739494768
 20
183.2221926760911
 10
138.7282892516135
 20
184.9033562091995
 10
138.9502933578677
 20
183.2221926760911
  0
HATCH
  5
1A6
330
1A1
100
AcDbEntity
  8
Sichtbar schmal (ANSI)
 62
    18
420
        0
440
 33554687
100
AcDbHatch
 10
0.0
 20
0.0
 30
0.0
210
0.0
220
0.0
230
1.0
  2
SOLID
 70
     1
 71
     1
 91
        1
 92
        1
 93
        3
 72
     1
 10
138.5076739494768
 20
183.2221926760911
 11
138.7282892516135
 21
184.9033562091995
 72
     1
 10
138.7282892516135
 20
184.9033562091995
 11
138.9502933578677
 21
183.2221926760911
 72
     1
 10
138.9502933578677
 20
183.2221926760911
 11
138.5076739494768
 21
183.2221926760911
 97
        1
330
1A5
 75
     2
 76
     1
 98
        1
 10
0.0
 20
0.0
450
        0
451
        0
460
0.0
461
0.0
452
        0
462
0.0
453
        0
470

  0
ENDBLK
  5
1A4
330
1A1
100
AcDbEntity
  8
0
100
AcDbBlockEnd
  0
BLOCK
  5
1A9
330
1A7
100
AcDbEntity
  8
0
100
AcDbBlockBegin
  2
Block_14
 70
     0
 10
0.0
 20
0.0
 30
0.0
  3
Block_14
  1

  0
LWPOLYLINE
  5
1AB
330
1A7
100
AcDbEntity
  8
Sichtbar schmal (ANSI)
100
AcDbPolyline
 90
        3
 70
     1
 43
0.0
 10
138.5076739494768
 20
169.6094684600662
 10
138.7282892516135
 20
167.9282941610347
 10
138.9502933578677
 20
169.6094684600662
  0
HATCH
  5
1AC
330
1A7
100
AcDbEntity
  8
Sichtbar schmal (ANSI)
 62
    18
420
        0
440
 33554687
100
AcDbHatch
 10
0.0
 20
0.0
 30
0.0
210
0.0
220
0.0
230
1.0
  2
SOLID
 70
     1
 71
     1
 91
        1
 92
        1
 93
        3
 72
     1
 10
138.5076739494768
 20
169.6094684600662
 11
138.7282892516135
 21
167.9282941610347
 72
     1
 10
138.7282892516135
 20
167.9282941610347
 11
138.9502933578677
 21
169.6094684600662
 72
     1
 10
138.9502933578677
 20
169.6094684600662
 11
138.5076739494768
 21
169.6094684600662
 97
        1
330
1AB
 75
     2
 76
     1
 98
        1
 10
0.0
 20
0.0
450
        0
451
        0
460
0.0
461
0.0
452
        0
462
0.0
453
        0
470

  0
ENDBLK
  5
1AA
330
1A7
100
AcDbEntity
  8
0
100
AcDbBlockEnd
  0
BLOCK
  5
1AF
330
1AD
100
AcDbEntity
  8
0
100
AcDbBlockBegin
  2
Block_15
 70
     0
 10
0.0
 20
0.0
 30
0.0
  3
Block_15
  1

  0
INSERT
  5
1B2
330
1AD
100
AcDbEntity
  8
Sichtbar schmal (ANSI)
100
AcDbBlockReference
  2
Block_16
 10
0.0
 20
0.0
 30
0.0
  0
ENDBLK
  5
1B0
330
1AD
100
AcDbEntity
  8
0
100
AcDbBlockEnd
  0
BLOCK
  5
1B3
330
1B1
100
AcDbEntity
  8
0
100
AcDbBlockBegin
  2
Block_16
 70
     0
 10
0.0
 20
0.0
 30
0.0
  3
Block_16
  1

  0
SPLINE
  5
1B5
330
1B1
100
AcDbEntity
  8
Sichtbar schmal (ANSI)
100
AcDbSpline
210
0.0
220
0.0
230
1.0
 70
    11
 71
     3
 72
    26
 73
    22
 74
     0
 42
0.0000000001
 43
0.0000000001
 40
0.0
 40
0.0
 40
0.0
 40
0.0
 40
1.0
 40
1.0
 40
1.0
 40
2.0
 40
2.0
 40
2.0
 40
3.0
 40
3.0
 40
3.0
 40
4.0
 40
4.0
 40
4.0
 40
5.0
 40
5.0
 40
5.0
 40
6.0
 40
6.0
 40
6.0
 40
7.0
 40
7.0
 40
7.0
 40
7.0
 10
130.5053846244917
 20
178.3792927613947
 30
0.0
 10
130.5053846244917
 20
178.3792927613947
 30
0.0
 10
130.5053846244917
 20
177.8602891265419
 30
0.0
 10
130.5053846244917
 20
177.8602891265419
 30
0.0
 10
130.5053846244917
 20
177.8602891265419
 30
0.0
 10
130.3134928059633
 20
177.8602891265419
 30
0.0
 10
130.3134928059633
 20
177.8602891265419
 30
0.0
 10
130.3134928059633
 20
178.1338297080707
 30
0.0
 10
130.2428683485157
 20
178.3820488377829
 30
0.0
 10
129.9383219076196
 20
178.4356200725786
 30
0.0
 10
129.9383219076196
 20
178.4356200725786
 30
0.0
 10
129.9383219076196
 20
178.6188991523939
 30
0.0
 10
129.9383219076196
 20
178.6188991523939
 30
0.0
 10
129.9383219076196
 20
178.6188991523939
 30
0.0
 10
131.9381998368071
 20
178.6188991523939
 30
0.0
 10
131.9381998368071
 20
178.6188991523939
 30
0.0
 10
131.9381998368071
 20
178.6188991523939
 30
0.0
 10
131.9381998368071
 20
178.3792927613947
 30
0.0
 10
131.9381998368071
 20
178.3792927613947
 30
0.0
 10
131.9381998368071
 20
178.3792927613947
 30
0.0
 10
130.5053846244917
 20
178.3792927613947
 30
0.0
 10
130.5053846244917
 20
178.3792927613947
 30
0.0
  0
HATCH
  5
1B6
330
1B1
100
AcDbEntity
  8
Sichtbar schmal (ANSI)
 62
   250
420
  2039067
440
 33554687
100
AcDbHatch
 10
0.0
 20
0.0
 30
0.0
210
0.0
220
0.0
230
1.0
  2
SOLID
 70
     1
 71
     1
 91
        1
 92
        1
 93
        1
 72
     4
 94
        3
 73
     0
 74
     0
 95
       26
 96
       22
 40
0.0
 40
0.0
 40
0.0
 40
0.0
 40
1.0
 40
1.0
 40
1.0
 40
2.0
 40
2.0
 40
2.0
 40
3.0
 40
3.0
 40
3.0
 40
4.0
 40
4.0
 40
4.0
 40
5.0
 40
5.0
 40
5.0
 40
6.0
 40
6.0
 40
6.0
 40
7.0
 40
7.0
 40
7.0
 40
7.0
 10
130.5053846244917
 20
178.3792927613947
 10
130.5053846244917
 20
178.3792927613947
 10
130.5053846244917
 20
177.8602891265419
 10
130.5053846244917
 20
177.8602891265419
 10
130.5053846244917
 20
177.8602891265419
 10
130.3134928059633
 20
177.8602891265419
 10
130.3134928059633
 20
177.8602891265419
 10
130.3134928059633
 20
178.1338297080707
 10
130.2428683485157
 20
178.3820488377829
 10
129.9383219076196
 20
178.4356200725786
 10
129.9383219076196
 20
178.4356200725786
 10
129.9383219076196
 20
178.6188991523939
 10
129.9383219076196
 20
178.6188991523939
 10
129.9383219076196
 20
178.6188991523939
 10
131.9381998368071
 20
178.6188991523939
 10
131.9381998368071
 20
178.6188991523939
 10
131.9381998368071
 20
178.6188991523939
 10
131.9381998368071
 20
178.3792927613947
 10
131.9381998368071
 20
178.3792927613947
 10
131.9381998368071
 20
178.3792927613947
 10
130.5053846244917
 20
178.3792927613947
 10
130.5053846244917
 20
178.3792927613947
 97
        0
 97
        1
330
1B5
 75
     2
 76
     1
 98
        1
 10
0.0
 20
0.0
450
        0
451
        0
460
0.0
461
0.0
452
        0
462
0.0
453
        0
470

  0
SPLINE
  5
1B7
330
1B1
100
AcDbEntity
  8
Sichtbar schmal (ANSI)
100
AcDbSpline
210
0.0
220
0.0
230
1.0
 70
     9
 71
     3
 72
    53
 73
    49
 74
     0
 42
0.0000000001
 43
0.0000000001
 40
0.0
 40
0.0
 40
0.0
 40
0.0
 40
1.0
 40
1.0
 40
1.0
 40
2.0
 40
2.0
 40
2.0
 40
3.0
 40
3.0
 40
3.0
 40
4.0
 40
4.0
 40
4.0
 40
5.0
 40
5.0
 40
5.0
 40
6.0
 40
6.0
 40
6.0
 40
7.0
 40
7.0
 40
7.0
 40
8.0
 40
8.0
 40
8.0
 40
9.0
 40
9.0
 40
9.0
 40
10.0
 40
10.0
 40
10.0
 40
11.0
 40
11.0
 40
11.0
 40
12.0
 40
12.0
 40
12.0
 40
13.0
 40
13.0
 40
13.0
 40
14.0
 40
14.0
 40
14.0
 40
15.0
 40
15.0
 40
15.0
 40
16.0
 40
16.0
 40
16.0
 40
16.0
 10
131.399386902914
 20
179.5223754434007
 30
0.0
 10
131.605403612932
 20
179.5365003348902
 30
0.0
 10
131.7604329097682
 20
179.7028984468277
 30
0.0
 10
131.7604329097682
 20
179.9426770926011
 30
0.0
 10
131.7604329097682
 20
180.1710869232732
 30
0.0
 10
131.6026475365438
 20
180.3657348181898
 30
0.0
 10
131.2867322805463
 20
180.3657348181898
 30
0.0
 10
131.0242160045703
 20
180.3657348181898
 30
0.0
 10
130.8326686955904
 20
180.1852118147627
 30
0.0
 10
130.8326686955904
 20
179.9144273096221
 30
0.0
 10
130.8326686955904
 20
179.7592257580116
 30
0.0
 10
130.9088053058145
 20
179.6352023205426
 30
0.0
 10
131.0214599281821
 20
179.5421847424408
 30
0.0
 10
131.0214599281821
 20
179.5421847424408
 30
0.0
 10
131.0100911130808
 20
179.3361680324229
 30
0.0
 10
131.0100911130808
 20
179.3361680324229
 30
0.0
 10
131.0100911130808
 20
179.3361680324229
 30
0.0
 10
129.972083843375
 20
179.5223754434007
 30
0.0
 10
129.972083843375
 20
179.5223754434007
 30
0.0
 10
129.972083843375
 20
179.5223754434007
 30
0.0
 10
129.972083843375
 20
180.509567554699
 30
0.0
 10
129.972083843375
 20
180.509567554699
 30
0.0
 10
129.972083843375
 20
180.509567554699
 30
0.0
 10
130.1836127061694
 20
180.509567554699
 30
0.0
 10
130.1836127061694
 20
180.509567554699
 30
0.0
 10
130.1836127061694
 20
180.509567554699
 30
0.0
 10
130.1836127061694
 20
179.7028984468277
 30
0.0
 10
130.1836127061694
 20
179.7028984468277
 30
0.0
 10
130.1836127061694
 20
179.7028984468277
 30
0.0
 10
130.7592881617546
 20
179.5957559772365
 30
0.0
 10
130.7592881617546
 20
179.5957559772365
 30
0.0
 10
130.7592881617546
 20
179.5957559772365
 30
0.0
 10
130.764800314531
 20
179.6014403847871
 30
0.0
 10
130.764800314531
 20
179.6014403847871
 30
0.0
 10
130.6659260741043
 20
179.6887735553382
 30
0.0
 10
130.6207953232476
 20
179.838290699398
 30
0.0
 10
130.6207953232476
 20
179.9736829519684
 30
0.0
 10
130.6207953232476
 20
180.3290445512719
 30
0.0
 10
130.8464490775314
 20
180.6196383554527
 30
0.0
 10
131.3063693248123
 20
180.6196383554527
 30
0.0
 10
131.6450222110123
 20
180.6196383554527
 30
0.0
 10
131.9719617725625
 20
180.38554411723
 30
0.0
 10
131.9719617725625
 20
179.9201117171727
 30
0.0
 10
131.9719617725625
 20
179.5731906018081
 30
0.0
 10
131.7604329097682
 20
179.2910372815661
 30
0.0
 10
131.399386902914
 20
179.2825967976272
 30
0.0
 10
131.399386902914
 20
179.2825967976272
 30
0.0
 10
131.399386902914
 20
179.5223754434007
 30
0.0
 10
131.399386902914
 20
179.5223754434007
 30
0.0
  0
HATCH
  5
1B8
330
1B1
100
AcDbEntity
  8
Sichtbar schmal (ANSI)
 62
   250
420
  2039067
440
 33554687
100
AcDbHatch
 10
0.0
 20
0.0
 30
0.0
210
0.0
220
0.0
230
1.0
  2
SOLID
 70
     1
 71
     1
 91
        1
 92
        1
 93
        1
 72
     4
 94
        3
 73
     0
 74
     0
 95
       53
 96
       49
 40
0.0
 40
0.0
 40
0.0
 40
0.0
 40
1.0
 40
1.0
 40
1.0
 40
2.0
 40
2.0
 40
2.0
 40
3.0
 40
3.0
 40
3.0
 40
4.0
 40
4.0
 40
4.0
 40
5.0
 40
5.0
 40
5.0
 40
6.0
 40
6.0
 40
6.0
 40
7.0
 40
7.0
 40
7.0
 40
8.0
 40
8.0
 40
8.0
 40
9.0
 40
9.0
 40
9.0
 40
10.0
 40
10.0
 40
10.0
 40
11.0
 40
11.0
 40
11.0
 40
12.0
 40
12.0
 40
12.0
 40
13.0
 40
13.0
 40
13.0
 40
14.0
 40
14.0
 40
14.0
 40
15.0
 40
15.0
 40
15.0
 40
16.0
 40
16.0
 40
16.0
 40
16.0
 10
131.399386902914
 20
179.5223754434007
 10
131.605403612932
 20
179.5365003348902
 10
131.7604329097682
 20
179.7028984468277
 10
131.7604329097682
 20
179.9426770926011
 10
131.7604329097682
 20
180.1710869232732
 10
131.6026475365438
 20
180.3657348181898
 10
131.2867322805463
 20
180.3657348181898
 10
131.0242160045703
 20
180.3657348181898
 10
130.8326686955904
 20
180.1852118147627
 10
130.8326686955904
 20
179.9144273096221
 10
130.8326686955904
 20
179.7592257580116
 10
130.9088053058145
 20
179.6352023205426
 10
131.0214599281821
 20
179.5421847424408
 10
131.0214599281821
 20
179.5421847424408
 10
131.0100911130808
 20
179.3361680324229
 10
131.0100911130808
 20
179.3361680324229
 10
131.0100911130808
 20
179.3361680324229
 10
129.972083843375
 20
179.5223754434007
 10
129.972083843375
 20
179.5223754434007
 10
129.972083843375
 20
179.5223754434007
 10
129.972083843375
 20
180.509567554699
 10
129.972083843375
 20
180.509567554699
 10
129.972083843375
 20
180.509567554699
 10
130.1836127061694
 20
180.509567554699
 10
130.1836127061694
 20
180.509567554699
 10
130.1836127061694
 20
180.509567554699
 10
130.1836127061694
 20
179.7028984468277
 10
130.1836127061694
 20
179.7028984468277
 10
130.1836127061694
 20
179.7028984468277
 10
130.7592881617546
 20
179.5957559772365
 10
130.7592881617546
 20
179.5957559772365
 10
130.7592881617546
 20
179.5957559772365
 10
130.764800314531
 20
179.6014403847871
 10
130.764800314531
 20
179.6014403847871
 10
130.6659260741043
 20
179.6887735553382
 10
130.6207953232476
 20
179.838290699398
 10
130.6207953232476
 20
179.9736829519684
 10
130.6207953232476
 20
180.3290445512719
 10
130.8464490775314
 20
180.6196383554527
 10
131.3063693248123
 20
180.6196383554527
 10
131.6450222110123
 20
180.6196383554527
 10
131.9719617725625
 20
180.38554411723
 10
131.9719617725625
 20
179.9201117171727
 10
131.9719617725625
 20
179.5731906018081
 10
131.7604329097682
 20
179.2910372815661
 10
131.399386902914
 20
179.2825967976272
 10
131.399386902914
 20
179.2825967976272
 10
131.399386902914
 20
179.5223754434007
 10
131.399386902914
 20
179.5223754434007
 97
        0
 97
        1
330
1B7
 75
     2
 76
     1
 98
        1
 10
0.0
 20
0.0
450
        0
451
        0
460
0.0
461
0.0
452
        0
462
0.0
453
        0
470

  0
ENDBLK
  5
1B4
330
1B1
100
AcDbEntity
  8
0
100
AcDbBlockEnd
  0
BLOCK
  5
1BF
330
1BD
100
AcDbEntity
  8
0
100
AcDbBlockBegin
  2
Block_17
 70
     0
 10
0.0
 20
0.0
 30
0.0
  3
Block_17
  1

  0
INSERT
  5
1C2
330
1BD
100
AcDbEntity
  8
Sichtbar schmal (ANSI)
100
AcDbBlockReference
  2
Block_18
 10
0.0
 20
0.0
 30
0.0
  0
ENDBLK
  5
1C0
330
1BD
100
AcDbEntity
  8
0
100
AcDbBlockEnd
  0
BLOCK
  5
1C3
330
1C1
100
AcDbEntity
  8
0
100
AcDbBlockBegin
  2
Block_18
 70
     0
 10
0.0
 20
0.0
 30
0.0
  3
Block_18
  1

  0
LINE
  5
1C5
330
1C1
100
AcDbEntity
  8
Sichtbar schmal (ANSI)
 62
    18
420
        0
370
     5
100
AcDbLine
 10
129.3527848662078
 20
176.9568989629222
 30
0.0
 11
129.3527848662078
 21
181.8544467047534
 31
0.0
  0
INSERT
  5
1C7
330
1C1
100
AcDbEntity
  8
Sichtbar schmal (ANSI)
100
AcDbBlockReference
  2
Block_19
 10
0.0
 20
0.0
 30
0.0
  0
ENDBLK
  5
1C4
330
1C1
100
AcDbEntity
  8
0
100
AcDbBlockEnd
  0
BLOCK
  5
1C8
330
1C6
100
AcDbEntity
  8
0
100
AcDbBlockBegin
  2
Block_19
 70
     0
 10
0.0
 20
0.0
 30
0.0
  3
Block_19
  1

  0
LWPOLYLINE
  5
1CA
330
1C6
100
AcDbEntity
  8
Sichtbar schmal (ANSI)
100
AcDbPolyline
 90
        3
 70
     1
 43
0.0
 10
129.5740999533649
 20
181.2219917692019
 10
129.3534738853049
 20
182.9031553023102
 10
129.131480544974
 20
181.2219917692019
  0
HATCH
  5
1CB
330
1C6
100
AcDbEntity
  8
Sichtbar schmal (ANSI)
 62
    18
420
        0
440
 33554687
100
AcDbHatch
 10
0.0
 20
0.0
 30
0.0
210
0.0
220
0.0
230
1.0
  2
SOLID
 70
     1
 71
     1
 91
        1
 92
        1
 93
        3
 72
     1
 10
129.5740999533649
 20
181.2219917692019
 11
129.3534738853049
 21
182.9031553023102
 72
     1
 10
129.3534738853049
 20
182.9031553023102
 11
129.131480544974
 21
181.2219917692019
 72
     1
 10
129.131480544974
 20
181.2219917692019
 11
129.5740999533649
 21
181.2219917692019
 97
        1
330
1CA
 75
     2
 76
     1
 98
        1
 10
0.0
 20
0.0
450
        0
451
        0
460
0.0
461
0.0
452
        0
462
0.0
453
        0
470

  0
ENDBLK
  5
1C9
330
1C6
100
AcDbEntity
  8
0
100
AcDbBlockEnd
  0
BLOCK
  5
1CE
330
1CC
100
AcDbEntity
  8
0
100
AcDbBlockBegin
  2
Block_20
 70
     0
 10
0.0
 20
0.0
 30
0.0
  3
Block_20
  1

  0
LINE
  5
1D0
330
1CC
100
AcDbEntity
  8
Sichtbar schmal (ANSI)
 62
    18
420
        0
370
     5
100
AcDbLine
 10
113.1642389391344
 20
184.904858925807
 30
0.0
 11
68.42229639562614
 21
184.904858925807
 31
0.0
  0
LINE
  5
1D1
330
1CC
100
AcDbEntity
  8
Sichtbar schmal (ANSI)
 62
    18
420
        0
370
     5
100
AcDbLine
 10
68.42229639562614
 20
182.2149003772567
 30
0.0
 11
68.42229639562614
 21
184.904858925807
 31
0.0
  0
LWPOLYLINE
  5
1D2
330
1CC
100
AcDbEntity
  8
Sichtbar schmal (ANSI)
 62
    18
420
        0
370
     5
100
AcDbPolyline
 90
        1
 70
     0
 43
0.0
 10
113.1642389391344
 20
182.2149003772567
  0
LINE
  5
1D3
330
1CC
100
AcDbEntity
  8
Sichtbar schmal (ANSI)
 62
    18
420
        0
370
     5
100
AcDbLine
 10
113.1642389391344
 20
182.2149003772567
 30
0.0
 11
113.1642389391344
 21
184.904858925807
 31
0.0
  0
ENDBLK
  5
1CF
330
1CC
100
AcDbEntity
  8
0
100
AcDbBlockEnd
  0
BLOCK
  5
1DB
330
1D9
100
AcDbEntity
  8
0
100
AcDbBlockBegin
  2
Block_21
 70
     0
 10
0.0
 20
0.0
 30
0.0
  3
Block_21
  1

  0
INSERT
  5
1DE
330
1D9
100
AcDbEntity
  8
Sichtbar schmal (ANSI)
100
AcDbBlockReference
  2
Block_22
 10
0.0
 20
0.0
 30
0.0
  0
ENDBLK
  5
1DC
330
1D9
100
AcDbEntity
  8
0
100
AcDbBlockEnd
  0
BLOCK
  5
1DF
330
1DD
100
AcDbEntity
  8
0
100
AcDbBlockBegin
  2
Block_22
 70
     0
 10
0.0
 20
0.0
 30
0.0
  3
Block_22
  1

  0
LINE
  5
1E1
330
1DD
100
AcDbEntity
  8
Sichtbar schmal (ANSI)
 62
    18
420
        0
370
     5
100
AcDbLine
 10
133.0321360785312
 20
123.7190740487957
 30
0.0
 11
133.0321360785312
 21
164.4793767729806
 31
0.0
  0
INSERT
  5
1E3
330
1DD
100
AcDbEntity
  8
Sichtbar schmal (ANSI)
100
AcDbBlockReference
  2
Block_23
 10
0.0
 20
0.0
 30
0.0
  0
INSERT
  5
1E9
330
1DD
100
AcDbEntity
  8
Sichtbar schmal (ANSI)
100
AcDbBlockReference
  2
Block_24
 10
0.0
 20
0.0
 30
0.0
  0
ENDBLK
  5
1E0
330
1DD
100
AcDbEntity
  8
0
100
AcDbBlockEnd
  0
BLOCK
  5
1E4
330
1E2
100
AcDbEntity
  8
0
100
AcDbBlockBegin
  2
Block_23
 70
     0
 10
0.0
 20
0.0
 30
0.0
  3
Block_23
  1

  0
LWPOLYLINE
  5
1E6
330
1E2
100
AcDbEntity
  8
Sichtbar schmal (ANSI)
100
AcDbPolyline
 90
        3
 70
     1
 43
0.0
 10
133.2534511656884
 20
124.3515289843472
 10
133.0328250976283
 20
122.6703546853155
 10
132.8108209913741
 20
124.3515289843472
  0
HATCH
  5
1E7
330
1E2
100
AcDbEntity
  8
Sichtbar schmal (ANSI)
 62
    18
420
        0
440
 33554687
100
AcDbHatch
 10
0.0
 20
0.0
 30
0.0
210
0.0
220
0.0
230
1.0
  2
SOLID
 70
     1
 71
     1
 91
        1
 92
        1
 93
        3
 72
     1
 10
133.2534511656884
 20
124.3515289843472
 11
133.0328250976283
 21
122.6703546853155
 72
     1
 10
133.0328250976283
 20
122.6703546853155
 11
132.8108209913741
 21
124.3515289843472
 72
     1
 10
132.8108209913741
 20
124.3515289843472
 11
133.2534511656884
 21
124.3515289843472
 97
        1
330
1E6
 75
     2
 76
     1
 98
        1
 10
0.0
 20
0.0
450
        0
451
        0
460
0.0
461
0.0
452
        0
462
0.0
453
        0
470

  0
ENDBLK
  5
1E5
330
1E2
100
AcDbEntity
  8
0
100
AcDbBlockEnd
  0
BLOCK
  5
1EA
330
1E8
100
AcDbEntity
  8
0
100
AcDbBlockBegin
  2
Block_24
 70
     0
 10
0.0
 20
0.0
 30
0.0
  3
Block_24
  1

  0
LWPOLYLINE
  5
1EC
330
1E8
100
AcDbEntity
  8
Sichtbar schmal (ANSI)
100
AcDbPolyline
 90
        3
 70
     1
 43
0.0
 10
133.2534511656884
 20
163.8469218374291
 10
133.0328250976283
 20
165.5280961364612
 10
132.8108317572975
 20
163.8469218374291
  0
HATCH
  5
1ED
330
1E8
100
AcDbEntity
  8
Sichtbar schmal (ANSI)
 62
    18
420
        0
440
 33554687
100
AcDbHatch
 10
0.0
 20
0.0
 30
0.0
210
0.0
220
0.0
230
1.0
  2
SOLID
 70
     1
 71
     1
 91
        1
 92
        1
 93
        3
 72
     1
 10
133.2534511656884
 20
163.8469218374291
 11
133.0328250976283
 21
165.5280961364612
 72
     1
 10
133.0328250976283
 20
165.5280961364612
 11
132.8108317572975
 21
163.8469218374291
 72
     1
 10
132.8108317572975
 20
163.8469218374291
 11
133.2534511656884
 21
163.8469218374291
 97
        1
330
1EC
 75
     2
 76
     1
 98
        1
 10
0.0
 20
0.0
450
        0
451
        0
460
0.0
461
0.0
452
        0
462
0.0
453
        0
470

  0
ENDBLK
  5
1EB
330
1E8
100
AcDbEntity
  8
0
100
AcDbBlockEnd
  0
BLOCK
  5
1F0
330
1EE
100
AcDbEntity
  8
0
100
AcDbBlockBegin
  2
Block_25
 70
     0
 10
0.0
 20
0.0
 30
0.0
  3
Block_25
  1

  0
SPLINE
  5
1F2
330
1EE
100
AcDbEntity
  8
Sichtbar schmal (ANSI)
100
AcDbSpline
210
0.0
220
0.0
230
1.0
 70
    11
 71
     3
 72
    17
 73
    13
 74
     0
 42
0.0000000001
 43
0.0000000001
 40
0.0
 40
0.0
 40
0.0
 40
0.0
 40
1.0
 40
1.0
 40
1.0
 40
2.0
 40
2.0
 40
2.0
 40
3.0
 40
3.0
 40
3.0
 40
4.0
 40
4.0
 40
4.0
 40
4.0
 10
135.819099900941
 20
142.1566975556066
 30
0.0
 10
135.819099900941
 20
142.1566975556066
 30
0.0
 10
134.157530348405
 20
142.1566975556066
 30
0.0
 10
134.157530348405
 20
142.1566975556066
 30
0.0
 10
134.157530348405
 20
142.1566975556066
 30
0.0
 10
134.157530348405
 20
140.4978840794588
 30
0.0
 10
134.157530348405
 20
140.4978840794588
 30
0.0
 10
134.157530348405
 20
140.4978840794588
 30
0.0
 10
135.819099900941
 20
140.4978840794588
 30
0.0
 10
135.819099900941
 20
140.4978840794588
 30
0.0
 10
135.819099900941
 20
140.4978840794588
 30
0.0
 10
135.819099900941
 20
142.1566975556066
 30
0.0
 10
135.819099900941
 20
142.1566975556066
 30
0.0
  0
SPLINE
  5
1F3
330
1EE
100
AcDbEntity
  8
Sichtbar schmal (ANSI)
100
AcDbSpline
210
0.0
220
0.0
230
1.0
 70
    11
 71
     3
 72
    17
 73
    13
 74
     0
 42
0.0000000001
 43
0.0000000001
 40
0.0
 40
0.0
 40
0.0
 40
0.0
 40
1.0
 40
1.0
 40
1.0
 40
2.0
 40
2.0
 40
2.0
 40
3.0
 40
3.0
 40
3.0
 40
4.0
 40
4.0
 40
4.0
 40
4.0
 10
133.9318765941212
 20
140.2698187583353
 30
0.0
 10
133.9318765941212
 20
140.2698187583353
 30
0.0
 10
133.9318765941212
 20
142.3823513098905
 30
0.0
 10
133.9318765941212
 20
142.3823513098905
 30
0.0
 10
133.9318765941212
 20
142.3823513098905
 30
0.0
 10
136.0475097316131
 20
142.3823513098905
 30
0.0
 10
136.0475097316131
 20
142.3823513098905
 30
0.0
 10
136.0475097316131
 20
142.3823513098905
 30
0.0
 10
136.0475097316131
 20
140.2698187583353
 30
0.0
 10
136.0475097316131
 20
140.2698187583353
 30
0.0
 10
136.0475097316131
 20
140.2698187583353
 30
0.0
 10
133.9318765941212
 20
140.2698187583353
 30
0.0
 10
133.9318765941212
 20
140.2698187583353
 30
0.0
  0
HATCH
  5
1F4
330
1EE
100
AcDbEntity
  8
Sichtbar schmal (ANSI)
 62
    18
420
        0
440
 33554687
100
AcDbHatch
 10
0.0
 20
0.0
 30
0.0
210
0.0
220
0.0
230
1.0
  2
SOLID
 70
     1
 71
     1
 91
        2
 92
        1
 93
        1
 72
     4
 94
        3
 73
     0
 74
     0
 95
       17
 96
       13
 40
0.0
 40
0.0
 40
0.0
 40
0.0
 40
1.0
 40
1.0
 40
1.0
 40
2.0
 40
2.0
 40
2.0
 40
3.0
 40
3.0
 40
3.0
 40
4.0
 40
4.0
 40
4.0
 40
4.0
 10
135.819099900941
 20
142.1566975556066
 10
135.819099900941
 20
142.1566975556066
 10
134.157530348405
 20
142.1566975556066
 10
134.157530348405
 20
142.1566975556066
 10
134.157530348405
 20
142.1566975556066
 10
134.157530348405
 20
140.4978840794588
 10
134.157530348405
 20
140.4978840794588
 10
134.157530348405
 20
140.4978840794588
 10
135.819099900941
 20
140.4978840794588
 10
135.819099900941
 20
140.4978840794588
 10
135.819099900941
 20
140.4978840794588
 10
135.819099900941
 20
142.1566975556066
 10
135.819099900941
 20
142.1566975556066
 97
        0
 97
        1
330
1F2
 92
        1
 93
        1
 72
     4
 94
        3
 73
     0
 74
     0
 95
       17
 96
       13
 40
0.0
 40
0.0
 40
0.0
 40
0.0
 40
1.0
 40
1.0
 40
1.0
 40
2.0
 40
2.0
 40
2.0
 40
3.0
 40
3.0
 40
3.0
 40
4.0
 40
4.0
 40
4.0
 40
4.0
 10
133.9318765941212
 20
140.2698187583353
 10
133.9318765941212
 20
140.2698187583353
 10
133.9318765941212
 20
142.3823513098905
 10
133.9318765941212
 20
142.3823513098905
 10
133.9318765941212
 20
142.3823513098905
 10
136.0475097316131
 20
142.3823513098905
 10
136.0475097316131
 20
142.3823513098905
 10
136.0475097316131
 20
142.3823513098905
 10
136.0475097316131
 20
140.2698187583353
 10
136.0475097316131
 20
140.2698187583353
 10
136.0475097316131
 20
140.2698187583353
 10
133.9318765941212
 20
140.2698187583353
 10
133.9318765941212
 20
140.2698187583353
 97
        0
 97
        1
330
1F3
 75
     2
 76
     1
 98
        1
 10
0.0
 20
0.0
450
        0
451
        0
460
0.0
461
0.0
452
        0
462
0.0
453
        0
470

  0
SPLINE
  5
1F5
330
1EE
100
AcDbEntity
  8
Sichtbar schmal (ANSI)
100
AcDbSpline
210
0.0
220
0.0
230
1.0
 70
     9
 71
     3
 72
    41
 73
    37
 74
     0
 42
0.0000000001
 43
0.0000000001
 40
0.0
 40
0.0
 40
0.0
 40
0.0
 40
1.0
 40
1.0
 40
1.0
 40
2.0
 40
2.0
 40
2.0
 40
3.0
 40
3.0
 40
3.0
 40
4.0
 40
4.0
 40
4.0
 40
5.0
 40
5.0
 40
5.0
 40
6.0
 40
6.0
 40
6.0
 40
7.0
 40
7.0
 40
7.0
 40
8.0
 40
8.0
 40
8.0
 40
9.0
 40
9.0
 40
9.0
 40
10.0
 40
10.0
 40
10.0
 40
11.0
 40
11.0
 40
11.0
 40
12.0
 40
12.0
 40
12.0
 40
12.0
 10
135.2296440634148
 20
143.8000081020708
 30
0.0
 10
135.0181152006205
 20
144.1386609882709
 30
0.0
 10
134.8996039159279
 20
144.3105712529848
 30
0.0
 10
134.6202066720741
 20
144.3105712529848
 30
0.0
 10
134.4031656565034
 20
144.3105712529848
 30
0.0
 10
134.2591606652199
 20
144.1355604023341
 30
0.0
 10
134.2591606652199
 20
143.9240315395398
 30
0.0
 10
134.2591606652199
 20
143.6446342956861
 30
0.0
 10
134.515820278871
 20
143.5261230109935
 30
0.0
 10
134.7555989246444
 20
143.5347357497066
 30
0.0
 10
134.7555989246444
 20
143.5347357497066
 30
0.0
 10
134.7555989246444
 20
143.2949571039332
 30
0.0
 10
134.7555989246444
 20
143.2949571039332
 30
0.0
 10
134.3494221669335
 20
143.2725639832791
 30
0.0
 10
134.0476318024256
 20
143.5150987054406
 30
0.0
 10
134.0476318024256
 20
143.9381564310293
 30
0.0
 10
134.0476318024256
 20
144.285077546394
 30
0.0
 10
134.2508924360553
 20
144.5644747902477
 30
0.0
 10
134.6229627484623
 20
144.5644747902477
 30
0.0
 10
134.9757405261519
 20
144.5644747902477
 30
0.0
 10
135.1504068672541
 20
144.3274522208626
 30
0.0
 10
135.308536750027
 20
144.0794053459246
 30
0.0
 10
135.4580538940868
 20
143.8310139614381
 30
0.0
 10
135.590690070269
 20
143.5629855326856
 30
0.0
 10
135.8359808688188
 20
143.5178547818289
 30
0.0
 10
135.8359808688188
 20
143.5178547818289
 30
0.0
 10
135.8359808688188
 20
144.5444932364333
 30
0.0
 10
135.8359808688188
 20
144.5444932364333
 30
0.0
 10
135.8359808688188
 20
144.5444932364333
 30
0.0
 10
136.0475097316131
 20
144.5444932364333
 30
0.0
 10
136.0475097316131
 20
144.5444932364333
 30
0.0
 10
136.0475097316131
 20
144.5444932364333
 30
0.0
 10
136.0475097316131
 20
143.2388020475236
 30
0.0
 10
136.0475097316131
 20
143.2388020475236
 30
0.0
 10
135.5765651787794
 20
143.2753200596672
 30
0.0
 10
135.3987982517405
 20
143.5178547818289
 30
0.0
 10
135.2296440634148
 20
143.8000081020708
 30
0.0
  0
HATCH
  5
1F6
330
1EE
100
AcDbEntity
  8
Sichtbar schmal (ANSI)
 62
   250
420
  2039067
440
 33554687
100
AcDbHatch
 10
0.0
 20
0.0
 30
0.0
210
0.0
220
0.0
230
1.0
  2
SOLID
 70
     1
 71
     1
 91
        1
 92
        1
 93
        1
 72
     4
 94
        3
 73
     0
 74
     0
 95
       41
 96
       37
 40
0.0
 40
0.0
 40
0.0
 40
0.0
 40
1.0
 40
1.0
 40
1.0
 40
2.0
 40
2.0
 40
2.0
 40
3.0
 40
3.0
 40
3.0
 40
4.0
 40
4.0
 40
4.0
 40
5.0
 40
5.0
 40
5.0
 40
6.0
 40
6.0
 40
6.0
 40
7.0
 40
7.0
 40
7.0
 40
8.0
 40
8.0
 40
8.0
 40
9.0
 40
9.0
 40
9.0
 40
10.0
 40
10.0
 40
10.0
 40
11.0
 40
11.0
 40
11.0
 40
12.0
 40
12.0
 40
12.0
 40
12.0
 10
135.2296440634148
 20
143.8000081020708
 10
135.0181152006205
 20
144.1386609882709
 10
134.8996039159279
 20
144.3105712529848
 10
134.6202066720741
 20
144.3105712529848
 10
134.4031656565034
 20
144.3105712529848
 10
134.2591606652199
 20
144.1355604023341
 10
134.2591606652199
 20
143.9240315395398
 10
134.2591606652199
 20
143.6446342956861
 10
134.515820278871
 20
143.5261230109935
 10
134.7555989246444
 20
143.5347357497066
 10
134.7555989246444
 20
143.5347357497066
 10
134.7555989246444
 20
143.2949571039332
 10
134.7555989246444
 20
143.2949571039332
 10
134.3494221669335
 20
143.2725639832791
 10
134.0476318024256
 20
143.5150987054406
 10
134.0476318024256
 20
143.9381564310293
 10
134.0476318024256
 20
144.285077546394
 10
134.2508924360553
 20
144.5644747902477
 10
134.6229627484623
 20
144.5644747902477
 10
134.9757405261519
 20
144.5644747902477
 10
135.1504068672541
 20
144.3274522208626
 10
135.308536750027
 20
144.0794053459246
 10
135.4580538940868
 20
143.8310139614381
 10
135.590690070269
 20
143.5629855326856
 10
135.8359808688188
 20
143.5178547818289
 10
135.8359808688188
 20
143.5178547818289
 10
135.8359808688188
 20
144.5444932364333
 10
135.8359808688188
 20
144.5444932364333
 10
135.8359808688188
 20
144.5444932364333
 10
136.0475097316131
 20
144.5444932364333
 10
136.0475097316131
 20
144.5444932364333
 10
136.0475097316131
 20
144.5444932364333
 10
136.0475097316131
 20
143.2388020475236
 10
136.0475097316131
 20
143.2388020475236
 10
135.5765651787794
 20
143.2753200596672
 10
135.3987982517405
 20
143.5178547818289
 10
135.2296440634148
 20
143.8000081020708
 97
        0
 97
        1
330
1F5
 75
     2
 76
     1
 98
        1
 10
0.0
 20
0.0
450
        0
451
        0
460
0.0
461
0.0
452
        0
462
0.0
453
        0
470

  0
SPLINE
  5
1F7
330
1EE
100
AcDbEntity
  8
Sichtbar schmal (ANSI)
100
AcDbSpline
210
0.0
220
0.0
230
1.0
 70
     9
 71
     3
 72
    62
 73
    58
 74
     0
 42
0.0000000001
 43
0.0000000001
 40
0.0
 40
0.0
 40
0.0
 40
0.0
 40
1.0
 40
1.0
 40
1.0
 40
2.0
 40
2.0
 40
2.0
 40
3.0
 40
3.0
 40
3.0
 40
4.0
 40
4.0
 40
4.0
 40
5.0
 40
5.0
 40
5.0
 40
6.0
 40
6.0
 40
6.0
 40
7.0
 40
7.0
 40
7.0
 40
8.0
 40
8.0
 40
8.0
 40
9.0
 40
9.0
 40
9.0
 40
10.0
 40
10.0
 40
10.0
 40
11.0
 40
11.0
 40
11.0
 40
12.0
 40
12.0
 40
12.0
 40
13.0
 40
13.0
 40
13.0
 40
14.0
 40
14.0
 40
14.0
 40
15.0
 40
15.0
 40
15.0
 40
16.0
 40
16.0
 40
16.0
 40
17.0
 40
17.0
 40
17.0
 40
18.0
 40
18.0
 40
18.0
 40
19.0
 40
19.0
 40
19.0
 40
19.0
 10
135.4298041111078
 20
145.064702654706
 30
0.0
 10
135.6892198011471
 20
145.0729708838706
 30
0.0
 10
135.8697428045742
 20
145.2169758751541
 30
0.0
 10
135.8697428045742
 20
145.4905164566829
 30
0.0
 10
135.8697428045742
 20
145.7247829496799
 30
0.0
 10
135.7229817369026
 20
145.9249429973729
 30
0.0
 10
135.4832030911292
 20
145.9249429973729
 30
0.0
 10
135.232400139803
 20
145.9249429973729
 30
0.0
 10
135.0997639636209
 20
145.7358072552327
 30
0.0
 10
135.0997639636209
 20
145.498781010239
 30
0.0
 10
135.0997639636209
 20
145.4481417822143
 30
0.0
 10
135.1025200400091
 20
145.4002549549694
 30
0.0
 10
135.108376702334
 20
145.3551242041126
 30
0.0
 10
135.108376702334
 20
145.3551242041126
 30
0.0
 10
134.9051160687043
 20
145.3551242041126
 30
0.0
 10
134.9051160687043
 20
145.3551242041126
 30
0.0
 10
134.9078721450925
 20
145.3747612483785
 30
0.0
 10
134.9078721450925
 20
145.3919867258048
 30
0.0
 10
134.9078721450925
 20
145.408523184134
 30
0.0
 10
134.9078721450925
 20
145.408523184134
 30
0.0
 10
134.9078721450925
 20
145.4595105973156
 30
0.0
 10
134.9078721450925
 20
145.4595105973156
 30
0.0
 10
134.9078721450925
 20
145.6627712309454
 30
0.0
 10
134.7952175227248
 20
145.8401936484358
 30
0.0
 10
134.5805880739937
 20
145.8401936484358
 30
0.0
 10
134.3690592111994
 20
145.8401936484358
 30
0.0
 10
134.2591606652199
 20
145.6879204279877
 30
0.0
 10
134.2591606652199
 20
145.4850043039065
 30
0.0
 10
134.2591606652199
 20
145.2252441043187
 30
0.0
 10
134.4593207129129
 20
145.1067328196261
 30
0.0
 10
134.6935872059099
 20
145.1067328196261
 30
0.0
 10
134.6935872059099
 20
145.1067328196261
 30
0.0
 10
134.6935872059099
 20
144.8669541738527
 30
0.0
 10
134.6935872059099
 20
144.8669541738527
 30
0.0
 10
134.3129041547898
 20
144.8814199148781
 30
0.0
 10
134.0476318024256
 20
145.084339698972
 30
0.0
 10
134.0476318024256
 20
145.4850043039065
 30
0.0
 10
134.0476318024256
 20
145.8315809097227
 30
0.0
 10
134.2140299143631
 20
146.0940971856987
 30
0.0
 10
134.5836886599304
 20
146.0940971856987
 30
0.0
 10
134.7611110774208
 20
146.0940971856987
 30
0.0
 10
134.9106282214807
 20
145.9728298246179
 30
0.0
 10
134.9812526789283
 20
145.8178005277816
 30
0.0
 10
134.9812526789283
 20
145.8178005277816
 30
0.0
 10
134.9871093412532
 20
145.8178005277816
 30
0.0
 10
134.9871093412532
 20
145.8178005277816
 30
0.0
 10
135.0405083212746
 20
146.0630913263314
 30
0.0
 10
135.232400139803
 20
146.1788465346358
 30
0.0
 10
135.4721787855764
 20
146.1788465346358
 30
0.0
 10
135.8697428045742
 20
146.1788465346358
 30
0.0
 10
136.0812716673686
 20
145.8656873550266
 30
0.0
 10
136.0812716673686
 20
145.4905164566829
 30
0.0
 10
136.0812716673686
 20
145.084339698972
 30
0.0
 10
135.8442490979834
 20
144.8163112702195
 30
0.0
 10
135.4298041111078
 20
144.8249240089326
 30
0.0
 10
135.4298041111078
 20
144.8249240089326
 30
0.0
 10
135.4298041111078
 20
145.064702654706
 30
0.0
 10
135.4298041111078
 20
145.064702654706
 30
0.0
  0
HATCH
  5
1F8
330
1EE
100
AcDbEntity
  8
Sichtbar schmal (ANSI)
 62
   250
420
  2039067
440
 33554687
100
AcDbHatch
 10
0.0
 20
0.0
 30
0.0
210
0.0
220
0.0
230
1.0
  2
SOLID
 70
     1
 71
     1
 91
        1
 92
        1
 93
        1
 72
     4
 94
        3
 73
     0
 74
     0
 95
       62
 96
       58
 40
0.0
 40
0.0
 40
0.0
 40
0.0
 40
1.0
 40
1.0
 40
1.0
 40
2.0
 40
2.0
 40
2.0
 40
3.0
 40
3.0
 40
3.0
 40
4.0
 40
4.0
 40
4.0
 40
5.0
 40
5.0
 40
5.0
 40
6.0
 40
6.0
 40
6.0
 40
7.0
 40
7.0
 40
7.0
 40
8.0
 40
8.0
 40
8.0
 40
9.0
 40
9.0
 40
9.0
 40
10.0
 40
10.0
 40
10.0
 40
11.0
 40
11.0
 40
11.0
 40
12.0
 40
12.0
 40
12.0
 40
13.0
 40
13.0
 40
13.0
 40
14.0
 40
14.0
 40
14.0
 40
15.0
 40
15.0
 40
15.0
 40
16.0
 40
16.0
 40
16.0
 40
17.0
 40
17.0
 40
17.0
 40
18.0
 40
18.0
 40
18.0
 40
19.0
 40
19.0
 40
19.0
 40
19.0
 10
135.4298041111078
 20
145.064702654706
 10
135.6892198011471
 20
145.0729708838706
 10
135.8697428045742
 20
145.2169758751541
 10
135.8697428045742
 20
145.4905164566829
 10
135.8697428045742
 20
145.7247829496799
 10
135.7229817369026
 20
145.9249429973729
 10
135.4832030911292
 20
145.9249429973729
 10
135.232400139803
 20
145.9249429973729
 10
135.0997639636209
 20
145.7358072552327
 10
135.0997639636209
 20
145.498781010239
 10
135.0997639636209
 20
145.4481417822143
 10
135.1025200400091
 20
145.4002549549694
 10
135.108376702334
 20
145.3551242041126
 10
135.108376702334
 20
145.3551242041126
 10
134.9051160687043
 20
145.3551242041126
 10
134.9051160687043
 20
145.3551242041126
 10
134.9078721450925
 20
145.3747612483785
 10
134.9078721450925
 20
145.3919867258048
 10
134.9078721450925
 20
145.408523184134
 10
134.9078721450925
 20
145.408523184134
 10
134.9078721450925
 20
145.4595105973156
 10
134.9078721450925
 20
145.4595105973156
 10
134.9078721450925
 20
145.6627712309454
 10
134.7952175227248
 20
145.8401936484358
 10
134.5805880739937
 20
145.8401936484358
 10
134.3690592111994
 20
145.8401936484358
 10
134.2591606652199
 20
145.6879204279877
 10
134.2591606652199
 20
145.4850043039065
 10
134.2591606652199
 20
145.2252441043187
 10
134.4593207129129
 20
145.1067328196261
 10
134.6935872059099
 20
145.1067328196261
 10
134.6935872059099
 20
145.1067328196261
 10
134.6935872059099
 20
144.8669541738527
 10
134.6935872059099
 20
144.8669541738527
 10
134.3129041547898
 20
144.8814199148781
 10
134.0476318024256
 20
145.084339698972
 10
134.0476318024256
 20
145.4850043039065
 10
134.0476318024256
 20
145.8315809097227
 10
134.2140299143631
 20
146.0940971856987
 10
134.5836886599304
 20
146.0940971856987
 10
134.7611110774208
 20
146.0940971856987
 10
134.9106282214807
 20
145.9728298246179
 10
134.9812526789283
 20
145.8178005277816
 10
134.9812526789283
 20
145.8178005277816
 10
134.9871093412532
 20
145.8178005277816
 10
134.9871093412532
 20
145.8178005277816
 10
135.0405083212746
 20
146.0630913263314
 10
135.232400139803
 20
146.1788465346358
 10
135.4721787855764
 20
146.1788465346358
 10
135.8697428045742
 20
146.1788465346358
 10
136.0812716673686
 20
145.8656873550266
 10
136.0812716673686
 20
145.4905164566829
 10
136.0812716673686
 20
145.084339698972
 10
135.8442490979834
 20
144.8163112702195
 10
135.4298041111078
 20
144.8249240089326
 10
135.4298041111078
 20
144.8249240089326
 10
135.4298041111078
 20
145.064702654706
 10
135.4298041111078
 20
145.064702654706
 97
        0
 97
        1
330
1F7
 75
     2
 76
     1
 98
        1
 10
0.0
 20
0.0
450
        0
451
        0
460
0.0
461
0.0
452
        0
462
0.0
453
        0
470

  0
SPLINE
  5
1F9
330
1EE
100
AcDbEntity
  8
Sichtbar schmal (ANSI)
100
AcDbSpline
210
0.0
220
0.0
230
1.0
 70
     9
 71
     3
 72
    62
 73
    58
 74
     0
 42
0.0000000001
 43
0.0000000001
 40
0.0
 40
0.0
 40
0.0
 40
0.0
 40
1.0
 40
1.0
 40
1.0
 40
2.0
 40
2.0
 40
2.0
 40
3.0
 40
3.0
 40
3.0
 40
4.0
 40
4.0
 40
4.0
 40
5.0
 40
5.0
 40
5.0
 40
6.0
 40
6.0
 40
6.0
 40
7.0
 40
7.0
 40
7.0
 40
8.0
 40
8.0
 40
8.0
 40
9.0
 40
9.0
 40
9.0
 40
10.0
 40
10.0
 40
10.0
 40
11.0
 40
11.0
 40
11.0
 40
12.0
 40
12.0
 40
12.0
 40
13.0
 40
13.0
 40
13.0
 40
14.0
 40
14.0
 40
14.0
 40
15.0
 40
15.0
 40
15.0
 40
16.0
 40
16.0
 40
16.0
 40
17.0
 40
17.0
 40
17.0
 40
18.0
 40
18.0
 40
18.0
 40
19.0
 40
19.0
 40
19.0
 40
19.0
 10
135.4298041111078
 20
146.6335991386888
 30
0.0
 10
135.6892198011471
 20
146.6422118774019
 30
0.0
 10
135.8697428045742
 20
146.7858723591368
 30
0.0
 10
135.8697428045742
 20
147.0597574502142
 30
0.0
 10
135.8697428045742
 20
147.2936794336627
 30
0.0
 10
135.7229817369026
 20
147.4941839909042
 30
0.0
 10
135.4832030911292
 20
147.4941839909042
 30
0.0
 10
135.232400139803
 20
147.4941839909042
 30
0.0
 10
135.0997639636209
 20
147.305048248764
 30
0.0
 10
135.0997639636209
 20
147.0683701889273
 30
0.0
 10
135.0997639636209
 20
147.0173827757456
 30
0.0
 10
135.1025200400091
 20
146.9694959485007
 30
0.0
 10
135.108376702334
 20
146.9243651976439
 30
0.0
 10
135.108376702334
 20
146.9243651976439
 30
0.0
 10
134.9051160687043
 20
146.9243651976439
 30
0.0
 10
134.9051160687043
 20
146.9243651976439
 30
0.0
 10
134.9078721450925
 20
146.9440022419098
 30
0.0
 10
134.9078721450925
 20
146.9608832097875
 30
0.0
 10
134.9078721450925
 20
146.9781086872138
 30
0.0
 10
134.9078721450925
 20
146.9781086872138
 30
0.0
 10
134.9078721450925
 20
147.028751590847
 30
0.0
 10
134.9078721450925
 20
147.028751590847
 30
0.0
 10
134.9078721450925
 20
147.2316677149282
 30
0.0
 10
134.7952175227248
 20
147.4094346419671
 30
0.0
 10
134.5805880739937
 20
147.4094346419671
 30
0.0
 10
134.3690592111994
 20
147.4094346419671
 30
0.0
 10
134.2591606652199
 20
147.257161421519
 30
0.0
 10
134.2591606652199
 20
147.0539007878893
 30
0.0
 10
134.2591606652199
 20
146.79448509785
 30
0.0
 10
134.4593207129129
 20
146.6763183227059
 30
0.0
 10
134.6935872059099
 20
146.6763183227059
 30
0.0
 10
134.6935872059099
 20
146.6763183227059
 30
0.0
 10
134.6935872059099
 20
146.4365396769325
 30
0.0
 10
134.6935872059099
 20
146.4365396769325
 30
0.0
 10
134.3129041547898
 20
146.4503200588735
 30
0.0
 10
134.0476318024256
 20
146.6535806925033
 30
0.0
 10
134.0476318024256
 20
147.0539007878893
 30
0.0
 10
134.0476318024256
 20
147.4011664128025
 30
0.0
 10
134.2140299143631
 20
147.66333817923
 30
0.0
 10
134.5836886599304
 20
147.66333817923
 30
0.0
 10
134.7611110774208
 20
147.66333817923
 30
0.0
 10
134.9106282214807
 20
147.5420708181492
 30
0.0
 10
134.9812526789283
 20
147.3866970117644
 30
0.0
 10
134.9812526789283
 20
147.3866970117644
 30
0.0
 10
134.9871093412532
 20
147.3866970117644
 30
0.0
 10
134.9871093412532
 20
147.3866970117644
 30
0.0
 10
135.0405083212746
 20
147.6323323198627
 30
0.0
 10
135.232400139803
 20
147.7477392861967
 30
0.0
 10
135.4721787855764
 20
147.7477392861967
 30
0.0
 10
135.8697428045742
 20
147.7477392861967
 30
0.0
 10
136.0812716673686
 20
147.4349283485579
 30
0.0
 10
136.0812716673686
 20
147.0597574502142
 30
0.0
 10
136.0812716673686
 20
146.6535806925033
 30
0.0
 10
135.8442490979834
 20
146.3855522637508
 30
0.0
 10
135.4298041111078
 20
146.3938204929154
 30
0.0
 10
135.4298041111078
 20
146.3938204929154
 30
0.0
 10
135.4298041111078
 20
146.6335991386888
 30
0.0
 10
135.4298041111078
 20
146.6335991386888
 30
0.0
  0
HATCH
  5
1FA
330
1EE
100
AcDbEntity
  8
Sichtbar schmal (ANSI)
 62
   250
420
  2039067
440
 33554687
100
AcDbHatch
 10
0.0
 20
0.0
 30
0.0
210
0.0
220
0.0
230
1.0
  2
SOLID
 70
     1
 71
     1
 91
        1
 92
        1
 93
        1
 72
     4
 94
        3
 73
     0
 74
     0
 95
       62
 96
       58
 40
0.0
 40
0.0
 40
0.0
 40
0.0
 40
1.0
 40
1.0
 40
1.0
 40
2.0
 40
2.0
 40
2.0
 40
3.0
 40
3.0
 40
3.0
 40
4.0
 40
4.0
 40
4.0
 40
5.0
 40
5.0
 40
5.0
 40
6.0
 40
6.0
 40
6.0
 40
7.0
 40
7.0
 40
7.0
 40
8.0
 40
8.0
 40
8.0
 40
9.0
 40
9.0
 40
9.0
 40
10.0
 40
10.0
 40
10.0
 40
11.0
 40
11.0
 40
11.0
 40
12.0
 40
12.0
 40
12.0
 40
13.0
 40
13.0
 40
13.0
 40
14.0
 40
14.0
 40
14.0
 40
15.0
 40
15.0
 40
15.0
 40
16.0
 40
16.0
 40
16.0
 40
17.0
 40
17.0
 40
17.0
 40
18.0
 40
18.0
 40
18.0
 40
19.0
 40
19.0
 40
19.0
 40
19.0
 10
135.4298041111078
 20
146.6335991386888
 10
135.6892198011471
 20
146.6422118774019
 10
135.8697428045742
 20
146.7858723591368
 10
135.8697428045742
 20
147.0597574502142
 10
135.8697428045742
 20
147.2936794336627
 10
135.7229817369026
 20
147.4941839909042
 10
135.4832030911292
 20
147.4941839909042
 10
135.232400139803
 20
147.4941839909042
 10
135.0997639636209
 20
147.305048248764
 10
135.0997639636209
 20
147.0683701889273
 10
135.0997639636209
 20
147.0173827757456
 10
135.1025200400091
 20
146.9694959485007
 10
135.108376702334
 20
146.9243651976439
 10
135.108376702334
 20
146.9243651976439
 10
134.9051160687043
 20
146.9243651976439
 10
134.9051160687043
 20
146.9243651976439
 10
134.9078721450925
 20
146.9440022419098
 10
134.9078721450925
 20
146.9608832097875
 10
134.9078721450925
 20
146.9781086872138
 10
134.9078721450925
 20
146.9781086872138
 10
134.9078721450925
 20
147.028751590847
 10
134.9078721450925
 20
147.028751590847
 10
134.9078721450925
 20
147.2316677149282
 10
134.7952175227248
 20
147.4094346419671
 10
134.5805880739937
 20
147.4094346419671
 10
134.3690592111994
 20
147.4094346419671
 10
134.2591606652199
 20
147.257161421519
 10
134.2591606652199
 20
147.0539007878893
 10
134.2591606652199
 20
146.79448509785
 10
134.4593207129129
 20
146.6763183227059
 10
134.6935872059099
 20
146.6763183227059
 10
134.6935872059099
 20
146.6763183227059
 10
134.6935872059099
 20
146.4365396769325
 10
134.6935872059099
 20
146.4365396769325
 10
134.3129041547898
 20
146.4503200588735
 10
134.0476318024256
 20
146.6535806925033
 10
134.0476318024256
 20
147.0539007878893
 10
134.0476318024256
 20
147.4011664128025
 10
134.2140299143631
 20
147.66333817923
 10
134.5836886599304
 20
147.66333817923
 10
134.7611110774208
 20
147.66333817923
 10
134.9106282214807
 20
147.5420708181492
 10
134.9812526789283
 20
147.3866970117644
 10
134.9812526789283
 20
147.3866970117644
 10
134.9871093412532
 20
147.3866970117644
 10
134.9871093412532
 20
147.3866970117644
 10
135.0405083212746
 20
147.6323323198627
 10
135.232400139803
 20
147.7477392861967
 10
135.4721787855764
 20
147.7477392861967
 10
135.8697428045742
 20
147.7477392861967
 10
136.0812716673686
 20
147.4349283485579
 10
136.0812716673686
 20
147.0597574502142
 10
136.0812716673686
 20
146.6535806925033
 10
135.8442490979834
 20
146.3855522637508
 10
135.4298041111078
 20
146.3938204929154
 10
135.4298041111078
 20
146.3938204929154
 10
135.4298041111078
 20
146.6335991386888
 10
135.4298041111078
 20
146.6335991386888
 97
        0
 97
        1
330
1F9
 75
     2
 76
     1
 98
        1
 10
0.0
 20
0.0
450
        0
451
        0
460
0.0
461
0.0
452
        0
462
0.0
453
        0
470

  0
ENDBLK
  5
1F1
330
1EE
100
AcDbEntity
  8
0
100
AcDbBlockEnd
  0
BLOCK
  5
1FD
330
1FB
100
AcDbEntity
  8
0
100
AcDbBlockBegin
  2
Block_26
 70
     0
 10
0.0
 20
0.0
 30
0.0
  3
Block_26
  1

  0
INSERT
  5
200
330
1FB
100
AcDbEntity
  8
Sichtbar schmal (ANSI)
100
AcDbBlockReference
  2
Block_27
 10
0.0
 20
0.0
 30
0.0
  0
ENDBLK
  5
1FE
330
1FB
100
AcDbEntity
  8
0
100
AcDbBlockEnd
  0
BLOCK
  5
201
330
1FF
100
AcDbEntity
  8
0
100
AcDbBlockBegin
  2
Block_27
 70
     0
 10
0.0
 20
0.0
 30
0.0
  3
Block_27
  1

  0
SPLINE
  5
203
330
1FF
100
AcDbEntity
  8
Sichtbar schmal (ANSI)
100
AcDbSpline
210
0.0
220
0.0
230
1.0
 70
     9
 71
     3
 72
    62
 73
    58
 74
     0
 42
0.0000000001
 43
0.0000000001
 40
0.0
 40
0.0
 40
0.0
 40
0.0
 40
1.0
 40
1.0
 40
1.0
 40
2.0
 40
2.0
 40
2.0
 40
3.0
 40
3.0
 40
3.0
 40
4.0
 40
4.0
 40
4.0
 40
5.0
 40
5.0
 40
5.0
 40
6.0
 40
6.0
 40
6.0
 40
7.0
 40
7.0
 40
7.0
 40
8.0
 40
8.0
 40
8.0
 40
9.0
 40
9.0
 40
9.0
 40
10.0
 40
10.0
 40
10.0
 40
11.0
 40
11.0
 40
11.0
 40
12.0
 40
12.0
 40
12.0
 40
13.0
 40
13.0
 40
13.0
 40
14.0
 40
14.0
 40
14.0
 40
15.0
 40
15.0
 40
15.0
 40
16.0
 40
16.0
 40
16.0
 40
17.0
 40
17.0
 40
17.0
 40
18.0
 40
18.0
 40
18.0
 40
19.0
 40
19.0
 40
19.0
 40
19.0
 10
125.9061821516832
 20
124.4182454116038
 30
0.0
 10
126.1655978417225
 20
124.4268581503169
 30
0.0
 10
126.3461208451496
 20
124.5705186320518
 30
0.0
 10
126.3461208451496
 20
124.8444037231291
 30
0.0
 10
126.3461208451496
 20
125.0783257065776
 30
0.0
 10
126.1993597774779
 20
125.2788302638192
 30
0.0
 10
125.9599256412531
 20
125.2788302638192
 30
0.0
 10
125.7087781803783
 20
125.2788302638192
 30
0.0
 10
125.5761420041962
 20
125.0896945216789
 30
0.0
 10
125.5761420041962
 20
124.8530164618423
 30
0.0
 10
125.5761420041962
 20
124.8020290486606
 30
0.0
 10
125.5788980805844
 20
124.7541422214156
 30
0.0
 10
125.5847547429093
 20
124.7090114705588
 30
0.0
 10
125.5847547429093
 20
124.7090114705588
 30
0.0
 10
125.3814941092796
 20
124.7090114705588
 30
0.0
 10
125.3814941092796
 20
124.7090114705588
 30
0.0
 10
125.3842501856678
 20
124.7286485148248
 30
0.0
 10
125.3842501856678
 20
124.7455294827025
 30
0.0
 10
125.3842501856678
 20
124.7627549601287
 30
0.0
 10
125.3842501856678
 20
124.7627549601287
 30
0.0
 10
125.3842501856678
 20
124.8133978637619
 30
0.0
 10
125.3842501856678
 20
124.8133978637619
 30
0.0
 10
125.3842501856678
 20
125.0163139878431
 30
0.0
 10
125.2715955633001
 20
125.194080914882
 30
0.0
 10
125.0573106241176
 20
125.194080914882
 30
0.0
 10
124.8454372517747
 20
125.194080914882
 30
0.0
 10
124.7355387057953
 20
125.041807694434
 30
0.0
 10
124.7355387057953
 20
124.8385470608042
 30
0.0
 10
124.7355387057953
 20
124.5791313707649
 30
0.0
 10
124.9356987534883
 20
124.4609645956209
 30
0.0
 10
125.1699652464853
 20
124.4609645956209
 30
0.0
 10
125.1699652464853
 20
124.4609645956209
 30
0.0
 10
125.1699652464853
 20
124.2211859498475
 30
0.0
 10
125.1699652464853
 20
124.2211859498475
 30
0.0
 10
124.7892821953652
 20
124.2349663317884
 30
0.0
 10
124.5240098430009
 20
124.4382269654182
 30
0.0
 10
124.5240098430009
 20
124.8385470608042
 30
0.0
 10
124.5240098430009
 20
125.1858126857174
 30
0.0
 10
124.6904079549385
 20
125.4479844521449
 30
0.0
 10
125.0600667005058
 20
125.4479844521449
 30
0.0
 10
125.2378336275447
 20
125.4479844521449
 30
0.0
 10
125.387006262056
 20
125.3267170910641
 30
0.0
 10
125.4576307195036
 20
125.1713432846794
 30
0.0
 10
125.4576307195036
 20
125.1713432846794
 30
0.0
 10
125.46314287228
 20
125.1713432846794
 30
0.0
 10
125.46314287228
 20
125.1713432846794
 30
0.0
 10
125.5168863618499
 20
125.4169785927777
 30
0.0
 10
125.7087781803783
 20
125.5323892915336
 30
0.0
 10
125.9485568261517
 20
125.5323892915336
 30
0.0
 10
126.3461208451496
 20
125.5323892915336
 30
0.0
 10
126.5576497079439
 20
125.2195746214729
 30
0.0
 10
126.5576497079439
 20
124.8444037231291
 30
0.0
 10
126.5576497079439
 20
124.4382269654182
 30
0.0
 10
126.3209716481072
 20
124.1701985366658
 30
0.0
 10
125.9061821516832
 20
124.1784667658304
 30
0.0
 10
125.9061821516832
 20
124.1784667658304
 30
0.0
 10
125.9061821516832
 20
124.4182454116038
 30
0.0
 10
125.9061821516832
 20
124.4182454116038
 30
0.0
  0
HATCH
  5
204
330
1FF
100
AcDbEntity
  8
Sichtbar schmal (ANSI)
 62
   250
420
  2039067
440
 33554687
100
AcDbHatch
 10
0.0
 20
0.0
 30
0.0
210
0.0
220
0.0
230
1.0
  2
SOLID
 70
     1
 71
     1
 91
        1
 92
        1
 93
        1
 72
     4
 94
        3
 73
     0
 74
     0
 95
       62
 96
       58
 40
0.0
 40
0.0
 40
0.0
 40
0.0
 40
1.0
 40
1.0
 40
1.0
 40
2.0
 40
2.0
 40
2.0
 40
3.0
 40
3.0
 40
3.0
 40
4.0
 40
4.0
 40
4.0
 40
5.0
 40
5.0
 40
5.0
 40
6.0
 40
6.0
 40
6.0
 40
7.0
 40
7.0
 40
7.0
 40
8.0
 40
8.0
 40
8.0
 40
9.0
 40
9.0
 40
9.0
 40
10.0
 40
10.0
 40
10.0
 40
11.0
 40
11.0
 40
11.0
 40
12.0
 40
12.0
 40
12.0
 40
13.0
 40
13.0
 40
13.0
 40
14.0
 40
14.0
 40
14.0
 40
15.0
 40
15.0
 40
15.0
 40
16.0
 40
16.0
 40
16.0
 40
17.0
 40
17.0
 40
17.0
 40
18.0
 40
18.0
 40
18.0
 40
19.0
 40
19.0
 40
19.0
 40
19.0
 10
125.9061821516832
 20
124.4182454116038
 10
126.1655978417225
 20
124.4268581503169
 10
126.3461208451496
 20
124.5705186320518
 10
126.3461208451496
 20
124.8444037231291
 10
126.3461208451496
 20
125.0783257065776
 10
126.1993597774779
 20
125.2788302638192
 10
125.9599256412531
 20
125.2788302638192
 10
125.7087781803783
 20
125.2788302638192
 10
125.5761420041962
 20
125.0896945216789
 10
125.5761420041962
 20
124.8530164618423
 10
125.5761420041962
 20
124.8020290486606
 10
125.5788980805844
 20
124.7541422214156
 10
125.5847547429093
 20
124.7090114705588
 10
125.5847547429093
 20
124.7090114705588
 10
125.3814941092796
 20
124.7090114705588
 10
125.3814941092796
 20
124.7090114705588
 10
125.3842501856678
 20
124.7286485148248
 10
125.3842501856678
 20
124.7455294827025
 10
125.3842501856678
 20
124.7627549601287
 10
125.3842501856678
 20
124.7627549601287
 10
125.3842501856678
 20
124.8133978637619
 10
125.3842501856678
 20
124.8133978637619
 10
125.3842501856678
 20
125.0163139878431
 10
125.2715955633001
 20
125.194080914882
 10
125.0573106241176
 20
125.194080914882
 10
124.8454372517747
 20
125.194080914882
 10
124.7355387057953
 20
125.041807694434
 10
124.7355387057953
 20
124.8385470608042
 10
124.7355387057953
 20
124.5791313707649
 10
124.9356987534883
 20
124.4609645956209
 10
125.1699652464853
 20
124.4609645956209
 10
125.1699652464853
 20
124.4609645956209
 10
125.1699652464853
 20
124.2211859498475
 10
125.1699652464853
 20
124.2211859498475
 10
124.7892821953652
 20
124.2349663317884
 10
124.5240098430009
 20
124.4382269654182
 10
124.5240098430009
 20
124.8385470608042
 10
124.5240098430009
 20
125.1858126857174
 10
124.6904079549385
 20
125.4479844521449
 10
125.0600667005058
 20
125.4479844521449
 10
125.2378336275447
 20
125.4479844521449
 10
125.387006262056
 20
125.3267170910641
 10
125.4576307195036
 20
125.1713432846794
 10
125.4576307195036
 20
125.1713432846794
 10
125.46314287228
 20
125.1713432846794
 10
125.46314287228
 20
125.1713432846794
 10
125.5168863618499
 20
125.4169785927777
 10
125.7087781803783
 20
125.5323892915336
 10
125.9485568261517
 20
125.5323892915336
 10
126.3461208451496
 20
125.5323892915336
 10
126.5576497079439
 20
125.2195746214729
 10
126.5576497079439
 20
124.8444037231291
 10
126.5576497079439
 20
124.4382269654182
 10
126.3209716481072
 20
124.1701985366658
 10
125.9061821516832
 20
124.1784667658304
 10
125.9061821516832
 20
124.1784667658304
 10
125.9061821516832
 20
124.4182454116038
 10
125.9061821516832
 20
124.4182454116038
 97
        0
 97
        1
330
203
 75
     2
 76
     1
 98
        1
 10
0.0
 20
0.0
450
        0
451
        0
460
0.0
461
0.0
452
        0
462
0.0
453
        0
470

  0
SPLINE
  5
205
330
1FF
100
AcDbEntity
  8
Sichtbar schmal (ANSI)
100
AcDbSpline
210
0.0
220
0.0
230
1.0
 70
     9
 71
     3
 72
    53
 73
    49
 74
     0
 42
0.0000000001
 43
0.0000000001
 40
0.0
 40
0.0
 40
0.0
 40
0.0
 40
1.0
 40
1.0
 40
1.0
 40
2.0
 40
2.0
 40
2.0
 40
3.0
 40
3.0
 40
3.0
 40
4.0
 40
4.0
 40
4.0
 40
5.0
 40
5.0
 40
5.0
 40
6.0
 40
6.0
 40
6.0
 40
7.0
 40
7.0
 40
7.0
 40
8.0
 40
8.0
 40
8.0
 40
9.0
 40
9.0
 40
9.0
 40
10.0
 40
10.0
 40
10.0
 40
11.0
 40
11.0
 40
11.0
 40
12.0
 40
12.0
 40
12.0
 40
13.0
 40
13.0
 40
13.0
 40
14.0
 40
14.0
 40
14.0
 40
15.0
 40
15.0
 40
15.0
 40
16.0
 40
16.0
 40
16.0
 40
16.0
 10
125.9850748382954
 20
126.0016112966246
 30
0.0
 10
126.1910915483133
 20
126.0160806976626
 30
0.0
 10
126.3461208451496
 20
126.1821343000517
 30
0.0
 10
126.3461208451496
 20
126.421912945825
 30
0.0
 10
126.3461208451496
 20
126.6506672860457
 30
0.0
 10
126.1883354719251
 20
126.8449706714137
 30
0.0
 10
125.8724202159277
 20
126.8449706714137
 30
0.0
 10
125.6099039399517
 20
126.8449706714137
 30
0.0
 10
125.4183566309718
 20
126.6644476679867
 30
0.0
 10
125.4183566309718
 20
126.393663162846
 30
0.0
 10
125.4183566309718
 20
126.2386338660098
 30
0.0
 10
125.4944932411958
 20
126.1146104285408
 30
0.0
 10
125.6071478635635
 20
126.021592850439
 30
0.0
 10
125.6071478635635
 20
126.021592850439
 30
0.0
 10
125.5957790484621
 20
125.8155761404211
 30
0.0
 10
125.5957790484621
 20
125.8155761404211
 30
0.0
 10
125.5957790484621
 20
125.8155761404211
 30
0.0
 10
124.5577717787564
 20
126.0016112966246
 30
0.0
 10
124.5577717787564
 20
126.0016112966246
 30
0.0
 10
124.5577717787564
 20
126.0016112966246
 30
0.0
 10
124.5577717787564
 20
126.9889756626972
 30
0.0
 10
124.5577717787564
 20
126.9889756626972
 30
0.0
 10
124.5577717787564
 20
126.9889756626972
 30
0.0
 10
124.7693006415507
 20
126.9889756626972
 30
0.0
 10
124.7693006415507
 20
126.9889756626972
 30
0.0
 10
124.7693006415507
 20
126.9889756626972
 30
0.0
 10
124.7693006415507
 20
126.1821343000517
 30
0.0
 10
124.7693006415507
 20
126.1821343000517
 30
0.0
 10
124.7693006415507
 20
126.1821343000517
 30
0.0
 10
125.344976097136
 20
126.0753363400089
 30
0.0
 10
125.344976097136
 20
126.0753363400089
 30
0.0
 10
125.344976097136
 20
126.0753363400089
 30
0.0
 10
125.3504882499124
 20
126.0808484927853
 30
0.0
 10
125.3504882499124
 20
126.0808484927853
 30
0.0
 10
125.2516140094857
 20
126.1683539181107
 30
0.0
 10
125.2064832586289
 20
126.3178710621705
 30
0.0
 10
125.2064832586289
 20
126.4529188051923
 30
0.0
 10
125.2064832586289
 20
126.8084526592701
 30
0.0
 10
125.4321370129128
 20
127.0992187182252
 30
0.0
 10
125.8920572601936
 20
127.0992187182252
 30
0.0
 10
126.2307101463937
 20
127.0992187182252
 30
0.0
 10
126.5576497079439
 20
126.8649522252282
 30
0.0
 10
126.5576497079439
 20
126.3995198251709
 30
0.0
 10
126.5576497079439
 20
126.0525987098063
 30
0.0
 10
126.3461208451496
 20
125.7704453895643
 30
0.0
 10
125.9850748382954
 20
125.7618326508512
 30
0.0
 10
125.9850748382954
 20
125.7618326508512
 30
0.0
 10
125.9850748382954
 20
126.0016112966246
 30
0.0
 10
125.9850748382954
 20
126.0016112966246
 30
0.0
  0
HATCH
  5
206
330
1FF
100
AcDbEntity
  8
Sichtbar schmal (ANSI)
 62
   250
420
  2039067
440
 33554687
100
AcDbHatch
 10
0.0
 20
0.0
 30
0.0
210
0.0
220
0.0
230
1.0
  2
SOLID
 70
     1
 71
     1
 91
        1
 92
        1
 93
        1
 72
     4
 94
        3
 73
     0
 74
     0
 95
       53
 96
       49
 40
0.0
 40
0.0
 40
0.0
 40
0.0
 40
1.0
 40
1.0
 40
1.0
 40
2.0
 40
2.0
 40
2.0
 40
3.0
 40
3.0
 40
3.0
 40
4.0
 40
4.0
 40
4.0
 40
5.0
 40
5.0
 40
5.0
 40
6.0
 40
6.0
 40
6.0
 40
7.0
 40
7.0
 40
7.0
 40
8.0
 40
8.0
 40
8.0
 40
9.0
 40
9.0
 40
9.0
 40
10.0
 40
10.0
 40
10.0
 40
11.0
 40
11.0
 40
11.0
 40
12.0
 40
12.0
 40
12.0
 40
13.0
 40
13.0
 40
13.0
 40
14.0
 40
14.0
 40
14.0
 40
15.0
 40
15.0
 40
15.0
 40
16.0
 40
16.0
 40
16.0
 40
16.0
 10
125.9850748382954
 20
126.0016112966246
 10
126.1910915483133
 20
126.0160806976626
 10
126.3461208451496
 20
126.1821343000517
 10
126.3461208451496
 20
126.421912945825
 10
126.3461208451496
 20
126.6506672860457
 10
126.1883354719251
 20
126.8449706714137
 10
125.8724202159277
 20
126.8449706714137
 10
125.6099039399517
 20
126.8449706714137
 10
125.4183566309718
 20
126.6644476679867
 10
125.4183566309718
 20
126.393663162846
 10
125.4183566309718
 20
126.2386338660098
 10
125.4944932411958
 20
126.1146104285408
 10
125.6071478635635
 20
126.021592850439
 10
125.6071478635635
 20
126.021592850439
 10
125.5957790484621
 20
125.8155761404211
 10
125.5957790484621
 20
125.8155761404211
 10
125.5957790484621
 20
125.8155761404211
 10
124.5577717787564
 20
126.0016112966246
 10
124.5577717787564
 20
126.0016112966246
 10
124.5577717787564
 20
126.0016112966246
 10
124.5577717787564
 20
126.9889756626972
 10
124.5577717787564
 20
126.9889756626972
 10
124.5577717787564
 20
126.9889756626972
 10
124.7693006415507
 20
126.9889756626972
 10
124.7693006415507
 20
126.9889756626972
 10
124.7693006415507
 20
126.9889756626972
 10
124.7693006415507
 20
126.1821343000517
 10
124.7693006415507
 20
126.1821343000517
 10
124.7693006415507
 20
126.1821343000517
 10
125.344976097136
 20
126.0753363400089
 10
125.344976097136
 20
126.0753363400089
 10
125.344976097136
 20
126.0753363400089
 10
125.3504882499124
 20
126.0808484927853
 10
125.3504882499124
 20
126.0808484927853
 10
125.2516140094857
 20
126.1683539181107
 10
125.2064832586289
 20
126.3178710621705
 10
125.2064832586289
 20
126.4529188051923
 10
125.2064832586289
 20
126.8084526592701
 10
125.4321370129128
 20
127.0992187182252
 10
125.8920572601936
 20
127.0992187182252
 10
126.2307101463937
 20
127.0992187182252
 10
126.5576497079439
 20
126.8649522252282
 10
126.5576497079439
 20
126.3995198251709
 10
126.5576497079439
 20
126.0525987098063
 10
126.3461208451496
 20
125.7704453895643
 10
125.9850748382954
 20
125.7618326508512
 10
125.9850748382954
 20
125.7618326508512
 10
125.9850748382954
 20
126.0016112966246
 10
125.9850748382954
 20
126.0016112966246
 97
        0
 97
        1
330
205
 75
     2
 76
     1
 98
        1
 10
0.0
 20
0.0
450
        0
451
        0
460
0.0
461
0.0
452
        0
462
0.0
453
        0
470

  0
ENDBLK
  5
202
330
1FF
100
AcDbEntity
  8
0
100
AcDbBlockEnd
  0
BLOCK
  5
209
330
207
100
AcDbEntity
  8
0
100
AcDbBlockBegin
  2
Block_28
 70
     0
 10
0.0
 20
0.0
 30
0.0
  3
Block_28
  1

  0
SPLINE
  5
20B
330
207
100
AcDbEntity
  8
Sichtbar schmal (ANSI)
100
AcDbSpline
210
0.0
220
0.0
230
1.0
 70
    11
 71
     3
 72
    17
 73
    13
 74
     0
 42
0.0000000001
 43
0.0000000001
 40
0.0
 40
0.0
 40
0.0
 40
0.0
 40
1.0
 40
1.0
 40
1.0
 40
2.0
 40
2.0
 40
2.0
 40
3.0
 40
3.0
 40
3.0
 40
4.0
 40
4.0
 40
4.0
 40
4.0
 10
141.3457220783788
 20
142.0767713403488
 30
0.0
 10
141.3457220783788
 20
142.0767713403488
 30
0.0
 10
139.6841525258428
 20
142.0767713403488
 30
0.0
 10
139.6841525258428
 20
142.0767713403488
 30
0.0
 10
139.6841525258428
 20
142.0767713403488
 30
0.0
 10
139.6841525258428
 20
140.417957864201
 30
0.0
 10
139.6841525258428
 20
140.417957864201
 30
0.0
 10
139.6841525258428
 20
140.417957864201
 30
0.0
 10
141.3457220783788
 20
140.417957864201
 30
0.0
 10
141.3457220783788
 20
140.417957864201
 30
0.0
 10
141.3457220783788
 20
140.417957864201
 30
0.0
 10
141.3457220783788
 20
142.0767713403488
 30
0.0
 10
141.3457220783788
 20
142.0767713403488
 30
0.0
  0
SPLINE
  5
20C
330
207
100
AcDbEntity
  8
Sichtbar schmal (ANSI)
100
AcDbSpline
210
0.0
220
0.0
230
1.0
 70
    11
 71
     3
 72
    17
 73
    13
 74
     0
 42
0.0000000001
 43
0.0000000001
 40
0.0
 40
0.0
 40
0.0
 40
0.0
 40
1.0
 40
1.0
 40
1.0
 40
2.0
 40
2.0
 40
2.0
 40
3.0
 40
3.0
 40
3.0
 40
4.0
 40
4.0
 40
4.0
 40
4.0
 10
139.458498771559
 20
140.1898925430775
 30
0.0
 10
139.458498771559
 20
140.1898925430775
 30
0.0
 10
139.458498771559
 20
142.3024250946327
 30
0.0
 10
139.458498771559
 20
142.3024250946327
 30
0.0
 10
139.458498771559
 20
142.3024250946327
 30
0.0
 10
141.5741283325875
 20
142.3024250946327
 30
0.0
 10
141.5741283325875
 20
142.3024250946327
 30
0.0
 10
141.5741283325875
 20
142.3024250946327
 30
0.0
 10
141.5741283325875
 20
140.1898925430775
 30
0.0
 10
141.5741283325875
 20
140.1898925430775
 30
0.0
 10
141.5741283325875
 20
140.1898925430775
 30
0.0
 10
139.458498771559
 20
140.1898925430775
 30
0.0
 10
139.458498771559
 20
140.1898925430775
 30
0.0
  0
HATCH
  5
20D
330
207
100
AcDbEntity
  8
Sichtbar schmal (ANSI)
 62
    18
420
        0
440
 33554687
100
AcDbHatch
 10
0.0
 20
0.0
 30
0.0
210
0.0
220
0.0
230
1.0
  2
SOLID
 70
     1
 71
     1
 91
        2
 92
        1
 93
        1
 72
     4
 94
        3
 73
     0
 74
     0
 95
       17
 96
       13
 40
0.0
 40
0.0
 40
0.0
 40
0.0
 40
1.0
 40
1.0
 40
1.0
 40
2.0
 40
2.0
 40
2.0
 40
3.0
 40
3.0
 40
3.0
 40
4.0
 40
4.0
 40
4.0
 40
4.0
 10
141.3457220783788
 20
142.0767713403488
 10
141.3457220783788
 20
142.0767713403488
 10
139.6841525258428
 20
142.0767713403488
 10
139.6841525258428
 20
142.0767713403488
 10
139.6841525258428
 20
142.0767713403488
 10
139.6841525258428
 20
140.417957864201
 10
139.6841525258428
 20
140.417957864201
 10
139.6841525258428
 20
140.417957864201
 10
141.3457220783788
 20
140.417957864201
 10
141.3457220783788
 20
140.417957864201
 10
141.3457220783788
 20
140.417957864201
 10
141.3457220783788
 20
142.0767713403488
 10
141.3457220783788
 20
142.0767713403488
 97
        0
 97
        1
330
20B
 92
        1
 93
        1
 72
     4
 94
        3
 73
     0
 74
     0
 95
       17
 96
       13
 40
0.0
 40
0.0
 40
0.0
 40
0.0
 40
1.0
 40
1.0
 40
1.0
 40
2.0
 40
2.0
 40
2.0
 40
3.0
 40
3.0
 40
3.0
 40
4.0
 40
4.0
 40
4.0
 40
4.0
 10
139.458498771559
 20
140.1898925430775
 10
139.458498771559
 20
140.1898925430775
 10
139.458498771559
 20
142.3024250946327
 10
139.458498771559
 20
142.3024250946327
 10
139.458498771559
 20
142.3024250946327
 10
141.5741283325875
 20
142.3024250946327
 10
141.5741283325875
 20
142.3024250946327
 10
141.5741283325875
 20
142.3024250946327
 10
141.5741283325875
 20
140.1898925430775
 10
141.5741283325875
 20
140.1898925430775
 10
141.5741283325875
 20
140.1898925430775
 10
139.458498771559
 20
140.1898925430775
 10
139.458498771559
 20
140.1898925430775
 97
        0
 97
        1
330
20C
 75
     2
 76
     1
 98
        1
 10
0.0
 20
0.0
450
        0
451
        0
460
0.0
461
0.0
452
        0
462
0.0
453
        0
470

  0
SPLINE
  5
20E
330
207
100
AcDbEntity
  8
Sichtbar schmal (ANSI)
100
AcDbSpline
210
0.0
220
0.0
230
1.0
 70
     9
 71
     3
 72
    41
 73
    37
 74
     0
 42
0.0000000001
 43
0.0000000001
 40
0.0
 40
0.0
 40
0.0
 40
0.0
 40
1.0
 40
1.0
 40
1.0
 40
2.0
 40
2.0
 40
2.0
 40
3.0
 40
3.0
 40
3.0
 40
4.0
 40
4.0
 40
4.0
 40
5.0
 40
5.0
 40
5.0
 40
6.0
 40
6.0
 40
6.0
 40
7.0
 40
7.0
 40
7.0
 40
8.0
 40
8.0
 40
8.0
 40
9.0
 40
9.0
 40
9.0
 40
10.0
 40
10.0
 40
10.0
 40
11.0
 40
11.0
 40
11.0
 40
12.0
 40
12.0
 40
12.0
 40
12.0
 10
140.7562662408526
 20
143.720081886813
 30
0.0
 10
140.5447373780583
 20
144.0587347730131
 30
0.0
 10
140.4262260933657
 20
144.230645037727
 30
0.0
 10
140.1468288495119
 20
144.230645037727
 30
0.0
 10
139.9297878339411
 20
144.230645037727
 30
0.0
 10
139.7857828426577
 20
144.0556341870764
 30
0.0
 10
139.7857828426577
 20
143.844105324282
 30
0.0
 10
139.7857828426577
 20
143.5647080804282
 30
0.0
 10
140.0424424563088
 20
143.4461967957357
 30
0.0
 10
140.2822211020822
 20
143.4548095344488
 30
0.0
 10
140.2822211020822
 20
143.4548095344488
 30
0.0
 10
140.2822211020822
 20
143.2150308886754
 30
0.0
 10
140.2822211020822
 20
143.2150308886754
 30
0.0
 10
139.8760443443713
 20
143.1926377680213
 30
0.0
 10
139.5742539798634
 20
143.4351724901828
 30
0.0
 10
139.5742539798634
 20
143.8582302157715
 30
0.0
 10
139.5742539798634
 20
144.2051513311362
 30
0.0
 10
139.7775146134931
 20
144.4845449250033
 30
0.0
 10
140.1495849259001
 20
144.4845449250033
 30
0.0
 10
140.5023627035897
 20
144.4845449250033
 30
0.0
 10
140.6770290446918
 20
144.2475260056047
 30
0.0
 10
140.8351589274648
 20
143.999475492934
 30
0.0
 10
140.9846760715246
 20
143.7510877461803
 30
0.0
 10
141.1173122477068
 20
143.4830593174278
 30
0.0
 10
141.3626030462565
 20
143.4379285665711
 30
0.0
 10
141.3626030462565
 20
143.4379285665711
 30
0.0
 10
141.3626030462565
 20
144.4645670211755
 30
0.0
 10
141.3626030462565
 20
144.4645670211755
 30
0.0
 10
141.3626030462565
 20
144.4645670211755
 30
0.0
 10
141.5741283325875
 20
144.4645670211755
 30
0.0
 10
141.5741283325875
 20
144.4645670211755
 30
0.0
 10
141.5741283325875
 20
144.4645670211755
 30
0.0
 10
141.5741283325875
 20
143.1588758322658
 30
0.0
 10
141.5741283325875
 20
143.1588758322658
 30
0.0
 10
141.1031873562173
 20
143.1953938444095
 30
0.0
 10
140.9254204291783
 20
143.4379285665711
 30
0.0
 10
140.7562662408526
 20
143.720081886813
 30
0.0
  0
HATCH
  5
20F
330
207
100
AcDbEntity
  8
Sichtbar schmal (ANSI)
 62
   250
420
  2039067
440
 33554687
100
AcDbHatch
 10
0.0
 20
0.0
 30
0.0
210
0.0
220
0.0
230
1.0
  2
SOLID
 70
     1
 71
     1
 91
        1
 92
        1
 93
        1
 72
     4
 94
        3
 73
     0
 74
     0
 95
       41
 96
       37
 40
0.0
 40
0.0
 40
0.0
 40
0.0
 40
1.0
 40
1.0
 40
1.0
 40
2.0
 40
2.0
 40
2.0
 40
3.0
 40
3.0
 40
3.0
 40
4.0
 40
4.0
 40
4.0
 40
5.0
 40
5.0
 40
5.0
 40
6.0
 40
6.0
 40
6.0
 40
7.0
 40
7.0
 40
7.0
 40
8.0
 40
8.0
 40
8.0
 40
9.0
 40
9.0
 40
9.0
 40
10.0
 40
10.0
 40
10.0
 40
11.0
 40
11.0
 40
11.0
 40
12.0
 40
12.0
 40
12.0
 40
12.0
 10
140.7562662408526
 20
143.720081886813
 10
140.5447373780583
 20
144.0587347730131
 10
140.4262260933657
 20
144.230645037727
 10
140.1468288495119
 20
144.230645037727
 10
139.9297878339411
 20
144.230645037727
 10
139.7857828426577
 20
144.0556341870764
 10
139.7857828426577
 20
143.844105324282
 10
139.7857828426577
 20
143.5647080804282
 10
140.0424424563088
 20
143.4461967957357
 10
140.2822211020822
 20
143.4548095344488
 10
140.2822211020822
 20
143.4548095344488
 10
140.2822211020822
 20
143.2150308886754
 10
140.2822211020822
 20
143.2150308886754
 10
139.8760443443713
 20
143.1926377680213
 10
139.5742539798634
 20
143.4351724901828
 10
139.5742539798634
 20
143.8582302157715
 10
139.5742539798634
 20
144.2051513311362
 10
139.7775146134931
 20
144.4845449250033
 10
140.1495849259001
 20
144.4845449250033
 10
140.5023627035897
 20
144.4845449250033
 10
140.6770290446918
 20
144.2475260056047
 10
140.8351589274648
 20
143.999475492934
 10
140.9846760715246
 20
143.7510877461803
 10
141.1173122477068
 20
143.4830593174278
 10
141.3626030462565
 20
143.4379285665711
 10
141.3626030462565
 20
143.4379285665711
 10
141.3626030462565
 20
144.4645670211755
 10
141.3626030462565
 20
144.4645670211755
 10
141.3626030462565
 20
144.4645670211755
 10
141.5741283325875
 20
144.4645670211755
 10
141.5741283325875
 20
144.4645670211755
 10
141.5741283325875
 20
144.4645670211755
 10
141.5741283325875
 20
143.1588758322658
 10
141.5741283325875
 20
143.1588758322658
 10
141.1031873562173
 20
143.1953938444095
 10
140.9254204291783
 20
143.4379285665711
 10
140.7562662408526
 20
143.720081886813
 97
        0
 97
        1
330
20E
 75
     2
 76
     1
 98
        1
 10
0.0
 20
0.0
450
        0
451
        0
460
0.0
461
0.0
452
        0
462
0.0
453
        0
470

  0
SPLINE
  5
210
330
207
100
AcDbEntity
  8
Sichtbar schmal (ANSI)
100
AcDbSpline
210
0.0
220
0.0
230
1.0
 70
    11
 71
     3
 72
    17
 73
    13
 74
     0
 42
0.0000000001
 43
0.0000000001
 40
0.0
 40
0.0
 40
0.0
 40
0.0
 40
1.0
 40
1.0
 40
1.0
 40
2.0
 40
2.0
 40
2.0
 40
3.0
 40
3.0
 40
3.0
 40
4.0
 40
4.0
 40
4.0
 40
4.0
 10
140.8944145698111
 20
145.6166069514431
 30
0.0
 10
140.8944145698111
 20
145.6166069514431
 30
0.0
 10
139.9156629424516
 20
145.6166069514431
 30
0.0
 10
139.9156629424516
 20
145.6166069514431
 30
0.0
 10
139.9156629424516
 20
145.6166069514431
 30
0.0
 10
139.9156629424516
 20
145.6107502891181
 30
0.0
 10
139.9156629424516
 20
145.6107502891181
 30
0.0
 10
139.9156629424516
 20
145.6107502891181
 30
0.0
 10
140.8944145698111
 20
144.9451578413679
 30
0.0
 10
140.8944145698111
 20
144.9451578413679
 30
0.0
 10
140.8944145698111
 20
144.9451578413679
 30
0.0
 10
140.8944145698111
 20
145.6166069514431
 30
0.0
 10
140.8944145698111
 20
145.6166069514431
 30
0.0
  0
SPLINE
  5
211
330
207
100
AcDbEntity
  8
Sichtbar schmal (ANSI)
100
AcDbSpline
210
0.0
220
0.0
230
1.0
 70
    11
 71
     3
 72
    38
 73
    34
 74
     0
 42
0.0000000001
 43
0.0000000001
 40
0.0
 40
0.0
 40
0.0
 40
0.0
 40
1.0
 40
1.0
 40
1.0
 40
2.0
 40
2.0
 40
2.0
 40
3.0
 40
3.0
 40
3.0
 40
4.0
 40
4.0
 40
4.0
 40
5.0
 40
5.0
 40
5.0
 40
6.0
 40
6.0
 40
6.0
 40
7.0
 40
7.0
 40
7.0
 40
8.0
 40
8.0
 40
8.0
 40
9.0
 40
9.0
 40
9.0
 40
10.0
 40
10.0
 40
10.0
 40
11.0
 40
11.0
 40
11.0
 40
11.0
 10
140.8744330159967
 20
144.7391411313499
 30
0.0
 10
140.8744330159967
 20
144.7391411313499
 30
0.0
 10
139.5742539798634
 20
145.6503688871985
 30
0.0
 10
139.5742539798634
 20
145.6503688871985
 30
0.0
 10
139.5742539798634
 20
145.6503688871985
 30
0.0
 10
139.5742539798634
 20
145.8419161961784
 30
0.0
 10
139.5742539798634
 20
145.8419161961784
 30
0.0
 10
139.5742539798634
 20
145.8419161961784
 30
0.0
 10
140.8944145698111
 20
145.8419161961784
 30
0.0
 10
140.8944145698111
 20
145.8419161961784
 30
0.0
 10
140.8944145698111
 20
145.8419161961784
 30
0.0
 10
140.8944145698111
 20
146.112700701319
 30
0.0
 10
140.8944145698111
 20
146.112700701319
 30
0.0
 10
140.8944145698111
 20
146.112700701319
 30
0.0
 10
141.1059434326054
 20
146.112700701319
 30
0.0
 10
141.1059434326054
 20
146.112700701319
 30
0.0
 10
141.1059434326054
 20
146.112700701319
 30
0.0
 10
141.1059434326054
 20
145.8419161961784
 30
0.0
 10
141.1059434326054
 20
145.8419161961784
 30
0.0
 10
141.1059434326054
 20
145.8419161961784
 30
0.0
 10
141.5741283325875
 20
145.8419161961784
 30
0.0
 10
141.5741283325875
 20
145.8419161961784
 30
0.0
 10
141.5741283325875
 20
145.8419161961784
 30
0.0
 10
141.5741283325875
 20
145.6166069514431
 30
0.0
 10
141.5741283325875
 20
145.6166069514431
 30
0.0
 10
141.5741283325875
 20
145.6166069514431
 30
0.0
 10
141.1059434326054
 20
145.6166069514431
 30
0.0
 10
141.1059434326054
 20
145.6166069514431
 30
0.0
 10
141.1059434326054
 20
145.6166069514431
 30
0.0
 10
141.1059434326054
 20
144.7391411313499
 30
0.0
 10
141.1059434326054
 20
144.7391411313499
 30
0.0
 10
141.1059434326054
 20
144.7391411313499
 30
0.0
 10
140.8744330159967
 20
144.7391411313499
 30
0.0
 10
140.8744330159967
 20
144.7391411313499
 30
0.0
  0
HATCH
  5
212
330
207
100
AcDbEntity
  8
Sichtbar schmal (ANSI)
 62
   250
420
  2039067
440
 33554687
100
AcDbHatch
 10
0.0
 20
0.0
 30
0.0
210
0.0
220
0.0
230
1.0
  2
SOLID
 70
     1
 71
     1
 91
        2
 92
        1
 93
        1
 72
     4
 94
        3
 73
     0
 74
     0
 95
       17
 96
       13
 40
0.0
 40
0.0
 40
0.0
 40
0.0
 40
1.0
 40
1.0
 40
1.0
 40
2.0
 40
2.0
 40
2.0
 40
3.0
 40
3.0
 40
3.0
 40
4.0
 40
4.0
 40
4.0
 40
4.0
 10
140.8944145698111
 20
145.6166069514431
 10
140.8944145698111
 20
145.6166069514431
 10
139.9156629424516
 20
145.6166069514431
 10
139.9156629424516
 20
145.6166069514431
 10
139.9156629424516
 20
145.6166069514431
 10
139.9156629424516
 20
145.6107502891181
 10
139.9156629424516
 20
145.6107502891181
 10
139.9156629424516
 20
145.6107502891181
 10
140.8944145698111
 20
144.9451578413679
 10
140.8944145698111
 20
144.9451578413679
 10
140.8944145698111
 20
144.9451578413679
 10
140.8944145698111
 20
145.6166069514431
 10
140.8944145698111
 20
145.6166069514431
 97
        0
 97
        1
330
210
 92
        1
 93
        1
 72
     4
 94
        3
 73
     0
 74
     0
 95
       38
 96
       34
 40
0.0
 40
0.0
 40
0.0
 40
0.0
 40
1.0
 40
1.0
 40
1.0
 40
2.0
 40
2.0
 40
2.0
 40
3.0
 40
3.0
 40
3.0
 40
4.0
 40
4.0
 40
4.0
 40
5.0
 40
5.0
 40
5.0
 40
6.0
 40
6.0
 40
6.0
 40
7.0
 40
7.0
 40
7.0
 40
8.0
 40
8.0
 40
8.0
 40
9.0
 40
9.0
 40
9.0
 40
10.0
 40
10.0
 40
10.0
 40
11.0
 40
11.0
 40
11.0
 40
11.0
 10
140.8744330159967
 20
144.7391411313499
 10
140.8744330159967
 20
144.7391411313499
 10
139.5742539798634
 20
145.6503688871985
 10
139.5742539798634
 20
145.6503688871985
 10
139.5742539798634
 20
145.6503688871985
 10
139.5742539798634
 20
145.8419161961784
 10
139.5742539798634
 20
145.8419161961784
 10
139.5742539798634
 20
145.8419161961784
 10
140.8944145698111
 20
145.8419161961784
 10
140.8944145698111
 20
145.8419161961784
 10
140.8944145698111
 20
145.8419161961784
 10
140.8944145698111
 20
146.112700701319
 10
140.8944145698111
 20
146.112700701319
 10
140.8944145698111
 20
146.112700701319
 10
141.1059434326054
 20
146.112700701319
 10
141.1059434326054
 20
146.112700701319
 10
141.1059434326054
 20
146.112700701319
 10
141.1059434326054
 20
145.8419161961784
 10
141.1059434326054
 20
145.8419161961784
 10
141.1059434326054
 20
145.8419161961784
 10
141.5741283325875
 20
145.8419161961784
 10
141.5741283325875
 20
145.8419161961784
 10
141.5741283325875
 20
145.8419161961784
 10
141.5741283325875
 20
145.6166069514431
 10
141.5741283325875
 20
145.6166069514431
 10
141.5741283325875
 20
145.6166069514431
 10
141.1059434326054
 20
145.6166069514431
 10
141.1059434326054
 20
145.6166069514431
 10
141.1059434326054
 20
145.6166069514431
 10
141.1059434326054
 20
144.7391411313499
 10
141.1059434326054
 20
144.7391411313499
 10
141.1059434326054
 20
144.7391411313499
 10
140.8744330159967
 20
144.7391411313499
 10
140.8744330159967
 20
144.7391411313499
 97
        0
 97
        1
330
211
 75
     2
 76
     1
 98
        1
 10
0.0
 20
0.0
450
        0
451
        0
460
0.0
461
0.0
452
        0
462
0.0
453
        0
470

  0
SPLINE
  5
213
330
207
100
AcDbEntity
  8
Sichtbar schmal (ANSI)
100
AcDbSpline
210
0.0
220
0.0
230
1.0
 70
     9
 71
     3
 72
    62
 73
    58
 74
     0
 42
0.0000000001
 43
0.0000000001
 40
0.0
 40
0.0
 40
0.0
 40
0.0
 40
1.0
 40
1.0
 40
1.0
 40
2.0
 40
2.0
 40
2.0
 40
3.0
 40
3.0
 40
3.0
 40
4.0
 40
4.0
 40
4.0
 40
5.0
 40
5.0
 40
5.0
 40
6.0
 40
6.0
 40
6.0
 40
7.0
 40
7.0
 40
7.0
 40
8.0
 40
8.0
 40
8.0
 40
9.0
 40
9.0
 40
9.0
 40
10.0
 40
10.0
 40
10.0
 40
11.0
 40
11.0
 40
11.0
 40
12.0
 40
12.0
 40
12.0
 40
13.0
 40
13.0
 40
13.0
 40
14.0
 40
14.0
 40
14.0
 40
15.0
 40
15.0
 40
15.0
 40
16.0
 40
16.0
 40
16.0
 40
17.0
 40
17.0
 40
17.0
 40
18.0
 40
18.0
 40
18.0
 40
19.0
 40
19.0
 40
19.0
 40
19.0
 10
140.9564262885456
 20
146.553672923431
 30
0.0
 10
141.2158419785849
 20
146.5622856621441
 30
0.0
 10
141.396364982012
 20
146.7059461438791
 30
0.0
 10
141.396364982012
 20
146.9798312349564
 30
0.0
 10
141.396364982012
 20
147.2137532184049
 30
0.0
 10
141.2496039143404
 20
147.4142577756464
 30
0.0
 10
141.0101697781155
 20
147.4142577756464
 30
0.0
 10
140.7590223172408
 20
147.4142577756464
 30
0.0
 10
140.6263861410586
 20
147.2251220335062
 30
0.0
 10
140.6263861410586
 20
146.9884439736695
 30
0.0
 10
140.6263861410586
 20
146.9374565604878
 30
0.0
 10
140.6291422174469
 20
146.8895697332429
 30
0.0
 10
140.6349988797718
 20
146.8444389823861
 30
0.0
 10
140.6349988797718
 20
146.8444389823861
 30
0.0
 10
140.431738246142
 20
146.8444389823861
 30
0.0
 10
140.431738246142
 20
146.8444389823861
 30
0.0
 10
140.4344943225303
 20
146.864076026652
 30
0.0
 10
140.4344943225303
 20
146.8809569945297
 30
0.0
 10
140.4344943225303
 20
146.898182471956
 30
0.0
 10
140.4344943225303
 20
146.898182471956
 30
0.0
 10
140.4344943225303
 20
146.9488253755892
 30
0.0
 10
140.4344943225303
 20
146.9488253755892
 30
0.0
 10
140.4344943225303
 20
147.1517414996704
 30
0.0
 10
140.3218397001626
 20
147.3295084267093
 30
0.0
 10
140.10755476098
 20
147.3295084267093
 30
0.0
 10
139.8956813886372
 20
147.3295084267093
 30
0.0
 10
139.7857828426577
 20
147.1772352062612
 30
0.0
 10
139.7857828426577
 20
146.9739745726315
 30
0.0
 10
139.7857828426577
 20
146.7145588825922
 30
0.0
 10
139.9859428903507
 20
146.5963921074481
 30
0.0
 10
140.2202093833477
 20
146.5963921074481
 30
0.0
 10
140.2202093833477
 20
146.5963921074481
 30
0.0
 10
140.2202093833477
 20
146.3566134616747
 30
0.0
 10
140.2202093833477
 20
146.3566134616747
 30
0.0
 10
139.8395263322276
 20
146.3703938436157
 30
0.0
 10
139.5742539798634
 20
146.5736544772454
 30
0.0
 10
139.5742539798634
 20
146.9739745726315
 30
0.0
 10
139.5742539798634
 20
147.3212401975447
 30
0.0
 10
139.7406520918009
 20
147.5834119639722
 30
0.0
 10
140.1103108373682
 20
147.5834119639722
 30
0.0
 10
140.2880777644071
 20
147.5834119639722
 30
0.0
 10
140.4372503989185
 20
147.4621446028914
 30
0.0
 10
140.5078748563661
 20
147.3067670752246
 30
0.0
 10
140.5078748563661
 20
147.3067670752246
 30
0.0
 10
140.5133870091425
 20
147.3067670752246
 30
0.0
 10
140.5133870091425
 20
147.3067670752246
 30
0.0
 10
140.5671304987124
 20
147.5524061046049
 30
0.0
 10
140.7590223172408
 20
147.6678168033608
 30
0.0
 10
140.9988009630142
 20
147.6678168033608
 30
0.0
 10
141.396364982012
 20
147.6678168033608
 30
0.0
 10
141.6078938448063
 20
147.3550021333001
 30
0.0
 10
141.6078938448063
 20
146.9798312349564
 30
0.0
 10
141.6078938448063
 20
146.5736544772454
 30
0.0
 10
141.3712157849697
 20
146.305626048493
 30
0.0
 10
140.9564262885456
 20
146.3138942776576
 30
0.0
 10
140.9564262885456
 20
146.3138942776576
 30
0.0
 10
140.9564262885456
 20
146.553672923431
 30
0.0
 10
140.9564262885456
 20
146.553672923431
 30
0.0
  0
HATCH
  5
214
330
207
100
AcDbEntity
  8
Sichtbar schmal (ANSI)
 62
   250
420
  2039067
440
 33554687
100
AcDbHatch
 10
0.0
 20
0.0
 30
0.0
210
0.0
220
0.0
230
1.0
  2
SOLID
 70
     1
 71
     1
 91
        1
 92
        1
 93
        1
 72
     4
 94
        3
 73
     0
 74
     0
 95
       62
 96
       58
 40
0.0
 40
0.0
 40
0.0
 40
0.0
 40
1.0
 40
1.0
 40
1.0
 40
2.0
 40
2.0
 40
2.0
 40
3.0
 40
3.0
 40
3.0
 40
4.0
 40
4.0
 40
4.0
 40
5.0
 40
5.0
 40
5.0
 40
6.0
 40
6.0
 40
6.0
 40
7.0
 40
7.0
 40
7.0
 40
8.0
 40
8.0
 40
8.0
 40
9.0
 40
9.0
 40
9.0
 40
10.0
 40
10.0
 40
10.0
 40
11.0
 40
11.0
 40
11.0
 40
12.0
 40
12.0
 40
12.0
 40
13.0
 40
13.0
 40
13.0
 40
14.0
 40
14.0
 40
14.0
 40
15.0
 40
15.0
 40
15.0
 40
16.0
 40
16.0
 40
16.0
 40
17.0
 40
17.0
 40
17.0
 40
18.0
 40
18.0
 40
18.0
 40
19.0
 40
19.0
 40
19.0
 40
19.0
 10
140.9564262885456
 20
146.553672923431
 10
141.2158419785849
 20
146.5622856621441
 10
141.396364982012
 20
146.7059461438791
 10
141.396364982012
 20
146.9798312349564
 10
141.396364982012
 20
147.2137532184049
 10
141.2496039143404
 20
147.4142577756464
 10
141.0101697781155
 20
147.4142577756464
 10
140.7590223172408
 20
147.4142577756464
 10
140.6263861410586
 20
147.2251220335062
 10
140.6263861410586
 20
146.9884439736695
 10
140.6263861410586
 20
146.9374565604878
 10
140.6291422174469
 20
146.8895697332429
 10
140.6349988797718
 20
146.8444389823861
 10
140.6349988797718
 20
146.8444389823861
 10
140.431738246142
 20
146.8444389823861
 10
140.431738246142
 20
146.8444389823861
 10
140.4344943225303
 20
146.864076026652
 10
140.4344943225303
 20
146.8809569945297
 10
140.4344943225303
 20
146.898182471956
 10
140.4344943225303
 20
146.898182471956
 10
140.4344943225303
 20
146.9488253755892
 10
140.4344943225303
 20
146.9488253755892
 10
140.4344943225303
 20
147.1517414996704
 10
140.3218397001626
 20
147.3295084267093
 10
140.10755476098
 20
147.3295084267093
 10
139.8956813886372
 20
147.3295084267093
 10
139.7857828426577
 20
147.1772352062612
 10
139.7857828426577
 20
146.9739745726315
 10
139.7857828426577
 20
146.7145588825922
 10
139.9859428903507
 20
146.5963921074481
 10
140.2202093833477
 20
146.5963921074481
 10
140.2202093833477
 20
146.5963921074481
 10
140.2202093833477
 20
146.3566134616747
 10
140.2202093833477
 20
146.3566134616747
 10
139.8395263322276
 20
146.3703938436157
 10
139.5742539798634
 20
146.5736544772454
 10
139.5742539798634
 20
146.9739745726315
 10
139.5742539798634
 20
147.3212401975447
 10
139.7406520918009
 20
147.5834119639722
 10
140.1103108373682
 20
147.5834119639722
 10
140.2880777644071
 20
147.5834119639722
 10
140.4372503989185
 20
147.4621446028914
 10
140.5078748563661
 20
147.3067670752246
 10
140.5078748563661
 20
147.3067670752246
 10
140.5133870091425
 20
147.3067670752246
 10
140.5133870091425
 20
147.3067670752246
 10
140.5671304987124
 20
147.5524061046049
 10
140.7590223172408
 20
147.6678168033608
 10
140.9988009630142
 20
147.6678168033608
 10
141.396364982012
 20
147.6678168033608
 10
141.6078938448063
 20
147.3550021333001
 10
141.6078938448063
 20
146.9798312349564
 10
141.6078938448063
 20
146.5736544772454
 10
141.3712157849697
 20
146.305626048493
 10
140.9564262885456
 20
146.3138942776576
 10
140.9564262885456
 20
146.3138942776576
 10
140.9564262885456
 20
146.553672923431
 10
140.9564262885456
 20
146.553672923431
 97
        0
 97
        1
330
213
 75
     2
 76
     1
 98
        1
 10
0.0
 20
0.0
450
        0
451
        0
460
0.0
461
0.0
452
        0
462
0.0
453
        0
470

  0
ENDBLK
  5
20A
330
207
100
AcDbEntity
  8
0
100
AcDbBlockEnd
  0
BLOCK
  5
217
330
215
100
AcDbEntity
  8
0
100
AcDbBlockBegin
  2
Block_29
 70
     0
 10
0.0
 20
0.0
 30
0.0
  3
Block_29
  1

  0
INSERT
  5
21A
330
215
100
AcDbEntity
  8
Sichtbar schmal (ANSI)
100
AcDbBlockReference
  2
Block_30
 10
0.0
 20
0.0
 30
0.0
  0
ENDBLK
  5
218
330
215
100
AcDbEntity
  8
0
100
AcDbBlockEnd
  0
BLOCK
  5
21B
330
219
100
AcDbEntity
  8
0
100
AcDbBlockBegin
  2
Block_30
 70
     0
 10
0.0
 20
0.0
 30
0.0
  3
Block_30
  1

  0
LINE
  5
21D
330
219
100
AcDbEntity
  8
Sichtbar schmal (ANSI)
 62
    18
420
        0
370
     5
100
AcDbLine
 10
123.5088263308849
 20
127.8081440076259
 30
0.0
 11
123.5088263308849
 21
123.7190740487957
 31
0.0
  0
INSERT
  5
21F
330
219
100
AcDbEntity
  8
Sichtbar schmal (ANSI)
100
AcDbBlockReference
  2
Block_31
 10
0.0
 20
0.0
 30
0.0
  0
INSERT
  5
225
330
219
100
AcDbEntity
  8
Sichtbar schmal (ANSI)
100
AcDbBlockReference
  2
Block_32
 10
0.0
 20
0.0
 30
0.0
  0
ENDBLK
  5
21C
330
219
100
AcDbEntity
  8
0
100
AcDbBlockEnd
  0
BLOCK
  5
220
330
21E
100
AcDbEntity
  8
0
100
AcDbBlockBegin
  2
Block_31
 70
     0
 10
0.0
 20
0.0
 30
0.0
  3
Block_31
  1

  0
LWPOLYLINE
  5
222
330
21E
100
AcDbEntity
  8
Sichtbar schmal (ANSI)
100
AcDbPolyline
 90
        3
 70
     1
 43
0.0
 10
123.2875112437278
 20
127.1756890720743
 10
123.5081373117879
 20
128.8568633711061
 10
123.7301306521187
 20
127.1756890720743
  0
HATCH
  5
223
330
21E
100
AcDbEntity
  8
Sichtbar schmal (ANSI)
 62
    18
420
        0
440
 33554687
100
AcDbHatch
 10
0.0
 20
0.0
 30
0.0
210
0.0
220
0.0
230
1.0
  2
SOLID
 70
     1
 71
     1
 91
        1
 92
        1
 93
        3
 72
     1
 10
123.2875112437278
 20
127.1756890720743
 11
123.5081373117879
 21
128.8568633711061
 72
     1
 10
123.5081373117879
 20
128.8568633711061
 11
123.7301306521187
 21
127.1756890720743
 72
     1
 10
123.7301306521187
 20
127.1756890720743
 11
123.2875112437278
 21
127.1756890720743
 97
        1
330
222
 75
     2
 76
     1
 98
        1
 10
0.0
 20
0.0
450
        0
451
        0
460
0.0
461
0.0
452
        0
462
0.0
453
        0
470

  0
ENDBLK
  5
221
330
21E
100
AcDbEntity
  8
0
100
AcDbBlockEnd
  0
BLOCK
  5
226
330
224
100
AcDbEntity
  8
0
100
AcDbBlockBegin
  2
Block_32
 70
     0
 10
0.0
 20
0.0
 30
0.0
  3
Block_32
  1

  0
LWPOLYLINE
  5
228
330
224
100
AcDbEntity
  8
Sichtbar schmal (ANSI)
100
AcDbPolyline
 90
        3
 70
     1
 43
0.0
 10
123.2875112437278
 20
124.3515289843472
 10
123.5081373117879
 20
122.6703546853155
 10
123.7301306521187
 20
124.3515289843472
  0
HATCH
  5
229
330
224
100
AcDbEntity
  8
Sichtbar schmal (ANSI)
 62
    18
420
        0
440
 33554687
100
AcDbHatch
 10
0.0
 20
0.0
 30
0.0
210
0.0
220
0.0
230
1.0
  2
SOLID
 70
     1
 71
     1
 91
        1
 92
        1
 93
        3
 72
     1
 10
123.2875112437278
 20
124.3515289843472
 11
123.5081373117879
 21
122.6703546853155
 72
     1
 10
123.5081373117879
 20
122.6703546853155
 11
123.7301306521187
 21
124.3515289843472
 72
     1
 10
123.7301306521187
 20
124.3515289843472
 11
123.2875112437278
 21
124.3515289843472
 97
        1
330
228
 75
     2
 76
     1
 98
        1
 10
0.0
 20
0.0
450
        0
451
        0
460
0.0
461
0.0
452
        0
462
0.0
453
        0
470

  0
ENDBLK
  5
227
330
224
100
AcDbEntity
  8
0
100
AcDbBlockEnd
  0
BLOCK
  5
22C
330
22A
100
AcDbEntity
  8
0
100
AcDbBlockBegin
  2
Block_33
 70
     0
 10
0.0
 20
0.0
 30
0.0
  3
Block_33
  1

  0
INSERT
  5
22F
330
22A
100
AcDbEntity
  8
Sichtbar schmal (ANSI)
100
AcDbBlockReference
  2
Block_34
 10
0.0
 20
0.0
 30
0.0
  0
ENDBLK
  5
22D
330
22A
100
AcDbEntity
  8
0
100
AcDbBlockEnd
  0
BLOCK
  5
230
330
22E
100
AcDbEntity
  8
0
100
AcDbBlockBegin
  2
Block_34
 70
     0
 10
0.0
 20
0.0
 30
0.0
  3
Block_34
  1

  0
LINE
  5
232
330
22E
100
AcDbEntity
  8
Sichtbar schmal (ANSI)
 62
    18
420
        0
370
     5
100
AcDbLine
 10
138.7289782707106
 20
122.9950657007236
 30
0.0
 11
138.7289782707106
 21
165.2210304694912
 31
0.0
  0
INSERT
  5
234
330
22E
100
AcDbEntity
  8
Sichtbar schmal (ANSI)
100
AcDbBlockReference
  2
Block_35
 10
0.0
 20
0.0
 30
0.0
  0
INSERT
  5
23A
330
22E
100
AcDbEntity
  8
Sichtbar schmal (ANSI)
100
AcDbBlockReference
  2
Block_36
 10
0.0
 20
0.0
 30
0.0
  0
ENDBLK
  5
231
330
22E
100
AcDbEntity
  8
0
100
AcDbBlockEnd
  0
BLOCK
  5
235
330
233
100
AcDbEntity
  8
0
100
AcDbBlockBegin
  2
Block_35
 70
     0
 10
0.0
 20
0.0
 30
0.0
  3
Block_35
  1

  0
LWPOLYLINE
  5
237
330
233
100
AcDbEntity
  8
Sichtbar schmal (ANSI)
100
AcDbPolyline
 90
        3
 70
     1
 43
0.0
 10
138.9502933578677
 20
123.6275206362752
 10
138.7296672898076
 20
121.9463463372434
 10
138.5076739494768
 20
123.6275206362752
  0
HATCH
  5
238
330
233
100
AcDbEntity
  8
Sichtbar schmal (ANSI)
 62
    18
420
        0
440
 33554687
100
AcDbHatch
 10
0.0
 20
0.0
 30
0.0
210
0.0
220
0.0
230
1.0
  2
SOLID
 70
     1
 71
     1
 91
        1
 92
        1
 93
        3
 72
     1
 10
138.9502933578677
 20
123.6275206362752
 11
138.7296672898076
 21
121.9463463372434
 72
     1
 10
138.7296672898076
 20
121.9463463372434
 11
138.5076739494768
 21
123.6275206362752
 72
     1
 10
138.5076739494768
 20
123.6275206362752
 11
138.9502933578677
 21
123.6275206362752
 97
        1
330
237
 75
     2
 76
     1
 98
        1
 10
0.0
 20
0.0
450
        0
451
        0
460
0.0
461
0.0
452
        0
462
0.0
453
        0
470

  0
ENDBLK
  5
236
330
233
100
AcDbEntity
  8
0
100
AcDbBlockEnd
  0
BLOCK
  5
23B
330
239
100
AcDbEntity
  8
0
100
AcDbBlockBegin
  2
Block_36
 70
     0
 10
0.0
 20
0.0
 30
0.0
  3
Block_36
  1

  0
LWPOLYLINE
  5
23D
330
239
100
AcDbEntity
  8
Sichtbar schmal (ANSI)
100
AcDbPolyline
 90
        3
 70
     1
 43
0.0
 10
138.9502933578677
 20
164.5885755339396
 10
138.7296672898076
 20
166.2697605988948
 10
138.5076739494768
 20
164.5885755339396
  0
HATCH
  5
23E
330
239
100
AcDbEntity
  8
Sichtbar schmal (ANSI)
 62
    18
420
        0
440
 33554687
100
AcDbHatch
 10
0.0
 20
0.0
 30
0.0
210
0.0
220
0.0
230
1.0
  2
SOLID
 70
     1
 71
     1
 91
        1
 92
        1
 93
        3
 72
     1
 10
138.9502933578677
 20
164.5885755339396
 11
138.7296672898076
 21
166.2697605988948
 72
     1
 10
138.7296672898076
 20
166.2697605988948
 11
138.5076739494768
 21
164.5885755339396
 72
     1
 10
138.5076739494768
 20
164.5885755339396
 11
138.9502933578677
 21
164.5885755339396
 97
        1
330
23D
 75
     2
 76
     1
 98
        1
 10
0.0
 20
0.0
450
        0
451
        0
460
0.0
461
0.0
452
        0
462
0.0
453
        0
470

  0
ENDBLK
  5
23C
330
239
100
AcDbEntity
  8
0
100
AcDbBlockEnd
  0
BLOCK
  5
241
330
23F
100
AcDbEntity
  8
0
100
AcDbBlockBegin
  2
Block_37
 70
     0
 10
0.0
 20
0.0
 30
0.0
  3
Block_37
  1

  0
INSERT
  5
244
330
23F
100
AcDbEntity
  8
Sichtbar schmal (ANSI)
100
AcDbBlockReference
  2
Block_38
 10
0.0
 20
0.0
 30
0.0
  0
ENDBLK
  5
242
330
23F
100
AcDbEntity
  8
0
100
AcDbBlockEnd
  0
BLOCK
  5
245
330
243
100
AcDbEntity
  8
0
100
AcDbBlockBegin
  2
Block_38
 70
     0
 10
0.0
 20
0.0
 30
0.0
  3
Block_38
  1

  0
SPLINE
  5
247
330
243
100
AcDbEntity
  8
Sichtbar schmal (ANSI)
100
AcDbSpline
210
0.0
220
0.0
230
1.0
 70
     9
 71
     3
 72
    41
 73
    37
 74
     0
 42
0.0000000001
 43
0.0000000001
 40
0.0
 40
0.0
 40
0.0
 40
0.0
 40
1.0
 40
1.0
 40
1.0
 40
2.0
 40
2.0
 40
2.0
 40
3.0
 40
3.0
 40
3.0
 40
4.0
 40
4.0
 40
4.0
 40
5.0
 40
5.0
 40
5.0
 40
6.0
 40
6.0
 40
6.0
 40
7.0
 40
7.0
 40
7.0
 40
8.0
 40
8.0
 40
8.0
 40
9.0
 40
9.0
 40
9.0
 40
10.0
 40
10.0
 40
10.0
 40
11.0
 40
11.0
 40
11.0
 40
12.0
 40
12.0
 40
12.0
 40
12.0
 10
131.4992946719863
 20
170.5458346470337
 30
0.0
 10
131.2877658091919
 20
170.8843152784595
 30
0.0
 10
131.1692545244993
 20
171.0562255431734
 30
0.0
 10
130.8898572806456
 20
171.0562255431734
 30
0.0
 10
130.6728162650748
 20
171.0562255431734
 30
0.0
 10
130.5288112737914
 20
170.881386947297
 30
0.0
 10
130.5288112737914
 20
170.6698580845027
 30
0.0
 10
130.5288112737914
 20
170.3906330954231
 30
0.0
 10
130.7854708874425
 20
170.2721218107306
 30
0.0
 10
131.0252495332159
 20
170.2805622946694
 30
0.0
 10
131.0252495332159
 20
170.2805622946694
 30
0.0
 10
131.0252495332159
 20
170.0409559036703
 30
0.0
 10
131.0252495332159
 20
170.0409559036703
 30
0.0
 10
130.6190727755049
 20
170.0182182734677
 30
0.0
 10
130.3172824109971
 20
170.2609252504035
 30
0.0
 10
130.3172824109971
 20
170.6839829759922
 30
0.0
 10
130.3172824109971
 20
171.0309040913568
 30
0.0
 10
130.5205430446268
 20
171.3101290804363
 30
0.0
 10
130.8926133570338
 20
171.3101290804363
 30
0.0
 10
131.2453911347233
 20
171.3101290804363
 30
0.0
 10
131.4200574758255
 20
171.0732787658254
 30
0.0
 10
131.5781873585985
 20
170.8250596361132
 30
0.0
 10
131.7277045026583
 20
170.5768405064009
 30
0.0
 10
131.8603406788405
 20
170.3088120776485
 30
0.0
 10
132.1056314773902
 20
170.2636813267917
 30
0.0
 10
132.1056314773902
 20
170.2636813267917
 30
0.0
 10
132.1056314773902
 20
171.2904920361704
 30
0.0
 10
132.1056314773902
 20
171.2904920361704
 30
0.0
 10
132.1056314773902
 20
171.2904920361704
 30
0.0
 10
132.3171603401846
 20
171.2904920361704
 30
0.0
 10
132.3171603401846
 20
171.2904920361704
 30
0.0
 10
132.3171603401846
 20
171.2904920361704
 30
0.0
 10
132.3171603401846
 20
169.9844563377122
 30
0.0
 10
132.3171603401846
 20
169.9844563377122
 30
0.0
 10
131.8462157873509
 20
170.0211466046301
 30
0.0
 10
131.668448860312
 20
170.2636813267917
 30
0.0
 10
131.4992946719863
 20
170.5458346470337
 30
0.0
  0
HATCH
  5
248
330
243
100
AcDbEntity
  8
Sichtbar schmal (ANSI)
 62
   250
420
  2039067
440
 33554687
100
AcDbHatch
 10
0.0
 20
0.0
 30
0.0
210
0.0
220
0.0
230
1.0
  2
SOLID
 70
     1
 71
     1
 91
        1
 92
        1
 93
        1
 72
     4
 94
        3
 73
     0
 74
     0
 95
       41
 96
       37
 40
0.0
 40
0.0
 40
0.0
 40
0.0
 40
1.0
 40
1.0
 40
1.0
 40
2.0
 40
2.0
 40
2.0
 40
3.0
 40
3.0
 40
3.0
 40
4.0
 40
4.0
 40
4.0
 40
5.0
 40
5.0
 40
5.0
 40
6.0
 40
6.0
 40
6.0
 40
7.0
 40
7.0
 40
7.0
 40
8.0
 40
8.0
 40
8.0
 40
9.0
 40
9.0
 40
9.0
 40
10.0
 40
10.0
 40
10.0
 40
11.0
 40
11.0
 40
11.0
 40
12.0
 40
12.0
 40
12.0
 40
12.0
 10
131.4992946719863
 20
170.5458346470337
 10
131.2877658091919
 20
170.8843152784595
 10
131.1692545244993
 20
171.0562255431734
 10
130.8898572806456
 20
171.0562255431734
 10
130.6728162650748
 20
171.0562255431734
 10
130.5288112737914
 20
170.881386947297
 10
130.5288112737914
 20
170.6698580845027
 10
130.5288112737914
 20
170.3906330954231
 10
130.7854708874425
 20
170.2721218107306
 10
131.0252495332159
 20
170.2805622946694
 10
131.0252495332159
 20
170.2805622946694
 10
131.0252495332159
 20
170.0409559036703
 10
131.0252495332159
 20
170.0409559036703
 10
130.6190727755049
 20
170.0182182734677
 10
130.3172824109971
 20
170.2609252504035
 10
130.3172824109971
 20
170.6839829759922
 10
130.3172824109971
 20
171.0309040913568
 10
130.5205430446268
 20
171.3101290804363
 10
130.8926133570338
 20
171.3101290804363
 10
131.2453911347233
 20
171.3101290804363
 10
131.4200574758255
 20
171.0732787658254
 10
131.5781873585985
 20
170.8250596361132
 10
131.7277045026583
 20
170.5768405064009
 10
131.8603406788405
 20
170.3088120776485
 10
132.1056314773902
 20
170.2636813267917
 10
132.1056314773902
 20
170.2636813267917
 10
132.1056314773902
 20
171.2904920361704
 10
132.1056314773902
 20
171.2904920361704
 10
132.1056314773902
 20
171.2904920361704
 10
132.3171603401846
 20
171.2904920361704
 10
132.3171603401846
 20
171.2904920361704
 10
132.3171603401846
 20
171.2904920361704
 10
132.3171603401846
 20
169.9844563377122
 10
132.3171603401846
 20
169.9844563377122
 10
131.8462157873509
 20
170.0211466046301
 10
131.668448860312
 20
170.2636813267917
 10
131.4992946719863
 20
170.5458346470337
 97
        0
 97
        1
330
247
 75
     2
 76
     1
 98
        1
 10
0.0
 20
0.0
450
        0
451
        0
460
0.0
461
0.0
452
        0
462
0.0
453
        0
470

  0
SPLINE
  5
249
330
243
100
AcDbEntity
  8
Sichtbar schmal (ANSI)
100
AcDbSpline
210
0.0
220
0.0
230
1.0
 70
     9
 71
     3
 72
    53
 73
    49
 74
     0
 42
0.0000000001
 43
0.0000000001
 40
0.0
 40
0.0
 40
0.0
 40
0.0
 40
1.0
 40
1.0
 40
1.0
 40
2.0
 40
2.0
 40
2.0
 40
3.0
 40
3.0
 40
3.0
 40
4.0
 40
4.0
 40
4.0
 40
5.0
 40
5.0
 40
5.0
 40
6.0
 40
6.0
 40
6.0
 40
7.0
 40
7.0
 40
7.0
 40
8.0
 40
8.0
 40
8.0
 40
9.0
 40
9.0
 40
9.0
 40
10.0
 40
10.0
 40
10.0
 40
11.0
 40
11.0
 40
11.0
 40
12.0
 40
12.0
 40
12.0
 40
13.0
 40
13.0
 40
13.0
 40
14.0
 40
14.0
 40
14.0
 40
15.0
 40
15.0
 40
15.0
 40
16.0
 40
16.0
 40
16.0
 40
16.0
 10
131.7783474062915
 20
171.8243095816099
 30
0.0
 10
131.9843641163094
 20
171.8384344730994
 30
0.0
 10
132.1393934131457
 20
172.004832585037
 30
0.0
 10
132.1393934131457
 20
172.2446112308104
 30
0.0
 10
132.1393934131457
 20
172.4730210614824
 30
0.0
 10
131.9816080399212
 20
172.667668956399
 30
0.0
 10
131.6656927839239
 20
172.667668956399
 30
0.0
 10
131.4031765079478
 20
172.667668956399
 30
0.0
 10
131.2116291989679
 20
172.4871459529719
 30
0.0
 10
131.2116291989679
 20
172.2163614478313
 30
0.0
 10
131.2116291989679
 20
172.0611598962208
 30
0.0
 10
131.2877658091919
 20
171.9371364587518
 30
0.0
 10
131.4004204315596
 20
171.8441188806501
 30
0.0
 10
131.4004204315596
 20
171.8441188806501
 30
0.0
 10
131.3890516164583
 20
171.6381021706321
 30
0.0
 10
131.3890516164583
 20
171.6381021706321
 30
0.0
 10
131.3890516164583
 20
171.6381021706321
 30
0.0
 10
130.3510443467525
 20
171.8243095816099
 30
0.0
 10
130.3510443467525
 20
171.8243095816099
 30
0.0
 10
130.3510443467525
 20
171.8243095816099
 30
0.0
 10
130.3510443467525
 20
172.8115016929082
 30
0.0
 10
130.3510443467525
 20
172.8115016929082
 30
0.0
 10
130.3510443467525
 20
172.8115016929082
 30
0.0
 10
130.5625732095468
 20
172.8115016929082
 30
0.0
 10
130.5625732095468
 20
172.8115016929082
 30
0.0
 10
130.5625732095468
 20
172.8115016929082
 30
0.0
 10
130.5625732095468
 20
172.004832585037
 30
0.0
 10
130.5625732095468
 20
172.004832585037
 30
0.0
 10
130.5625732095468
 20
172.004832585037
 30
0.0
 10
131.1382486651321
 20
171.8976901154457
 30
0.0
 10
131.1382486651321
 20
171.8976901154457
 30
0.0
 10
131.1382486651321
 20
171.8976901154457
 30
0.0
 10
131.1437608179085
 20
171.9033745229964
 30
0.0
 10
131.1437608179085
 20
171.9033745229964
 30
0.0
 10
131.0448865774818
 20
171.9907076935474
 30
0.0
 10
130.999755826625
 20
172.1402248376073
 30
0.0
 10
130.999755826625
 20
172.2756170901776
 30
0.0
 10
130.999755826625
 20
172.6309786894811
 30
0.0
 10
131.2254095809089
 20
172.921572493662
 30
0.0
 10
131.6853298281898
 20
172.921572493662
 30
0.0
 10
132.0239827143898
 20
172.921572493662
 30
0.0
 10
132.35092227594
 20
172.6874782554392
 30
0.0
 10
132.35092227594
 20
172.222045855382
 30
0.0
 10
132.35092227594
 20
171.8751247400173
 30
0.0
 10
132.1393934131457
 20
171.5929714197754
 30
0.0
 10
131.7783474062915
 20
171.5845309358365
 30
0.0
 10
131.7783474062915
 20
171.5845309358365
 30
0.0
 10
131.7783474062915
 20
171.8243095816099
 30
0.0
 10
131.7783474062915
 20
171.8243095816099
 30
0.0
  0
HATCH
  5
24A
330
243
100
AcDbEntity
  8
Sichtbar schmal (ANSI)
 62
   250
420
  2039067
440
 33554687
100
AcDbHatch
 10
0.0
 20
0.0
 30
0.0
210
0.0
220
0.0
230
1.0
  2
SOLID
 70
     1
 71
     1
 91
        1
 92
        1
 93
        1
 72
     4
 94
        3
 73
     0
 74
     0
 95
       53
 96
       49
 40
0.0
 40
0.0
 40
0.0
 40
0.0
 40
1.0
 40
1.0
 40
1.0
 40
2.0
 40
2.0
 40
2.0
 40
3.0
 40
3.0
 40
3.0
 40
4.0
 40
4.0
 40
4.0
 40
5.0
 40
5.0
 40
5.0
 40
6.0
 40
6.0
 40
6.0
 40
7.0
 40
7.0
 40
7.0
 40
8.0
 40
8.0
 40
8.0
 40
9.0
 40
9.0
 40
9.0
 40
10.0
 40
10.0
 40
10.0
 40
11.0
 40
11.0
 40
11.0
 40
12.0
 40
12.0
 40
12.0
 40
13.0
 40
13.0
 40
13.0
 40
14.0
 40
14.0
 40
14.0
 40
15.0
 40
15.0
 40
15.0
 40
16.0
 40
16.0
 40
16.0
 40
16.0
 10
131.7783474062915
 20
171.8243095816099
 10
131.9843641163094
 20
171.8384344730994
 10
132.1393934131457
 20
172.004832585037
 10
132.1393934131457
 20
172.2446112308104
 10
132.1393934131457
 20
172.4730210614824
 10
131.9816080399212
 20
172.667668956399
 10
131.6656927839239
 20
172.667668956399
 10
131.4031765079478
 20
172.667668956399
 10
131.2116291989679
 20
172.4871459529719
 10
131.2116291989679
 20
172.2163614478313
 10
131.2116291989679
 20
172.0611598962208
 10
131.2877658091919
 20
171.9371364587518
 10
131.4004204315596
 20
171.8441188806501
 10
131.4004204315596
 20
171.8441188806501
 10
131.3890516164583
 20
171.6381021706321
 10
131.3890516164583
 20
171.6381021706321
 10
131.3890516164583
 20
171.6381021706321
 10
130.3510443467525
 20
171.8243095816099
 10
130.3510443467525
 20
171.8243095816099
 10
130.3510443467525
 20
171.8243095816099
 10
130.3510443467525
 20
172.8115016929082
 10
130.3510443467525
 20
172.8115016929082
 10
130.3510443467525
 20
172.8115016929082
 10
130.5625732095468
 20
172.8115016929082
 10
130.5625732095468
 20
172.8115016929082
 10
130.5625732095468
 20
172.8115016929082
 10
130.5625732095468
 20
172.004832585037
 10
130.5625732095468
 20
172.004832585037
 10
130.5625732095468
 20
172.004832585037
 10
131.1382486651321
 20
171.8976901154457
 10
131.1382486651321
 20
171.8976901154457
 10
131.1382486651321
 20
171.8976901154457
 10
131.1437608179085
 20
171.9033745229964
 10
131.1437608179085
 20
171.9033745229964
 10
131.0448865774818
 20
171.9907076935474
 10
130.999755826625
 20
172.1402248376073
 10
130.999755826625
 20
172.2756170901776
 10
130.999755826625
 20
172.6309786894811
 10
131.2254095809089
 20
172.921572493662
 10
131.6853298281898
 20
172.921572493662
 10
132.0239827143898
 20
172.921572493662
 10
132.35092227594
 20
172.6874782554392
 10
132.35092227594
 20
172.222045855382
 10
132.35092227594
 20
171.8751247400173
 10
132.1393934131457
 20
171.5929714197754
 10
131.7783474062915
 20
171.5845309358365
 10
131.7783474062915
 20
171.5845309358365
 10
131.7783474062915
 20
171.8243095816099
 10
131.7783474062915
 20
171.8243095816099
 97
        0
 97
        1
330
249
 75
     2
 76
     1
 98
        1
 10
0.0
 20
0.0
450
        0
451
        0
460
0.0
461
0.0
452
        0
462
0.0
453
        0
470

  0
ENDBLK
  5
246
330
243
100
AcDbEntity
  8
0
100
AcDbBlockEnd
  0
BLOCK
  5
24D
330
24B
100
AcDbEntity
  8
0
100
AcDbBlockBegin
  2
Block_39
 70
     0
 10
0.0
 20
0.0
 30
0.0
  3
Block_39
  1

  0
INSERT
  5
250
330
24B
100
AcDbEntity
  8
Sichtbar schmal (ANSI)
100
AcDbBlockReference
  2
Block_40
 10
0.0
 20
0.0
 30
0.0
  0
ENDBLK
  5
24E
330
24B
100
AcDbEntity
  8
0
100
AcDbBlockEnd
  0
BLOCK
  5
251
330
24F
100
AcDbEntity
  8
0
100
AcDbBlockBegin
  2
Block_40
 70
     0
 10
0.0
 20
0.0
 30
0.0
  3
Block_40
  1

  0
SPLINE
  5
253
330
24F
100
AcDbEntity
  8
Sichtbar schmal (ANSI)
100
AcDbSpline
210
0.0
220
0.0
230
1.0
 70
     9
 71
     3
 72
    41
 73
    37
 74
     0
 42
0.0000000001
 43
0.0000000001
 40
0.0
 40
0.0
 40
0.0
 40
0.0
 40
1.0
 40
1.0
 40
1.0
 40
2.0
 40
2.0
 40
2.0
 40
3.0
 40
3.0
 40
3.0
 40
4.0
 40
4.0
 40
4.0
 40
5.0
 40
5.0
 40
5.0
 40
6.0
 40
6.0
 40
6.0
 40
7.0
 40
7.0
 40
7.0
 40
8.0
 40
8.0
 40
8.0
 40
9.0
 40
9.0
 40
9.0
 40
10.0
 40
10.0
 40
10.0
 40
11.0
 40
11.0
 40
11.0
 40
12.0
 40
12.0
 40
12.0
 40
12.0
 10
125.7539089312351
 20
175.7169229703937
 30
0.0
 10
125.5423800684408
 20
176.0554036018195
 30
0.0
 10
125.4238687837482
 20
176.2273138665334
 30
0.0
 10
125.1444715398944
 20
176.2273138665334
 30
0.0
 10
124.9274305243237
 20
176.2273138665334
 30
0.0
 10
124.7834255330402
 20
176.052475270657
 30
0.0
 10
124.7834255330402
 20
175.8409464078626
 30
0.0
 10
124.7834255330402
 20
175.5617214187832
 30
0.0
 10
125.0400851466913
 20
175.4432101340906
 30
0.0
 10
125.2798637924647
 20
175.4516506180294
 30
0.0
 10
125.2798637924647
 20
175.4516506180294
 30
0.0
 10
125.2798637924647
 20
175.2120442270303
 30
0.0
 10
125.2798637924647
 20
175.2120442270303
 30
0.0
 10
124.8736870347538
 20
175.1893065968277
 30
0.0
 10
124.5718966702459
 20
175.4320135737635
 30
0.0
 10
124.5718966702459
 20
175.8550712993522
 30
0.0
 10
124.5718966702459
 20
176.2019924147169
 30
0.0
 10
124.7751573038756
 20
176.4812174037963
 30
0.0
 10
125.1472276162826
 20
176.4812174037963
 30
0.0
 10
125.5000053939722
 20
176.4812174037963
 30
0.0
 10
125.6746717350744
 20
176.2443670891854
 30
0.0
 10
125.8328016178474
 20
175.9961479594732
 30
0.0
 10
125.9823187619072
 20
175.7479288297609
 30
0.0
 10
126.1149549380893
 20
175.4799004010085
 30
0.0
 10
126.3602457366391
 20
175.4347696501517
 30
0.0
 10
126.3602457366391
 20
175.4347696501517
 30
0.0
 10
126.3602457366391
 20
176.4615803595304
 30
0.0
 10
126.3602457366391
 20
176.4615803595304
 30
0.0
 10
126.3602457366391
 20
176.4615803595304
 30
0.0
 10
126.5717745994334
 20
176.4615803595304
 30
0.0
 10
126.5717745994334
 20
176.4615803595304
 30
0.0
 10
126.5717745994334
 20
176.4615803595304
 30
0.0
 10
126.5717745994334
 20
175.1555446610722
 30
0.0
 10
126.5717745994334
 20
175.1555446610722
 30
0.0
 10
126.1008300465998
 20
175.1922349279901
 30
0.0
 10
125.9230631195609
 20
175.4347696501517
 30
0.0
 10
125.7539089312351
 20
175.7169229703937
 30
0.0
  0
HATCH
  5
254
330
24F
100
AcDbEntity
  8
Sichtbar schmal (ANSI)
 62
   250
420
  2039067
440
 33554687
100
AcDbHatch
 10
0.0
 20
0.0
 30
0.0
210
0.0
220
0.0
230
1.0
  2
SOLID
 70
     1
 71
     1
 91
        1
 92
        1
 93
        1
 72
     4
 94
        3
 73
     0
 74
     0
 95
       41
 96
       37
 40
0.0
 40
0.0
 40
0.0
 40
0.0
 40
1.0
 40
1.0
 40
1.0
 40
2.0
 40
2.0
 40
2.0
 40
3.0
 40
3.0
 40
3.0
 40
4.0
 40
4.0
 40
4.0
 40
5.0
 40
5.0
 40
5.0
 40
6.0
 40
6.0
 40
6.0
 40
7.0
 40
7.0
 40
7.0
 40
8.0
 40
8.0
 40
8.0
 40
9.0
 40
9.0
 40
9.0
 40
10.0
 40
10.0
 40
10.0
 40
11.0
 40
11.0
 40
11.0
 40
12.0
 40
12.0
 40
12.0
 40
12.0
 10
125.7539089312351
 20
175.7169229703937
 10
125.5423800684408
 20
176.0554036018195
 10
125.4238687837482
 20
176.2273138665334
 10
125.1444715398944
 20
176.2273138665334
 10
124.9274305243237
 20
176.2273138665334
 10
124.7834255330402
 20
176.052475270657
 10
124.7834255330402
 20
175.8409464078626
 10
124.7834255330402
 20
175.5617214187832
 10
125.0400851466913
 20
175.4432101340906
 10
125.2798637924647
 20
175.4516506180294
 10
125.2798637924647
 20
175.4516506180294
 10
125.2798637924647
 20
175.2120442270303
 10
125.2798637924647
 20
175.2120442270303
 10
124.8736870347538
 20
175.1893065968277
 10
124.5718966702459
 20
175.4320135737635
 10
124.5718966702459
 20
175.8550712993522
 10
124.5718966702459
 20
176.2019924147169
 10
124.7751573038756
 20
176.4812174037963
 10
125.1472276162826
 20
176.4812174037963
 10
125.5000053939722
 20
176.4812174037963
 10
125.6746717350744
 20
176.2443670891854
 10
125.8328016178474
 20
175.9961479594732
 10
125.9823187619072
 20
175.7479288297609
 10
126.1149549380893
 20
175.4799004010085
 10
126.3602457366391
 20
175.4347696501517
 10
126.3602457366391
 20
175.4347696501517
 10
126.3602457366391
 20
176.4615803595304
 10
126.3602457366391
 20
176.4615803595304
 10
126.3602457366391
 20
176.4615803595304
 10
126.5717745994334
 20
176.4615803595304
 10
126.5717745994334
 20
176.4615803595304
 10
126.5717745994334
 20
176.4615803595304
 10
126.5717745994334
 20
175.1555446610722
 10
126.5717745994334
 20
175.1555446610722
 10
126.1008300465998
 20
175.1922349279901
 10
125.9230631195609
 20
175.4347696501517
 10
125.7539089312351
 20
175.7169229703937
 97
        0
 97
        1
330
253
 75
     2
 76
     1
 98
        1
 10
0.0
 20
0.0
450
        0
451
        0
460
0.0
461
0.0
452
        0
462
0.0
453
        0
470

  0
SPLINE
  5
255
330
24F
100
AcDbEntity
  8
Sichtbar schmal (ANSI)
100
AcDbSpline
210
0.0
220
0.0
230
1.0
 70
     9
 71
     3
 72
    17
 73
    13
 74
     0
 42
0.0000000001
 43
0.0000000001
 40
0.0
 40
0.0
 40
0.0
 40
0.0
 40
1.0
 40
1.0
 40
1.0
 40
2.0
 40
2.0
 40
2.0
 40
3.0
 40
3.0
 40
3.0
 40
4.0
 40
4.0
 40
4.0
 40
4.0
 10
125.5875108192975
 20
177.8528821712486
 30
0.0
 10
125.2912326075661
 20
177.8528821712486
 30
0.0
 10
124.7834255330402
 20
177.8501260948604
 30
0.0
 10
124.7834255330402
 20
177.4410210059869
 30
0.0
 10
124.7834255330402
 20
177.0320881718878
 30
0.0
 10
125.2912326075661
 20
177.0293320954996
 30
0.0
 10
125.5875108192975
 20
177.0293320954996
 30
0.0
 10
125.8862005978687
 20
177.0293320954996
 30
0.0
 10
126.3940076723945
 20
177.0320881718878
 30
0.0
 10
126.3940076723945
 20
177.4410210059869
 30
0.0
 10
126.3940076723945
 20
177.8501260948604
 30
0.0
 10
125.8862005978687
 20
177.8528821712486
 30
0.0
 10
125.5875108192975
 20
177.8528821712486
 30
0.0
  0
SPLINE
  5
256
330
24F
100
AcDbEntity
  8
Sichtbar schmal (ANSI)
100
AcDbSpline
210
0.0
220
0.0
230
1.0
 70
     9
 71
     3
 72
    17
 73
    13
 74
     0
 42
0.0000000001
 43
0.0000000001
 40
0.0
 40
0.0
 40
0.0
 40
0.0
 40
1.0
 40
1.0
 40
1.0
 40
2.0
 40
2.0
 40
2.0
 40
3.0
 40
3.0
 40
3.0
 40
4.0
 40
4.0
 40
4.0
 40
4.0
 10
125.5902668956857
 20
176.7754285582367
 30
0.0
 10
125.1499836926708
 20
176.7754285582367
 30
0.0
 10
124.5718966702459
 20
176.8148749015428
 30
0.0
 10
124.5718966702459
 20
177.4410210059869
 30
0.0
 10
124.5718966702459
 20
178.0673393652054
 30
0.0
 10
125.1499836926708
 20
178.1067857085115
 30
0.0
 10
125.5902668956857
 20
178.1067857085115
 30
0.0
 10
126.0302055891521
 20
178.1067857085115
 30
0.0
 10
126.6055365351889
 20
178.0673393652054
 30
0.0
 10
126.6055365351889
 20
177.4410210059869
 30
0.0
 10
126.6055365351889
 20
176.8148749015428
 30
0.0
 10
126.0302055891521
 20
176.7754285582367
 30
0.0
 10
125.5902668956857
 20
176.7754285582367
 30
0.0
  0
HATCH
  5
257
330
24F
100
AcDbEntity
  8
Sichtbar schmal (ANSI)
 62
   250
420
  2039067
440
 33554687
100
AcDbHatch
 10
0.0
 20
0.0
 30
0.0
210
0.0
220
0.0
230
1.0
  2
SOLID
 70
     1
 71
     1
 91
        2
 92
        1
 93
        1
 72
     4
 94
        3
 73
     0
 74
     0
 95
       17
 96
       13
 40
0.0
 40
0.0
 40
0.0
 40
0.0
 40
1.0
 40
1.0
 40
1.0
 40
2.0
 40
2.0
 40
2.0
 40
3.0
 40
3.0
 40
3.0
 40
4.0
 40
4.0
 40
4.0
 40
4.0
 10
125.5875108192975
 20
177.8528821712486
 10
125.2912326075661
 20
177.8528821712486
 10
124.7834255330402
 20
177.8501260948604
 10
124.7834255330402
 20
177.4410210059869
 10
124.7834255330402
 20
177.0320881718878
 10
125.2912326075661
 20
177.0293320954996
 10
125.5875108192975
 20
177.0293320954996
 10
125.8862005978687
 20
177.0293320954996
 10
126.3940076723945
 20
177.0320881718878
 10
126.3940076723945
 20
177.4410210059869
 10
126.3940076723945
 20
177.8501260948604
 10
125.8862005978687
 20
177.8528821712486
 10
125.5875108192975
 20
177.8528821712486
 97
        0
 97
        1
330
255
 92
        1
 93
        1
 72
     4
 94
        3
 73
     0
 74
     0
 95
       17
 96
       13
 40
0.0
 40
0.0
 40
0.0
 40
0.0
 40
1.0
 40
1.0
 40
1.0
 40
2.0
 40
2.0
 40
2.0
 40
3.0
 40
3.0
 40
3.0
 40
4.0
 40
4.0
 40
4.0
 40
4.0
 10
125.5902668956857
 20
176.7754285582367
 10
125.1499836926708
 20
176.7754285582367
 10
124.5718966702459
 20
176.8148749015428
 10
124.5718966702459
 20
177.4410210059869
 10
124.5718966702459
 20
178.0673393652054
 10
125.1499836926708
 20
178.1067857085115
 10
125.5902668956857
 20
178.1067857085115
 10
126.0302055891521
 20
178.1067857085115
 10
126.6055365351889
 20
178.0673393652054
 10
126.6055365351889
 20
177.4410210059869
 10
126.6055365351889
 20
176.8148749015428
 10
126.0302055891521
 20
176.7754285582367
 10
125.5902668956857
 20
176.7754285582367
 97
        0
 97
        1
330
256
 75
     2
 76
     1
 98
        1
 10
0.0
 20
0.0
450
        0
451
        0
460
0.0
461
0.0
452
        0
462
0.0
453
        0
470

  0
ENDBLK
  5
252
330
24F
100
AcDbEntity
  8
0
100
AcDbBlockEnd
  0
BLOCK
  5
25D
330
25B
100
AcDbEntity
  8
0
100
AcDbBlockBegin
  2
Block_41
 70
     0
 10
0.0
 20
0.0
 30
0.0
  3
Block_41
  1

  0
INSERT
  5
260
330
25B
100
AcDbEntity
  8
Sichtbar schmal (ANSI)
100
AcDbBlockReference
  2
Block_42
 10
0.0
 20
0.0
 30
0.0
  0
ENDBLK
  5
25E
330
25B
100
AcDbEntity
  8
0
100
AcDbBlockEnd
  0
BLOCK
  5
261
330
25F
100
AcDbEntity
  8
0
100
AcDbBlockBegin
  2
Block_42
 70
     0
 10
0.0
 20
0.0
 30
0.0
  3
Block_42
  1

  0
LINE
  5
263
330
25F
100
AcDbEntity
  8
Sichtbar schmal (ANSI)
 62
    18
420
        0
370
     5
100
AcDbLine
 10
129.3527848662078
 20
170.2877539314952
 30
0.0
 11
129.3527848662078
 21
172.7638947796714
 31
0.0
  0
INSERT
  5
265
330
25F
100
AcDbEntity
  8
Sichtbar schmal (ANSI)
100
AcDbBlockReference
  2
Block_43
 10
0.0
 20
0.0
 30
0.0
  0
INSERT
  5
26B
330
25F
100
AcDbEntity
  8
Sichtbar schmal (ANSI)
100
AcDbBlockReference
  2
Block_44
 10
0.0
 20
0.0
 30
0.0
  0
ENDBLK
  5
262
330
25F
100
AcDbEntity
  8
0
100
AcDbBlockEnd
  0
BLOCK
  5
266
330
264
100
AcDbEntity
  8
0
100
AcDbBlockBegin
  2
Block_43
 70
     0
 10
0.0
 20
0.0
 30
0.0
  3
Block_43
  1

  0
LWPOLYLINE
  5
268
330
264
100
AcDbEntity
  8
Sichtbar schmal (ANSI)
100
AcDbPolyline
 90
        3
 70
     1
 43
0.0
 10
129.5740999533649
 20
170.9202088670464
 10
129.3534738853049
 20
169.2390345680147
 10
129.131480544974
 20
170.9202088670464
  0
HATCH
  5
269
330
264
100
AcDbEntity
  8
Sichtbar schmal (ANSI)
 62
    18
420
        0
440
 33554687
100
AcDbHatch
 10
0.0
 20
0.0
 30
0.0
210
0.0
220
0.0
230
1.0
  2
SOLID
 70
     1
 71
     1
 91
        1
 92
        1
 93
        3
 72
     1
 10
129.5740999533649
 20
170.9202088670464
 11
129.3534738853049
 21
169.2390345680147
 72
     1
 10
129.3534738853049
 20
169.2390345680147
 11
129.131480544974
 21
170.9202088670464
 72
     1
 10
129.131480544974
 20
170.9202088670464
 11
129.5740999533649
 21
170.9202088670464
 97
        1
330
268
 75
     2
 76
     1
 98
        1
 10
0.0
 20
0.0
450
        0
451
        0
460
0.0
461
0.0
452
        0
462
0.0
453
        0
470

  0
ENDBLK
  5
267
330
264
100
AcDbEntity
  8
0
100
AcDbBlockEnd
  0
BLOCK
  5
26C
330
26A
100
AcDbEntity
  8
0
100
AcDbBlockBegin
  2
Block_44
 70
     0
 10
0.0
 20
0.0
 30
0.0
  3
Block_44
  1

  0
LWPOLYLINE
  5
26E
330
26A
100
AcDbEntity
  8
Sichtbar schmal (ANSI)
100
AcDbPolyline
 90
        3
 70
     1
 43
0.0
 10
129.5740999533649
 20
172.1314398441199
 10
129.3534738853049
 20
173.812624909075
 10
129.131480544974
 20
172.1314398441199
  0
HATCH
  5
26F
330
26A
100
AcDbEntity
  8
Sichtbar schmal (ANSI)
 62
    18
420
        0
440
 33554687
100
AcDbHatch
 10
0.0
 20
0.0
 30
0.0
210
0.0
220
0.0
230
1.0
  2
SOLID
 70
     1
 71
     1
 91
        1
 92
        1
 93
        3
 72
     1
 10
129.5740999533649
 20
172.1314398441199
 11
129.3534738853049
 21
173.812624909075
 72
     1
 10
129.3534738853049
 20
173.812624909075
 11
129.131480544974
 21
172.1314398441199
 72
     1
 10
129.131480544974
 20
172.1314398441199
 11
129.5740999533649
 21
172.1314398441199
 97
        1
330
26E
 75
     2
 76
     1
 98
        1
 10
0.0
 20
0.0
450
        0
451
        0
460
0.0
461
0.0
452
        0
462
0.0
453
        0
470

  0
ENDBLK
  5
26D
330
26A
100
AcDbEntity
  8
0
100
AcDbBlockEnd
  0
BLOCK
  5
273
330
271
100
AcDbEntity
  8
0
100
AcDbBlockBegin
  2
Block_45
 70
     0
 10
0.0
 20
0.0
 30
0.0
  3
Block_45
  1

  0
INSERT
  5
276
330
271
100
AcDbEntity
  8
Sichtbar schmal (ANSI)
100
AcDbBlockReference
  2
Block_46
 10
0.0
 20
0.0
 30
0.0
  0
ENDBLK
  5
274
330
271
100
AcDbEntity
  8
0
100
AcDbBlockEnd
  0
BLOCK
  5
277
330
275
100
AcDbEntity
  8
0
100
AcDbBlockBegin
  2
Block_46
 70
     0
 10
0.0
 20
0.0
 30
0.0
  3
Block_46
  1

  0
LINE
  5
279
330
275
100
AcDbEntity
  8
Sichtbar schmal (ANSI)
 62
    18
420
        0
370
     5
100
AcDbLine
 10
123.8797016257955
 20
173.9493521361459
 30
0.0
 11
123.8797016257955
 21
178.3060952482566
 31
0.0
  0
INSERT
  5
27B
330
275
100
AcDbEntity
  8
Sichtbar schmal (ANSI)
100
AcDbBlockReference
  2
Block_47
 10
0.0
 20
0.0
 30
0.0
  0
ENDBLK
  5
278
330
275
100
AcDbEntity
  8
0
100
AcDbBlockEnd
  0
BLOCK
  5
27C
330
27A
100
AcDbEntity
  8
0
100
AcDbBlockBegin
  2
Block_47
 70
     0
 10
0.0
 20
0.0
 30
0.0
  3
Block_47
  1

  0
LWPOLYLINE
  5
27E
330
27A
100
AcDbEntity
  8
Sichtbar schmal (ANSI)
100
AcDbPolyline
 90
        3
 70
     1
 43
0.0
 10
124.1010167129526
 20
174.5818070716977
 10
123.8803906448925
 20
172.9006327726657
 10
123.6583865386383
 20
174.5818070716977
  0
HATCH
  5
27F
330
27A
100
AcDbEntity
  8
Sichtbar schmal (ANSI)
 62
    18
420
        0
440
 33554687
100
AcDbHatch
 10
0.0
 20
0.0
 30
0.0
210
0.0
220
0.0
230
1.0
  2
SOLID
 70
     1
 71
     1
 91
        1
 92
        1
 93
        3
 72
     1
 10
124.1010167129526
 20
174.5818070716977
 11
123.8803906448925
 21
172.9006327726657
 72
     1
 10
123.8803906448925
 20
172.9006327726657
 11
123.6583865386383
 21
174.5818070716977
 72
     1
 10
123.6583865386383
 20
174.5818070716977
 11
124.1010167129526
 21
174.5818070716977
 97
        1
330
27E
 75
     2
 76
     1
 98
        1
 10
0.0
 20
0.0
450
        0
451
        0
460
0.0
461
0.0
452
        0
462
0.0
453
        0
470

  0
ENDBLK
  5
27D
330
27A
100
AcDbEntity
  8
0
100
AcDbBlockEnd
  0
ENDSEC
  0
SECTION
  2
ENTITIES
  0
INSERT
  5
7B
330
70
100
AcDbEntity
  8
Sichtbar schmal (ANSI)
100
AcDbBlockReference
  2
Block_0
 10
0.0
 20
0.0
 30
0.0
  0
INSERT
  5
81
330
70
100
AcDbEntity
  8
Sichtbar schmal (ANSI)
100
AcDbBlockReference
  2
Block_1
 10
0.0
 20
0.0
 30
0.0
  0
INSERT
  5
E7
330
70
100
AcDbEntity
  8
Sichtbar schmal (ANSI)
100
AcDbBlockReference
  2
Block_2
 10
0.0
 20
0.0
 30
0.0
  0
LINE
  5
F6
330
70
100
AcDbEntity
  8
Sichtbar schmal (ANSI)
 62
    18
420
        0
370
     5
100
AcDbLine
 10
102.514476232226
 20
121.5481820993309
 30
0.0
 11
102.514476232226
 21
109.6870827771089
 31
0.0
  0
LINE
  5
F7
330
70
100
AcDbEntity
  8
Sichtbar schmal (ANSI)
 62
    18
420
        0
370
     5
100
AcDbLine
 10
78.72586845130776
 20
121.5490925422925
 30
0.0
 11
78.72586845130776
 21
109.6870827771089
 31
0.0
  0
INSERT
  5
F9
330
70
100
AcDbEntity
  8
Sichtbar schmal (ANSI)
100
AcDbBlockReference
  2
Block_4
 10
0.0
 20
0.0
 30
0.0
  0
INSERT
  5
10E
330
70
100
AcDbEntity
  8
Sichtbar schmal (ANSI)
100
AcDbBlockReference
  2
Block_8
 10
0.0
 20
0.0
 30
0.0
  0
LINE
  5
189
330
70
100
AcDbEntity
  8
Sichtbar schmal (ANSI)
 62
    18
420
        0
370
     5
100
AcDbLine
 10
113.1602193391666
 20
184.9059845590869
 30
0.0
 11
140.7289809523478
 21
184.9031598290443
 31
0.0
  0
LINE
  5
18A
330
70
100
AcDbEntity
  8
Sichtbar schmal (ANSI)
 62
    18
420
        0
370
     5
100
AcDbLine
 10
108.416921484986
 20
167.9282933429095
 30
0.0
 11
140.7289809523478
 21
167.9282933429095
 31
0.0
  0
INSERT
  5
18C
330
70
100
AcDbEntity
  8
Sichtbar schmal (ANSI)
100
AcDbBlockReference
  2
Block_9
 10
0.0
 20
0.0
 30
0.0
  0
INSERT
  5
199
330
70
100
AcDbEntity
  8
Sichtbar schmal (ANSI)
100
AcDbBlockReference
  2
Block_11
 10
0.0
 20
0.0
 30
0.0
  0
INSERT
  5
1AE
330
70
100
AcDbEntity
  8
Sichtbar schmal (ANSI)
100
AcDbBlockReference
  2
Block_15
 10
0.0
 20
0.0
 30
0.0
  0
LINE
  5
1B9
330
70
100
AcDbEntity
  8
Sichtbar schmal (ANSI)
  6
AI-Linetype-0
 62
    18
420
        0
370
     5
100
AcDbLine
 10
109.8149546032781
 20
182.9045721945656
 30
0.0
 11
131.9551626313986
 21
182.9045721945656
 31
0.0
  0
LINE
  5
1BB
330
70
100
AcDbEntity
  8
Sichtbar schmal (ANSI)
  6
AI-Linetype-1
 62
    18
420
        0
370
     5
100
AcDbLine
 10
129.3527881551425
 20
182.9031598295441
 30
0.0
 11
129.3527881551425
 21
184.9045721940651
 31
0.0
  0
INSERT
  5
1BE
330
70
100
AcDbEntity
  8
Sichtbar schmal (ANSI)
100
AcDbBlockReference
  2
Block_17
 10
0.0
 20
0.0
 30
0.0
  0
INSERT
  5
1CD
330
70
100
AcDbEntity
  8
Sichtbar schmal (ANSI)
100
AcDbBlockReference
  2
Block_20
 10
0.0
 20
0.0
 30
0.0
  0
LINE
  5
1D4
330
70
100
AcDbEntity
  8
Sichtbar schmal (ANSI)
 62
    18
420
        0
370
     5
100
AcDbLine
 10
112.0616866904444
 20
165.5281037054107
 30
0.0
 11
135.1470395472498
 21
165.528100177633
 31
0.0
  0
LINE
  5
1D5
330
70
100
AcDbEntity
  8
Sichtbar schmal (ANSI)
 62
    18
420
        0
370
     5
100
AcDbLine
 10
111.9128685187022
 20
122.6966633280894
 30
0.0
 11
135.1470395472498
 21
122.6966598003117
 31
0.0
  0
LINE
  5
1D6
330
70
100
AcDbEntity
  8
Sichtbar schmal (ANSI)
 62
    18
420
        0
370
     5
100
AcDbLine
 10
140.7289809523465
 20
166.2697576790409
 30
0.0
 11
112.7771375001427
 21
166.2697576790409
 31
0.0
  0
LINE
  5
1D7
330
70
100
AcDbEntity
  8
Sichtbar schmal (ANSI)
 62
    18
420
        0
370
     5
100
AcDbLine
 10
140.7289809523465
 20
121.9558273622816
 30
0.0
 11
112.7771375001446
 21
121.9558273622816
 31
0.0
  0
LINE
  5
1D8
330
70
100
AcDbEntity
  8
Sichtbar schmal (ANSI)
 62
    18
420
        0
370
     5
100
AcDbLine
 10
125.5088238371842
 20
129.0386396555893
 30
0.0
 11
99.8876454182713
 21
129.0386396555893
 31
0.0
  0
INSERT
  5
1DA
330
70
100
AcDbEntity
  8
Sichtbar schmal (ANSI)
100
AcDbBlockReference
  2
Block_21
 10
0.0
 20
0.0
 30
0.0
  0
INSERT
  5
1EF
330
70
100
AcDbEntity
  8
Sichtbar schmal (ANSI)
100
AcDbBlockReference
  2
Block_25
 10
0.0
 20
0.0
 30
0.0
  0
INSERT
  5
1FC
330
70
100
AcDbEntity
  8
Sichtbar schmal (ANSI)
100
AcDbBlockReference
  2
Block_26
 10
0.0
 20
0.0
 30
0.0
  0
INSERT
  5
208
330
70
100
AcDbEntity
  8
Sichtbar schmal (ANSI)
100
AcDbBlockReference
  2
Block_28
 10
0.0
 20
0.0
 30
0.0
  0
INSERT
  5
216
330
70
100
AcDbEntity
  8
Sichtbar schmal (ANSI)
100
AcDbBlockReference
  2
Block_29
 10
0.0
 20
0.0
 30
0.0
  0
INSERT
  5
22B
330
70
100
AcDbEntity
  8
Sichtbar schmal (ANSI)
100
AcDbBlockReference
  2
Block_33
 10
0.0
 20
0.0
 30
0.0
  0
INSERT
  5
240
330
70
100
AcDbEntity
  8
Sichtbar schmal (ANSI)
100
AcDbBlockReference
  2
Block_37
 10
0.0
 20
0.0
 30
0.0
  0
INSERT
  5
24C
330
70
100
AcDbEntity
  8
Sichtbar schmal (ANSI)
100
AcDbBlockReference
  2
Block_39
 10
0.0
 20
0.0
 30
0.0
  0
LINE
  5
258
330
70
100
AcDbEntity
  8
Sichtbar schmal (ANSI)
 62
    18
420
        0
370
     5
100
AcDbLine
 10
105.2457393967473
 20
173.8126221297947
 30
0.0
 11
131.3527881546433
 21
173.8126221297947
 31
0.0
  0
LINE
  5
259
330
70
100
AcDbEntity
  8
Sichtbar schmal (ANSI)
 62
    18
420
        0
370
     5
100
AcDbLine
 10
100.3946393185316
 20
172.9113220925142
 30
0.0
 11
125.8797009111513
 21
172.9113220925142
 31
0.0
  0
LINE
  5
25A
330
70
100
AcDbEntity
  8
Sichtbar schmal (ANSI)
 62
    18
420
        0
370
     5
100
AcDbLine
 10
100.3946393185316
 20
169.2390352382266
 30
0.0
 11
131.3527881546433
 21
169.2390352382266
 31
0.0
  0
INSERT
  5
25C
330
70
100
AcDbEntity
  8
Sichtbar schmal (ANSI)
100
AcDbBlockReference
  2
Block_41
 10
0.0
 20
0.0
 30
0.0
  0
LINE
  5
270
330
70
100
AcDbEntity
  8
Sichtbar schmal (ANSI)
 62
    18
420
        0
370
     5
100
AcDbLine
 10
123.8797009116518
 20
169.2421788851599
 30
0.0
 11
123.8797009116518
 21
172.922010991759
 31
0.0
  0
INSERT
  5
272
330
70
100
AcDbEntity
  8
Sichtbar schmal (ANSI)
100
AcDbBlockReference
  2
Block_45
 10
0.0
 20
0.0
 30
0.0
  0
LWPOLYLINE
  5
280
330
70
100
AcDbEntity
  8
Sichtbar schmal (ANSI)
 62
    18
420
        0
370
     5
100
AcDbPolyline
 90
        1
 70
     0
 43
0.0
 10
123.8797009116518
 20
172.9113220925142
  0
LWPOLYLINE
  5
281
330
70
100
AcDbEntity
  8
Sichtbar schmal (ANSI)
 62
    18
420
        0
370
     5
100
AcDbPolyline
 90
        1
 70
     0
 43
0.0
 10
125.8797009111513
 20
172.9113220925142
  0
ENDSEC
  0
SECTION
  2
OBJECTS
  0
DICTIONARY
  5
C
330
0
100
AcDbDictionary
281
     1
  3
ACAD_COLOR
350
63
  3
ACAD_DETAILVIEWSTYLE
350
6A
  3
ACAD_GROUP
350
D
  3
ACAD_LAYOUT
350
62
  3
ACAD_MATERIAL
350
10
  3
ACAD_MLEADERSTYLE
350
66
  3
ACAD_MLINESTYLE
350
5F
  3
ACAD_PLOTSETTINGS
350
61
  3
ACAD_PLOTSTYLENAME
350
E
  3
ACAD_SCALELIST
350
42
  3
ACAD_SECTIONVIEWSTYLE
350
68
  3
ACAD_TABLESTYLE
350
64
  3
ACAD_VISUALSTYLE
350
29
  3
ACDB_RECOMPOSE_DATA
350
28A
  3
AcDbVariableDictionary
350
282
  0
DICTIONARY
  5
63
102
{ACAD_REACTORS
330
C
102
}
330
C
100
AcDbDictionary
281
     1
  0
DICTIONARY
  5
6A
102
{ACAD_REACTORS
330
C
102
}
330
C
100
AcDbDictionary
281
     1
  3
Imperial24
350
6B
  0
DICTIONARY
  5
D
102
{ACAD_REACTORS
330
C
102
}
330
C
100
AcDbDictionary
281
     1
  0
DICTIONARY
  5
62
102
{ACAD_REACTORS
330
C
102
}
330
C
100
AcDbDictionary
281
     1
  3
Layout1
350
6F
  3
Layout2
350
77
  3
Model
350
73
  0
DICTIONARY
  5
10
102
{ACAD_REACTORS
330
C
102
}
330
C
100
AcDbDictionary
281
     1
  3
ByBlock
350
19
  3
ByLayer
350
11
  3
Global
350
21
  0
DICTIONARY
  5
66
102
{ACAD_REACTORS
330
C
102
}
330
C
100
AcDbDictionary
281
     1
  3
Standard
350
67
  0
DICTIONARY
  5
5F
102
{ACAD_REACTORS
330
C
102
}
330
C
100
AcDbDictionary
281
     1
  3
Standard
350
60
  0
DICTIONARY
  5
61
102
{ACAD_REACTORS
330
C
102
}
330
C
100
AcDbDictionary
281
     1
  0
ACDBDICTIONARYWDFLT
  5
E
102
{ACAD_REACTORS
330
C
102
}
330
C
100
AcDbDictionary
281
     1
  3
Normal
350
F
100
AcDbDictionaryWithDefault
340
F
  0
DICTIONARY
  5
42
102
{ACAD_REACTORS
330
C
102
}
330
C
100
AcDbDictionary
281
     1
  3
A0
350
43
  3
A1
350
44
  3
A2
350
45
  3
A3
350
46
  3
A4
350
47
  3
A5
350
48
  3
A6
350
49
  3
A7
350
4A
  3
A8
350
4B
  3
A9
350
4C
  3
B0
350
4D
  3
B1
350
4E
  3
B2
350
4F
  3
B3
350
50
  3
B4
350
51
  3
B5
350
52
  3
B6
350
53
  0
DICTIONARY
  5
68
102
{ACAD_REACTORS
330
C
102
}
330
C
100
AcDbDictionary
281
     1
  3
Imperial24
350
69
  0
DICTIONARY
  5
64
102
{ACAD_REACTORS
330
C
102
}
330
C
100
AcDbDictionary
281
     1
  3
Standard
350
65
  0
DICTIONARY
  5
29
102
{ACAD_REACTORS
330
C
102
}
330
C
100
AcDbDictionary
281
     1
  3
2dWireframe
350
2F
  3
Basic
350
2E
  3
Brighten
350
35
  3
ColorChange
350
39
  3
Conceptual
350
32
  3
Dim
350
34
  3
EdgeColorOff
350
41
  3
Facepattern
350
38
  3
Flat
350
2A
  3
FlatWithEdges
350
2B
  3
Gouraud
350
2C
  3
GouraudWithEdges
350
2D
  3
Hidden
350
31
  3
JitterOff
350
3F
  3
Linepattern
350
37
  3
OverhangOff
350
40
  3
Realistic
350
33
  3
Shaded
350
3E
  3
Shaded with edges
350
3D
  3
Shades of Gray
350
3A
  3
Sketchy
350
3B
  3
Thicken
350
36
  3
Wireframe
350
30
  3
X-Ray
350
3C
  0
XRECORD
  5
28A
102
{ACAD_REACTORS
330
C
102
}
330
C
100
AcDbXrecord
280
     1
 90
        1
330
65
  0
DICTIONARY
  5
282
102
{ACAD_REACTORS
330
C
102
}
330
C
100
AcDbDictionary
281
     1
  3
CANNOSCALE
350
287
  3
CMLEADERSTYLE
350
284
  3
CTABLESTYLE
350
283
  3
CVIEWDETAILSTYLE
350
285
  3
CVIEWSECTIONSTYLE
350
286
  0
ACDBDETAILVIEWSTYLE
  5
6B
102
{ACAD_REACTORS
330
6A
102
}
330
6A
100
AcDbModelDocViewStyle
 70
     0
  3
Imperial24
290
     1
300
Imperial24
 90
        0
100
AcDbDetailViewStyle
 70
     0
 71
     0
 90
        3
 71
     1
340
55
 62
   256
 40
0.24
340
0
 62
   256
 40
0.24
300

 40
0.36
280
     3
 71
     2
340
5D
 90
       25
 62
   256
 71
     3
340
55
 62
   256
 40
0.24
 90
        1
 40
0.75
 90
        1
300
%<\AcVar ViewType \f "%tc1">% %<\AcVar ViewDetailId>%\PSCALE %<\AcVar ViewScale \f "%sn">%
 71
     4
340
5D
 90
       25
 62
   256
340
5D
 90
       25
 62
   256
280
     0
  0
LAYOUT
  5
6F
102
{ACAD_REACTORS
330
62
102
}
330
62
100
AcDbPlotSettings
  1

  2

  4

  6

 40
0.0
 41
0.0
 42
0.0
 43
0.0
 44
0.0
 45
0.0
 46
0.0
 47
0.0
 48
0.0
 49
0.0
140
0.0
141
0.0
142
1.0
143
1.0
 70
   688
 72
     0
 73
     0
 74
     5
  7

 75
    16
147
1.0
 76
     0
 77
     2
 78
   300
148
0.0
149
0.0
100
AcDbLayout
  1
Layout1
 70
     1
 71
     1
 10
0.0
 20
0.0
 11
12.0
 21
9.0
 12
0.0
 22
0.0
 32
0.0
 14
0.0
 24
0.0
 34
0.0
 15
0.0
 25
0.0
 35
0.0
146
0.0
 13
0.0
 23
0.0
 33
0.0
 16
1.0
 26
0.0
 36
0.0
 17
0.0
 27
1.0
 37
0.0
 76
     0
330
6C
  0
LAYOUT
  5
77
102
{ACAD_REACTORS
330
62
102
}
330
62
100
AcDbPlotSettings
  1

  2

  4

  6

 40
0.0
 41
0.0
 42
0.0
 43
0.0
 44
0.0
 45
0.0
 46
0.0
 47
0.0
 48
0.0
 49
0.0
140
0.0
141
0.0
142
1.0
143
1.0
 70
   688
 72
     0
 73
     0
 74
     5
  7

 75
    16
147
1.0
 76
     0
 77
     2
 78
   300
148
0.0
149
0.0
100
AcDbLayout
  1
Layout2
 70
     1
 71
     2
 10
0.0
 20
0.0
 11
12.0
 21
9.0
 12
0.0
 22
0.0
 32
0.0
 14
0.0
 24
0.0
 34
0.0
 15
0.0
 25
0.0
 35
0.0
146
0.0
 13
0.0
 23
0.0
 33
0.0
 16
1.0
 26
0.0
 36
0.0
 17
0.0
 27
1.0
 37
0.0
 76
     0
330
74
  0
LAYOUT
  5
73
102
{ACAD_REACTORS
330
62
102
}
330
62
100
AcDbPlotSettings
  1

  2

  4

  6

 40
0.0
 41
0.0
 42
0.0
 43
0.0
 44
0.0
 45
0.0
 46
0.0
 47
0.0
 48
0.0
 49
0.0
140
0.0
141
0.0
142
1.0
143
1.0
 70
  1712
 72
     0
 73
     0
 74
     0
  7

 75
     0
147
1.0
 76
     0
 77
     2
 78
   300
148
0.0
149
0.0
100
AcDbLayout
  1
Model
 70
     1
 71
     0
 10
0.0
 20
0.0
 11
12.0
 21
9.0
 12
0.0
 22
0.0
 32
0.0
 14
0.0
 24
0.0
 34
0.0
 15
0.0
 25
0.0
 35
0.0
146
0.0
 13
0.0
 23
0.0
 33
0.0
 16
1.0
 26
0.0
 36
0.0
 17
0.0
 27
1.0
 37
0.0
 76
     0
330
70
  0
MATERIAL
  5
19
102
{ACAD_XDICTIONARY
360
1A
102
}
102
{ACAD_REACTORS
330
10
102
}
330
10
100
AcDbMaterial
  1
ByBlock
 72
     0
 43
0.0208333333333333
 43
0.0
 43
0.0
 43
0.0
 43
0.0
 43
0.0208333333333333
 43
0.0
 43
0.0
 43
0.0
 43
0.0
 43
1.0
 43
0.0
 43
0.0
 43
0.0
 43
0.0
 43
1.0
 77
     0
 47
0.0208333333333333
 47
0.0
 47
0.0
 47
0.0
 47
0.0
 47
0.0208333333333333
 47
0.0
 47
0.0
 47
0.0
 47
0.0
 47
1.0
 47
0.0
 47
0.0
 47
0.0
 47
0.0
 47
1.0
171
     0
 49
0.0208333333333333
 49
0.0
 49
0.0
 49
0.0
 49
0.0
 49
0.0208333333333333
 49
0.0
 49
0.0
 49
0.0
 49
0.0
 49
1.0
 49
0.0
 49
0.0
 49
0.0
 49
0.0
 49
1.0
175
     0
142
0.0208333333333333
142
0.0
142
0.0
142
0.0
142
0.0
142
0.0208333333333333
142
0.0
142
0.0
142
0.0
142
0.0
142
1.0
142
0.0
142
0.0
142
0.0
142
0.0
142
1.0
179
     0
144
0.0208333333333333
144
0.0
144
0.0
144
0.0
144
0.0
144
0.0208333333333333
144
0.0
144
0.0
144
0.0
144
0.0
144
1.0
144
0.0
144
0.0
144
0.0
144
0.0
144
1.0
147
0.0208333333333333
147
0.0
147
0.0
147
0.0
147
0.0
147
0.0208333333333333
147
0.0
147
0.0
147
0.0
147
0.0
147
1.0
147
0.0
147
0.0
147
0.0
147
0.0
147
1.0
  0
MATERIAL
  5
11
102
{ACAD_XDICTIONARY
360
12
102
}
102
{ACAD_REACTORS
330
10
102
}
330
10
100
AcDbMaterial
  1
ByLayer
 72
     0
 43
0.0208333333333333
 43
0.0
 43
0.0
 43
0.0
 43
0.0
 43
0.0208333333333333
 43
0.0
 43
0.0
 43
0.0
 43
0.0
 43
1.0
 43
0.0
 43
0.0
 43
0.0
 43
0.0
 43
1.0
 77
     0
 47
0.0208333333333333
 47
0.0
 47
0.0
 47
0.0
 47
0.0
 47
0.0208333333333333
 47
0.0
 47
0.0
 47
0.0
 47
0.0
 47
1.0
 47
0.0
 47
0.0
 47
0.0
 47
0.0
 47
1.0
171
     0
 49
0.0208333333333333
 49
0.0
 49
0.0
 49
0.0
 49
0.0
 49
0.0208333333333333
 49
0.0
 49
0.0
 49
0.0
 49
0.0
 49
1.0
 49
0.0
 49
0.0
 49
0.0
 49
0.0
 49
1.0
175
     0
142
0.0208333333333333
142
0.0
142
0.0
142
0.0
142
0.0
142
0.0208333333333333
142
0.0
142
0.0
142
0.0
142
0.0
142
1.0
142
0.0
142
0.0
142
0.0
142
0.0
142
1.0
179
     0
144
0.0208333333333333
144
0.0
144
0.0
144
0.0
144
0.0
144
0.0208333333333333
144
0.0
144
0.0
144
0.0
144
0.0
144
1.0
144
0.0
144
0.0
144
0.0
144
0.0
144
1.0
147
0.0208333333333333
147
0.0
147
0.0
147
0.0
147
0.0
147
0.0208333333333333
147
0.0
147
0.0
147
0.0
147
0.0
147
1.0
147
0.0
147
0.0
147
0.0
147
0.0
147
1.0
  0
MATERIAL
  5
21
102
{ACAD_XDICTIONARY
360
22
102
}
102
{ACAD_REACTORS
330
10
102
}
330
10
100
AcDbMaterial
  1
Global
 72
     0
 43
0.0208333333333333
 43
0.0
 43
0.0
 43
0.0
 43
0.0
 43
0.0208333333333333
 43
0.0
 43
0.0
 43
0.0
 43
0.0
 43
1.0
 43
0.0
 43
0.0
 43
0.0
 43
0.0
 43
1.0
 77
     0
 47
0.0208333333333333
 47
0.0
 47
0.0
 47
0.0
 47
0.0
 47
0.0208333333333333
 47
0.0
 47
0.0
 47
0.0
 47
0.0
 47
1.0
 47
0.0
 47
0.0
 47
0.0
 47
0.0
 47
1.0
171
     0
 49
0.0208333333333333
 49
0.0
 49
0.0
 49
0.0
 49
0.0
 49
0.0208333333333333
 49
0.0
 49
0.0
 49
0.0
 49
0.0
 49
1.0
 49
0.0
 49
0.0
 49
0.0
 49
0.0
 49
1.0
175
     0
142
0.0208333333333333
142
0.0
142
0.0
142
0.0
142
0.0
142
0.0208333333333333
142
0.0
142
0.0
142
0.0
142
0.0
142
1.0
142
0.0
142
0.0
142
0.0
142
0.0
142
1.0
179
     0
144
0.0208333333333333
144
0.0
144
0.0
144
0.0
144
0.0
144
0.0208333333333333
144
0.0
144
0.0
144
0.0
144
0.0
144
1.0
144
0.0
144
0.0
144
0.0
144
0.0
144
1.0
147
0.0208333333333333
147
0.0
147
0.0
147
0.0
147
0.0
147
0.0208333333333333
147
0.0
147
0.0
147
0.0
147
0.0
147
1.0
147
0.0
147
0.0
147
0.0
147
0.0
147
1.0
  0
MLEADERSTYLE
  5
67
102
{ACAD_REACTORS
330
66
102
}
330
66
100
AcDbMLeaderStyle
179
     2
170
     2
171
     1
172
     0
 90
        2
 40
0.0
 41
0.0
173
     1
 91
-1056964608
340
5B
 92
       -2
290
     1
 42
0.09
291
     1
 43
0.36
  3
Standard
 44
0.18
300

342
55
174
     1
178
     6
175
     1
176
     0
 93
-1056964608
 45
0.18
292
     0
297
     0
 46
0.18
 94
-1056964608
 47
1.0
 49
1.0
140
1.0
293
     1
141
0.0
294
     1
177
     0
142
1.0
295
     1
296
     0
143
0.125
271
     0
272
     9
273
     9
298
     1
  0
MLINESTYLE
  5
60
102
{ACAD_REACTORS
330
5F
102
}
330
5F
100
AcDbMlineStyle
  2
STANDARD
 70
     0
  3

 62
   256
 51
90.0
 52
90.0
 71
     2
 49
0.5
 62
   256
  6
BYLAYER
 49
-0.5
 62
   256
  6
BYLAYER
  0
ACDBPLACEHOLDER
  5
F
102
{ACAD_REACTORS
330
E
102
}
330
E
  0
SCALE
  5
43
102
{ACAD_REACTORS
330
42
102
}
330
42
100
AcDbScale
 70
     0
300
1:1
140
1.0
141
1.0
290
     1
  0
SCALE
  5
44
102
{ACAD_REACTORS
330
42
102
}
330
42
100
AcDbScale
 70
     0
300
1/128" = 1'-0"
140
0.0078125
141
12.0
290
     0
  0
SCALE
  5
45
102
{ACAD_REACTORS
330
42
102
}
330
42
100
AcDbScale
 70
     0
300
1/64" = 1'-0"
140
0.015625
141
12.0
290
     0
  0
SCALE
  5
46
102
{ACAD_REACTORS
330
42
102
}
330
42
100
AcDbScale
 70
     0
300
1/32" = 1'-0"
140
0.03125
141
12.0
290
     0
  0
SCALE
  5
47
102
{ACAD_REACTORS
330
42
102
}
330
42
100
AcDbScale
 70
     0
300
1/16" = 1'-0"
140
0.0625
141
12.0
290
     0
  0
SCALE
  5
48
102
{ACAD_REACTORS
330
42
102
}
330
42
100
AcDbScale
 70
     0
300
3/32" = 1'-0"
140
0.09375
141
12.0
290
     0
  0
SCALE
  5
49
102
{ACAD_REACTORS
330
42
102
}
330
42
100
AcDbScale
 70
     0
300
1/8" = 1'-0"
140
0.125
141
12.0
290
     0
  0
SCALE
  5
4A
102
{ACAD_REACTORS
330
42
102
}
330
42
100
AcDbScale
 70
     0
300
3/16" = 1'-0"
140
0.1875
141
12.0
290
     0
  0
SCALE
  5
4B
102
{ACAD_REACTORS
330
42
102
}
330
42
100
AcDbScale
 70
     0
300
1/4" = 1'-0"
140
0.25
141
12.0
290
     0
  0
SCALE
  5
4C
102
{ACAD_REACTORS
330
42
102
}
330
42
100
AcDbScale
 70
     0
300
3/8" = 1'-0"
140
0.375
141
12.0
290
     0
  0
SCALE
  5
4D
102
{ACAD_REACTORS
330
42
102
}
330
42
100
AcDbScale
 70
     0
300
1/2" = 1'-0"
140
0.5
141
12.0
290
     0
  0
SCALE
  5
4E
102
{ACAD_REACTORS
330
42
102
}
330
42
100
AcDbScale
 70
     0
300
3/4" = 1'-0"
140
0.75
141
12.0
290
     0
  0
SCALE
  5
4F
102
{ACAD_REACTORS
330
42
102
}
330
42
100
AcDbScale
 70
     0
300
1" = 1'-0"
140
1.0
141
12.0
290
     0
  0
SCALE
  5
50
102
{ACAD_REACTORS
330
42
102
}
330
42
100
AcDbScale
 70
     0
300
1-1/2" = 1'-0"
140
1.5
141
12.0
290
     0
  0
SCALE
  5
51
102
{ACAD_REACTORS
330
42
102
}
330
42
100
AcDbScale
 70
     0
300
3" = 1'-0"
140
3.0
141
12.0
290
     0
  0
SCALE
  5
52
102
{ACAD_REACTORS
330
42
102
}
330
42
100
AcDbScale
 70
     0
300
6" = 1'-0"
140
6.0
141
12.0
290
     0
  0
SCALE
  5
53
102
{ACAD_REACTORS
330
42
102
}
330
42
100
AcDbScale
 70
     0
300
1'-0" = 1'-0"
140
12.0
141
12.0
290
     0
  0
ACDBSECTIONVIEWSTYLE
  5
69
102
{ACAD_REACTORS
330
68
102
}
330
68
100
AcDbModelDocViewStyle
 70
     0
  3
Imperial24
290
     1
300
Imperial24
 90
        0
100
AcDbSectionViewStyle
 70
     0
 71
     0
 90
       78
 71
     1
340
55
 62
   256
 40
0.24
340
0
340
0
 62
   256
 40
0.24
300
I, O, Q, S, X, Z
 40
0.48
 90
        3
 40
0.18
 90
        1
 71
     2
340
5D
 90
       25
 62
   256
340
5D
 90
       50
 62
   256
 40
0.24
 40
0.0
 40
0.24
 71
     3
340
55
 62
   256
 40
0.24
 90
        1
 40
0.75
 90
        1
300
%<\AcVar ViewType \f "%tc1">% %<\AcVar ViewSectionStartId>%-%<\AcVar ViewSectionEndId>%\PSCALE %<\AcVar ViewScale \f "%sn">%
 71
     4
 62
   256
 62
   257
300
ANSI31
 40
1.0
 90
        0
290
     0
290
     0
 90
        6
 40
0.0
 40
1.570796326794896
 40
0.2617993877991494
 40
1.308996938995747
 40
-0.2617993877991494
 40
1.832595714594046
  0
TABLESTYLE
  5
65
102
{ACAD_XDICTIONARY
360
288
102
}
102
{ACAD_REACTORS
330
64
102
}
330
64
100
AcDbTableStyle
280
     0
  3
Standard
 70
     0
 71
     0
 40
0.06
 41
0.06
280
     0
281
     0
  7
Standard
140
0.18
170
     2
 62
     0
 63
     7
283
     0
 90
      512
 91
        0
  1

274
    -2
284
     1
 64
     0
275
    -2
285
     1
 65
     0
276
    -2
286
     1
 66
     0
277
    -2
287
     1
 67
     0
278
    -2
288
     1
 68
     0
279
    -2
289
     1
 69
     0
  7
Standard
140
0.25
170
     5
 62
     0
 63
     7
283
     0
 90
      512
 91
        0
  1

274
    -2
284
     1
 64
     0
275
    -2
285
     1
 65
     0
276
    -2
286
     1
 66
     0
277
    -2
287
     1
 67
     0
278
    -2
288
     1
 68
     0
279
    -2
289
     1
 69
     0
  7
Standard
140
0.18
170
     5
 62
     0
 63
     7
283
     0
 90
      512
 91
        0
  1

274
    -2
284
     1
 64
     0
275
    -2
285
     1
 65
     0
276
    -2
286
     1
 66
     0
277
    -2
287
     1
 67
     0
278
    -2
288
     1
 68
     0
279
    -2
289
     1
 69
     0
  0
VISUALSTYLE
  5
2F
102
{ACAD_REACTORS
330
29
102
}
330
29
100
AcDbVisualStyle
  2
2dWireframe
 70
     4
177
     3
291
     0
 70
    58
 90
        0
176
     1
 90
        2
176
     1
 90
        0
176
     1
 90
        0
176
     1
 40
0.6
176
     1
 40
30.0
176
     1
 62
     7
420
 16777215
176
     1
 90
        1
176
     1
 90
        4
176
     1
 62
     7
176
     1
 62
   257
176
     1
 90
        1
176
     1
 90
        1
176
     1
 40
1.0
176
     1
 90
        0
176
     1
 62
   257
176
     1
 40
1.0
176
     1
 90
        1
176
     1
 90
        6
176
     1
 90
        2
176
     1
 62
     7
176
     1
 90
        5
176
     1
 90
        0
176
     1
 90
        0
176
     1
290
     0
176
     1
 90
        1
176
     1
 40
0.0
176
     1
 90
        0
176
     1
290
     1
176
     1
290
     1
176
     1
290
     0
176
     1
290
     0
176
     1
290
     0
176
     1
290
     0
176
     1
290
     0
176
     1
290
     0
176
     1
290
     0
176
     1
 90
       50
176
     1
 40
0.0
176
     1
 40
1.0
176
     1
 90
        0
176
     1
 62
    18
420
        0
176
     1
 90
       50
176
     1
 90
        3
176
     1
 62
     5
420
      255
176
     1
290
     0
176
     1
 90
       50
176
     1
 90
       50
176
     1
 90
       50
176
     1
290
     0
176
     1
 90
       50
176
     1
 62
   256
176
     0
 40
1.0
176
     0
 90
        2
176
     1
  1
strokes_ogs.tif
176
     1
290
     0
176
     1
 40
1.0
176
     1
 40
1.0
176
     1
  0
VISUALSTYLE
  5
2E
102
{ACAD_REACTORS
330
29
102
}
330
29
100
AcDbVisualStyle
  2
Basic
 70
     7
177
     3
291
     1
 70
    58
 90
        1
176
     1
 90
        0
176
     1
 90
        1
176
     1
 90
        0
176
     1
 40
0.6
176
     1
 40
30.0
176
     1
 62
     7
420
 16777215
176
     1
 90
        0
176
     1
 90
        4
176
     1
 62
     7
176
     1
 62
   257
176
     1
 90
        1
176
     1
 90
        1
176
     1
 40
1.0
176
     1
 90
        8
176
     1
 62
     7
176
     1
 40
1.0
176
     1
 90
        1
176
     1
 90
        6
176
     1
 90
        2
176
     1
 62
     7
176
     1
 90
        5
176
     1
 90
        0
176
     1
 90
        0
176
     1
290
     0
176
     1
 90
        1
176
     1
 40
0.0
176
     1
 90
        0
176
     1
290
     0
176
     1
290
     1
176
     1
290
     1
176
     1
290
     0
176
     1
290
     0
176
     1
290
     0
176
     1
290
     0
176
     1
290
     0
176
     1
290
     0
176
     1
 90
       50
176
     1
 40
0.0
176
     1
 40
1.0
176
     1
 90
        0
176
     1
 62
    18
420
        0
176
     1
 90
       50
176
     1
 90
        3
176
     1
 62
     5
420
      255
176
     1
290
     0
176
     1
 90
       50
176
     1
 90
       50
176
     1
 90
       50
176
     1
290
     0
176
     1
 90
       50
176
     1
 62
   256
176
     0
 40
1.0
176
     0
 90
        2
176
     1
  1
strokes_ogs.tif
176
     1
290
     0
176
     1
 40
1.0
176
     1
 40
1.0
176
     1
  0
VISUALSTYLE
  5
35
102
{ACAD_REACTORS
330
29
102
}
330
29
100
AcDbVisualStyle
  2
Brighten
 70
    12
177
     3
291
     1
 70
    58
 90
        2
176
     1
 90
        2
176
     1
 90
        0
176
     1
 90
        0
176
     1
 40
0.6
176
     1
 40
30.0
176
     1
 62
     7
420
 16777215
176
     1
 90
        1
176
     1
 90
        4
176
     1
 62
     7
176
     1
 62
   257
176
     1
 90
        1
176
     1
 90
        1
176
     1
 40
1.0
176
     1
 90
        8
176
     1
 62
     7
176
     1
 40
1.0
176
     1
 90
        1
176
     1
 90
        6
176
     1
 90
        2
176
     1
 62
     7
176
     1
 90
        5
176
     1
 90
        0
176
     1
 90
        0
176
     1
290
     0
176
     1
 90
        1
176
     1
 40
50.0
176
     1
 90
        0
176
     1
290
     0
176
     1
290
     1
176
     1
290
     1
176
     1
290
     0
176
     1
290
     0
176
     1
290
     0
176
     1
290
     0
176
     1
290
     0
176
     1
290
     0
176
     1
 90
       50
176
     1
 40
0.0
176
     1
 40
1.0
176
     1
 90
        0
176
     1
 62
    18
420
        0
176
     1
 90
       50
176
     1
 90
        3
176
     1
 62
     5
420
      255
176
     1
290
     0
176
     1
 90
       50
176
     1
 90
       50
176
     1
 90
       50
176
     1
290
     0
176
     1
 90
       50
176
     1
 62
   256
176
     0
 40
1.0
176
     0
 90
        2
176
     1
  1
strokes_ogs.tif
176
     1
290
     0
176
     1
 40
1.0
176
     1
 40
1.0
176
     1
  0
VISUALSTYLE
  5
39
102
{ACAD_REACTORS
330
29
102
}
330
29
100
AcDbVisualStyle
  2
ColorChange
 70
    16
177
     3
291
     1
 70
    58
 90
        2
176
     1
 90
        2
176
     1
 90
        3
176
     1
 90
        0
176
     1
 40
0.6
176
     1
 40
30.0
176
     1
 62
     8
420
  8421504
176
     1
 90
        1
176
     1
 90
        4
176
     1
 62
     7
176
     1
 62
   257
176
     1
 90
        1
176
     1
 90
        1
176
     1
 40
1.0
176
     1
 90
        8
176
     1
 62
     8
420
  8421504
176
     1
 40
1.0
176
     1
 90
        1
176
     1
 90
        6
176
     1
 90
        2
176
     1
 62
     7
176
     1
 90
        5
176
     1
 90
        0
176
     1
 90
        0
176
     1
290
     0
176
     1
 90
        1
176
     1
 40
0.0
176
     1
 90
        0
176
     1
290
     0
176
     1
290
     1
176
     1
290
     1
176
     1
290
     0
176
     1
290
     0
176
     1
290
     0
176
     1
290
     0
176
     1
290
     0
176
     1
290
     0
176
     1
 90
       50
176
     1
 40
0.0
176
     1
 40
1.0
176
     1
 90
        0
176
     1
 62
    18
420
        0
176
     1
 90
       50
176
     1
 90
        3
176
     1
 62
     5
420
      255
176
     1
290
     0
176
     1
 90
       50
176
     1
 90
       50
176
     1
 90
       50
176
     1
290
     0
176
     1
 90
       50
176
     1
 62
   256
176
     0
 40
1.0
176
     0
 90
        2
176
     1
  1
strokes_ogs.tif
176
     1
290
     0
176
     1
 40
1.0
176
     1
 40
1.0
176
     1
  0
VISUALSTYLE
  5
32
102
{ACAD_REACTORS
330
29
102
}
330
29
100
AcDbVisualStyle
  2
Conceptual
 70
     9
177
     3
291
     0
 70
    58
 90
        3
176
     1
 90
        2
176
     1
 90
        0
176
     1
 90
        0
176
     1
 40
0.6
176
     1
 40
30.0
176
     1
 62
     7
420
 16777215
176
     1
 90
        2
176
     1
 90
        2
176
     1
 62
     7
176
     1
 62
   257
176
     1
 90
        1
176
     1
 90
        1
176
     1
 40
179.0
176
     1
 90
        8
176
     1
 62
     7
176
     1
 40
1.0
176
     1
 90
        1
176
     1
 90
        6
176
     1
 90
        2
176
     1
 62
     7
176
     1
 90
        3
176
     1
 90
        0
176
     1
 90
        0
176
     1
290
     0
176
     1
 90
        1
176
     1
 40
0.0
176
     1
 90
        0
176
     1
290
     0
176
     1
290
     1
176
     1
290
     1
176
     1
290
     0
176
     1
290
     0
176
     1
290
     0
176
     1
290
     0
176
     1
290
     0
176
     1
290
     0
176
     1
 90
       50
176
     1
 40
0.0
176
     1
 40
1.0
176
     1
 90
        0
176
     1
 62
    18
420
        0
176
     1
 90
       50
176
     1
 90
        3
176
     1
 62
     5
420
      255
176
     1
290
     0
176
     1
 90
       50
176
     1
 90
       50
176
     1
 90
       50
176
     1
290
     0
176
     1
 90
       50
176
     1
 62
   256
176
     0
 40
1.0
176
     0
 90
        2
176
     1
  1
strokes_ogs.tif
176
     1
290
     0
176
     1
 40
1.0
176
     1
 40
1.0
176
     1
  0
VISUALSTYLE
  5
34
102
{ACAD_REACTORS
330
29
102
}
330
29
100
AcDbVisualStyle
  2
Dim
 70
    11
177
     3
291
     1
 70
    58
 90
        2
176
     1
 90
        2
176
     1
 90
        0
176
     1
 90
        0
176
     1
 40
0.6
176
     1
 40
30.0
176
     1
 62
     7
420
 16777215
176
     1
 90
        1
176
     1
 90
        4
176
     1
 62
     7
176
     1
 62
   257
176
     1
 90
        1
176
     1
 90
        1
176
     1
 40
1.0
176
     1
 90
        8
176
     1
 62
     7
176
     1
 40
1.0
176
     1
 90
        1
176
     1
 90
        6
176
     1
 90
        2
176
     1
 62
     7
176
     1
 90
        5
176
     1
 90
        0
176
     1
 90
        0
176
     1
290
     0
176
     1
 90
        1
176
     1
 40
-50.0
176
     1
 90
        0
176
     1
290
     0
176
     1
290
     1
176
     1
290
     1
176
     1
290
     0
176
     1
290
     0
176
     1
290
     0
176
     1
290
     0
176
     1
290
     0
176
     1
290
     0
176
     1
 90
       50
176
     1
 40
0.0
176
     1
 40
1.0
176
     1
 90
        0
176
     1
 62
    18
420
        0
176
     1
 90
       50
176
     1
 90
        3
176
     1
 62
     5
420
      255
176
     1
290
     0
176
     1
 90
       50
176
     1
 90
       50
176
     1
 90
       50
176
     1
290
     0
176
     1
 90
       50
176
     1
 62
   256
176
     0
 40
1.0
176
     0
 90
        2
176
     1
  1
strokes_ogs.tif
176
     1
290
     0
176
     1
 40
1.0
176
     1
 40
1.0
176
     1
  0
VISUALSTYLE
  5
41
102
{ACAD_REACTORS
330
29
102
}
330
29
100
AcDbVisualStyle
  2
EdgeColorOff
 70
    22
177
     3
291
     1
 70
    58
 90
        2
176
     0
 90
        2
176
     0
 90
        0
176
     0
 90
        0
176
     0
 40
0.6
176
     0
 40
30.0
176
     0
 62
     7
420
 16777215
176
     0
 90
        1
176
     0
 90
        4
176
     0
 62
     7
176
     0
 62
   257
176
     0
 90
        1
176
     0
 90
        1
176
     0
 40
1.0
176
     0
 90
        8
176
     2
 62
     7
176
     0
 40
1.0
176
     0
 90
        1
176
     0
 90
        6
176
     0
 90
        2
176
     0
 62
     7
176
     0
 90
        5
176
     0
 90
        0
176
     0
 90
        0
176
     0
290
     0
176
     0
 90
        1
176
     0
 40
0.0
176
     0
 90
        0
176
     0
290
     0
176
     0
290
     1
176
     0
290
     1
176
     0
290
     0
176
     0
290
     0
176
     0
290
     0
176
     0
290
     0
176
     0
290
     0
176
     0
290
     0
176
     0
 90
       50
176
     0
 40
0.0
176
     0
 40
1.0
176
     0
 90
        0
176
     0
 62
    18
420
        0
176
     0
 90
       50
176
     0
 90
        3
176
     0
 62
     5
420
      255
176
     0
290
     0
176
     0
 90
       50
176
     0
 90
       50
176
     0
 90
       50
176
     0
290
     0
176
     0
 90
       50
176
     0
 62
   256
176
     0
 40
1.0
176
     0
 90
        2
176
     0
  1
strokes_ogs.tif
176
     0
290
     0
176
     0
 40
1.0
176
     0
 40
1.0
176
     0
  0
VISUALSTYLE
  5
38
102
{ACAD_REACTORS
330
29
102
}
330
29
100
AcDbVisualStyle
  2
Facepattern
 70
    15
177
     3
291
     1
 70
    58
 90
        2
176
     1
 90
        2
176
     1
 90
        0
176
     1
 90
        0
176
     1
 40
0.6
176
     1
 40
30.0
176
     1
 62
     7
420
 16777215
176
     1
 90
        1
176
     1
 90
        4
176
     1
 62
     7
176
     1
 62
   257
176
     1
 90
        1
176
     1
 90
        1
176
     1
 40
1.0
176
     1
 90
        8
176
     1
 62
     7
176
     1
 40
1.0
176
     1
 90
        1
176
     1
 90
        6
176
     1
 90
        2
176
     1
 62
     7
176
     1
 90
        5
176
     1
 90
        0
176
     1
 90
        0
176
     1
290
     0
176
     1
 90
        1
176
     1
 40
0.0
176
     1
 90
        0
176
     1
290
     0
176
     1
290
     1
176
     1
290
     1
176
     1
290
     0
176
     1
290
     0
176
     1
290
     0
176
     1
290
     0
176
     1
290
     0
176
     1
290
     0
176
     1
 90
       50
176
     1
 40
0.0
176
     1
 40
1.0
176
     1
 90
        0
176
     1
 62
    18
420
        0
176
     1
 90
       50
176
     1
 90
        3
176
     1
 62
     5
420
      255
176
     1
290
     0
176
     1
 90
       50
176
     1
 90
       50
176
     1
 90
       50
176
     1
290
     0
176
     1
 90
       50
176
     1
 62
   256
176
     0
 40
1.0
176
     0
 90
        2
176
     1
  1
strokes_ogs.tif
176
     1
290
     0
176
     1
 40
1.0
176
     1
 40
1.0
176
     1
  0
VISUALSTYLE
  5
2A
102
{ACAD_REACTORS
330
29
102
}
330
29
100
AcDbVisualStyle
  2
Flat
 70
     0
177
     3
291
     1
 70
    58
 90
        2
176
     1
 90
        1
176
     1
 90
        1
176
     1
 90
        2
176
     1
 40
0.6
176
     1
 40
30.0
176
     1
 62
     7
420
 16777215
176
     1
 90
        0
176
     1
 90
        0
176
     1
 62
     7
176
     1
 62
   257
176
     1
 90
        1
176
     1
 90
        1
176
     1
 40
1.0
176
     1
 90
        8
176
     1
 62
     7
176
     1
 40
1.0
176
     1
 90
        1
176
     1
 90
        6
176
     1
 90
        2
176
     1
 62
     7
176
     1
 90
        5
176
     1
 90
        0
176
     1
 90
        0
176
     1
290
     0
176
     1
 90
       13
176
     1
 40
0.0
176
     1
 90
        0
176
     1
290
     0
176
     1
290
     1
176
     1
290
     1
176
     1
290
     0
176
     1
290
     0
176
     1
290
     0
176
     1
290
     0
176
     1
290
     0
176
     1
290
     0
176
     1
 90
       50
176
     1
 40
0.0
176
     1
 40
1.0
176
     1
 90
        0
176
     1
 62
    18
420
        0
176
     1
 90
       50
176
     1
 90
        3
176
     1
 62
     5
420
      255
176
     1
290
     0
176
     1
 90
       50
176
     1
 90
       50
176
     1
 90
       50
176
     1
290
     0
176
     1
 90
       50
176
     1
 62
   256
176
     0
 40
1.0
176
     0
 90
        2
176
     1
  1
strokes_ogs.tif
176
     1
290
     0
176
     1
 40
1.0
176
     1
 40
1.0
176
     1
  0
VISUALSTYLE
  5
2B
102
{ACAD_REACTORS
330
29
102
}
330
29
100
AcDbVisualStyle
  2
FlatWithEdges
 70
     1
177
     3
291
     1
 70
    58
 90
        2
176
     1
 90
        1
176
     1
 90
        1
176
     1
 90
        2
176
     1
 40
0.6
176
     1
 40
30.0
176
     1
 62
     7
420
 16777215
176
     1
 90
        1
176
     1
 90
        0
176
     1
 62
     7
176
     1
 62
   257
176
     1
 90
        1
176
     1
 90
        1
176
     1
 40
1.0
176
     1
 90
        0
176
     1
 62
   257
176
     1
 40
1.0
176
     1
 90
        1
176
     1
 90
        6
176
     1
 90
        2
176
     1
 62
     7
176
     1
 90
        5
176
     1
 90
        0
176
     1
 90
        0
176
     1
290
     0
176
     1
 90
       13
176
     1
 40
0.0
176
     1
 90
        0
176
     1
290
     0
176
     1
290
     1
176
     1
290
     1
176
     1
290
     0
176
     1
290
     0
176
     1
290
     0
176
     1
290
     0
176
     1
290
     0
176
     1
290
     0
176
     1
 90
       50
176
     1
 40
0.0
176
     1
 40
1.0
176
     1
 90
        0
176
     1
 62
    18
420
        0
176
     1
 90
       50
176
     1
 90
        3
176
     1
 62
     5
420
      255
176
     1
290
     0
176
     1
 90
       50
176
     1
 90
       50
176
     1
 90
       50
176
     1
290
     0
176
     1
 90
       50
176
     1
 62
   256
176
     0
 40
1.0
176
     0
 90
        2
176
     1
  1
strokes_ogs.tif
176
     1
290
     0
176
     1
 40
1.0
176
     1
 40
1.0
176
     1
  0
VISUALSTYLE
  5
2C
102
{ACAD_REACTORS
330
29
102
}
330
29
100
AcDbVisualStyle
  2
Gouraud
 70
     2
177
     3
291
     1
 70
    58
 90
        2
176
     1
 90
        2
176
     1
 90
        1
176
     1
 90
        2
176
     1
 40
0.6
176
     1
 40
30.0
176
     1
 62
     7
420
 16777215
176
     1
 90
        0
176
     1
 90
        0
176
     1
 62
     7
176
     1
 62
   257
176
     1
 90
        1
176
     1
 90
        1
176
     1
 40
1.0
176
     1
 90
        0
176
     1
 62
     7
176
     1
 40
1.0
176
     1
 90
        1
176
     1
 90
        6
176
     1
 90
        2
176
     1
 62
     7
176
     1
 90
        5
176
     1
 90
        0
176
     1
 90
        0
176
     1
290
     0
176
     1
 90
       13
176
     1
 40
0.0
176
     1
 90
        0
176
     1
290
     0
176
     1
290
     1
176
     1
290
     1
176
     1
290
     0
176
     1
290
     0
176
     1
290
     0
176
     1
290
     0
176
     1
290
     0
176
     1
290
     0
176
     1
 90
       50
176
     1
 40
0.0
176
     1
 40
1.0
176
     1
 90
        0
176
     1
 62
    18
420
        0
176
     1
 90
       50
176
     1
 90
        3
176
     1
 62
     5
420
      255
176
     1
290
     0
176
     1
 90
       50
176
     1
 90
       50
176
     1
 90
       50
176
     1
290
     0
176
     1
 90
       50
176
     1
 62
   256
176
     0
 40
1.0
176
     0
 90
        2
176
     1
  1
strokes_ogs.tif
176
     1
290
     0
176
     1
 40
1.0
176
     1
 40
1.0
176
     1
  0
VISUALSTYLE
  5
2D
102
{ACAD_REACTORS
330
29
102
}
330
29
100
AcDbVisualStyle
  2
GouraudWithEdges
 70
     3
177
     3
291
     1
 70
    58
 90
        2
176
     1
 90
        2
176
     1
 90
        1
176
     1
 90
        2
176
     1
 40
0.6
176
     1
 40
30.0
176
     1
 62
     7
420
 16777215
176
     1
 90
        1
176
     1
 90
        0
176
     1
 62
     7
176
     1
 62
   257
176
     1
 90
        1
176
     1
 90
        1
176
     1
 40
1.0
176
     1
 90
        0
176
     1
 62
   257
176
     1
 40
1.0
176
     1
 90
        1
176
     1
 90
        6
176
     1
 90
        2
176
     1
 62
     7
176
     1
 90
        5
176
     1
 90
        0
176
     1
 90
        0
176
     1
290
     0
176
     1
 90
       13
176
     1
 40
0.0
176
     1
 90
        0
176
     1
290
     0
176
     1
290
     1
176
     1
290
     1
176
     1
290
     0
176
     1
290
     0
176
     1
290
     0
176
     1
290
     0
176
     1
290
     0
176
     1
290
     0
176
     1
 90
       50
176
     1
 40
0.0
176
     1
 40
1.0
176
     1
 90
        0
176
     1
 62
    18
420
        0
176
     1
 90
       50
176
     1
 90
        3
176
     1
 62
     5
420
      255
176
     1
290
     0
176
     1
 90
       50
176
     1
 90
       50
176
     1
 90
       50
176
     1
290
     0
176
     1
 90
       50
176
     1
 62
   256
176
     0
 40
1.0
176
     0
 90
        2
176
     1
  1
strokes_ogs.tif
176
     1
290
     0
176
     1
 40
1.0
176
     1
 40
1.0
176
     1
  0
VISUALSTYLE
  5
31
102
{ACAD_REACTORS
330
29
102
}
330
29
100
AcDbVisualStyle
  2
Hidden
 70
     6
177
     3
291
     0
 70
    58
 90
        1
176
     1
 90
        2
176
     1
 90
        2
176
     1
 90
        0
176
     1
 40
0.6
176
     1
 40
30.0
176
     1
 62
     7
420
 16777215
176
     1
 90
        2
176
     1
 90
        2
176
     1
 62
     7
176
     1
 62
   257
176
     1
 90
        2
176
     1
 90
        1
176
     1
 40
40.0
176
     1
 90
        0
176
     1
 62
   257
176
     1
 40
1.0
176
     1
 90
        1
176
     1
 90
        6
176
     1
 90
        2
176
     1
 62
     7
176
     1
 90
        3
176
     1
 90
        0
176
     1
 90
        0
176
     1
290
     0
176
     1
 90
        1
176
     1
 40
0.0
176
     1
 90
        0
176
     1
290
     0
176
     1
290
     1
176
     1
290
     1
176
     1
290
     0
176
     1
290
     0
176
     1
290
     0
176
     1
290
     0
176
     1
290
     0
176
     1
290
     0
176
     1
 90
       50
176
     1
 40
0.0
176
     1
 40
1.0
176
     1
 90
        0
176
     1
 62
    18
420
        0
176
     1
 90
       50
176
     1
 90
        3
176
     1
 62
     5
420
      255
176
     1
290
     0
176
     1
 90
       50
176
     1
 90
       50
176
     1
 90
       50
176
     1
290
     0
176
     1
 90
       50
176
     1
 62
   256
176
     0
 40
1.0
176
     0
 90
        2
176
     1
  1
strokes_ogs.tif
176
     1
290
     0
176
     1
 40
1.0
176
     1
 40
1.0
176
     1
  0
VISUALSTYLE
  5
3F
102
{ACAD_REACTORS
330
29
102
}
330
29
100
AcDbVisualStyle
  2
JitterOff
 70
    20
177
     3
291
     1
 70
    58
 90
        2
176
     0
 90
        2
176
     0
 90
        0
176
     0
 90
        0
176
     0
 40
0.6
176
     0
 40
30.0
176
     0
 62
     7
420
 16777215
176
     0
 90
        1
176
     0
 90
        4
176
     0
 62
     7
176
     0
 62
   257
176
     0
 90
        1
176
     0
 90
        1
176
     0
 40
1.0
176
     0
 90
       10
176
     2
 62
     7
176
     0
 40
1.0
176
     0
 90
        1
176
     0
 90
        6
176
     0
 90
        2
176
     0
 62
     7
176
     0
 90
        5
176
     0
 90
        0
176
     0
 90
        0
176
     0
290
     0
176
     0
 90
        1
176
     0
 40
0.0
176
     0
 90
        0
176
     0
290
     0
176
     0
290
     1
176
     0
290
     1
176
     0
290
     0
176
     0
290
     0
176
     0
290
     0
176
     0
290
     0
176
     0
290
     0
176
     0
290
     0
176
     0
 90
       50
176
     0
 40
0.0
176
     0
 40
1.0
176
     0
 90
        0
176
     0
 62
    18
420
        0
176
     0
 90
       50
176
     0
 90
        3
176
     0
 62
     5
420
      255
176
     0
290
     0
176
     0
 90
       50
176
     0
 90
       50
176
     0
 90
       50
176
     0
290
     0
176
     0
 90
       50
176
     0
 62
   256
176
     0
 40
1.0
176
     0
 90
        2
176
     0
  1
strokes_ogs.tif
176
     0
290
     0
176
     0
 40
1.0
176
     0
 40
1.0
176
     0
  0
VISUALSTYLE
  5
37
102
{ACAD_REACTORS
330
29
102
}
330
29
100
AcDbVisualStyle
  2
Linepattern
 70
    14
177
     3
291
     1
 70
    58
 90
        2
176
     1
 90
        2
176
     1
 90
        0
176
     1
 90
        0
176
     1
 40
0.6
176
     1
 40
30.0
176
     1
 62
     7
420
 16777215
176
     1
 90
        1
176
     1
 90
        4
176
     1
 62
     7
176
     1
 62
   257
176
     1
 90
        7
176
     1
 90
        7
176
     1
 40
1.0
176
     1
 90
        8
176
     1
 62
     7
176
     1
 40
1.0
176
     1
 90
        1
176
     1
 90
        6
176
     1
 90
        2
176
     1
 62
     7
176
     1
 90
        5
176
     1
 90
        0
176
     1
 90
        0
176
     1
290
     0
176
     1
 90
        1
176
     1
 40
0.0
176
     1
 90
        0
176
     1
290
     0
176
     1
290
     1
176
     1
290
     1
176
     1
290
     0
176
     1
290
     0
176
     1
290
     0
176
     1
290
     0
176
     1
290
     0
176
     1
290
     0
176
     1
 90
       50
176
     1
 40
0.0
176
     1
 40
1.0
176
     1
 90
        0
176
     1
 62
    18
420
        0
176
     1
 90
       50
176
     1
 90
        3
176
     1
 62
     5
420
      255
176
     1
290
     0
176
     1
 90
       50
176
     1
 90
       50
176
     1
 90
       50
176
     1
290
     0
176
     1
 90
       50
176
     1
 62
   256
176
     0
 40
1.0
176
     0
 90
        2
176
     1
  1
strokes_ogs.tif
176
     1
290
     0
176
     1
 40
1.0
176
     1
 40
1.0
176
     1
  0
VISUALSTYLE
  5
40
102
{ACAD_REACTORS
330
29
102
}
330
29
100
AcDbVisualStyle
  2
OverhangOff
 70
    21
177
     3
291
     1
 70
    58
 90
        2
176
     0
 90
        2
176
     0
 90
        0
176
     0
 90
        0
176
     0
 40
0.6
176
     0
 40
30.0
176
     0
 62
     7
420
 16777215
176
     0
 90
        1
176
     0
 90
        4
176
     0
 62
     7
176
     0
 62
   257
176
     0
 90
        1
176
     0
 90
        1
176
     0
 40
1.0
176
     0
 90
        9
176
     2
 62
     7
176
     0
 40
1.0
176
     0
 90
        1
176
     0
 90
        6
176
     0
 90
        2
176
     0
 62
     7
176
     0
 90
        5
176
     0
 90
        0
176
     0
 90
        0
176
     0
290
     0
176
     0
 90
        1
176
     0
 40
0.0
176
     0
 90
        0
176
     0
290
     0
176
     0
290
     1
176
     0
290
     1
176
     0
290
     0
176
     0
290
     0
176
     0
290
     0
176
     0
290
     0
176
     0
290
     0
176
     0
290
     0
176
     0
 90
       50
176
     0
 40
0.0
176
     0
 40
1.0
176
     0
 90
        0
176
     0
 62
    18
420
        0
176
     0
 90
       50
176
     0
 90
        3
176
     0
 62
     5
420
      255
176
     0
290
     0
176
     0
 90
       50
176
     0
 90
       50
176
     0
 90
       50
176
     0
290
     0
176
     0
 90
       50
176
     0
 62
   256
176
     0
 40
1.0
176
     0
 90
        2
176
     0
  1
strokes_ogs.tif
176
     0
290
     0
176
     0
 40
1.0
176
     0
 40
1.0
176
     0
  0
VISUALSTYLE
  5
33
102
{ACAD_REACTORS
330
29
102
}
330
29
100
AcDbVisualStyle
  2
Realistic
 70
     8
177
     3
291
     0
 70
    58
 90
        2
176
     1
 90
        3
176
     1
 90
        0
176
     1
 90
        2
176
     1
 40
0.6
176
     1
 40
30.0
176
     1
 62
     7
420
 16777215
176
     1
 90
        0
176
     1
 90
        0
176
     1
 62
     7
176
     1
 62
   257
176
     1
 90
        1
176
     1
 90
        1
176
     1
 40
1.0
176
     1
 90
        8
176
     1
 62
   257
176
     1
 40
1.0
176
     1
 90
        1
176
     1
 90
        6
176
     1
 90
        2
176
     1
 62
     7
176
     1
 90
        3
176
     1
 90
        0
176
     1
 90
        0
176
     1
290
     0
176
     1
 90
       13
176
     1
 40
0.0
176
     1
 90
        0
176
     1
290
     0
176
     1
290
     1
176
     1
290
     1
176
     1
290
     0
176
     1
290
     0
176
     1
290
     0
176
     1
290
     0
176
     1
290
     0
176
     1
290
     0
176
     1
 90
       50
176
     1
 40
0.0
176
     1
 40
1.0
176
     1
 90
        0
176
     1
 62
    18
420
        0
176
     1
 90
       50
176
     1
 90
        3
176
     1
 62
     5
420
      255
176
     1
290
     0
176
     1
 90
       50
176
     1
 90
       50
176
     1
 90
       50
176
     1
290
     0
176
     1
 90
       50
176
     1
 62
   256
176
     0
 40
1.0
176
     0
 90
        2
176
     1
  1
strokes_ogs.tif
176
     1
290
     0
176
     1
 40
1.0
176
     1
 40
1.0
176
     1
  0
VISUALSTYLE
  5
3E
102
{ACAD_REACTORS
330
29
102
}
330
29
100
AcDbVisualStyle
  2
Shaded
 70
    27
177
     3
291
     0
 70
    58
 90
        2
176
     1
 90
        2
176
     1
 90
        1
176
     1
 90
        2
176
     1
 40
0.6
176
     1
 40
30.0
176
     1
 62
     7
420
 16777215
176
     1
 90
        0
176
     1
 90
        4
176
     1
 62
     7
176
     1
 62
   257
176
     1
 90
        1
176
     1
 90
        1
176
     1
 40
1.0
176
     1
 90
        8
176
     1
 62
   257
176
     1
 40
1.0
176
     1
 90
        1
176
     1
 90
        6
176
     1
 90
        2
176
     1
 62
     8
420
  7895160
176
     1
 90
        3
176
     1
 90
        0
176
     1
 90
        0
176
     1
290
     0
176
     1
 90
        5
176
     1
 40
0.0
176
     1
 90
        0
176
     1
290
     0
176
     1
290
     1
176
     1
290
     1
176
     1
290
     0
176
     1
290
     0
176
     1
290
     0
176
     1
290
     0
176
     1
290
     0
176
     1
290
     0
176
     1
 90
       50
176
     1
 40
0.0
176
     1
 40
1.0
176
     1
 90
        0
176
     1
 62
    18
420
        0
176
     1
 90
       50
176
     1
 90
        3
176
     1
 62
     5
420
      255
176
     1
290
     0
176
     1
 90
       50
176
     1
 90
       50
176
     1
 90
       50
176
     1
290
     0
176
     1
 90
       50
176
     1
 62
   256
176
     0
 40
1.0
176
     0
 90
        2
176
     1
  1
strokes_ogs.tif
176
     1
290
     0
176
     1
 40
1.0
176
     1
 40
1.0
176
     1
  0
VISUALSTYLE
  5
3D
102
{ACAD_REACTORS
330
29
102
}
330
29
100
AcDbVisualStyle
  2
Shaded with edges
 70
    26
177
     3
291
     0
 70
    58
 90
        2
176
     1
 90
        2
176
     1
 90
        1
176
     1
 90
        2
176
     1
 40
0.6
176
     1
 40
30.0
176
     1
 62
     7
420
 16777215
176
     1
 90
        1
176
     1
 90
        2
176
     1
 62
     7
176
     1
 62
   257
176
     1
 90
        2
176
     1
 90
        1
176
     1
 40
1.0
176
     1
 90
        8
176
     1
 62
   257
176
     1
 40
1.0
176
     1
 90
        1
176
     1
 90
        6
176
     1
 90
        2
176
     1
 62
     7
176
     1
 90
        3
176
     1
 90
        0
176
     1
 90
        0
176
     1
290
     0
176
     1
 90
        5
176
     1
 40
0.0
176
     1
 90
        0
176
     1
290
     0
176
     1
290
     1
176
     1
290
     1
176
     1
290
     0
176
     1
290
     0
176
     1
290
     0
176
     1
290
     0
176
     1
290
     0
176
     1
290
     0
176
     1
 90
       50
176
     1
 40
0.0
176
     1
 40
1.0
176
     1
 90
        0
176
     1
 62
    18
420
        0
176
     1
 90
       50
176
     1
 90
        3
176
     1
 62
     5
420
      255
176
     1
290
     0
176
     1
 90
       50
176
     1
 90
       50
176
     1
 90
       50
176
     1
290
     0
176
     1
 90
       50
176
     1
 62
   256
176
     0
 40
1.0
176
     0
 90
        2
176
     1
  1
strokes_ogs.tif
176
     1
290
     0
176
     1
 40
1.0
176
     1
 40
1.0
176
     1
  0
VISUALSTYLE
  5
3A
102
{ACAD_REACTORS
330
29
102
}
330
29
100
AcDbVisualStyle
  2
Shades of Gray
 70
    23
177
     3
291
     0
 70
    58
 90
        2
176
     1
 90
        2
176
     1
 90
        3
176
     1
 90
        0
176
     1
 40
0.6
176
     1
 40
30.0
176
     1
 62
     7
420
 16777215
176
     1
 90
        2
176
     1
 90
        2
176
     1
 62
     7
176
     1
 62
     7
176
     1
 90
        1
176
     1
 90
        1
176
     1
 40
40.0
176
     1
 90
        8
176
     1
 62
     7
176
     1
 40
1.0
176
     1
 90
        1
176
     1
 90
        6
176
     1
 90
        2
176
     1
 62
     7
176
     1
 90
        3
176
     1
 90
        0
176
     1
 90
        0
176
     1
290
     0
176
     1
 90
        1
176
     1
 40
0.0
176
     1
 90
        0
176
     1
290
     0
176
     1
290
     1
176
     1
290
     1
176
     1
290
     0
176
     1
290
     0
176
     1
290
     0
176
     1
290
     0
176
     1
290
     0
176
     1
290
     0
176
     1
 90
       50
176
     1
 40
0.0
176
     1
 40
1.0
176
     1
 90
        0
176
     1
 62
    18
420
        0
176
     1
 90
       50
176
     1
 90
        3
176
     1
 62
     5
420
      255
176
     1
290
     0
176
     1
 90
       50
176
     1
 90
       50
176
     1
 90
       50
176
     1
290
     0
176
     1
 90
       50
176
     1
 62
   256
176
     0
 40
1.0
176
     0
 90
        2
176
     1
  1
strokes_ogs.tif
176
     1
290
     0
176
     1
 40
1.0
176
     1
 40
1.0
176
     1
  0
VISUALSTYLE
  5
3B
102
{ACAD_REACTORS
330
29
102
}
330
29
100
AcDbVisualStyle
  2
Sketchy
 70
    24
177
     3
291
     0
 70
    58
 90
        1
176
     1
 90
        2
176
     1
 90
        2
176
     1
 90
        0
176
     1
 40
0.6
176
     1
 40
30.0
176
     1
 62
     7
420
 16777215
176
     1
 90
        2
176
     1
 90
        2
176
     1
 62
     7
176
     1
 62
     7
176
     1
 90
        1
176
     1
 90
        1
176
     1
 40
40.0
176
     1
 90
       11
176
     1
 62
     7
176
     1
 40
1.0
176
     1
 90
        1
176
     1
 90
        6
176
     1
 90
        2
176
     1
 62
     7
176
     1
 90
        6
176
     1
 90
        0
176
     1
 90
        0
176
     1
290
     0
176
     1
 90
        1
176
     1
 40
0.0
176
     1
 90
        0
176
     1
290
     0
176
     1
290
     1
176
     1
290
     1
176
     1
290
     0
176
     1
290
     0
176
     1
290
     0
176
     1
290
     0
176
     1
290
     0
176
     1
290
     0
176
     1
 90
       50
176
     1
 40
0.0
176
     1
 40
1.0
176
     1
 90
        0
176
     1
 62
    18
420
        0
176
     1
 90
       50
176
     1
 90
        3
176
     1
 62
     5
420
      255
176
     1
290
     0
176
     1
 90
       50
176
     1
 90
       50
176
     1
 90
       50
176
     1
290
     0
176
     1
 90
       50
176
     1
 62
   256
176
     0
 40
1.0
176
     0
 90
        2
176
     1
  1
strokes_ogs.tif
176
     1
290
     0
176
     1
 40
1.0
176
     1
 40
1.0
176
     1
  0
VISUALSTYLE
  5
36
102
{ACAD_REACTORS
330
29
102
}
330
29
100
AcDbVisualStyle
  2
Thicken
 70
    13
177
     3
291
     1
 70
    58
 90
        2
176
     1
 90
        2
176
     1
 90
        0
176
     1
 90
        0
176
     1
 40
0.6
176
     1
 40
30.0
176
     1
 62
     7
420
 16777215
176
     1
 90
        1
176
     1
 90
        4
176
     1
 62
     7
176
     1
 62
   257
176
     1
 90
        1
176
     1
 90
        1
176
     1
 40
1.0
176
     1
 90
       12
176
     1
 62
     7
176
     1
 40
1.0
176
     1
 90
        1
176
     1
 90
        6
176
     1
 90
        2
176
     1
 62
     7
176
     1
 90
        5
176
     1
 90
        0
176
     1
 90
        0
176
     1
290
     0
176
     1
 90
        1
176
     1
 40
0.0
176
     1
 90
        0
176
     1
290
     0
176
     1
290
     1
176
     1
290
     1
176
     1
290
     0
176
     1
290
     0
176
     1
290
     0
176
     1
290
     0
176
     1
290
     0
176
     1
290
     0
176
     1
 90
       50
176
     1
 40
0.0
176
     1
 40
1.0
176
     1
 90
        0
176
     1
 62
    18
420
        0
176
     1
 90
       50
176
     1
 90
        3
176
     1
 62
     5
420
      255
176
     1
290
     0
176
     1
 90
       50
176
     1
 90
       50
176
     1
 90
       50
176
     1
290
     0
176
     1
 90
       50
176
     1
 62
   256
176
     0
 40
1.0
176
     0
 90
        2
176
     1
  1
strokes_ogs.tif
176
     1
290
     0
176
     1
 40
1.0
176
     1
 40
1.0
176
     1
  0
VISUALSTYLE
  5
30
102
{ACAD_REACTORS
330
29
102
}
330
29
100
AcDbVisualStyle
  2
Wireframe
 70
     5
177
     3
291
     0
 70
    58
 90
        0
176
     1
 90
        2
176
     1
 90
        0
176
     1
 90
        0
176
     1
 40
0.6
176
     1
 40
30.0
176
     1
 62
     7
420
 16777215
176
     1
 90
        1
176
     1
 90
        4
176
     1
 62
     7
176
     1
 62
   257
176
     1
 90
        1
176
     1
 90
        1
176
     1
 40
1.0
176
     1
 90
        0
176
     1
 62
   257
176
     1
 40
1.0
176
     1
 90
        1
176
     1
 90
        6
176
     1
 90
        2
176
     1
 62
     7
176
     1
 90
        3
176
     1
 90
        0
176
     1
 90
        0
176
     1
290
     0
176
     1
 90
        1
176
     1
 40
0.0
176
     1
 90
        0
176
     1
290
     0
176
     1
290
     1
176
     1
290
     1
176
     1
290
     0
176
     1
290
     0
176
     1
290
     0
176
     1
290
     0
176
     1
290
     0
176
     1
290
     0
176
     1
 90
       50
176
     1
 40
0.0
176
     1
 40
1.0
176
     1
 90
        0
176
     1
 62
    18
420
        0
176
     1
 90
       50
176
     1
 90
        3
176
     1
 62
     5
420
      255
176
     1
290
     0
176
     1
 90
       50
176
     1
 90
       50
176
     1
 90
       50
176
     1
290
     0
176
     1
 90
       50
176
     1
 62
   256
176
     0
 40
1.0
176
     0
 90
        2
176
     1
  1
strokes_ogs.tif
176
     1
290
     0
176
     1
 40
1.0
176
     1
 40
1.0
176
     1
  0
VISUALSTYLE
  5
3C
102
{ACAD_REACTORS
330
29
102
}
330
29
100
AcDbVisualStyle
  2
X-Ray
 70
    25
177
     3
291
     0
 70
    58
 90
        2
176
     1
 90
        2
176
     1
 90
        1
176
     1
 90
        1
176
     1
 40
0.5
176
     1
 40
30.0
176
     1
 62
     7
420
 16777215
176
     1
 90
        1
176
     1
 90
        0
176
     1
 62
     7
176
     1
 62
   257
176
     1
 90
        1
176
     1
 90
        1
176
     1
 40
1.0
176
     1
 90
        8
176
     1
 62
     7
176
     1
 40
1.0
176
     1
 90
        1
176
     1
 90
        6
176
     1
 90
        2
176
     1
 62
     7
176
     1
 90
        3
176
     1
 90
        0
176
     1
 90
        0
176
     1
290
     0
176
     1
 90
       13
176
     1
 40
0.0
176
     1
 90
        0
176
     1
290
     0
176
     1
290
     1
176
     1
290
     1
176
     1
290
     0
176
     1
290
     0
176
     1
290
     0
176
     1
290
     0
176
     1
290
     0
176
     1
290
     0
176
     1
 90
       50
176
     1
 40
0.0
176
     1
 40
1.0
176
     1
 90
        0
176
     1
 62
    18
420
        0
176
     1
 90
       50
176
     1
 90
        3
176
     1
 62
     5
420
      255
176
     1
290
     0
176
     1
 90
       50
176
     1
 90
       50
176
     1
 90
       50
176
     1
290
     0
176
     1
 90
       50
176
     1
 62
   256
176
     0
 40
1.0
176
     0
 90
        2
176
     1
  1
strokes_ogs.tif
176
     1
290
     0
176
     1
 40
1.0
176
     1
 40
1.0
176
     1
  0
DICTIONARYVAR
  5
287
102
{ACAD_REACTORS
330
282
102
}
330
282
100
DictionaryVariables
280
     0
  1
1:1
  0
DICTIONARYVAR
  5
284
102
{ACAD_REACTORS
330
282
102
}
330
282
100
DictionaryVariables
280
     0
  1
STANDARD
  0
DICTIONARYVAR
  5
283
102
{ACAD_REACTORS
330
282
102
}
330
282
100
DictionaryVariables
280
     0
  1
STANDARD
  0
DICTIONARYVAR
  5
285
102
{ACAD_REACTORS
330
282
102
}
330
282
100
DictionaryVariables
280
     0
  1
Imperial24
  0
DICTIONARYVAR
  5
286
102
{ACAD_REACTORS
330
282
102
}
330
282
100
DictionaryVariables
280
     0
  1
Imperial24
  0
DICTIONARY
  5
1A
330
19
100
AcDbDictionary
280
     1
281
     1
  3
BUMPTILE
360
1C
  3
DIFFUSETILE
360
1B
  3
OPACITYTILE
360
1F
  3
REFLECTIONTILE
360
1E
  3
REFRACTIONTILE
360
20
  3
SPECULARTILE
360
1D
  0
DICTIONARY
  5
12
330
11
100
AcDbDictionary
280
     1
281
     1
  3
BUMPTILE
360
14
  3
DIFFUSETILE
360
13
  3
OPACITYTILE
360
17
  3
REFLECTIONTILE
360
16
  3
REFRACTIONTILE
360
18
  3
SPECULARTILE
360
15
  0
DICTIONARY
  5
22
330
21
100
AcDbDictionary
280
     1
281
     1
  3
BUMPTILE
360
24
  3
DIFFUSETILE
360
23
  3
OPACITYTILE
360
27
  3
REFLECTIONTILE
360
26
  3
REFRACTIONTILE
360
28
  3
SPECULARTILE
360
25
  0
DICTIONARY
  5
288
330
65
100
AcDbDictionary
280
     1
281
     1
  3
ACAD_ROUNDTRIP_2008_TABLESTYLE_CELLSTYLEMAP
360
289
  0
XRECORD
  5
1C
102
{ACAD_REACTORS
330
1A
102
}
330
1A
100
AcDbXrecord
280
     1
270
     1
271
     1
  0
XRECORD
  5
1B
102
{ACAD_REACTORS
330
1A
102
}
330
1A
100
AcDbXrecord
280
     1
270
     1
271
     1
  0
XRECORD
  5
1F
102
{ACAD_REACTORS
330
1A
102
}
330
1A
100
AcDbXrecord
280
     1
270
     1
271
     1
  0
XRECORD
  5
1E
102
{ACAD_REACTORS
330
1A
102
}
330
1A
100
AcDbXrecord
280
     1
270
     1
271
     1
  0
XRECORD
  5
20
102
{ACAD_REACTORS
330
1A
102
}
330
1A
100
AcDbXrecord
280
     1
270
     1
271
     1
  0
XRECORD
  5
1D
102
{ACAD_REACTORS
330
1A
102
}
330
1A
100
AcDbXrecord
280
     1
270
     1
271
     1
  0
XRECORD
  5
14
102
{ACAD_REACTORS
330
12
102
}
330
12
100
AcDbXrecord
280
     1
270
     1
271
     1
  0
XRECORD
  5
13
102
{ACAD_REACTORS
330
12
102
}
330
12
100
AcDbXrecord
280
     1
270
     1
271
     1
  0
XRECORD
  5
17
102
{ACAD_REACTORS
330
12
102
}
330
12
100
AcDbXrecord
280
     1
270
     1
271
     1
  0
XRECORD
  5
16
102
{ACAD_REACTORS
330
12
102
}
330
12
100
AcDbXrecord
280
     1
270
     1
271
     1
  0
XRECORD
  5
18
102
{ACAD_REACTORS
330
12
102
}
330
12
100
AcDbXrecord
280
     1
270
     1
271
     1
  0
XRECORD
  5
15
102
{ACAD_REACTORS
330
12
102
}
330
12
100
AcDbXrecord
280
     1
270
     1
271
     1
  0
XRECORD
  5
24
102
{ACAD_REACTORS
330
22
102
}
330
22
100
AcDbXrecord
280
     1
270
     1
271
     1
  0
XRECORD
  5
23
102
{ACAD_REACTORS
330
22
102
}
330
22
100
AcDbXrecord
280
     1
270
     1
271
     1
  0
XRECORD
  5
27
102
{ACAD_REACTORS
330
22
102
}
330
22
100
AcDbXrecord
280
     1
270
     1
271
     1
  0
XRECORD
  5
26
102
{ACAD_REACTORS
330
22
102
}
330
22
100
AcDbXrecord
280
     1
270
     1
271
     1
  0
XRECORD
  5
28
102
{ACAD_REACTORS
330
22
102
}
330
22
100
AcDbXrecord
280
     1
270
     1
271
     1
  0
XRECORD
  5
25
102
{ACAD_REACTORS
330
22
102
}
330
22
100
AcDbXrecord
280
     1
270
     1
271
     1
  0
CELLSTYLEMAP
  5
289
102
{ACAD_REACTORS
330
288
102
}
330
288
100
AcDbCellStyleMap
 90
        3
300
CELLSTYLE
  1
TABLEFORMAT_BEGIN
 90
        5
170
     1
 91
        0
 92
    32768
 62
   257
 93
        1
300
CONTENTFORMAT
  1
CONTENTFORMAT_BEGIN
 90
        0
 91
        0
 92
      512
 93
        0
300

 40
0.0
140
1.0
 94
        5
 62
     0
340
55
144
0.25
309
CONTENTFORMAT_END
171
     0
 94
        0
309
TABLEFORMAT_END
  1
CELLSTYLE_BEGIN
 90
        1
 91
        1
300
_TITLE
309
CELLSTYLE_END
300
CELLSTYLE
  1
TABLEFORMAT_BEGIN
 90
        5
170
     1
 91
        0
 92
        0
 62
   257
 93
        1
300
CONTENTFORMAT
  1
CONTENTFORMAT_BEGIN
 90
        0
 91
        0
 92
      512
 93
        0
300

 40
0.0
140
1.0
 94
        5
 62
     0
340
55
144
0.18
309
CONTENTFORMAT_END
171
     0
 94
        0
309
TABLEFORMAT_END
  1
CELLSTYLE_BEGIN
 90
        2
 91
        1
300
_HEADER
309
CELLSTYLE_END
300
CELLSTYLE
  1
TABLEFORMAT_BEGIN
 90
        5
170
     1
 91
        0
 92
        0
 62
   257
 93
        1
300
CONTENTFORMAT
  1
CONTENTFORMAT_BEGIN
 90
        0
 91
        0
 92
      512
 93
        0
300

 40
0.0
140
1.0
 94
        2
 62
     0
340
55
144
0.18
309
CONTENTFORMAT_END
171
     0
 94
        0
309
TABLEFORMAT_END
  1
CELLSTYLE_BEGIN
 90
        3
 91
        2
300
_DATA
309
CELLSTYLE_END
  0
ENDSEC
  0
EOF
