  0
SECTION
  2
HEADER
  9
$ACADVER
  1
AC1032
  9
$ACADMAINTVER
 90
      251
  9
$DWGCODEPAGE
  3
ANSI_1252
  9
$REQUIREDVERSIONS
160
                 0
  9
$INSBASE
 10
0.0
 20
0.0
 30
0.0
  9
$EXTMIN
 10
1.000000000000000E+20
 20
1.000000000000000E+20
 30
1.000000000000000E+20
  9
$EXTMAX
 10
-1.000000000000000E+20
 20
-1.000000000000000E+20
 30
-1.000000000000000E+20
  9
$LIMMIN
 10
0.0
 20
0.0
  9
$LIMMAX
 10
12.0
 20
9.0
  9
$ORTHOMODE
 70
     0
  9
$REGENMODE
 70
     1
  9
$FILLMODE
 70
     1
  9
$QTEXTMODE
 70
     0
  9
$MIRRTEXT
 70
     0
  9
$LTSCALE
 40
1.0
  9
$ATTMODE
 70
     1
  9
$TEXTSIZE
 40
0.2
  9
$TRACEWID
 40
0.05
  9
$TEXTSTYLE
  7
Standard
  9
$CLAYER
  8
0
  9
$CELTYPE
  6
ByLayer
  9
$CECOLOR
 62
   256
  9
$CELTSCALE
 40
1.0
  9
$DISPSILH
 70
     0
  9
$DIMSCALE
 40
1.0
  9
$DIMASZ
 40
0.18
  9
$DIMEXO
 40
0.0625
  9
$DIMDLI
 40
0.38
  9
$DIMRND
 40
0.0
  9
$DIMDLE
 40
0.0
  9
$DIMEXE
 40
0.18
  9
$DIMTP
 40
0.0
  9
$DIMTM
 40
0.0
  9
$DIMTXT
 40
0.18
  9
$DIMCEN
 40
0.09
  9
$DIMTSZ
 40
0.0
  9
$DIMTOL
 70
     0
  9
$DIMLIM
 70
     0
  9
$DIMTIH
 70
     1
  9
$DIMTOH
 70
     1
  9
$DIMSE1
 70
     0
  9
$DIMSE2
 70
     0
  9
$DIMTAD
 70
     0
  9
$DIMZIN
 70
     0
  9
$DIMBLK
  1

  9
$DIMASO
 70
     1
  9
$DIMSHO
 70
     1
  9
$DIMPOST
  1

  9
$DIMAPOST
  1

  9
$DIMALT
 70
     0
  9
$DIMALTD
 70
     2
  9
$DIMALTF
 40
25.4
  9
$DIMLFAC
 40
1.0
  9
$DIMTOFL
 70
     0
  9
$DIMTVP
 40
0.0
  9
$DIMTIX
 70
     0
  9
$DIMSOXD
 70
     0
  9
$DIMSAH
 70
     0
  9
$DIMBLK1
  1

  9
$DIMBLK2
  1

  9
$DIMSTYLE
  2
Standard
  9
$DIMCLRD
 70
     0
  9
$DIMCLRE
 70
     0
  9
$DIMCLRT
 70
     0
  9
$DIMTFAC
 40
1.0
  9
$DIMGAP
 40
0.09
  9
$DIMJUST
 70
     0
  9
$DIMSD1
 70
     0
  9
$DIMSD2
 70
     0
  9
$DIMTOLJ
 70
     1
  9
$DIMTZIN
 70
     0
  9
$DIMALTZ
 70
     0
  9
$DIMALTTZ
 70
     0
  9
$DIMUPT
 70
     0
  9
$DIMDEC
 70
     4
  9
$DIMTDEC
 70
     4
  9
$DIMALTU
 70
     2
  9
$DIMALTTD
 70
     2
  9
$DIMTXSTY
  7
Standard
  9
$DIMAUNIT
 70
     0
  9
$DIMADEC
 70
     0
  9
$DIMALTRND
 40
0.0
  9
$DIMAZIN
 70
     0
  9
$DIMDSEP
 70
    46
  9
$DIMATFIT
 70
     3
  9
$DIMFRAC
 70
     0
  9
$DIMLDRBLK
  1

  9
$DIMLUNIT
 70
     2
  9
$DIMLWD
 70
    -2
  9
$DIMLWE
 70
    -2
  9
$DIMTMOVE
 70
     0
  9
$DIMFXL
 40
1.0
  9
$DIMFXLON
 70
     0
  9
$DIMJOGANG
 40
0.7853981633974483
  9
$DIMTFILL
 70
     0
  9
$DIMTFILLCLR
 70
     0
  9
$DIMARCSYM
 70
     0
  9
$DIMLTYPE
  6

  9
$DIMLTEX1
  6

  9
$DIMLTEX2
  6

  9
$DIMTXTDIRECTION
 70
     0
  9
$LUNITS
 70
     2
  9
$LUPREC
 70
     4
  9
$SKETCHINC
 40
0.1
  9
$FILLETRAD
 40
0.0
  9
$AUNITS
 70
     0
  9
$AUPREC
 70
     0
  9
$MENU
  1
.
  9
$ELEVATION
 40
0.0
  9
$PELEVATION
 40
0.0
  9
$THICKNESS
 40
0.0
  9
$LIMCHECK
 70
     0
  9
$CHAMFERA
 40
0.0
  9
$CHAMFERB
 40
0.0
  9
$CHAMFERC
 40
0.0
  9
$CHAMFERD
 40
0.0
  9
$SKPOLY
 70
     0
  9
$TDCREATE
 40
2459963.400034723
  9
$TDUCREATE
 40
2459963.358368055
  9
$TDUPDATE
 40
2459963.400034723
  9
$TDUUPDATE
 40
2459963.358368055
  9
$TDINDWG
 40
0.0000000000
  9
$TDUSRTIMER
 40
0.0000000000
  9
$USRTIMER
 70
     1
  9
$ANGBASE
 50
0.0
  9
$ANGDIR
 70
     0
  9
$PDMODE
 70
     0
  9
$PDSIZE
 40
0.0
  9
$PLINEWID
 40
0.0
  9
$SPLFRAME
 70
     0
  9
$SPLINETYPE
 70
     6
  9
$SPLINESEGS
 70
     8
  9
$HANDSEED
  5
155
  9
$SURFTAB1
 70
     6
  9
$SURFTAB2
 70
     6
  9
$SURFTYPE
 70
     6
  9
$SURFU
 70
     6
  9
$SURFV
 70
     6
  9
$UCSBASE
  2

  9
$UCSNAME
  2

  9
$UCSORG
 10
0.0
 20
0.0
 30
0.0
  9
$UCSXDIR
 10
1.0
 20
0.0
 30
0.0
  9
$UCSYDIR
 10
0.0
 20
1.0
 30
0.0
  9
$UCSORTHOREF
  2

  9
$UCSORTHOVIEW
 70
     0
  9
$UCSORGTOP
 10
0.0
 20
0.0
 30
0.0
  9
$UCSORGBOTTOM
 10
0.0
 20
0.0
 30
0.0
  9
$UCSORGLEFT
 10
0.0
 20
0.0
 30
0.0
  9
$UCSORGRIGHT
 10
0.0
 20
0.0
 30
0.0
  9
$UCSORGFRONT
 10
0.0
 20
0.0
 30
0.0
  9
$UCSORGBACK
 10
0.0
 20
0.0
 30
0.0
  9
$PUCSBASE
  2

  9
$PUCSNAME
  2

  9
$PUCSORG
 10
0.0
 20
0.0
 30
0.0
  9
$PUCSXDIR
 10
1.0
 20
0.0
 30
0.0
  9
$PUCSYDIR
 10
0.0
 20
1.0
 30
0.0
  9
$PUCSORTHOREF
  2

  9
$PUCSORTHOVIEW
 70
     0
  9
$PUCSORGTOP
 10
0.0
 20
0.0
 30
0.0
  9
$PUCSORGBOTTOM
 10
0.0
 20
0.0
 30
0.0
  9
$PUCSORGLEFT
 10
0.0
 20
0.0
 30
0.0
  9
$PUCSORGRIGHT
 10
0.0
 20
0.0
 30
0.0
  9
$PUCSORGFRONT
 10
0.0
 20
0.0
 30
0.0
  9
$PUCSORGBACK
 10
0.0
 20
0.0
 30
0.0
  9
$USERI1
 70
     0
  9
$USERI2
 70
     0
  9
$USERI3
 70
     0
  9
$USERI4
 70
     0
  9
$USERI5
 70
     0
  9
$USERR1
 40
0.0
  9
$USERR2
 40
0.0
  9
$USERR3
 40
0.0
  9
$USERR4
 40
0.0
  9
$USERR5
 40
0.0
  9
$WORLDVIEW
 70
     1
  9
$SHADEDGE
 70
     3
  9
$SHADEDIF
 70
    70
  9
$TILEMODE
 70
     1
  9
$MAXACTVP
 70
    64
  9
$PINSBASE
 10
0.0
 20
0.0
 30
0.0
  9
$PLIMCHECK
 70
     0
  9
$PEXTMIN
 10
1.000000000000000E+20
 20
1.000000000000000E+20
 30
1.000000000000000E+20
  9
$PEXTMAX
 10
-1.000000000000000E+20
 20
-1.000000000000000E+20
 30
-1.000000000000000E+20
  9
$PLIMMIN
 10
0.0
 20
0.0
  9
$PLIMMAX
 10
12.0
 20
9.0
  9
$UNITMODE
 70
     0
  9
$VISRETAIN
 70
     1
  9
$PLINEGEN
 70
     0
  9
$PSLTSCALE
 70
     1
  9
$TREEDEPTH
 70
  3020
  9
$CMLSTYLE
  2
Standard
  9
$CMLJUST
 70
     0
  9
$CMLSCALE
 40
1.0
  9
$PROXYGRAPHICS
 70
     1
  9
$MEASUREMENT
 70
     0
  9
$CELWEIGHT
370
    -1
  9
$ENDCAPS
280
     0
  9
$JOINSTYLE
280
     0
  9
$LWDISPLAY
290
     1
  9
$INSUNITS
 70
     4
  9
$HYPERLINKBASE
  1

  9
$STYLESHEET
  1

  9
$XEDIT
290
     1
  9
$CEPSNTYPE
380
     0
  9
$PSTYLEMODE
290
     1
  9
$FINGERPRINTGUID
  2
{18EAEFA8-CE1C-7C47-B37C-47BE053865DC}
  9
$VERSIONGUID
  2
{6783592A-8C6B-1F45-B25F-E165E8DE80A0}
  9
$EXTNAMES
290
     1
  9
$PSVPSCALE
 40
0.0
  9
$OLESTARTUP
290
     0
  9
$SORTENTS
280
   127
  9
$INDEXCTL
280
     0
  9
$HIDETEXT
280
     1
  9
$XCLIPFRAME
280
     2
  9
$HALOGAP
280
     0
  9
$OBSCOLOR
 70
   257
  9
$OBSLTYPE
280
     0
  9
$INTERSECTIONDISPLAY
280
     0
  9
$INTERSECTIONCOLOR
 70
   257
  9
$DIMASSOC
280
     2
  9
$PROJECTNAME
  1

  9
$CAMERADISPLAY
290
     0
  9
$LENSLENGTH
 40
50.0
  9
$CAMERAHEIGHT
 40
0.0
  9
$STEPSPERSEC
 40
2.0
  9
$STEPSIZE
 40
6.0
  9
$3DDWFPREC
 40
2.0
  9
$PSOLWIDTH
 40
0.25
  9
$PSOLHEIGHT
 40
4.0
  9
$LOFTANG1
 40
1.570796326794896
  9
$LOFTANG2
 40
1.570796326794896
  9
$LOFTMAG1
 40
0.0
  9
$LOFTMAG2
 40
0.0
  9
$LOFTPARAM
 70
     7
  9
$LOFTNORMALS
280
     1
  9
$LATITUDE
 40
37.795
  9
$LONGITUDE
 40
-122.394
  9
$NORTHDIRECTION
 40
0.0
  9
$TIMEZONE
 70
 -8000
  9
$LIGHTGLYPHDISPLAY
280
     1
  9
$TILEMODELIGHTSYNCH
280
     1
  9
$CMATERIAL
347
11
  9
$SOLIDHIST
280
     0
  9
$SHOWHIST
280
     1
  9
$DWFFRAME
280
     2
  9
$DGNFRAME
280
     0
  9
$REALWORLDSCALE
290
     1
  9
$INTERFERECOLOR
 62
     1
  9
$INTERFEREOBJVS
345
33
  9
$INTERFEREVPVS
346
30
  9
$CSHADOW
280
     0
  9
$SHADOWPLANELOCATION
 40
0.0
  0
ENDSEC
  0
SECTION
  2
CLASSES
  0
CLASS
  1
ACDBDICTIONARYWDFLT
  2
AcDbDictionaryWithDefault
  3
ObjectDBX Classes
 90
        0
 91
        1
280
     0
281
     0
  0
CLASS
  1
MATERIAL
  2
AcDbMaterial
  3
ObjectDBX Classes
 90
     1153
 91
        3
280
     0
281
     0
  0
CLASS
  1
VISUALSTYLE
  2
AcDbVisualStyle
  3
ObjectDBX Classes
 90
     4095
 91
       24
280
     0
281
     0
  0
CLASS
  1
SCALE
  2
AcDbScale
  3
ObjectDBX Classes
 90
     1153
 91
       17
280
     0
281
     0
  0
CLASS
  1
TABLESTYLE
  2
AcDbTableStyle
  3
ObjectDBX Classes
 90
     4095
 91
        1
280
     0
281
     0
  0
CLASS
  1
MLEADERSTYLE
  2
AcDbMLeaderStyle
  3
ACDB_MLEADERSTYLE_CLASS
 90
     4095
 91
        1
280
     0
281
     0
  0
CLASS
  1
ACDBSECTIONVIEWSTYLE
  2
AcDbSectionViewStyle
  3
ObjectDBX Classes
 90
     1025
 91
        1
280
     0
281
     0
  0
CLASS
  1
ACDBDETAILVIEWSTYLE
  2
AcDbDetailViewStyle
  3
ObjectDBX Classes
 90
     1025
 91
        1
280
     0
281
     0
  0
CLASS
  1
IMAGEDEF
  2
AcDbRasterImageDef
  3
ISM
 90
        0
 91
        1
280
     0
281
     0
  0
CLASS
  1
IMAGE
  2
AcDbRasterImage
  3
ISM
 90
     2175
 91
        1
280
     0
281
     1
  0
CLASS
  1
DICTIONARYVAR
  2
AcDbDictionaryVar
  3
ObjectDBX Classes
 90
        0
 91
        5
280
     0
281
     0
  0
CLASS
  1
CELLSTYLEMAP
  2
AcDbCellStyleMap
  3
ObjectDBX Classes
 90
     1152
 91
        1
280
     0
281
     0
  0
ENDSEC
  0
SECTION
  2
TABLES
  0
TABLE
  2
VPORT
  5
8
330
0
100
AcDbSymbolTable
 70
     1
  0
VPORT
  5
57
330
8
100
AcDbSymbolTableRecord
100
AcDbViewportTableRecord
  2
*Active
 70
     0
 10
0.0
 20
0.0
 11
1.0
 21
1.0
 12
0.0
 22
0.0
 13
0.0
 23
0.0
 14
1.0
 24
1.0
 15
0.0
 25
0.0
 16
0.0
 26
0.0
 36
1.0
 17
104.9999970067687
 27
148.5000119155985
 37
0.0
 40
89.75999997755987
 41
1.0
 42
50.0
 43
0.0
 44
0.0
 50
0.0
 51
0.0
 71
     0
 72
   100
 73
     1
 74
     1
 75
     0
 76
     0
 77
     0
 78
     0
281
     0
 65
     1
110
0.0
120
0.0
130
0.0
111
1.0
121
0.0
131
0.0
112
0.0
122
1.0
132
0.0
 79
     0
146
0.0
 60
     3
 61
     5
292
     1
282
     1
141
0.0
142
0.0
 63
   250
421
  3355443
  0
ENDTAB
  0
TABLE
  2
LTYPE
  5
5
330
0
100
AcDbSymbolTable
 70
     1
  0
LTYPE
  5
5B
330
5
100
AcDbSymbolTableRecord
100
AcDbLinetypeTableRecord
  2
ByBlock
 70
     0
  3

 72
    65
 73
     0
 40
0.0
  0
LTYPE
  5
5C
330
5
100
AcDbSymbolTableRecord
100
AcDbLinetypeTableRecord
  2
ByLayer
 70
     0
  3

 72
    65
 73
     0
 40
0.0
  0
LTYPE
  5
5D
330
5
100
AcDbSymbolTableRecord
100
AcDbLinetypeTableRecord
  2
Continuous
 70
     0
  3
Solid line
 72
    65
 73
     0
 40
0.0
  0
ENDTAB
  0
TABLE
  2
LAYER
  5
2
330
0
100
AcDbSymbolTable
 70
     3
  0
LAYER
  5
54
330
2
100
AcDbSymbolTableRecord
100
AcDbLayerTableRecord
  2
0
 70
     0
 62
     7
  6
Continuous
370
    -3
390
F
347
21
348
0
  0
LAYER
  5
78
330
2
100
AcDbSymbolTableRecord
100
AcDbLayerTableRecord
  2
Sichtbar (ANSI)
 70
     0
 62
     7
  6
Continuous
370
     0
390
F
347
21
348
0
  0
LAYER
  5
79
330
2
100
AcDbSymbolTableRecord
100
AcDbLayerTableRecord
  2
Sichtbar schmal (ANSI)
 70
     0
 62
     7
  6
Continuous
370
     0
390
F
347
21
348
0
  0
ENDTAB
  0
TABLE
  2
STYLE
  5
3
330
0
100
AcDbSymbolTable
 70
     2
  0
STYLE
  5
55
330
3
100
AcDbSymbolTableRecord
100
AcDbTextStyleTableRecord
  2
Standard
 70
     0
 40
0.0
 41
1.0
 50
0.0
 71
     0
 42
0.2
  3
txt
  4

  0
STYLE
  5
5A
330
3
100
AcDbSymbolTableRecord
100
AcDbTextStyleTableRecord
  2
Annotative
 70
     0
 40
0.0
 41
1.0
 50
0.0
 71
     0
 42
0.2
  3
txt
  4

1001
AcadAnnotative
1000
AnnotativeData
1002
{
1070
     1
1070
     1
1002
}
  0
ENDTAB
  0
TABLE
  2
VIEW
  5
6
330
0
100
AcDbSymbolTable
 70
     0
  0
ENDTAB
  0
TABLE
  2
UCS
  5
7
330
0
100
AcDbSymbolTable
 70
     0
  0
ENDTAB
  0
TABLE
  2
APPID
  5
9
330
0
100
AcDbSymbolTable
 70
     2
  0
APPID
  5
56
330
9
100
AcDbSymbolTableRecord
100
AcDbRegAppTableRecord
  2
ACAD
 70
     0
  0
APPID
  5
5E
330
9
100
AcDbSymbolTableRecord
100
AcDbRegAppTableRecord
  2
AcadAnnotative
 70
     0
  0
ENDTAB
  0
TABLE
  2
DIMSTYLE
  5
A
330
0
100
AcDbSymbolTable
 70
     2
100
AcDbDimStyleTable
 71
     0
  0
DIMSTYLE
105
58
330
A
100
AcDbSymbolTableRecord
100
AcDbDimStyleTableRecord
  2
Standard
 70
     0
340
55
  0
DIMSTYLE
105
59
330
A
100
AcDbSymbolTableRecord
100
AcDbDimStyleTableRecord
  2
Annotative
 70
     0
340
55
1001
AcadAnnotative
1000
AnnotativeData
1002
{
1070
     1
1070
     1
1002
}
  0
ENDTAB
  0
TABLE
  2
BLOCK_RECORD
  5
1
330
0
100
AcDbSymbolTable
 70
    25
  0
BLOCK_RECORD
  5
70
330
1
100
AcDbSymbolTableRecord
100
AcDbBlockTableRecord
  2
*Model_Space
340
73
 70
     0
280
     1
281
     0
  0
BLOCK_RECORD
  5
6C
330
1
100
AcDbSymbolTableRecord
100
AcDbBlockTableRecord
  2
*Paper_Space
340
6F
 70
     0
280
     1
281
     0
  0
BLOCK_RECORD
  5
74
330
1
100
AcDbSymbolTableRecord
100
AcDbBlockTableRecord
  2
*Paper_Space0
340
77
 70
     0
280
     1
281
     0
  0
BLOCK_RECORD
  5
7E
330
1
100
AcDbSymbolTableRecord
100
AcDbBlockTableRecord
  2
Block_0
340
0
102
{BLKREFS
331
7F
102
}
 70
     0
280
     1
281
     0
  0
BLOCK_RECORD
  5
82
330
1
100
AcDbSymbolTableRecord
100
AcDbBlockTableRecord
  2
Block_1
340
0
102
{BLKREFS
331
83
102
}
 70
     0
280
     1
281
     0
  0
BLOCK_RECORD
  5
8E
330
1
100
AcDbSymbolTableRecord
100
AcDbBlockTableRecord
  2
Block_2
340
0
102
{BLKREFS
331
8F
102
}
 70
     0
280
     1
281
     0
  0
BLOCK_RECORD
  5
92
330
1
100
AcDbSymbolTableRecord
100
AcDbBlockTableRecord
  2
Block_3
340
0
102
{BLKREFS
331
93
102
}
 70
     0
280
     1
281
     0
  0
BLOCK_RECORD
  5
9B
330
1
100
AcDbSymbolTableRecord
100
AcDbBlockTableRecord
  2
Block_4
340
0
102
{BLKREFS
331
9C
102
}
 70
     0
280
     1
281
     0
  0
BLOCK_RECORD
  5
9F
330
1
100
AcDbSymbolTableRecord
100
AcDbBlockTableRecord
  2
Block_5
340
0
102
{BLKREFS
331
A0
102
}
 70
     0
280
     1
281
     0
  0
BLOCK_RECORD
  5
A4
330
1
100
AcDbSymbolTableRecord
100
AcDbBlockTableRecord
  2
Block_6
340
0
102
{BLKREFS
331
A5
102
}
 70
     0
280
     1
281
     0
  0
BLOCK_RECORD
  5
AA
330
1
100
AcDbSymbolTableRecord
100
AcDbBlockTableRecord
  2
Block_7
340
0
102
{BLKREFS
331
AB
102
}
 70
     0
280
     1
281
     0
  0
BLOCK_RECORD
  5
B4
330
1
100
AcDbSymbolTableRecord
100
AcDbBlockTableRecord
  2
Block_8
340
0
102
{BLKREFS
331
B5
102
}
 70
     0
280
     1
281
     0
  0
BLOCK_RECORD
  5
B8
330
1
100
AcDbSymbolTableRecord
100
AcDbBlockTableRecord
  2
Block_9
340
0
102
{BLKREFS
331
B9
102
}
 70
     0
280
     1
281
     0
  0
BLOCK_RECORD
  5
C4
330
1
100
AcDbSymbolTableRecord
100
AcDbBlockTableRecord
  2
Block_10
340
0
102
{BLKREFS
331
C5
102
}
 70
     0
280
     1
281
     0
  0
BLOCK_RECORD
  5
CA
330
1
100
AcDbSymbolTableRecord
100
AcDbBlockTableRecord
  2
Block_11
340
0
102
{BLKREFS
331
CB
102
}
 70
     0
280
     1
281
     0
  0
BLOCK_RECORD
  5
D1
330
1
100
AcDbSymbolTableRecord
100
AcDbBlockTableRecord
  2
Block_12
340
0
102
{BLKREFS
331
D2
102
}
 70
     0
280
     1
281
     0
  0
BLOCK_RECORD
  5
D6
330
1
100
AcDbSymbolTableRecord
100
AcDbBlockTableRecord
  2
Block_13
340
0
102
{BLKREFS
331
D7
102
}
 70
     0
280
     1
281
     0
  0
BLOCK_RECORD
  5
DC
330
1
100
AcDbSymbolTableRecord
100
AcDbBlockTableRecord
  2
Block_14
340
0
102
{BLKREFS
331
DD
102
}
 70
     0
280
     1
281
     0
  0
BLOCK_RECORD
  5
E2
330
1
100
AcDbSymbolTableRecord
100
AcDbBlockTableRecord
  2
Block_15
340
0
102
{BLKREFS
331
E3
102
}
 70
     0
280
     1
281
     0
  0
BLOCK_RECORD
  5
E6
330
1
100
AcDbSymbolTableRecord
100
AcDbBlockTableRecord
  2
Block_16
340
0
102
{BLKREFS
331
E7
102
}
 70
     0
280
     1
281
     0
  0
BLOCK_RECORD
  5
EB
330
1
100
AcDbSymbolTableRecord
100
AcDbBlockTableRecord
  2
Block_17
340
0
102
{BLKREFS
331
EC
102
}
 70
     0
280
     1
281
     0
  0
BLOCK_RECORD
  5
F1
330
1
100
AcDbSymbolTableRecord
100
AcDbBlockTableRecord
  2
Block_18
340
0
102
{BLKREFS
331
F2
102
}
 70
     0
280
     1
281
     0
  0
BLOCK_RECORD
  5
F7
330
1
100
AcDbSymbolTableRecord
100
AcDbBlockTableRecord
  2
Block_19
340
0
102
{BLKREFS
331
F8
102
}
 70
     0
280
     1
281
     0
  0
BLOCK_RECORD
  5
126
330
1
100
AcDbSymbolTableRecord
100
AcDbBlockTableRecord
  2
Block_20
340
0
102
{BLKREFS
331
127
102
}
 70
     0
280
     1
281
     0
  0
BLOCK_RECORD
  5
12A
330
1
100
AcDbSymbolTableRecord
100
AcDbBlockTableRecord
  2
Block_21
340
0
102
{BLKREFS
331
12B
102
}
 70
     0
280
     1
281
     0
  0
BLOCK_RECORD
  5
12F
330
1
100
AcDbSymbolTableRecord
100
AcDbBlockTableRecord
  2
Block_22
340
0
102
{BLKREFS
331
130
102
}
 70
     0
280
     1
281
     0
  0
BLOCK_RECORD
  5
135
330
1
100
AcDbSymbolTableRecord
100
AcDbBlockTableRecord
  2
Block_23
340
0
102
{BLKREFS
331
136
102
}
 70
     0
280
     1
281
     0
  0
ENDTAB
  0
ENDSEC
  0
SECTION
  2
BLOCKS
  0
BLOCK
  5
71
330
70
100
AcDbEntity
  8
0
100
AcDbBlockBegin
  2
*Model_Space
 70
     0
 10
0.0
 20
0.0
 30
0.0
  3
*Model_Space
  1

  0
ENDBLK
  5
72
330
70
100
AcDbEntity
  8
0
100
AcDbBlockEnd
  0
BLOCK
  5
6D
330
6C
100
AcDbEntity
 67
     1
  8
0
100
AcDbBlockBegin
  2
*Paper_Space
 70
     0
 10
0.0
 20
0.0
 30
0.0
  3
*Paper_Space
  1

  0
ENDBLK
  5
6E
330
6C
100
AcDbEntity
 67
     1
  8
0
100
AcDbBlockEnd
  0
BLOCK
  5
75
330
74
100
AcDbEntity
 67
     1
  8
0
100
AcDbBlockBegin
  2
*Paper_Space0
 70
     0
 10
0.0
 20
0.0
 30
0.0
  3
*Paper_Space0
  1

  0
ENDBLK
  5
76
330
74
100
AcDbEntity
 67
     1
  8
0
100
AcDbBlockEnd
  0
BLOCK
  5
80
330
7E
100
AcDbEntity
  8
0
100
AcDbBlockBegin
  2
Block_0
 70
     0
 10
0.0
 20
0.0
 30
0.0
  3
Block_0
  1

  0
INSERT
  5
83
330
7E
100
AcDbEntity
  8
Sichtbar schmal (ANSI)
100
AcDbBlockReference
  2
Block_1
 10
0.0
 20
0.0
 30
0.0
  0
ENDBLK
  5
81
330
7E
100
AcDbEntity
  8
0
100
AcDbBlockEnd
  0
BLOCK
  5
84
330
82
100
AcDbEntity
  8
0
100
AcDbBlockBegin
  2
Block_1
 70
     0
 10
0.0
 20
0.0
 30
0.0
  3
Block_1
  1

  0
SPLINE
  5
86
330
82
100
AcDbEntity
  8
Sichtbar schmal (ANSI)
100
AcDbSpline
210
0.0
220
0.0
230
1.0
 70
    11
 71
     3
 72
    26
 73
    22
 74
     0
 42
0.0000000001
 43
0.0000000001
 40
0.0
 40
0.0
 40
0.0
 40
0.0
 40
1.0
 40
1.0
 40
1.0
 40
2.0
 40
2.0
 40
2.0
 40
3.0
 40
3.0
 40
3.0
 40
4.0
 40
4.0
 40
4.0
 40
5.0
 40
5.0
 40
5.0
 40
6.0
 40
6.0
 40
6.0
 40
7.0
 40
7.0
 40
7.0
 40
7.0
 10
95.33423256080187
 20
128.3983642257129
 30
0.0
 10
95.33423256080187
 20
128.3983642257129
 30
0.0
 10
94.81522892594897
 20
128.3983642257129
 30
0.0
 10
94.81522892594897
 20
128.3983642257129
 30
0.0
 10
94.81522892594897
 20
128.3983642257129
 30
0.0
 10
94.81522892594897
 20
128.5902560442413
 30
0.0
 10
94.81522892594897
 20
128.5902560442413
 30
0.0
 10
95.08876950747781
 20
128.5902560442413
 30
0.0
 10
95.33698863719006
 20
128.6608805016889
 30
0.0
 10
95.39055987198571
 20
128.965426942585
 30
0.0
 10
95.39055987198571
 20
128.965426942585
 30
0.0
 10
95.573838951801
 20
128.965426942585
 30
0.0
 10
95.573838951801
 20
128.965426942585
 30
0.0
 10
95.573838951801
 20
128.965426942585
 30
0.0
 10
95.573838951801
 20
126.9655490133975
 30
0.0
 10
95.573838951801
 20
126.9655490133975
 30
0.0
 10
95.573838951801
 20
126.9655490133975
 30
0.0
 10
95.33423256080187
 20
126.9655490133975
 30
0.0
 10
95.33423256080187
 20
126.9655490133975
 30
0.0
 10
95.33423256080187
 20
126.9655490133975
 30
0.0
 10
95.33423256080187
 20
128.3983642257129
 30
0.0
 10
95.33423256080187
 20
128.3983642257129
 30
0.0
  0
HATCH
  5
87
330
82
100
AcDbEntity
  8
Sichtbar schmal (ANSI)
 62
   250
420
  2039067
440
 33554687
100
AcDbHatch
 10
0.0
 20
0.0
 30
0.0
210
0.0
220
0.0
230
1.0
  2
SOLID
 70
     1
 71
     1
 91
        1
 92
        1
 93
        1
 72
     4
 94
        3
 73
     0
 74
     0
 95
       26
 96
       22
 40
0.0
 40
0.0
 40
0.0
 40
0.0
 40
1.0
 40
1.0
 40
1.0
 40
2.0
 40
2.0
 40
2.0
 40
3.0
 40
3.0
 40
3.0
 40
4.0
 40
4.0
 40
4.0
 40
5.0
 40
5.0
 40
5.0
 40
6.0
 40
6.0
 40
6.0
 40
7.0
 40
7.0
 40
7.0
 40
7.0
 10
95.33423256080187
 20
128.3983642257129
 10
95.33423256080187
 20
128.3983642257129
 10
94.81522892594897
 20
128.3983642257129
 10
94.81522892594897
 20
128.3983642257129
 10
94.81522892594897
 20
128.3983642257129
 10
94.81522892594897
 20
128.5902560442413
 10
94.81522892594897
 20
128.5902560442413
 10
95.08876950747781
 20
128.5902560442413
 10
95.33698863719006
 20
128.6608805016889
 10
95.39055987198571
 20
128.965426942585
 10
95.39055987198571
 20
128.965426942585
 10
95.573838951801
 20
128.965426942585
 10
95.573838951801
 20
128.965426942585
 10
95.573838951801
 20
128.965426942585
 10
95.573838951801
 20
126.9655490133975
 10
95.573838951801
 20
126.9655490133975
 10
95.573838951801
 20
126.9655490133975
 10
95.33423256080187
 20
126.9655490133975
 10
95.33423256080187
 20
126.9655490133975
 10
95.33423256080187
 20
126.9655490133975
 10
95.33423256080187
 20
128.3983642257129
 10
95.33423256080187
 20
128.3983642257129
 97
        0
 97
        1
330
86
 75
     2
 76
     1
 98
        1
 10
0.0
 20
0.0
450
        0
451
        0
460
0.0
461
0.0
452
        0
462
0.0
453
        0
470

  0
SPLINE
  5
88
330
82
100
AcDbEntity
  8
Sichtbar schmal (ANSI)
100
AcDbSpline
210
0.0
220
0.0
230
1.0
 70
     9
 71
     3
 72
    17
 73
    13
 74
     0
 42
0.0000000001
 43
0.0000000001
 40
0.0
 40
0.0
 40
0.0
 40
0.0
 40
1.0
 40
1.0
 40
1.0
 40
2.0
 40
2.0
 40
2.0
 40
3.0
 40
3.0
 40
3.0
 40
4.0
 40
4.0
 40
4.0
 40
4.0
 10
97.29242483461788
 20
128.2970784184465
 30
0.0
 10
97.29242483461788
 20
128.5423692169963
 30
0.0
 10
97.14859209810869
 20
128.7538980797907
 30
0.0
 10
96.88073592413052
 20
128.7538980797907
 30
0.0
 10
96.59582652750035
 20
128.7538980797907
 30
0.0
 10
96.48851180313483
 20
128.5254882491186
 30
0.0
 10
96.48851180313483
 20
128.2798529410203
 30
0.0
 10
96.48851180313483
 20
128.0628119254496
 30
0.0
 10
96.65215383868419
 20
127.8567952154316
 30
0.0
 10
96.88349200051872
 20
127.8567952154316
 30
0.0
 10
97.13446720661917
 20
127.8567952154316
 30
0.0
 10
97.29242483461788
 20
128.0600558490613
 30
0.0
 10
97.29242483461788
 20
128.2970784184465
 30
0.0
  0
SPLINE
  5
89
330
82
100
AcDbEntity
  8
Sichtbar schmal (ANSI)
100
AcDbSpline
210
0.0
220
0.0
230
1.0
 70
     9
 71
     3
 72
    35
 73
    31
 74
     0
 42
0.0000000001
 43
0.0000000001
 40
0.0
 40
0.0
 40
0.0
 40
0.0
 40
1.0
 40
1.0
 40
1.0
 40
2.0
 40
2.0
 40
2.0
 40
3.0
 40
3.0
 40
3.0
 40
4.0
 40
4.0
 40
4.0
 40
5.0
 40
5.0
 40
5.0
 40
6.0
 40
6.0
 40
6.0
 40
7.0
 40
7.0
 40
7.0
 40
8.0
 40
8.0
 40
8.0
 40
9.0
 40
9.0
 40
9.0
 40
10.0
 40
10.0
 40
10.0
 40
10.0
 10
96.51676158611387
 20
127.4478623813324
 30
0.0
 10
96.53657088515407
 20
127.2532144864158
 30
0.0
 10
96.69177243676458
 20
127.1433159404364
 30
0.0
 10
96.88349200051872
 20
127.1433159404364
 30
0.0
 10
97.17684188108774
 20
127.1433159404364
 30
0.0
 10
97.32067461759692
 20
127.3972194776993
 30
0.0
 10
97.33479950908645
 20
127.9160508577779
 30
0.0
 10
97.33479950908645
 20
127.9160508577779
 30
0.0
 10
97.32911510153577
 20
127.9219075201028
 30
0.0
 10
97.32911510153577
 20
127.9219075201028
 30
0.0
 10
97.23885359982224
 20
127.7524088222286
 30
0.0
 10
97.0612589275576
 20
127.6452663526373
 30
0.0
 10
96.866611032641
 20
127.6452663526373
 30
0.0
 10
96.45750594376757
 20
127.6452663526373
 30
0.0
 10
96.23478052064617
 20
127.9188069341661
 30
0.0
 10
96.23478052064617
 20
128.3139593863243
 30
0.0
 10
96.23478052064617
 20
128.6973985138326
 30
0.0
 10
96.5055650257868
 20
128.965426942585
 30
0.0
 10
96.89193248445757
 20
128.965426942585
 30
0.0
 10
97.26434730641308
 20
128.965426942585
 30
0.0
 10
97.57733423124804
 20
128.765266894892
 30
0.0
 10
97.57733423124804
 20
128.0090684358796
 30
0.0
 10
97.57733423124804
 20
127.3179822815385
 30
0.0
 10
97.36873369961616
 20
126.931787077642
 30
0.0
 10
96.88349200051872
 20
126.931787077642
 30
0.0
 10
96.54776744548112
 20
126.931787077642
 30
0.0
 10
96.30798879970773
 20
127.103697342356
 30
0.0
 10
96.27698294034047
 20
127.4478623813324
 30
0.0
 10
96.27698294034047
 20
127.4478623813324
 30
0.0
 10
96.51676158611387
 20
127.4478623813324
 30
0.0
 10
96.51676158611387
 20
127.4478623813324
 30
0.0
  0
HATCH
  5
8A
330
82
100
AcDbEntity
  8
Sichtbar schmal (ANSI)
 62
   250
420
  2039067
440
 33554687
100
AcDbHatch
 10
0.0
 20
0.0
 30
0.0
210
0.0
220
0.0
230
1.0
  2
SOLID
 70
     1
 71
     1
 91
        2
 92
        1
 93
        1
 72
     4
 94
        3
 73
     0
 74
     0
 95
       17
 96
       13
 40
0.0
 40
0.0
 40
0.0
 40
0.0
 40
1.0
 40
1.0
 40
1.0
 40
2.0
 40
2.0
 40
2.0
 40
3.0
 40
3.0
 40
3.0
 40
4.0
 40
4.0
 40
4.0
 40
4.0
 10
97.29242483461788
 20
128.2970784184465
 10
97.29242483461788
 20
128.5423692169963
 10
97.14859209810869
 20
128.7538980797907
 10
96.88073592413052
 20
128.7538980797907
 10
96.59582652750035
 20
128.7538980797907
 10
96.48851180313483
 20
128.5254882491186
 10
96.48851180313483
 20
128.2798529410203
 10
96.48851180313483
 20
128.0628119254496
 10
96.65215383868419
 20
127.8567952154316
 10
96.88349200051872
 20
127.8567952154316
 10
97.13446720661917
 20
127.8567952154316
 10
97.29242483461788
 20
128.0600558490613
 10
97.29242483461788
 20
128.2970784184465
 97
        0
 97
        1
330
88
 92
        1
 93
        1
 72
     4
 94
        3
 73
     0
 74
     0
 95
       35
 96
       31
 40
0.0
 40
0.0
 40
0.0
 40
0.0
 40
1.0
 40
1.0
 40
1.0
 40
2.0
 40
2.0
 40
2.0
 40
3.0
 40
3.0
 40
3.0
 40
4.0
 40
4.0
 40
4.0
 40
5.0
 40
5.0
 40
5.0
 40
6.0
 40
6.0
 40
6.0
 40
7.0
 40
7.0
 40
7.0
 40
8.0
 40
8.0
 40
8.0
 40
9.0
 40
9.0
 40
9.0
 40
10.0
 40
10.0
 40
10.0
 40
10.0
 10
96.51676158611387
 20
127.4478623813324
 10
96.53657088515407
 20
127.2532144864158
 10
96.69177243676458
 20
127.1433159404364
 10
96.88349200051872
 20
127.1433159404364
 10
97.17684188108774
 20
127.1433159404364
 10
97.32067461759692
 20
127.3972194776993
 10
97.33479950908645
 20
127.9160508577779
 10
97.33479950908645
 20
127.9160508577779
 10
97.32911510153577
 20
127.9219075201028
 10
97.32911510153577
 20
127.9219075201028
 10
97.23885359982224
 20
127.7524088222286
 10
97.0612589275576
 20
127.6452663526373
 10
96.866611032641
 20
127.6452663526373
 10
96.45750594376757
 20
127.6452663526373
 10
96.23478052064617
 20
127.9188069341661
 10
96.23478052064617
 20
128.3139593863243
 10
96.23478052064617
 20
128.6973985138326
 10
96.5055650257868
 20
128.965426942585
 10
96.89193248445757
 20
128.965426942585
 10
97.26434730641308
 20
128.965426942585
 10
97.57733423124804
 20
128.765266894892
 10
97.57733423124804
 20
128.0090684358796
 10
97.57733423124804
 20
127.3179822815385
 10
97.36873369961616
 20
126.931787077642
 10
96.88349200051872
 20
126.931787077642
 10
96.54776744548112
 20
126.931787077642
 10
96.30798879970773
 20
127.103697342356
 10
96.27698294034047
 20
127.4478623813324
 10
96.27698294034047
 20
127.4478623813324
 10
96.51676158611387
 20
127.4478623813324
 10
96.51676158611387
 20
127.4478623813324
 97
        0
 97
        1
330
89
 75
     2
 76
     1
 98
        1
 10
0.0
 20
0.0
450
        0
451
        0
460
0.0
461
0.0
452
        0
462
0.0
453
        0
470

  0
SPLINE
  5
8B
330
82
100
AcDbEntity
  8
Sichtbar schmal (ANSI)
100
AcDbSpline
210
0.0
220
0.0
230
1.0
 70
     9
 71
     3
 72
    17
 73
    13
 74
     0
 42
0.0000000001
 43
0.0000000001
 40
0.0
 40
0.0
 40
0.0
 40
0.0
 40
1.0
 40
1.0
 40
1.0
 40
2.0
 40
2.0
 40
2.0
 40
3.0
 40
3.0
 40
3.0
 40
4.0
 40
4.0
 40
4.0
 40
4.0
 10
98.90404050261775
 20
127.9498127935334
 30
0.0
 10
98.90404050261775
 20
128.2460910052648
 30
0.0
 10
98.90128442622955
 20
128.7538980797907
 30
0.0
 10
98.49217933735612
 20
128.7538980797907
 30
0.0
 10
98.08324650325698
 20
128.7538980797907
 30
0.0
 10
98.08049042686878
 20
128.2460910052648
 30
0.0
 10
98.08049042686878
 20
127.9498127935334
 30
0.0
 10
98.08049042686878
 20
127.6511230149622
 30
0.0
 10
98.08324650325698
 20
127.1433159404364
 30
0.0
 10
98.49217933735612
 20
127.1433159404364
 30
0.0
 10
98.90128442622955
 20
127.1433159404364
 30
0.0
 10
98.90404050261775
 20
127.6511230149622
 30
0.0
 10
98.90404050261775
 20
127.9498127935334
 30
0.0
  0
SPLINE
  5
8C
330
82
100
AcDbEntity
  8
Sichtbar schmal (ANSI)
100
AcDbSpline
210
0.0
220
0.0
230
1.0
 70
     9
 71
     3
 72
    17
 73
    13
 74
     0
 42
0.0000000001
 43
0.0000000001
 40
0.0
 40
0.0
 40
0.0
 40
0.0
 40
1.0
 40
1.0
 40
1.0
 40
2.0
 40
2.0
 40
2.0
 40
3.0
 40
3.0
 40
3.0
 40
4.0
 40
4.0
 40
4.0
 40
4.0
 10
97.82658688960587
 20
127.9470567171452
 30
0.0
 10
97.82658688960587
 20
128.3873399201601
 30
0.0
 10
97.86603323291197
 20
128.965426942585
 30
0.0
 10
98.49217933735612
 20
128.965426942585
 30
0.0
 10
99.11849769657456
 20
128.965426942585
 30
0.0
 10
99.15777178510639
 20
128.3873399201601
 30
0.0
 10
99.15777178510639
 20
127.9470567171452
 30
0.0
 10
99.15777178510639
 20
127.5071180236788
 30
0.0
 10
99.11849769657456
 20
126.931787077642
 30
0.0
 10
98.49217933735612
 20
126.931787077642
 30
0.0
 10
97.86603323291197
 20
126.931787077642
 30
0.0
 10
97.82658688960587
 20
127.5071180236788
 30
0.0
 10
97.82658688960587
 20
127.9470567171452
 30
0.0
  0
HATCH
  5
8D
330
82
100
AcDbEntity
  8
Sichtbar schmal (ANSI)
 62
   250
420
  2039067
440
 33554687
100
AcDbHatch
 10
0.0
 20
0.0
 30
0.0
210
0.0
220
0.0
230
1.0
  2
SOLID
 70
     1
 71
     1
 91
        2
 92
        1
 93
        1
 72
     4
 94
        3
 73
     0
 74
     0
 95
       17
 96
       13
 40
0.0
 40
0.0
 40
0.0
 40
0.0
 40
1.0
 40
1.0
 40
1.0
 40
2.0
 40
2.0
 40
2.0
 40
3.0
 40
3.0
 40
3.0
 40
4.0
 40
4.0
 40
4.0
 40
4.0
 10
98.90404050261775
 20
127.9498127935334
 10
98.90404050261775
 20
128.2460910052648
 10
98.90128442622955
 20
128.7538980797907
 10
98.49217933735612
 20
128.7538980797907
 10
98.08324650325698
 20
128.7538980797907
 10
98.08049042686878
 20
128.2460910052648
 10
98.08049042686878
 20
127.9498127935334
 10
98.08049042686878
 20
127.6511230149622
 10
98.08324650325698
 20
127.1433159404364
 10
98.49217933735612
 20
127.1433159404364
 10
98.90128442622955
 20
127.1433159404364
 10
98.90404050261775
 20
127.6511230149622
 10
98.90404050261775
 20
127.9498127935334
 97
        0
 97
        1
330
8B
 92
        1
 93
        1
 72
     4
 94
        3
 73
     0
 74
     0
 95
       17
 96
       13
 40
0.0
 40
0.0
 40
0.0
 40
0.0
 40
1.0
 40
1.0
 40
1.0
 40
2.0
 40
2.0
 40
2.0
 40
3.0
 40
3.0
 40
3.0
 40
4.0
 40
4.0
 40
4.0
 40
4.0
 10
97.82658688960587
 20
127.9470567171452
 10
97.82658688960587
 20
128.3873399201601
 10
97.86603323291197
 20
128.965426942585
 10
98.49217933735612
 20
128.965426942585
 10
99.11849769657456
 20
128.965426942585
 10
99.15777178510639
 20
128.3873399201601
 10
99.15777178510639
 20
127.9470567171452
 10
99.15777178510639
 20
127.5071180236788
 10
99.11849769657456
 20
126.931787077642
 10
98.49217933735612
 20
126.931787077642
 10
97.86603323291197
 20
126.931787077642
 10
97.82658688960587
 20
127.5071180236788
 10
97.82658688960587
 20
127.9470567171452
 97
        0
 97
        1
330
8C
 75
     2
 76
     1
 98
        1
 10
0.0
 20
0.0
450
        0
451
        0
460
0.0
461
0.0
452
        0
462
0.0
453
        0
470

  0
ENDBLK
  5
85
330
82
100
AcDbEntity
  8
0
100
AcDbBlockEnd
  0
BLOCK
  5
90
330
8E
100
AcDbEntity
  8
0
100
AcDbBlockBegin
  2
Block_2
 70
     0
 10
0.0
 20
0.0
 30
0.0
  3
Block_2
  1

  0
INSERT
  5
93
330
8E
100
AcDbEntity
  8
Sichtbar schmal (ANSI)
100
AcDbBlockReference
  2
Block_3
 10
0.0
 20
0.0
 30
0.0
  0
ENDBLK
  5
91
330
8E
100
AcDbEntity
  8
0
100
AcDbBlockEnd
  0
BLOCK
  5
94
330
92
100
AcDbEntity
  8
0
100
AcDbBlockBegin
  2
Block_3
 70
     0
 10
0.0
 20
0.0
 30
0.0
  3
Block_3
  1

  0
SPLINE
  5
96
330
92
100
AcDbEntity
  8
Sichtbar schmal (ANSI)
100
AcDbSpline
210
0.0
220
0.0
230
1.0
 70
     9
 71
     3
 72
    62
 73
    58
 74
     0
 42
0.0000000001
 43
0.0000000001
 40
0.0
 40
0.0
 40
0.0
 40
0.0
 40
1.0
 40
1.0
 40
1.0
 40
2.0
 40
2.0
 40
2.0
 40
3.0
 40
3.0
 40
3.0
 40
4.0
 40
4.0
 40
4.0
 40
5.0
 40
5.0
 40
5.0
 40
6.0
 40
6.0
 40
6.0
 40
7.0
 40
7.0
 40
7.0
 40
8.0
 40
8.0
 40
8.0
 40
9.0
 40
9.0
 40
9.0
 40
10.0
 40
10.0
 40
10.0
 40
11.0
 40
11.0
 40
11.0
 40
12.0
 40
12.0
 40
12.0
 40
13.0
 40
13.0
 40
13.0
 40
14.0
 40
14.0
 40
14.0
 40
15.0
 40
15.0
 40
15.0
 40
16.0
 40
16.0
 40
16.0
 40
17.0
 40
17.0
 40
17.0
 40
18.0
 40
18.0
 40
18.0
 40
19.0
 40
19.0
 40
19.0
 40
19.0
 10
128.8024739261327
 20
142.1253471866909
 30
0.0
 10
129.061889616172
 20
142.133959925404
 30
0.0
 10
129.2424126195991
 20
142.2776204071389
 30
0.0
 10
129.2424126195991
 20
142.5515054982163
 30
0.0
 10
129.2424126195991
 20
142.7854274816647
 30
0.0
 10
129.0956515519275
 20
142.9859320389063
 30
0.0
 10
128.8562174157026
 20
142.9859320389063
 30
0.0
 10
128.6050699548279
 20
142.9859320389063
 30
0.0
 10
128.4724337786458
 20
142.796796296766
 30
0.0
 10
128.4724337786458
 20
142.5601182369294
 30
0.0
 10
128.4724337786458
 20
142.5091308237477
 30
0.0
 10
128.475189855034
 20
142.4612439965027
 30
0.0
 10
128.4810465173589
 20
142.4161132456459
 30
0.0
 10
128.4810465173589
 20
142.4161132456459
 30
0.0
 10
128.2777858837292
 20
142.4161132456459
 30
0.0
 10
128.2777858837292
 20
142.4161132456459
 30
0.0
 10
128.2805419601174
 20
142.4357502899119
 30
0.0
 10
128.2805419601174
 20
142.4526312577896
 30
0.0
 10
128.2805419601174
 20
142.4698567352159
 30
0.0
 10
128.2805419601174
 20
142.4698567352159
 30
0.0
 10
128.2805419601174
 20
142.520499638849
 30
0.0
 10
128.2805419601174
 20
142.520499638849
 30
0.0
 10
128.2805419601174
 20
142.7234157629303
 30
0.0
 10
128.1678873377497
 20
142.9011826899691
 30
0.0
 10
127.9536023985671
 20
142.9011826899691
 30
0.0
 10
127.7417290262243
 20
142.9011826899691
 30
0.0
 10
127.6318304802448
 20
142.7489094695211
 30
0.0
 10
127.6318304802448
 20
142.5456488358913
 30
0.0
 10
127.6318304802448
 20
142.2865776554005
 30
0.0
 10
127.8319905279378
 20
142.1680663707079
 30
0.0
 10
128.0662570209348
 20
142.1680663707079
 30
0.0
 10
128.0662570209348
 20
142.1680663707079
 30
0.0
 10
128.0662570209348
 20
141.9282877249346
 30
0.0
 10
128.0662570209348
 20
141.9282877249346
 30
0.0
 10
127.6855739698147
 20
141.9420681068756
 30
0.0
 10
127.4203016174505
 20
142.1453287405053
 30
0.0
 10
127.4203016174505
 20
142.5456488358913
 30
0.0
 10
127.4203016174505
 20
142.8929144608045
 30
0.0
 10
127.586699729388
 20
143.155086227232
 30
0.0
 10
127.9563584749553
 20
143.155086227232
 30
0.0
 10
128.1341254019942
 20
143.155086227232
 30
0.0
 10
128.2832980365055
 20
143.0338188661512
 30
0.0
 10
128.3539224939532
 20
142.8784450597665
 30
0.0
 10
128.3539224939532
 20
142.8784450597665
 30
0.0
 10
128.3594346467296
 20
142.8784450597665
 30
0.0
 10
128.3594346467296
 20
142.8784450597665
 30
0.0
 10
128.4131781362995
 20
143.1240803678648
 30
0.0
 10
128.6050699548279
 20
143.2394910666207
 30
0.0
 10
128.8448486006013
 20
143.2394910666207
 30
0.0
 10
129.2424126195991
 20
143.2394910666207
 30
0.0
 10
129.4539414823935
 20
142.92667639656
 30
0.0
 10
129.4539414823935
 20
142.5515054982163
 30
0.0
 10
129.4539414823935
 20
142.1453287405053
 30
0.0
 10
129.2172634225568
 20
141.8773003117529
 30
0.0
 10
128.8024739261327
 20
141.8855685409175
 30
0.0
 10
128.8024739261327
 20
141.8855685409175
 30
0.0
 10
128.8024739261327
 20
142.1253471866909
 30
0.0
 10
128.8024739261327
 20
142.1253471866909
 30
0.0
  0
HATCH
  5
97
330
92
100
AcDbEntity
  8
Sichtbar schmal (ANSI)
 62
   250
420
  2039067
440
 33554687
100
AcDbHatch
 10
0.0
 20
0.0
 30
0.0
210
0.0
220
0.0
230
1.0
  2
SOLID
 70
     1
 71
     1
 91
        1
 92
        1
 93
        1
 72
     4
 94
        3
 73
     0
 74
     0
 95
       62
 96
       58
 40
0.0
 40
0.0
 40
0.0
 40
0.0
 40
1.0
 40
1.0
 40
1.0
 40
2.0
 40
2.0
 40
2.0
 40
3.0
 40
3.0
 40
3.0
 40
4.0
 40
4.0
 40
4.0
 40
5.0
 40
5.0
 40
5.0
 40
6.0
 40
6.0
 40
6.0
 40
7.0
 40
7.0
 40
7.0
 40
8.0
 40
8.0
 40
8.0
 40
9.0
 40
9.0
 40
9.0
 40
10.0
 40
10.0
 40
10.0
 40
11.0
 40
11.0
 40
11.0
 40
12.0
 40
12.0
 40
12.0
 40
13.0
 40
13.0
 40
13.0
 40
14.0
 40
14.0
 40
14.0
 40
15.0
 40
15.0
 40
15.0
 40
16.0
 40
16.0
 40
16.0
 40
17.0
 40
17.0
 40
17.0
 40
18.0
 40
18.0
 40
18.0
 40
19.0
 40
19.0
 40
19.0
 40
19.0
 10
128.8024739261327
 20
142.1253471866909
 10
129.061889616172
 20
142.133959925404
 10
129.2424126195991
 20
142.2776204071389
 10
129.2424126195991
 20
142.5515054982163
 10
129.2424126195991
 20
142.7854274816647
 10
129.0956515519275
 20
142.9859320389063
 10
128.8562174157026
 20
142.9859320389063
 10
128.6050699548279
 20
142.9859320389063
 10
128.4724337786458
 20
142.796796296766
 10
128.4724337786458
 20
142.5601182369294
 10
128.4724337786458
 20
142.5091308237477
 10
128.475189855034
 20
142.4612439965027
 10
128.4810465173589
 20
142.4161132456459
 10
128.4810465173589
 20
142.4161132456459
 10
128.2777858837292
 20
142.4161132456459
 10
128.2777858837292
 20
142.4161132456459
 10
128.2805419601174
 20
142.4357502899119
 10
128.2805419601174
 20
142.4526312577896
 10
128.2805419601174
 20
142.4698567352159
 10
128.2805419601174
 20
142.4698567352159
 10
128.2805419601174
 20
142.520499638849
 10
128.2805419601174
 20
142.520499638849
 10
128.2805419601174
 20
142.7234157629303
 10
128.1678873377497
 20
142.9011826899691
 10
127.9536023985671
 20
142.9011826899691
 10
127.7417290262243
 20
142.9011826899691
 10
127.6318304802448
 20
142.7489094695211
 10
127.6318304802448
 20
142.5456488358913
 10
127.6318304802448
 20
142.2865776554005
 10
127.8319905279378
 20
142.1680663707079
 10
128.0662570209348
 20
142.1680663707079
 10
128.0662570209348
 20
142.1680663707079
 10
128.0662570209348
 20
141.9282877249346
 10
128.0662570209348
 20
141.9282877249346
 10
127.6855739698147
 20
141.9420681068756
 10
127.4203016174505
 20
142.1453287405053
 10
127.4203016174505
 20
142.5456488358913
 10
127.4203016174505
 20
142.8929144608045
 10
127.586699729388
 20
143.155086227232
 10
127.9563584749553
 20
143.155086227232
 10
128.1341254019942
 20
143.155086227232
 10
128.2832980365055
 20
143.0338188661512
 10
128.3539224939532
 20
142.8784450597665
 10
128.3539224939532
 20
142.8784450597665
 10
128.3594346467296
 20
142.8784450597665
 10
128.3594346467296
 20
142.8784450597665
 10
128.4131781362995
 20
143.1240803678648
 10
128.6050699548279
 20
143.2394910666207
 10
128.8448486006013
 20
143.2394910666207
 10
129.2424126195991
 20
143.2394910666207
 10
129.4539414823935
 20
142.92667639656
 10
129.4539414823935
 20
142.5515054982163
 10
129.4539414823935
 20
142.1453287405053
 10
129.2172634225568
 20
141.8773003117529
 10
128.8024739261327
 20
141.8855685409175
 10
128.8024739261327
 20
141.8855685409175
 10
128.8024739261327
 20
142.1253471866909
 10
128.8024739261327
 20
142.1253471866909
 97
        0
 97
        1
330
96
 75
     2
 76
     1
 98
        1
 10
0.0
 20
0.0
450
        0
451
        0
460
0.0
461
0.0
452
        0
462
0.0
453
        0
470

  0
SPLINE
  5
98
330
92
100
AcDbEntity
  8
Sichtbar schmal (ANSI)
100
AcDbSpline
210
0.0
220
0.0
230
1.0
 70
     9
 71
     3
 72
    17
 73
    13
 74
     0
 42
0.0000000001
 43
0.0000000001
 40
0.0
 40
0.0
 40
0.0
 40
0.0
 40
1.0
 40
1.0
 40
1.0
 40
2.0
 40
2.0
 40
2.0
 40
3.0
 40
3.0
 40
3.0
 40
4.0
 40
4.0
 40
4.0
 40
4.0
 10
128.4359157665021
 20
144.5661973379904
 30
0.0
 10
128.1396375547706
 20
144.5661973379904
 30
0.0
 10
127.6318304802448
 20
144.5634412616022
 30
0.0
 10
127.6318304802448
 20
144.154508427503
 30
0.0
 10
127.6318304802448
 20
143.7452310838553
 30
0.0
 10
128.1396375547706
 20
143.7424750074671
 30
0.0
 10
128.4359157665021
 20
143.7424750074671
 30
0.0
 10
128.7346055450733
 20
143.7424750074671
 30
0.0
 10
129.2424126195991
 20
143.7452310838553
 30
0.0
 10
129.2424126195991
 20
144.154508427503
 30
0.0
 10
129.2424126195991
 20
144.5634412616022
 30
0.0
 10
128.7346055450733
 20
144.5661973379904
 30
0.0
 10
128.4359157665021
 20
144.5661973379904
 30
0.0
  0
SPLINE
  5
99
330
92
100
AcDbEntity
  8
Sichtbar schmal (ANSI)
100
AcDbSpline
210
0.0
220
0.0
230
1.0
 70
     9
 71
     3
 72
    17
 73
    13
 74
     0
 42
0.0000000001
 43
0.0000000001
 40
0.0
 40
0.0
 40
0.0
 40
0.0
 40
1.0
 40
1.0
 40
1.0
 40
2.0
 40
2.0
 40
2.0
 40
3.0
 40
3.0
 40
3.0
 40
4.0
 40
4.0
 40
4.0
 40
4.0
 10
128.4386718428903
 20
143.4889159797528
 30
0.0
 10
127.9983886398754
 20
143.4889159797528
 30
0.0
 10
127.4203016174505
 20
143.5281900682846
 30
0.0
 10
127.4203016174505
 20
144.154508427503
 30
0.0
 10
127.4203016174505
 20
144.7808267867214
 30
0.0
 10
127.9983886398754
 20
144.8201008752533
 30
0.0
 10
128.4386718428903
 20
144.8201008752533
 30
0.0
 10
128.8786105363567
 20
144.8201008752533
 30
0.0
 10
129.4539414823935
 20
144.7808267867214
 30
0.0
 10
129.4539414823935
 20
144.154508427503
 30
0.0
 10
129.4539414823935
 20
143.5281900682846
 30
0.0
 10
128.8786105363567
 20
143.4889159797528
 30
0.0
 10
128.4386718428903
 20
143.4889159797528
 30
0.0
  0
HATCH
  5
9A
330
92
100
AcDbEntity
  8
Sichtbar schmal (ANSI)
 62
   250
420
  2039067
440
 33554687
100
AcDbHatch
 10
0.0
 20
0.0
 30
0.0
210
0.0
220
0.0
230
1.0
  2
SOLID
 70
     1
 71
     1
 91
        2
 92
        1
 93
        1
 72
     4
 94
        3
 73
     0
 74
     0
 95
       17
 96
       13
 40
0.0
 40
0.0
 40
0.0
 40
0.0
 40
1.0
 40
1.0
 40
1.0
 40
2.0
 40
2.0
 40
2.0
 40
3.0
 40
3.0
 40
3.0
 40
4.0
 40
4.0
 40
4.0
 40
4.0
 10
128.4359157665021
 20
144.5661973379904
 10
128.1396375547706
 20
144.5661973379904
 10
127.6318304802448
 20
144.5634412616022
 10
127.6318304802448
 20
144.154508427503
 10
127.6318304802448
 20
143.7452310838553
 10
128.1396375547706
 20
143.7424750074671
 10
128.4359157665021
 20
143.7424750074671
 10
128.7346055450733
 20
143.7424750074671
 10
129.2424126195991
 20
143.7452310838553
 10
129.2424126195991
 20
144.154508427503
 10
129.2424126195991
 20
144.5634412616022
 10
128.7346055450733
 20
144.5661973379904
 10
128.4359157665021
 20
144.5661973379904
 97
        0
 97
        1
330
98
 92
        1
 93
        1
 72
     4
 94
        3
 73
     0
 74
     0
 95
       17
 96
       13
 40
0.0
 40
0.0
 40
0.0
 40
0.0
 40
1.0
 40
1.0
 40
1.0
 40
2.0
 40
2.0
 40
2.0
 40
3.0
 40
3.0
 40
3.0
 40
4.0
 40
4.0
 40
4.0
 40
4.0
 10
128.4386718428903
 20
143.4889159797528
 10
127.9983886398754
 20
143.4889159797528
 10
127.4203016174505
 20
143.5281900682846
 10
127.4203016174505
 20
144.154508427503
 10
127.4203016174505
 20
144.7808267867214
 10
127.9983886398754
 20
144.8201008752533
 10
128.4386718428903
 20
144.8201008752533
 10
128.8786105363567
 20
144.8201008752533
 10
129.4539414823935
 20
144.7808267867214
 10
129.4539414823935
 20
144.154508427503
 10
129.4539414823935
 20
143.5281900682846
 10
128.8786105363567
 20
143.4889159797528
 10
128.4386718428903
 20
143.4889159797528
 97
        0
 97
        1
330
99
 75
     2
 76
     1
 98
        1
 10
0.0
 20
0.0
450
        0
451
        0
460
0.0
461
0.0
452
        0
462
0.0
453
        0
470

  0
ENDBLK
  5
95
330
92
100
AcDbEntity
  8
0
100
AcDbBlockEnd
  0
BLOCK
  5
9D
330
9B
100
AcDbEntity
  8
0
100
AcDbBlockBegin
  2
Block_4
 70
     0
 10
0.0
 20
0.0
 30
0.0
  3
Block_4
  1

  0
INSERT
  5
A0
330
9B
100
AcDbEntity
  8
Sichtbar schmal (ANSI)
100
AcDbBlockReference
  2
Block_5
 10
0.0
 20
0.0
 30
0.0
  0
ENDBLK
  5
9E
330
9B
100
AcDbEntity
  8
0
100
AcDbBlockEnd
  0
BLOCK
  5
A1
330
9F
100
AcDbEntity
  8
0
100
AcDbBlockBegin
  2
Block_5
 70
     0
 10
0.0
 20
0.0
 30
0.0
  3
Block_5
  1

  0
LINE
  5
A3
330
9F
100
AcDbEntity
  8
Sichtbar schmal (ANSI)
 62
    18
420
        0
370
     5
100
AcDbLine
 10
81.45729643586669
 20
129.8106811198911
 30
0.0
 11
115.3578488379411
 21
129.8107026517378
 31
0.0
  0
INSERT
  5
A5
330
9F
100
AcDbEntity
  8
Sichtbar schmal (ANSI)
100
AcDbBlockReference
  2
Block_6
 10
0.0
 20
0.0
 30
0.0
  0
INSERT
  5
AB
330
9F
100
AcDbEntity
  8
Sichtbar schmal (ANSI)
100
AcDbBlockReference
  2
Block_7
 10
0.0
 20
0.0
 30
0.0
  0
ENDBLK
  5
A2
330
9F
100
AcDbEntity
  8
0
100
AcDbBlockEnd
  0
BLOCK
  5
A6
330
A4
100
AcDbEntity
  8
0
100
AcDbBlockBegin
  2
Block_6
 70
     0
 10
0.0
 20
0.0
 30
0.0
  3
Block_6
  1

  0
LWPOLYLINE
  5
A8
330
A4
100
AcDbEntity
  8
Sichtbar schmal (ANSI)
100
AcDbPolyline
 90
        3
 70
     1
 43
0.0
 10
82.08975137141822
 20
129.5893767986573
 10
80.40857168942508
 20
129.809992100794
 10
82.08975137141822
 20
130.0319962070482
  0
HATCH
  5
A9
330
A4
100
AcDbEntity
  8
Sichtbar schmal (ANSI)
 62
    18
420
        0
440
 33554687
100
AcDbHatch
 10
0.0
 20
0.0
 30
0.0
210
0.0
220
0.0
230
1.0
  2
SOLID
 70
     1
 71
     1
 91
        1
 92
        1
 93
        3
 72
     1
 10
82.08975137141822
 20
129.5893767986573
 11
80.40857168942508
 21
129.809992100794
 72
     1
 10
80.40857168942508
 20
129.809992100794
 11
82.08975137141822
 21
130.0319962070482
 72
     1
 10
82.08975137141822
 20
130.0319962070482
 11
82.08975137141822
 21
129.5893767986573
 97
        1
330
A8
 75
     2
 76
     1
 98
        1
 10
0.0
 20
0.0
450
        0
451
        0
460
0.0
461
0.0
452
        0
462
0.0
453
        0
470

  0
ENDBLK
  5
A7
330
A4
100
AcDbEntity
  8
0
100
AcDbBlockEnd
  0
BLOCK
  5
AC
330
AA
100
AcDbEntity
  8
0
100
AcDbBlockBegin
  2
Block_7
 70
     0
 10
0.0
 20
0.0
 30
0.0
  3
Block_7
  1

  0
LWPOLYLINE
  5
AE
330
AA
100
AcDbEntity
  8
Sichtbar schmal (ANSI)
100
AcDbPolyline
 90
        3
 70
     1
 43
0.0
 10
114.7253939023896
 20
129.5893875645807
 10
116.4065682014213
 20
129.8100136326408
 10
114.7253939023896
 20
130.032017738895
  0
HATCH
  5
AF
330
AA
100
AcDbEntity
  8
Sichtbar schmal (ANSI)
 62
    18
420
        0
440
 33554687
100
AcDbHatch
 10
0.0
 20
0.0
 30
0.0
210
0.0
220
0.0
230
1.0
  2
SOLID
 70
     1
 71
     1
 91
        1
 92
        1
 93
        3
 72
     1
 10
114.7253939023896
 20
129.5893875645807
 11
116.4065682014213
 21
129.8100136326408
 72
     1
 10
116.4065682014213
 20
129.8100136326408
 11
114.7253939023896
 21
130.032017738895
 72
     1
 10
114.7253939023896
 20
130.032017738895
 11
114.7253939023896
 21
129.5893875645807
 97
        1
330
AE
 75
     2
 76
     1
 98
        1
 10
0.0
 20
0.0
450
        0
451
        0
460
0.0
461
0.0
452
        0
462
0.0
453
        0
470

  0
ENDBLK
  5
AD
330
AA
100
AcDbEntity
  8
0
100
AcDbBlockEnd
  0
BLOCK
  5
B6
330
B4
100
AcDbEntity
  8
0
100
AcDbBlockBegin
  2
Block_8
 70
     0
 10
0.0
 20
0.0
 30
0.0
  3
Block_8
  1

  0
INSERT
  5
B9
330
B4
100
AcDbEntity
  8
Sichtbar schmal (ANSI)
100
AcDbBlockReference
  2
Block_9
 10
0.0
 20
0.0
 30
0.0
  0
ENDBLK
  5
B7
330
B4
100
AcDbEntity
  8
0
100
AcDbBlockEnd
  0
BLOCK
  5
BA
330
B8
100
AcDbEntity
  8
0
100
AcDbBlockBegin
  2
Block_9
 70
     0
 10
0.0
 20
0.0
 30
0.0
  3
Block_9
  1

  0
SPLINE
  5
BC
330
B8
100
AcDbEntity
  8
Sichtbar schmal (ANSI)
100
AcDbSpline
210
0.0
220
0.0
230
1.0
 70
    11
 71
     3
 72
    26
 73
    22
 74
     0
 42
0.0000000001
 43
0.0000000001
 40
0.0
 40
0.0
 40
0.0
 40
0.0
 40
1.0
 40
1.0
 40
1.0
 40
2.0
 40
2.0
 40
2.0
 40
3.0
 40
3.0
 40
3.0
 40
4.0
 40
4.0
 40
4.0
 40
5.0
 40
5.0
 40
5.0
 40
6.0
 40
6.0
 40
6.0
 40
7.0
 40
7.0
 40
7.0
 40
7.0
 10
137.8045084290905
 20
151.9791815483767
 30
0.0
 10
137.8045084290905
 20
151.9791815483767
 30
0.0
 10
137.8045084290905
 20
151.4601779135238
 30
0.0
 10
137.8045084290905
 20
151.4601779135238
 30
0.0
 10
137.8045084290905
 20
151.4601779135238
 30
0.0
 10
137.6126166105621
 20
151.4601779135238
 30
0.0
 10
137.6126166105621
 20
151.4601779135238
 30
0.0
 10
137.6126166105621
 20
151.7337184950527
 30
0.0
 10
137.5419921531145
 20
151.9819376247649
 30
0.0
 10
137.2374457122184
 20
152.0355088595605
 30
0.0
 10
137.2374457122184
 20
152.0355088595605
 30
0.0
 10
137.2374457122184
 20
152.2189601941501
 30
0.0
 10
137.2374457122184
 20
152.2189601941501
 30
0.0
 10
137.2374457122184
 20
152.2189601941501
 30
0.0
 10
139.2373236414059
 20
152.2189601941501
 30
0.0
 10
139.2373236414059
 20
152.2189601941501
 30
0.0
 10
139.2373236414059
 20
152.2189601941501
 30
0.0
 10
139.2373236414059
 20
151.9791815483767
 30
0.0
 10
139.2373236414059
 20
151.9791815483767
 30
0.0
 10
139.2373236414059
 20
151.9791815483767
 30
0.0
 10
137.8045084290905
 20
151.9791815483767
 30
0.0
 10
137.8045084290905
 20
151.9791815483767
 30
0.0
  0
HATCH
  5
BD
330
B8
100
AcDbEntity
  8
Sichtbar schmal (ANSI)
 62
    18
420
        0
440
 33554687
100
AcDbHatch
 10
0.0
 20
0.0
 30
0.0
210
0.0
220
0.0
230
1.0
  2
SOLID
 70
     1
 71
     1
 91
        1
 92
        1
 93
        1
 72
     4
 94
        3
 73
     0
 74
     0
 95
       26
 96
       22
 40
0.0
 40
0.0
 40
0.0
 40
0.0
 40
1.0
 40
1.0
 40
1.0
 40
2.0
 40
2.0
 40
2.0
 40
3.0
 40
3.0
 40
3.0
 40
4.0
 40
4.0
 40
4.0
 40
5.0
 40
5.0
 40
5.0
 40
6.0
 40
6.0
 40
6.0
 40
7.0
 40
7.0
 40
7.0
 40
7.0
 10
137.8045084290905
 20
151.9791815483767
 10
137.8045084290905
 20
151.9791815483767
 10
137.8045084290905
 20
151.4601779135238
 10
137.8045084290905
 20
151.4601779135238
 10
137.8045084290905
 20
151.4601779135238
 10
137.6126166105621
 20
151.4601779135238
 10
137.6126166105621
 20
151.4601779135238
 10
137.6126166105621
 20
151.7337184950527
 10
137.5419921531145
 20
151.9819376247649
 10
137.2374457122184
 20
152.0355088595605
 10
137.2374457122184
 20
152.0355088595605
 10
137.2374457122184
 20
152.2189601941501
 10
137.2374457122184
 20
152.2189601941501
 10
137.2374457122184
 20
152.2189601941501
 10
139.2373236414059
 20
152.2189601941501
 10
139.2373236414059
 20
152.2189601941501
 10
139.2373236414059
 20
152.2189601941501
 10
139.2373236414059
 20
151.9791815483767
 10
139.2373236414059
 20
151.9791815483767
 10
139.2373236414059
 20
151.9791815483767
 10
137.8045084290905
 20
151.9791815483767
 10
137.8045084290905
 20
151.9791815483767
 97
        0
 97
        1
330
BC
 75
     2
 76
     1
 98
        1
 10
0.0
 20
0.0
450
        0
451
        0
460
0.0
461
0.0
452
        0
462
0.0
453
        0
470

  0
SPLINE
  5
BE
330
B8
100
AcDbEntity
  8
Sichtbar schmal (ANSI)
100
AcDbSpline
210
0.0
220
0.0
230
1.0
 70
    11
 71
     3
 72
    17
 73
    13
 74
     0
 42
0.0000000001
 43
0.0000000001
 40
0.0
 40
0.0
 40
0.0
 40
0.0
 40
1.0
 40
1.0
 40
1.0
 40
2.0
 40
2.0
 40
2.0
 40
3.0
 40
3.0
 40
3.0
 40
4.0
 40
4.0
 40
4.0
 40
4.0
 10
138.5576063021661
 20
153.7401421056622
 30
0.0
 10
138.5576063021661
 20
153.7401421056622
 30
0.0
 10
137.5788546748067
 20
153.7401421056622
 30
0.0
 10
137.5788546748067
 20
153.7401421056622
 30
0.0
 10
137.5788546748067
 20
153.7401421056622
 30
0.0
 10
137.5788546748067
 20
153.7344576981115
 30
0.0
 10
137.5788546748067
 20
153.7344576981115
 30
0.0
 10
137.5788546748067
 20
153.7344576981115
 30
0.0
 10
138.5576063021661
 20
153.0688652503612
 30
0.0
 10
138.5576063021661
 20
153.0688652503612
 30
0.0
 10
138.5576063021661
 20
153.0688652503612
 30
0.0
 10
138.5576063021661
 20
153.7401421056622
 30
0.0
 10
138.5576063021661
 20
153.7401421056622
 30
0.0
  0
SPLINE
  5
BF
330
B8
100
AcDbEntity
  8
Sichtbar schmal (ANSI)
100
AcDbSpline
210
0.0
220
0.0
230
1.0
 70
    11
 71
     3
 72
    38
 73
    34
 74
     0
 42
0.0000000001
 43
0.0000000001
 40
0.0
 40
0.0
 40
0.0
 40
0.0
 40
1.0
 40
1.0
 40
1.0
 40
2.0
 40
2.0
 40
2.0
 40
3.0
 40
3.0
 40
3.0
 40
4.0
 40
4.0
 40
4.0
 40
5.0
 40
5.0
 40
5.0
 40
6.0
 40
6.0
 40
6.0
 40
7.0
 40
7.0
 40
7.0
 40
8.0
 40
8.0
 40
8.0
 40
9.0
 40
9.0
 40
9.0
 40
10.0
 40
10.0
 40
10.0
 40
11.0
 40
11.0
 40
11.0
 40
11.0
 10
138.5376247483517
 20
152.8628485403433
 30
0.0
 10
138.5376247483517
 20
152.8628485403433
 30
0.0
 10
137.2374457122184
 20
153.7740762961919
 30
0.0
 10
137.2374457122184
 20
153.7740762961919
 30
0.0
 10
137.2374457122184
 20
153.7740762961919
 30
0.0
 10
137.2374457122184
 20
153.9657958599461
 30
0.0
 10
137.2374457122184
 20
153.9657958599461
 30
0.0
 10
137.2374457122184
 20
153.9657958599461
 30
0.0
 10
138.5576063021661
 20
153.9657958599461
 30
0.0
 10
138.5576063021661
 20
153.9657958599461
 30
0.0
 10
138.5576063021661
 20
153.9657958599461
 30
0.0
 10
138.5576063021661
 20
154.2365803650867
 30
0.0
 10
138.5576063021661
 20
154.2365803650867
 30
0.0
 10
138.5576063021661
 20
154.2365803650867
 30
0.0
 10
138.7691351649605
 20
154.2365803650867
 30
0.0
 10
138.7691351649605
 20
154.2365803650867
 30
0.0
 10
138.7691351649605
 20
154.2365803650867
 30
0.0
 10
138.7691351649605
 20
153.9657958599461
 30
0.0
 10
138.7691351649605
 20
153.9657958599461
 30
0.0
 10
138.7691351649605
 20
153.9657958599461
 30
0.0
 10
139.2373236414059
 20
153.9657958599461
 30
0.0
 10
139.2373236414059
 20
153.9657958599461
 30
0.0
 10
139.2373236414059
 20
153.9657958599461
 30
0.0
 10
139.2373236414059
 20
153.7401421056622
 30
0.0
 10
139.2373236414059
 20
153.7401421056622
 30
0.0
 10
139.2373236414059
 20
153.7401421056622
 30
0.0
 10
138.7691351649605
 20
153.7401421056622
 30
0.0
 10
138.7691351649605
 20
153.7401421056622
 30
0.0
 10
138.7691351649605
 20
153.7401421056622
 30
0.0
 10
138.7691351649605
 20
152.8628485403433
 30
0.0
 10
138.7691351649605
 20
152.8628485403433
 30
0.0
 10
138.7691351649605
 20
152.8628485403433
 30
0.0
 10
138.5376247483517
 20
152.8628485403433
 30
0.0
 10
138.5376247483517
 20
152.8628485403433
 30
0.0
  0
HATCH
  5
C0
330
B8
100
AcDbEntity
  8
Sichtbar schmal (ANSI)
 62
    18
420
        0
440
 33554687
100
AcDbHatch
 10
0.0
 20
0.0
 30
0.0
210
0.0
220
0.0
230
1.0
  2
SOLID
 70
     1
 71
     1
 91
        2
 92
        1
 93
        1
 72
     4
 94
        3
 73
     0
 74
     0
 95
       17
 96
       13
 40
0.0
 40
0.0
 40
0.0
 40
0.0
 40
1.0
 40
1.0
 40
1.0
 40
2.0
 40
2.0
 40
2.0
 40
3.0
 40
3.0
 40
3.0
 40
4.0
 40
4.0
 40
4.0
 40
4.0
 10
138.5576063021661
 20
153.7401421056622
 10
138.5576063021661
 20
153.7401421056622
 10
137.5788546748067
 20
153.7401421056622
 10
137.5788546748067
 20
153.7401421056622
 10
137.5788546748067
 20
153.7401421056622
 10
137.5788546748067
 20
153.7344576981115
 10
137.5788546748067
 20
153.7344576981115
 10
137.5788546748067
 20
153.7344576981115
 10
138.5576063021661
 20
153.0688652503612
 10
138.5576063021661
 20
153.0688652503612
 10
138.5576063021661
 20
153.0688652503612
 10
138.5576063021661
 20
153.7401421056622
 10
138.5576063021661
 20
153.7401421056622
 97
        0
 97
        1
330
BE
 92
        1
 93
        1
 72
     4
 94
        3
 73
     0
 74
     0
 95
       38
 96
       34
 40
0.0
 40
0.0
 40
0.0
 40
0.0
 40
1.0
 40
1.0
 40
1.0
 40
2.0
 40
2.0
 40
2.0
 40
3.0
 40
3.0
 40
3.0
 40
4.0
 40
4.0
 40
4.0
 40
5.0
 40
5.0
 40
5.0
 40
6.0
 40
6.0
 40
6.0
 40
7.0
 40
7.0
 40
7.0
 40
8.0
 40
8.0
 40
8.0
 40
9.0
 40
9.0
 40
9.0
 40
10.0
 40
10.0
 40
10.0
 40
11.0
 40
11.0
 40
11.0
 40
11.0
 10
138.5376247483517
 20
152.8628485403433
 10
138.5376247483517
 20
152.8628485403433
 10
137.2374457122184
 20
153.7740762961919
 10
137.2374457122184
 20
153.7740762961919
 10
137.2374457122184
 20
153.7740762961919
 10
137.2374457122184
 20
153.9657958599461
 10
137.2374457122184
 20
153.9657958599461
 10
137.2374457122184
 20
153.9657958599461
 10
138.5576063021661
 20
153.9657958599461
 10
138.5576063021661
 20
153.9657958599461
 10
138.5576063021661
 20
153.9657958599461
 10
138.5576063021661
 20
154.2365803650867
 10
138.5576063021661
 20
154.2365803650867
 10
138.5576063021661
 20
154.2365803650867
 10
138.7691351649605
 20
154.2365803650867
 10
138.7691351649605
 20
154.2365803650867
 10
138.7691351649605
 20
154.2365803650867
 10
138.7691351649605
 20
153.9657958599461
 10
138.7691351649605
 20
153.9657958599461
 10
138.7691351649605
 20
153.9657958599461
 10
139.2373236414059
 20
153.9657958599461
 10
139.2373236414059
 20
153.9657958599461
 10
139.2373236414059
 20
153.9657958599461
 10
139.2373236414059
 20
153.7401421056622
 10
139.2373236414059
 20
153.7401421056622
 10
139.2373236414059
 20
153.7401421056622
 10
138.7691351649605
 20
153.7401421056622
 10
138.7691351649605
 20
153.7401421056622
 10
138.7691351649605
 20
153.7401421056622
 10
138.7691351649605
 20
152.8628485403433
 10
138.7691351649605
 20
152.8628485403433
 10
138.7691351649605
 20
152.8628485403433
 10
138.5376247483517
 20
152.8628485403433
 10
138.5376247483517
 20
152.8628485403433
 97
        0
 97
        1
330
BF
 75
     2
 76
     1
 98
        1
 10
0.0
 20
0.0
450
        0
451
        0
460
0.0
461
0.0
452
        0
462
0.0
453
        0
470

  0
SPLINE
  5
C1
330
B8
100
AcDbEntity
  8
Sichtbar schmal (ANSI)
100
AcDbSpline
210
0.0
220
0.0
230
1.0
 70
     9
 71
     3
 72
    17
 73
    13
 74
     0
 42
0.0000000001
 43
0.0000000001
 40
0.0
 40
0.0
 40
0.0
 40
0.0
 40
1.0
 40
1.0
 40
1.0
 40
2.0
 40
2.0
 40
2.0
 40
3.0
 40
3.0
 40
3.0
 40
4.0
 40
4.0
 40
4.0
 40
4.0
 10
139.059556714367
 20
155.1598659551336
 30
0.0
 10
139.059556714367
 20
155.4194538999472
 30
0.0
 10
138.8538845138976
 20
155.5632866364564
 30
0.0
 10
138.6168619445124
 20
155.5632866364564
 30
0.0
 10
138.3684705600259
 20
155.5632866364564
 30
0.0
 10
138.1627983595565
 20
155.4335787914367
 30
0.0
 10
138.1627983595565
 20
155.1598659551336
 30
0.0
 10
138.1627983595565
 20
154.8920097811555
 30
0.0
 10
138.3629584072495
 20
154.7452487134838
 30
0.0
 10
138.6141058681242
 20
154.7452487134838
 30
0.0
 10
138.8621527430622
 20
154.7452487134838
 30
0.0
 10
139.059556714367
 20
154.8975219339318
 30
0.0
 10
139.059556714367
 20
155.1598659551336
 30
0.0
  0
SPLINE
  5
C2
330
B8
100
AcDbEntity
  8
Sichtbar schmal (ANSI)
100
AcDbSpline
210
0.0
220
0.0
230
1.0
 70
     9
 71
     3
 72
    35
 73
    31
 74
     0
 42
0.0000000001
 43
0.0000000001
 40
0.0
 40
0.0
 40
0.0
 40
0.0
 40
1.0
 40
1.0
 40
1.0
 40
2.0
 40
2.0
 40
2.0
 40
3.0
 40
3.0
 40
3.0
 40
4.0
 40
4.0
 40
4.0
 40
5.0
 40
5.0
 40
5.0
 40
6.0
 40
6.0
 40
6.0
 40
7.0
 40
7.0
 40
7.0
 40
8.0
 40
8.0
 40
8.0
 40
9.0
 40
9.0
 40
9.0
 40
10.0
 40
10.0
 40
10.0
 40
10.0
 10
138.3092149176796
 20
154.4603393168536
 30
0.0
 10
137.7593776782337
 20
154.4603393168536
 30
0.0
 10
137.2374457122184
 20
154.6267374287912
 30
0.0
 10
137.2374457122184
 20
155.1965562220515
 30
0.0
 10
137.2374457122184
 20
155.5265963695385
 30
0.0
 10
137.4207247920337
 20
155.7296847483939
 30
0.0
 10
137.7480088631324
 20
155.7606906077612
 30
0.0
 10
137.7480088631324
 20
155.7606906077612
 30
0.0
 10
137.7480088631324
 20
155.5209119619878
 30
0.0
 10
137.7480088631324
 20
155.5209119619878
 30
0.0
 10
137.5674858597053
 20
155.4983465865594
 30
0.0
 10
137.4489745750127
 20
155.3770792254787
 30
0.0
 10
137.4489745750127
 20
155.1853596617245
 30
0.0
 10
137.4489745750127
 20
154.7791829040135
 30
0.0
 10
137.9002820835805
 20
154.7085584465659
 30
0.0
 10
138.2079291104133
 20
154.700117962627
 30
0.0
 10
138.2079291104133
 20
154.700117962627
 30
0.0
 10
138.2134412631897
 20
154.7058023701777
 30
0.0
 10
138.2134412631897
 20
154.7058023701777
 30
0.0
 10
138.0301621833744
 20
154.8186292473196
 30
0.0
 10
137.9512694967622
 20
154.9877834356454
 30
0.0
 10
137.9512694967622
 20
155.2049967059904
 30
0.0
 10
137.9512694967622
 20
155.588608088273
 30
0.0
 10
138.2303222310674
 20
155.817017918945
 30
0.0
 10
138.5999809766347
 20
155.817017918945
 30
0.0
 10
138.8931586024295
 20
155.817017918945
 30
0.0
 10
139.2710855771614
 20
155.6535481381699
 30
0.0
 10
139.2710855771614
 20
155.1486693948066
 30
0.0
 10
139.2710855771614
 20
154.5535291497297
 30
0.0
 10
138.7267604904919
 20
154.4603393168536
 30
0.0
 10
138.3092149176796
 20
154.4603393168536
 30
0.0
  0
HATCH
  5
C3
330
B8
100
AcDbEntity
  8
Sichtbar schmal (ANSI)
 62
    18
420
        0
440
 33554687
100
AcDbHatch
 10
0.0
 20
0.0
 30
0.0
210
0.0
220
0.0
230
1.0
  2
SOLID
 70
     1
 71
     1
 91
        2
 92
        1
 93
        1
 72
     4
 94
        3
 73
     0
 74
     0
 95
       17
 96
       13
 40
0.0
 40
0.0
 40
0.0
 40
0.0
 40
1.0
 40
1.0
 40
1.0
 40
2.0
 40
2.0
 40
2.0
 40
3.0
 40
3.0
 40
3.0
 40
4.0
 40
4.0
 40
4.0
 40
4.0
 10
139.059556714367
 20
155.1598659551336
 10
139.059556714367
 20
155.4194538999472
 10
138.8538845138976
 20
155.5632866364564
 10
138.6168619445124
 20
155.5632866364564
 10
138.3684705600259
 20
155.5632866364564
 10
138.1627983595565
 20
155.4335787914367
 10
138.1627983595565
 20
155.1598659551336
 10
138.1627983595565
 20
154.8920097811555
 10
138.3629584072495
 20
154.7452487134838
 10
138.6141058681242
 20
154.7452487134838
 10
138.8621527430622
 20
154.7452487134838
 10
139.059556714367
 20
154.8975219339318
 10
139.059556714367
 20
155.1598659551336
 97
        0
 97
        1
330
C1
 92
        1
 93
        1
 72
     4
 94
        3
 73
     0
 74
     0
 95
       35
 96
       31
 40
0.0
 40
0.0
 40
0.0
 40
0.0
 40
1.0
 40
1.0
 40
1.0
 40
2.0
 40
2.0
 40
2.0
 40
3.0
 40
3.0
 40
3.0
 40
4.0
 40
4.0
 40
4.0
 40
5.0
 40
5.0
 40
5.0
 40
6.0
 40
6.0
 40
6.0
 40
7.0
 40
7.0
 40
7.0
 40
8.0
 40
8.0
 40
8.0
 40
9.0
 40
9.0
 40
9.0
 40
10.0
 40
10.0
 40
10.0
 40
10.0
 10
138.3092149176796
 20
154.4603393168536
 10
137.7593776782337
 20
154.4603393168536
 10
137.2374457122184
 20
154.6267374287912
 10
137.2374457122184
 20
155.1965562220515
 10
137.2374457122184
 20
155.5265963695385
 10
137.4207247920337
 20
155.7296847483939
 10
137.7480088631324
 20
155.7606906077612
 10
137.7480088631324
 20
155.7606906077612
 10
137.7480088631324
 20
155.5209119619878
 10
137.7480088631324
 20
155.5209119619878
 10
137.5674858597053
 20
155.4983465865594
 10
137.4489745750127
 20
155.3770792254787
 10
137.4489745750127
 20
155.1853596617245
 10
137.4489745750127
 20
154.7791829040135
 10
137.9002820835805
 20
154.7085584465659
 10
138.2079291104133
 20
154.700117962627
 10
138.2079291104133
 20
154.700117962627
 10
138.2134412631897
 20
154.7058023701777
 10
138.2134412631897
 20
154.7058023701777
 10
138.0301621833744
 20
154.8186292473196
 10
137.9512694967622
 20
154.9877834356454
 10
137.9512694967622
 20
155.2049967059904
 10
137.9512694967622
 20
155.588608088273
 10
138.2303222310674
 20
155.817017918945
 10
138.5999809766347
 20
155.817017918945
 10
138.8931586024295
 20
155.817017918945
 10
139.2710855771614
 20
155.6535481381699
 10
139.2710855771614
 20
155.1486693948066
 10
139.2710855771614
 20
154.5535291497297
 10
138.7267604904919
 20
154.4603393168536
 10
138.3092149176796
 20
154.4603393168536
 97
        0
 97
        1
330
C2
 75
     2
 76
     1
 98
        1
 10
0.0
 20
0.0
450
        0
451
        0
460
0.0
461
0.0
452
        0
462
0.0
453
        0
470

  0
ENDBLK
  5
BB
330
B8
100
AcDbEntity
  8
0
100
AcDbBlockEnd
  0
BLOCK
  5
C6
330
C4
100
AcDbEntity
  8
0
100
AcDbBlockBegin
  2
Block_10
 70
     0
 10
0.0
 20
0.0
 30
0.0
  3
Block_10
  1

  0
SPLINE
  5
C8
330
C4
100
AcDbEntity
  8
Sichtbar schmal (ANSI)
100
AcDbSpline
210
0.0
220
0.0
230
1.0
 70
     9
 71
     3
 72
    62
 73
    58
 74
     0
 42
0.0000000001
 43
0.0000000001
 40
0.0
 40
0.0
 40
0.0
 40
0.0
 40
1.0
 40
1.0
 40
1.0
 40
2.0
 40
2.0
 40
2.0
 40
3.0
 40
3.0
 40
3.0
 40
4.0
 40
4.0
 40
4.0
 40
5.0
 40
5.0
 40
5.0
 40
6.0
 40
6.0
 40
6.0
 40
7.0
 40
7.0
 40
7.0
 40
8.0
 40
8.0
 40
8.0
 40
9.0
 40
9.0
 40
9.0
 40
10.0
 40
10.0
 40
10.0
 40
11.0
 40
11.0
 40
11.0
 40
12.0
 40
12.0
 40
12.0
 40
13.0
 40
13.0
 40
13.0
 40
14.0
 40
14.0
 40
14.0
 40
15.0
 40
15.0
 40
15.0
 40
16.0
 40
16.0
 40
16.0
 40
17.0
 40
17.0
 40
17.0
 40
18.0
 40
18.0
 40
18.0
 40
19.0
 40
19.0
 40
19.0
 40
19.0
 10
128.6195393558659
 20
178.0895602310852
 30
0.0
 10
128.8789550459052
 20
178.0980007150241
 30
0.0
 10
129.0594780493323
 20
178.2418334515333
 30
0.0
 10
129.0594780493323
 20
178.5155462878364
 30
0.0
 10
129.0594780493323
 20
178.7496405260591
 30
0.0
 10
128.9127169816607
 20
178.9498005737521
 30
0.0
 10
128.6732828454358
 20
178.9498005737521
 30
0.0
 10
128.4221353845611
 20
178.9498005737521
 30
0.0
 10
128.289499208379
 20
178.7608370863861
 30
0.0
 10
128.289499208379
 20
178.5239867717753
 30
0.0
 10
128.289499208379
 20
178.4731716133678
 30
0.0
 10
128.2922552847672
 20
178.4252847861228
 30
0.0
 10
128.2981119470921
 20
178.380154035266
 30
0.0
 10
128.2981119470921
 20
178.380154035266
 30
0.0
 10
128.0948513134624
 20
178.380154035266
 30
0.0
 10
128.0948513134624
 20
178.380154035266
 30
0.0
 10
128.0976073898506
 20
178.399791079532
 30
0.0
 10
128.0976073898506
 20
178.416844302184
 30
0.0
 10
128.0976073898506
 20
178.4337252700617
 30
0.0
 10
128.0976073898506
 20
178.4337252700617
 30
0.0
 10
128.0976073898506
 20
178.4845404284691
 30
0.0
 10
128.0976073898506
 20
178.4845404284691
 30
0.0
 10
128.0976073898506
 20
178.6876288073246
 30
0.0
 10
127.9849527674829
 20
178.8652234795892
 30
0.0
 10
127.7706678283004
 20
178.8652234795892
 30
0.0
 10
127.5587944559575
 20
178.8652234795892
 30
0.0
 10
127.448895909978
 20
178.7129502591412
 30
0.0
 10
127.448895909978
 20
178.5098618802857
 30
0.0
 10
127.448895909978
 20
178.2504461902464
 30
0.0
 10
127.6490559576711
 20
178.1319349055538
 30
0.0
 10
127.883322450668
 20
178.1319349055538
 30
0.0
 10
127.883322450668
 20
178.1319349055538
 30
0.0
 10
127.883322450668
 20
177.8921562597804
 30
0.0
 10
127.883322450668
 20
177.8921562597804
 30
0.0
 10
127.5026393995479
 20
177.90628115127
 30
0.0
 10
127.2373670471837
 20
178.1093695301254
 30
0.0
 10
127.2373670471837
 20
178.5098618802857
 30
0.0
 10
127.2373670471837
 20
178.8567829956504
 30
0.0
 10
127.4037651591213
 20
179.1191270168521
 30
0.0
 10
127.7734239046886
 20
179.1191270168521
 30
0.0
 10
127.9511908317275
 20
179.1191270168521
 30
0.0
 10
128.1003634662388
 20
178.9978596557713
 30
0.0
 10
128.1709879236864
 20
178.8426581041609
 30
0.0
 10
128.1709879236864
 20
178.8426581041609
 30
0.0
 10
128.1765000764628
 20
178.8426581041609
 30
0.0
 10
128.1765000764628
 20
178.8426581041609
 30
0.0
 10
128.2302435660327
 20
179.0881211574849
 30
0.0
 10
128.4221353845611
 20
179.203704111015
 30
0.0
 10
128.6619140303345
 20
179.203704111015
 30
0.0
 10
129.0594780493323
 20
179.203704111015
 30
0.0
 10
129.2710069121267
 20
178.8907171861801
 30
0.0
 10
129.2710069121267
 20
178.5155462878364
 30
0.0
 10
129.2710069121267
 20
178.1093695301254
 30
0.0
 10
129.03432885229
 20
177.841341101373
 30
0.0
 10
128.6195393558659
 20
177.8497815853118
 30
0.0
 10
128.6195393558659
 20
177.8497815853118
 30
0.0
 10
128.6195393558659
 20
178.0895602310852
 30
0.0
 10
128.6195393558659
 20
178.0895602310852
 30
0.0
  0
HATCH
  5
C9
330
C4
100
AcDbEntity
  8
Sichtbar schmal (ANSI)
 62
    18
420
        0
440
 33554687
100
AcDbHatch
 10
0.0
 20
0.0
 30
0.0
210
0.0
220
0.0
230
1.0
  2
SOLID
 70
     1
 71
     1
 91
        1
 92
        1
 93
        1
 72
     4
 94
        3
 73
     0
 74
     0
 95
       62
 96
       58
 40
0.0
 40
0.0
 40
0.0
 40
0.0
 40
1.0
 40
1.0
 40
1.0
 40
2.0
 40
2.0
 40
2.0
 40
3.0
 40
3.0
 40
3.0
 40
4.0
 40
4.0
 40
4.0
 40
5.0
 40
5.0
 40
5.0
 40
6.0
 40
6.0
 40
6.0
 40
7.0
 40
7.0
 40
7.0
 40
8.0
 40
8.0
 40
8.0
 40
9.0
 40
9.0
 40
9.0
 40
10.0
 40
10.0
 40
10.0
 40
11.0
 40
11.0
 40
11.0
 40
12.0
 40
12.0
 40
12.0
 40
13.0
 40
13.0
 40
13.0
 40
14.0
 40
14.0
 40
14.0
 40
15.0
 40
15.0
 40
15.0
 40
16.0
 40
16.0
 40
16.0
 40
17.0
 40
17.0
 40
17.0
 40
18.0
 40
18.0
 40
18.0
 40
19.0
 40
19.0
 40
19.0
 40
19.0
 10
128.6195393558659
 20
178.0895602310852
 10
128.8789550459052
 20
178.0980007150241
 10
129.0594780493323
 20
178.2418334515333
 10
129.0594780493323
 20
178.5155462878364
 10
129.0594780493323
 20
178.7496405260591
 10
128.9127169816607
 20
178.9498005737521
 10
128.6732828454358
 20
178.9498005737521
 10
128.4221353845611
 20
178.9498005737521
 10
128.289499208379
 20
178.7608370863861
 10
128.289499208379
 20
178.5239867717753
 10
128.289499208379
 20
178.4731716133678
 10
128.2922552847672
 20
178.4252847861228
 10
128.2981119470921
 20
178.380154035266
 10
128.2981119470921
 20
178.380154035266
 10
128.0948513134624
 20
178.380154035266
 10
128.0948513134624
 20
178.380154035266
 10
128.0976073898506
 20
178.399791079532
 10
128.0976073898506
 20
178.416844302184
 10
128.0976073898506
 20
178.4337252700617
 10
128.0976073898506
 20
178.4337252700617
 10
128.0976073898506
 20
178.4845404284691
 10
128.0976073898506
 20
178.4845404284691
 10
128.0976073898506
 20
178.6876288073246
 10
127.9849527674829
 20
178.8652234795892
 10
127.7706678283004
 20
178.8652234795892
 10
127.5587944559575
 20
178.8652234795892
 10
127.448895909978
 20
178.7129502591412
 10
127.448895909978
 20
178.5098618802857
 10
127.448895909978
 20
178.2504461902464
 10
127.6490559576711
 20
178.1319349055538
 10
127.883322450668
 20
178.1319349055538
 10
127.883322450668
 20
178.1319349055538
 10
127.883322450668
 20
177.8921562597804
 10
127.883322450668
 20
177.8921562597804
 10
127.5026393995479
 20
177.90628115127
 10
127.2373670471837
 20
178.1093695301254
 10
127.2373670471837
 20
178.5098618802857
 10
127.2373670471837
 20
178.8567829956504
 10
127.4037651591213
 20
179.1191270168521
 10
127.7734239046886
 20
179.1191270168521
 10
127.9511908317275
 20
179.1191270168521
 10
128.1003634662388
 20
178.9978596557713
 10
128.1709879236864
 20
178.8426581041609
 10
128.1709879236864
 20
178.8426581041609
 10
128.1765000764628
 20
178.8426581041609
 10
128.1765000764628
 20
178.8426581041609
 10
128.2302435660327
 20
179.0881211574849
 10
128.4221353845611
 20
179.203704111015
 10
128.6619140303345
 20
179.203704111015
 10
129.0594780493323
 20
179.203704111015
 10
129.2710069121267
 20
178.8907171861801
 10
129.2710069121267
 20
178.5155462878364
 10
129.2710069121267
 20
178.1093695301254
 10
129.03432885229
 20
177.841341101373
 10
128.6195393558659
 20
177.8497815853118
 10
128.6195393558659
 20
177.8497815853118
 10
128.6195393558659
 20
178.0895602310852
 10
128.6195393558659
 20
178.0895602310852
 97
        0
 97
        1
330
C8
 75
     2
 76
     1
 98
        1
 10
0.0
 20
0.0
450
        0
451
        0
460
0.0
461
0.0
452
        0
462
0.0
453
        0
470

  0
ENDBLK
  5
C7
330
C4
100
AcDbEntity
  8
0
100
AcDbBlockEnd
  0
BLOCK
  5
CC
330
CA
100
AcDbEntity
  8
0
100
AcDbBlockBegin
  2
Block_11
 70
     0
 10
0.0
 20
0.0
 30
0.0
  3
Block_11
  1

  0
IMAGE
  5
D0
330
CA
100
AcDbEntity
  8
Sichtbar schmal (ANSI)
160
               140
310
8C00000001000000840000000600000005000000013C1BD88205614058A65366667661400000000000000000013C1BD8820561403FBB77E338F264400000000000000000D779BACCCC1061403FBB77E338F264400000000000000000D779BACCCC10614058A65366667661400000000000000000013C1BD88205614058A653
310
66667661400000000000000000
100
AcDbRasterImage
 90
        0
 10
136.1722221881791
 20
139.699999965075
 30
0.0
 11
0.3527777776895833
 21
0.0
 31
0.0
 12
0.0
 22
0.3527777776895833
 32
0.0
 13
1.0
 23
79.0
340
CF
 70
     3
280
     0
281
    50
282
    50
283
     0
290
     0
360
0
 71
     1
 91
        2
 14
-0.5
 24
-0.5
 14
0.5
 24
78.5
  0
INSERT
  5
D2
330
CA
100
AcDbEntity
  8
Sichtbar schmal (ANSI)
100
AcDbBlockReference
  2
Block_12
 10
0.0
 20
0.0
 30
0.0
  0
ENDBLK
  5
CD
330
CA
100
AcDbEntity
  8
0
100
AcDbBlockEnd
  0
BLOCK
  5
D3
330
D1
100
AcDbEntity
  8
0
100
AcDbBlockBegin
  2
Block_12
 70
     0
 10
0.0
 20
0.0
 30
0.0
  3
Block_12
  1

  0
LINE
  5
D5
330
D1
100
AcDbEntity
  8
Sichtbar schmal (ANSI)
 62
    18
420
        0
370
     5
100
AcDbLine
 10
136.4213994850732
 20
140.8591884684744
 30
0.0
 11
136.4213779532265
 21
166.42335802792
 31
0.0
  0
INSERT
  5
D7
330
D1
100
AcDbEntity
  8
Sichtbar schmal (ANSI)
100
AcDbBlockReference
  2
Block_13
 10
0.0
 20
0.0
 30
0.0
  0
INSERT
  5
DD
330
D1
100
AcDbEntity
  8
Sichtbar schmal (ANSI)
100
AcDbBlockReference
  2
Block_14
 10
0.0
 20
0.0
 30
0.0
  0
ENDBLK
  5
D4
330
D1
100
AcDbEntity
  8
0
100
AcDbBlockEnd
  0
BLOCK
  5
D8
330
D6
100
AcDbEntity
  8
0
100
AcDbBlockBegin
  2
Block_13
 70
     0
 10
0.0
 20
0.0
 30
0.0
  3
Block_13
  1

  0
LWPOLYLINE
  5
DA
330
D6
100
AcDbEntity
  8
Sichtbar schmal (ANSI)
100
AcDbPolyline
 90
        3
 70
     1
 43
0.0
 10
136.642703806307
 20
141.491643404026
 10
136.4220885041703
 20
139.8104691049942
 10
136.2000843979161
 20
141.491643404026
  0
HATCH
  5
DB
330
D6
100
AcDbEntity
  8
Sichtbar schmal (ANSI)
 62
    18
420
        0
440
 33554687
100
AcDbHatch
 10
0.0
 20
0.0
 30
0.0
210
0.0
220
0.0
230
1.0
  2
SOLID
 70
     1
 71
     1
 91
        1
 92
        1
 93
        3
 72
     1
 10
136.642703806307
 20
141.491643404026
 11
136.4220885041703
 21
139.8104691049942
 72
     1
 10
136.4220885041703
 20
139.8104691049942
 11
136.2000843979161
 21
141.491643404026
 72
     1
 10
136.2000843979161
 20
141.491643404026
 11
136.642703806307
 21
141.491643404026
 97
        1
330
DA
 75
     2
 76
     1
 98
        1
 10
0.0
 20
0.0
450
        0
451
        0
460
0.0
461
0.0
452
        0
462
0.0
453
        0
470

  0
ENDBLK
  5
D9
330
D6
100
AcDbEntity
  8
0
100
AcDbBlockEnd
  0
BLOCK
  5
DE
330
DC
100
AcDbEntity
  8
0
100
AcDbBlockBegin
  2
Block_14
 70
     0
 10
0.0
 20
0.0
 30
0.0
  3
Block_14
  1

  0
LWPOLYLINE
  5
E0
330
DC
100
AcDbEntity
  8
Sichtbar schmal (ANSI)
100
AcDbPolyline
 90
        3
 70
     1
 43
0.0
 10
136.6426930403836
 20
165.7909030923685
 10
136.4220669723235
 20
167.4720881573236
 10
136.2000628660693
 20
165.7909030923685
  0
HATCH
  5
E1
330
DC
100
AcDbEntity
  8
Sichtbar schmal (ANSI)
 62
    18
420
        0
440
 33554687
100
AcDbHatch
 10
0.0
 20
0.0
 30
0.0
210
0.0
220
0.0
230
1.0
  2
SOLID
 70
     1
 71
     1
 91
        1
 92
        1
 93
        3
 72
     1
 10
136.6426930403836
 20
165.7909030923685
 11
136.4220669723235
 21
167.4720881573236
 72
     1
 10
136.4220669723235
 20
167.4720881573236
 11
136.2000628660693
 21
165.7909030923685
 72
     1
 10
136.2000628660693
 20
165.7909030923685
 11
136.6426930403836
 21
165.7909030923685
 97
        1
330
E0
 75
     2
 76
     1
 98
        1
 10
0.0
 20
0.0
450
        0
451
        0
460
0.0
461
0.0
452
        0
462
0.0
453
        0
470

  0
ENDBLK
  5
DF
330
DC
100
AcDbEntity
  8
0
100
AcDbBlockEnd
  0
BLOCK
  5
E4
330
E2
100
AcDbEntity
  8
0
100
AcDbBlockBegin
  2
Block_15
 70
     0
 10
0.0
 20
0.0
 30
0.0
  3
Block_15
  1

  0
INSERT
  5
E7
330
E2
100
AcDbEntity
  8
Sichtbar schmal (ANSI)
100
AcDbBlockReference
  2
Block_16
 10
0.0
 20
0.0
 30
0.0
  0
ENDBLK
  5
E5
330
E2
100
AcDbEntity
  8
0
100
AcDbBlockEnd
  0
BLOCK
  5
E8
330
E6
100
AcDbEntity
  8
0
100
AcDbBlockBegin
  2
Block_16
 70
     0
 10
0.0
 20
0.0
 30
0.0
  3
Block_16
  1

  0
LINE
  5
EA
330
E6
100
AcDbEntity
  8
Sichtbar schmal (ANSI)
 62
    18
420
        0
370
     5
100
AcDbLine
 10
126.4063454206011
 20
141.617044879689
 30
0.0
 11
126.4063454206011
 21
145.2034861731446
 31
0.0
  0
INSERT
  5
EC
330
E6
100
AcDbEntity
  8
Sichtbar schmal (ANSI)
100
AcDbBlockReference
  2
Block_17
 10
0.0
 20
0.0
 30
0.0
  0
INSERT
  5
F2
330
E6
100
AcDbEntity
  8
Sichtbar schmal (ANSI)
100
AcDbBlockReference
  2
Block_18
 10
0.0
 20
0.0
 30
0.0
  0
ENDBLK
  5
E9
330
E6
100
AcDbEntity
  8
0
100
AcDbBlockEnd
  0
BLOCK
  5
ED
330
EB
100
AcDbEntity
  8
0
100
AcDbBlockBegin
  2
Block_17
 70
     0
 10
0.0
 20
0.0
 30
0.0
  3
Block_17
  1

  0
LWPOLYLINE
  5
EF
330
EB
100
AcDbEntity
  8
Sichtbar schmal (ANSI)
100
AcDbPolyline
 90
        3
 70
     1
 43
0.0
 10
126.6276497418348
 20
142.2494998152406
 10
126.4070236737747
 20
140.5683147502854
 10
126.1850303334439
 20
142.2494998152406
  0
HATCH
  5
F0
330
EB
100
AcDbEntity
  8
Sichtbar schmal (ANSI)
 62
    18
420
        0
440
 33554687
100
AcDbHatch
 10
0.0
 20
0.0
 30
0.0
210
0.0
220
0.0
230
1.0
  2
SOLID
 70
     1
 71
     1
 91
        1
 92
        1
 93
        3
 72
     1
 10
126.6276497418348
 20
142.2494998152406
 11
126.4070236737747
 21
140.5683147502854
 72
     1
 10
126.4070236737747
 20
140.5683147502854
 11
126.1850303334439
 21
142.2494998152406
 72
     1
 10
126.1850303334439
 20
142.2494998152406
 11
126.6276497418348
 21
142.2494998152406
 97
        1
330
EF
 75
     2
 76
     1
 98
        1
 10
0.0
 20
0.0
450
        0
451
        0
460
0.0
461
0.0
452
        0
462
0.0
453
        0
470

  0
ENDBLK
  5
EE
330
EB
100
AcDbEntity
  8
0
100
AcDbBlockEnd
  0
BLOCK
  5
F3
330
F1
100
AcDbEntity
  8
0
100
AcDbBlockBegin
  2
Block_18
 70
     0
 10
0.0
 20
0.0
 30
0.0
  3
Block_18
  1

  0
LWPOLYLINE
  5
F5
330
F1
100
AcDbEntity
  8
Sichtbar schmal (ANSI)
100
AcDbPolyline
 90
        3
 70
     1
 43
0.0
 10
126.6276497418348
 20
144.5710312375931
 10
126.4070344396981
 20
146.2522055366249
 10
126.1850303334439
 20
144.5710312375931
  0
HATCH
  5
F6
330
F1
100
AcDbEntity
  8
Sichtbar schmal (ANSI)
 62
    18
420
        0
440
 33554687
100
AcDbHatch
 10
0.0
 20
0.0
 30
0.0
210
0.0
220
0.0
230
1.0
  2
SOLID
 70
     1
 71
     1
 91
        1
 92
        1
 93
        3
 72
     1
 10
126.6276497418348
 20
144.5710312375931
 11
126.4070344396981
 21
146.2522055366249
 72
     1
 10
126.4070344396981
 20
146.2522055366249
 11
126.1850303334439
 21
144.5710312375931
 72
     1
 10
126.1850303334439
 20
144.5710312375931
 11
126.6276497418348
 21
144.5710312375931
 97
        1
330
F5
 75
     2
 76
     1
 98
        1
 10
0.0
 20
0.0
450
        0
451
        0
460
0.0
461
0.0
452
        0
462
0.0
453
        0
470

  0
ENDBLK
  5
F4
330
F1
100
AcDbEntity
  8
0
100
AcDbBlockEnd
  0
BLOCK
  5
F9
330
F7
100
AcDbEntity
  8
0
100
AcDbBlockBegin
  2
Block_19
 70
     0
 10
0.0
 20
0.0
 30
0.0
  3
Block_19
  1

  0
CIRCLE
  5
FB
330
F7
100
AcDbEntity
  8
Sichtbar schmal (ANSI)
 62
    18
420
        0
370
     5
100
AcDbCircle
 10
104.095309259374
 20
163.8722862939378
 30
0.0
 40
2.841947367709711
  0
LINE
  5
FC
330
F7
100
AcDbEntity
  8
Sichtbar schmal (ANSI)
 62
    18
420
        0
370
     5
100
AcDbLine
 10
98.41141452395369
 20
167.0931599773435
 30
0.0
 11
98.03248820825849
 21
167.4720862930367
 31
0.0
  0
LINE
  5
FD
330
F7
100
AcDbEntity
  8
Sichtbar schmal (ANSI)
 62
    18
420
        0
370
     5
100
AcDbLine
 10
98.03248820825849
 20
167.4720862930367
 30
0.0
 11
83.25436189616405
 21
167.4720862930367
 31
0.0
  0
SPLINE
  5
FE
330
F7
100
AcDbEntity
  8
Sichtbar schmal (ANSI)
 62
    18
420
        0
370
     5
100
AcDbSpline
210
0.0
220
0.0
230
1.0
 70
     8
 71
     3
 72
     8
 73
     4
 74
     0
 42
0.0000000001
 43
0.0000000001
 40
0.0
 40
0.0
 40
0.0
 40
0.0
 40
1.0
 40
1.0
 40
1.0
 40
1.0
 10
83.25436189616405
 20
167.4720862930367
 30
0.0
 10
81.68479770515551
 20
167.4720862930367
 30
0.0
 10
80.41241452845238
 20
166.1997031163356
 30
0.0
 10
80.41241452845238
 20
164.630138925327
 30
0.0
  0
LINE
  5
FF
330
F7
100
AcDbEntity
  8
Sichtbar schmal (ANSI)
 62
    18
420
        0
370
     5
100
AcDbLine
 10
80.41241452845238
 20
164.630138925327
 30
0.0
 11
80.41241452845238
 21
154.0202020858736
 31
0.0
  0
LINE
  5
100
330
F7
100
AcDbEntity
  8
Sichtbar schmal (ANSI)
 62
    18
420
        0
370
     5
100
AcDbLine
 10
80.41241452845238
 20
154.0202020858736
 30
0.0
 11
80.79134084414757
 21
153.6412757701793
 31
0.0
  0
LINE
  5
101
330
F7
100
AcDbEntity
  8
Sichtbar schmal (ANSI)
 62
    18
420
        0
370
     5
100
AcDbLine
 10
80.41241452845238
 20
153.2623494544848
 30
0.0
 11
80.79134084414757
 21
153.6412757701793
 31
0.0
  0
LINE
  5
102
330
F7
100
AcDbEntity
  8
Sichtbar schmal (ANSI)
 62
    18
420
        0
370
     5
100
AcDbLine
 10
80.41241452845238
 20
142.6524126150314
 30
0.0
 11
80.41241452845238
 21
153.2623494544848
 31
0.0
  0
SPLINE
  5
103
330
F7
100
AcDbEntity
  8
Sichtbar schmal (ANSI)
 62
    18
420
        0
370
     5
100
AcDbSpline
210
0.0
220
0.0
230
1.0
 70
     8
 71
     3
 72
     8
 73
     4
 74
     0
 42
0.0000000001
 43
0.0000000001
 40
0.0
 40
0.0
 40
0.0
 40
0.0
 40
1.0
 40
1.0
 40
1.0
 40
1.0
 10
80.41241452845238
 20
142.6524126150314
 30
0.0
 10
80.41241452845238
 20
141.0828484240228
 30
0.0
 10
81.68479770515551
 20
139.8104652473203
 30
0.0
 10
83.25436189616405
 20
139.8104652473203
 30
0.0
  0
LINE
  5
104
330
F7
100
AcDbEntity
  8
Sichtbar schmal (ANSI)
 62
    18
420
        0
370
     5
100
AcDbLine
 10
98.03248820825849
 20
139.8104652473203
 30
0.0
 11
83.25436189616405
 21
139.8104652473203
 31
0.0
  0
LINE
  5
105
330
F7
100
AcDbEntity
  8
Sichtbar schmal (ANSI)
 62
    18
420
        0
370
     5
100
AcDbLine
 10
98.41141452395369
 20
140.1893915630149
 30
0.0
 11
98.03248820825849
 21
139.8104652473203
 31
0.0
  0
LINE
  5
106
330
F7
100
AcDbEntity
  8
Sichtbar schmal (ANSI)
 62
    18
420
        0
370
     5
100
AcDbLine
 10
98.41141452395369
 20
140.1893915630149
 30
0.0
 11
98.79034083964823
 21
139.8104652473203
 31
0.0
  0
LINE
  5
107
330
F7
100
AcDbEntity
  8
Sichtbar schmal (ANSI)
 62
    18
420
        0
370
     5
100
AcDbLine
 10
98.79034083964823
 20
139.8104652473203
 30
0.0
 11
113.5684671517446
 21
139.8104652473203
 31
0.0
  0
SPLINE
  5
108
330
F7
100
AcDbEntity
  8
Sichtbar schmal (ANSI)
 62
    18
420
        0
370
     5
100
AcDbSpline
210
0.0
220
0.0
230
1.0
 70
     8
 71
     3
 72
     8
 73
     4
 74
     0
 42
0.0000000001
 43
0.0000000001
 40
0.0
 40
0.0
 40
0.0
 40
0.0
 40
1.0
 40
1.0
 40
1.0
 40
1.0
 10
113.5684671517446
 20
139.8104652473203
 30
0.0
 10
115.1380313427531
 20
139.8104652473203
 30
0.0
 10
116.410414519453
 20
141.0828484240228
 30
0.0
 10
116.410414519453
 20
142.6524126150314
 30
0.0
  0
LINE
  5
109
330
F7
100
AcDbEntity
  8
Sichtbar schmal (ANSI)
 62
    18
420
        0
370
     5
100
AcDbLine
 10
116.410414519453
 20
142.6524126150314
 30
0.0
 11
116.410414519453
 21
153.2623494544848
 31
0.0
  0
LINE
  5
10A
330
F7
100
AcDbEntity
  8
Sichtbar schmal (ANSI)
 62
    18
420
        0
370
     5
100
AcDbLine
 10
116.410414519453
 20
153.2623494544848
 30
0.0
 11
116.0314882037585
 21
153.6412757701793
 31
0.0
  0
LINE
  5
10B
330
F7
100
AcDbEntity
  8
Sichtbar schmal (ANSI)
 62
    18
420
        0
370
     5
100
AcDbLine
 10
116.410414519453
 20
154.0202020858736
 30
0.0
 11
116.0314882037585
 21
153.6412757701793
 31
0.0
  0
LINE
  5
10C
330
F7
100
AcDbEntity
  8
Sichtbar schmal (ANSI)
 62
    18
420
        0
370
     5
100
AcDbLine
 10
116.410414519453
 20
164.630138925327
 30
0.0
 11
116.410414519453
 21
154.0202020858736
 31
0.0
  0
SPLINE
  5
10D
330
F7
100
AcDbEntity
  8
Sichtbar schmal (ANSI)
 62
    18
420
        0
370
     5
100
AcDbSpline
210
0.0
220
0.0
230
1.0
 70
     8
 71
     3
 72
     8
 73
     4
 74
     0
 42
0.0000000001
 43
0.0000000001
 40
0.0
 40
0.0
 40
0.0
 40
0.0
 40
1.0
 40
1.0
 40
1.0
 40
1.0
 10
116.410414519453
 20
164.630138925327
 30
0.0
 10
116.410414519453
 20
166.1997031163356
 30
0.0
 10
115.1380313427531
 20
167.4720862930367
 30
0.0
 10
113.5684671517446
 20
167.4720862930367
 30
0.0
  0
LINE
  5
10E
330
F7
100
AcDbEntity
  8
Sichtbar schmal (ANSI)
 62
    18
420
        0
370
     5
100
AcDbLine
 10
98.79034083964823
 20
167.4720862930367
 30
0.0
 11
113.5684671517446
 21
167.4720862930367
 31
0.0
  0
LINE
  5
10F
330
F7
100
AcDbEntity
  8
Sichtbar schmal (ANSI)
 62
    18
420
        0
370
     5
100
AcDbLine
 10
98.41141452395369
 20
167.0931599773435
 30
0.0
 11
98.79034083964823
 21
167.4720862930367
 31
0.0
  0
CIRCLE
  5
110
330
F7
100
AcDbEntity
  8
Sichtbar schmal (ANSI)
 62
    18
420
        0
370
     5
100
AcDbCircle
 10
113.5684671517442
 20
164.6301389253272
 30
0.0
 40
0.6441747366818385
  0
CIRCLE
  5
111
330
F7
100
AcDbEntity
  8
Sichtbar schmal (ANSI)
 62
    18
420
        0
370
     5
100
AcDbCircle
 10
113.5684671517442
 20
142.6524126150314
 30
0.0
 40
0.6441747366809562
  0
CIRCLE
  5
112
330
F7
100
AcDbEntity
  8
Sichtbar schmal (ANSI)
 62
    18
420
        0
370
     5
100
AcDbCircle
 10
104.095309259374
 20
143.4102652464214
 30
0.0
 40
2.841947367709991
  0
CIRCLE
  5
113
330
F7
100
AcDbEntity
  8
Sichtbar schmal (ANSI)
 62
    18
420
        0
370
     5
100
AcDbCircle
 10
92.72751978853225
 20
143.4102652464214
 30
0.0
 40
2.841947367710553
  0
CIRCLE
  5
114
330
F7
100
AcDbEntity
  8
Sichtbar schmal (ANSI)
 62
    18
420
        0
370
     5
100
AcDbCircle
 10
83.25436189616389
 20
142.6524126150314
 30
0.0
 40
0.6441747366807155
  0
CIRCLE
  5
115
330
F7
100
AcDbEntity
  8
Sichtbar schmal (ANSI)
 62
    18
420
        0
370
     5
100
AcDbCircle
 10
83.25436189616389
 20
164.6301389253272
 30
0.0
 40
0.6441747366815979
  0
CIRCLE
  5
116
330
F7
100
AcDbEntity
  8
Sichtbar schmal (ANSI)
 62
    18
420
        0
370
     5
100
AcDbCircle
 10
92.72751978853225
 20
163.8722862939378
 30
0.0
 40
2.841947367710272
  0
CIRCLE
  5
117
330
F7
100
AcDbEntity
  8
Sichtbar schmal (ANSI)
 62
    18
420
        0
370
     5
100
AcDbCircle
 10
90.83288821005854
 20
153.6412757701794
 30
0.0
 40
0.8052184208513555
  0
LINE
  5
118
330
F7
100
AcDbEntity
  8
Sichtbar schmal (ANSI)
 62
    18
420
        0
370
     5
100
AcDbLine
 10
91.21181452575276
 20
153.8600489805484
 30
0.0
 11
90.83288821005822
 21
154.0788221909174
 31
0.0
  0
LINE
  5
119
330
F7
100
AcDbEntity
  8
Sichtbar schmal (ANSI)
 62
    18
420
        0
370
     5
100
AcDbLine
 10
91.21181452575276
 20
153.4225025598103
 30
0.0
 11
91.21181452575276
 21
153.8600489805484
 31
0.0
  0
LINE
  5
11A
330
F7
100
AcDbEntity
  8
Sichtbar schmal (ANSI)
 62
    18
420
        0
370
     5
100
AcDbLine
 10
90.83288821005822
 20
153.20372934944
 30
0.0
 11
91.21181452575276
 21
153.4225025598103
 31
0.0
  0
LINE
  5
11B
330
F7
100
AcDbEntity
  8
Sichtbar schmal (ANSI)
 62
    18
420
        0
370
     5
100
AcDbLine
 10
90.45396189436431
 20
153.4225025598103
 30
0.0
 11
90.83288821005822
 21
153.20372934944
 31
0.0
  0
LINE
  5
11C
330
F7
100
AcDbEntity
  8
Sichtbar schmal (ANSI)
 62
    18
420
        0
370
     5
100
AcDbLine
 10
90.45396189436431
 20
153.8600489805484
 30
0.0
 11
90.45396189436431
 21
153.4225025598103
 31
0.0
  0
LINE
  5
11D
330
F7
100
AcDbEntity
  8
Sichtbar schmal (ANSI)
 62
    18
420
        0
370
     5
100
AcDbLine
 10
90.83288821005822
 20
154.0788221909174
 30
0.0
 11
90.45396189436431
 21
153.8600489805484
 31
0.0
  0
CIRCLE
  5
11E
330
F7
100
AcDbEntity
  8
Sichtbar schmal (ANSI)
 62
    18
420
        0
370
     5
100
AcDbCircle
 10
105.9899408378489
 20
153.6412757701794
 30
0.0
 40
0.805218420851115
  0
LINE
  5
11F
330
F7
100
AcDbEntity
  8
Sichtbar schmal (ANSI)
 62
    18
420
        0
370
     5
100
AcDbLine
 10
105.6110145221526
 20
153.4225025598103
 30
0.0
 11
105.9899408378484
 21
153.20372934944
 31
0.0
  0
LINE
  5
120
330
F7
100
AcDbEntity
  8
Sichtbar schmal (ANSI)
 62
    18
420
        0
370
     5
100
AcDbLine
 10
105.6110145221526
 20
153.8600489805484
 30
0.0
 11
105.6110145221526
 21
153.4225025598103
 31
0.0
  0
LINE
  5
121
330
F7
100
AcDbEntity
  8
Sichtbar schmal (ANSI)
 62
    18
420
        0
370
     5
100
AcDbLine
 10
105.9899408378484
 20
154.0788221909174
 30
0.0
 11
105.6110145221526
 21
153.8600489805484
 31
0.0
  0
LINE
  5
122
330
F7
100
AcDbEntity
  8
Sichtbar schmal (ANSI)
 62
    18
420
        0
370
     5
100
AcDbLine
 10
106.368867153543
 20
153.8600489805484
 30
0.0
 11
105.9899408378484
 21
154.0788221909174
 31
0.0
  0
LINE
  5
123
330
F7
100
AcDbEntity
  8
Sichtbar schmal (ANSI)
 62
    18
420
        0
370
     5
100
AcDbLine
 10
106.368867153543
 20
153.4225025598103
 30
0.0
 11
106.368867153543
 21
153.8600489805484
 31
0.0
  0
LINE
  5
124
330
F7
100
AcDbEntity
  8
Sichtbar schmal (ANSI)
 62
    18
420
        0
370
     5
100
AcDbLine
 10
105.9899408378484
 20
153.20372934944
 30
0.0
 11
106.368867153543
 21
153.4225025598103
 31
0.0
  0
ENDBLK
  5
FA
330
F7
100
AcDbEntity
  8
0
100
AcDbBlockEnd
  0
BLOCK
  5
128
330
126
100
AcDbEntity
  8
0
100
AcDbBlockBegin
  2
Block_20
 70
     0
 10
0.0
 20
0.0
 30
0.0
  3
Block_20
  1

  0
INSERT
  5
12B
330
126
100
AcDbEntity
  8
Sichtbar schmal (ANSI)
100
AcDbBlockReference
  2
Block_21
 10
0.0
 20
0.0
 30
0.0
  0
ENDBLK
  5
129
330
126
100
AcDbEntity
  8
0
100
AcDbBlockEnd
  0
BLOCK
  5
12C
330
12A
100
AcDbEntity
  8
0
100
AcDbBlockBegin
  2
Block_21
 70
     0
 10
0.0
 20
0.0
 30
0.0
  3
Block_21
  1

  0
LINE
  5
12E
330
12A
100
AcDbEntity
  8
Sichtbar schmal (ANSI)
 62
    18
420
        0
370
     5
100
AcDbLine
 10
126.4213854155789
 20
180.3593721574655
 30
0.0
 11
126.4213854155789
 21
176.2760512017263
 31
0.0
  0
INSERT
  5
130
330
12A
100
AcDbEntity
  8
Sichtbar schmal (ANSI)
100
AcDbBlockReference
  2
Block_22
 10
0.0
 20
0.0
 30
0.0
  0
ENDBLK
  5
12D
330
12A
100
AcDbEntity
  8
0
100
AcDbBlockEnd
  0
BLOCK
  5
131
330
12F
100
AcDbEntity
  8
0
100
AcDbBlockBegin
  2
Block_22
 70
     0
 10
0.0
 20
0.0
 30
0.0
  3
Block_22
  1

  0
LWPOLYLINE
  5
133
330
12F
100
AcDbEntity
  8
Sichtbar schmal (ANSI)
100
AcDbPolyline
 90
        3
 70
     1
 43
0.0
 10
126.2000703284217
 20
176.9085061372778
 10
126.4206963964818
 20
175.2273210723227
 10
126.642700502736
 20
176.9085061372778
  0
HATCH
  5
134
330
12F
100
AcDbEntity
  8
Sichtbar schmal (ANSI)
 62
    18
420
        0
440
 33554687
100
AcDbHatch
 10
0.0
 20
0.0
 30
0.0
210
0.0
220
0.0
230
1.0
  2
SOLID
 70
     1
 71
     1
 91
        1
 92
        1
 93
        3
 72
     1
 10
126.2000703284217
 20
176.9085061372778
 11
126.4206963964818
 21
175.2273210723227
 72
     1
 10
126.4206963964818
 20
175.2273210723227
 11
126.642700502736
 21
176.9085061372778
 72
     1
 10
126.642700502736
 20
176.9085061372778
 11
126.2000703284217
 21
176.9085061372778
 97
        1
330
133
 75
     2
 76
     1
 98
        1
 10
0.0
 20
0.0
450
        0
451
        0
460
0.0
461
0.0
452
        0
462
0.0
453
        0
470

  0
ENDBLK
  5
132
330
12F
100
AcDbEntity
  8
0
100
AcDbBlockEnd
  0
BLOCK
  5
137
330
135
100
AcDbEntity
  8
0
100
AcDbBlockBegin
  2
Block_23
 70
     0
 10
0.0
 20
0.0
 30
0.0
  3
Block_23
  1

  0
LINE
  5
139
330
135
100
AcDbEntity
  8
Sichtbar schmal (ANSI)
 62
    18
420
        0
370
     5
100
AcDbLine
 10
98.03248820825785
 20
174.6589331869276
 30
0.0
 11
98.41141452395239
 21
174.6589331869276
 31
0.0
  0
LINE
  5
13A
330
135
100
AcDbEntity
  8
Sichtbar schmal (ANSI)
 62
    18
420
        0
370
     5
100
AcDbLine
 10
98.03248820825785
 20
174.6589331869276
 30
0.0
 11
83.25436189616212
 21
174.6589331869276
 31
0.0
  0
LINE
  5
13B
330
135
100
AcDbEntity
  8
Sichtbar schmal (ANSI)
 62
    18
420
        0
370
     5
100
AcDbLine
 10
83.25436189616212
 20
174.6589331869276
 30
0.0
 11
80.41241452845238
 21
174.6589331869276
 31
0.0
  0
LINE
  5
13C
330
135
100
AcDbEntity
  8
Sichtbar schmal (ANSI)
 62
    18
420
        0
370
     5
100
AcDbLine
 10
113.5684671517446
 20
174.6589331869276
 30
0.0
 11
116.410414519453
 21
174.6589331869276
 31
0.0
  0
LINE
  5
13D
330
135
100
AcDbEntity
  8
Sichtbar schmal (ANSI)
 62
    18
420
        0
370
     5
100
AcDbLine
 10
98.79034083964759
 20
174.6589331869276
 30
0.0
 11
113.5684671517446
 21
174.6589331869276
 31
0.0
  0
LINE
  5
13E
330
135
100
AcDbEntity
  8
Sichtbar schmal (ANSI)
 62
    18
420
        0
370
     5
100
AcDbLine
 10
98.79034083964759
 20
174.6589331869276
 30
0.0
 11
98.41141452395239
 21
174.6589331869276
 31
0.0
  0
LINE
  5
13F
330
135
100
AcDbEntity
  8
Sichtbar schmal (ANSI)
 62
    18
420
        0
370
     5
100
AcDbLine
 10
80.41241452845238
 20
175.2273226604685
 30
0.0
 11
83.25436189616212
 21
175.2273226604685
 31
0.0
  0
LINE
  5
140
330
135
100
AcDbEntity
  8
Sichtbar schmal (ANSI)
 62
    18
420
        0
370
     5
100
AcDbLine
 10
98.03248820825785
 20
175.2273226604685
 30
0.0
 11
83.25436189616212
 21
175.2273226604685
 31
0.0
  0
LINE
  5
141
330
135
100
AcDbEntity
  8
Sichtbar schmal (ANSI)
 62
    18
420
        0
370
     5
100
AcDbLine
 10
98.41141452395239
 20
175.2273226604685
 30
0.0
 11
98.03248820825785
 21
175.2273226604685
 31
0.0
  0
LINE
  5
142
330
135
100
AcDbEntity
  8
Sichtbar schmal (ANSI)
 62
    18
420
        0
370
     5
100
AcDbLine
 10
98.41141452395239
 20
175.2273226604685
 30
0.0
 11
98.79034083964759
 21
175.2273226604685
 31
0.0
  0
LINE
  5
143
330
135
100
AcDbEntity
  8
Sichtbar schmal (ANSI)
 62
    18
420
        0
370
     5
100
AcDbLine
 10
98.79034083964759
 20
175.2273226604685
 30
0.0
 11
113.5684671517446
 21
175.2273226604685
 31
0.0
  0
LINE
  5
144
330
135
100
AcDbEntity
  8
Sichtbar schmal (ANSI)
 62
    18
420
        0
370
     5
100
AcDbLine
 10
116.410414519453
 20
175.2273226604685
 30
0.0
 11
113.5684671517446
 21
175.2273226604685
 31
0.0
  0
LINE
  5
145
330
135
100
AcDbEntity
  8
Sichtbar schmal (ANSI)
 62
    18
420
        0
370
     5
100
AcDbLine
 10
116.410414519453
 20
175.2273226604685
 30
0.0
 11
116.410414519453
 21
174.6589331869276
 31
0.0
  0
LINE
  5
146
330
135
100
AcDbEntity
  8
Sichtbar schmal (ANSI)
 62
    18
420
        0
370
     5
100
AcDbLine
 10
98.79034083964759
 20
175.2273226604685
 30
0.0
 11
98.79034083964759
 21
174.6589331869276
 31
0.0
  0
LINE
  5
147
330
135
100
AcDbEntity
  8
Sichtbar schmal (ANSI)
 62
    18
420
        0
370
     5
100
AcDbLine
 10
98.41141452395239
 20
175.2273226604685
 30
0.0
 11
98.41141452395239
 21
174.6589331869276
 31
0.0
  0
LINE
  5
148
330
135
100
AcDbEntity
  8
Sichtbar schmal (ANSI)
 62
    18
420
        0
370
     5
100
AcDbLine
 10
98.03248820825785
 20
175.2273226604685
 30
0.0
 11
98.03248820825785
 21
174.6589331869276
 31
0.0
  0
LINE
  5
149
330
135
100
AcDbEntity
  8
Sichtbar schmal (ANSI)
 62
    18
420
        0
370
     5
100
AcDbLine
 10
80.41241452845238
 20
175.2273226604685
 30
0.0
 11
80.41241452845238
 21
174.6589331869276
 31
0.0
  0
LINE
  5
14A
330
135
100
AcDbEntity
  8
Sichtbar schmal (ANSI)
 62
    18
420
        0
370
     5
100
AcDbLine
 10
113.5684671517446
 20
175.2273226604685
 30
0.0
 11
113.5684671517446
 21
174.6589331869276
 31
0.0
  0
LINE
  5
14B
330
135
100
AcDbEntity
  8
Sichtbar schmal (ANSI)
 62
    18
420
        0
370
     5
100
AcDbLine
 10
83.25436189616212
 20
175.2273226604685
 30
0.0
 11
83.25436189616212
 21
174.6589331869276
 31
0.0
  0
ENDBLK
  5
138
330
135
100
AcDbEntity
  8
0
100
AcDbBlockEnd
  0
ENDSEC
  0
SECTION
  2
ENTITIES
  0
LINE
  5
7A
330
70
100
AcDbEntity
  8
Sichtbar schmal (ANSI)
 62
    18
420
        0
370
     5
100
AcDbLine
 10
116.4063430370462
 20
127.8106989456563
 30
0.0
 11
116.4063445553004
 21
142.6524126150314
 31
0.0
  0
LINE
  5
7B
330
70
100
AcDbEntity
  8
Sichtbar schmal (ANSI)
 62
    18
420
        0
370
     5
100
AcDbLine
 10
80.40880430274052
 20
127.8106989456563
 30
0.0
 11
80.40880582097862
 21
142.6524126150314
 31
0.0
  0
LINE
  5
7C
330
70
100
AcDbEntity
  8
Sichtbar schmal (ANSI)
 62
    18
420
        0
370
     5
100
AcDbLine
 10
128.4063437931741
 20
140.5683169972151
 30
0.0
 11
104.0953092593725
 21
140.5683213371464
 31
0.0
  0
LINE
  5
7D
330
70
100
AcDbEntity
  8
Sichtbar schmal (ANSI)
 62
    18
420
        0
370
     5
100
AcDbLine
 10
128.4063437931741
 20
146.2522091556951
 30
0.0
 11
104.0953092593725
 21
146.252213495627
 31
0.0
  0
INSERT
  5
7F
330
70
100
AcDbEntity
  8
Sichtbar schmal (ANSI)
100
AcDbBlockReference
  2
Block_0
 10
0.0
 20
0.0
 30
0.0
  0
INSERT
  5
8F
330
70
100
AcDbEntity
  8
Sichtbar schmal (ANSI)
100
AcDbBlockReference
  2
Block_2
 10
0.0
 20
0.0
 30
0.0
  0
INSERT
  5
9C
330
70
100
AcDbEntity
  8
Sichtbar schmal (ANSI)
100
AcDbBlockReference
  2
Block_4
 10
0.0
 20
0.0
 30
0.0
  0
LINE
  5
B0
330
70
100
AcDbEntity
  8
Sichtbar schmal (ANSI)
 62
    18
420
        0
370
     5
100
AcDbLine
 10
138.4140224090443
 20
167.4720850227566
 30
0.0
 11
113.5684671517446
 21
167.4720875633169
 31
0.0
  0
LINE
  5
B1
330
70
100
AcDbEntity
  8
Sichtbar schmal (ANSI)
 62
    18
420
        0
370
     5
100
AcDbLine
 10
128.4104145164535
 20
175.2273218032859
 30
0.0
 11
116.410414519453
 21
175.227323517651
 31
0.0
  0
LINE
  5
B2
330
70
100
AcDbEntity
  8
Sichtbar schmal (ANSI)
 62
    18
420
        0
370
     5
100
AcDbLine
 10
128.4104145164535
 20
174.6589323297451
 30
0.0
 11
116.410414519453
 21
174.6589340441105
 31
0.0
  0
LINE
  5
B3
330
70
100
AcDbEntity
  8
Sichtbar schmal (ANSI)
 62
    18
420
        0
370
     5
100
AcDbLine
 10
138.4140224090443
 20
139.810697672375
 30
0.0
 11
113.8183266906507
 21
139.8107002129373
 31
0.0
  0
INSERT
  5
B5
330
70
100
AcDbEntity
  8
Sichtbar schmal (ANSI)
100
AcDbBlockReference
  2
Block_8
 10
0.0
 20
0.0
 30
0.0
  0
INSERT
  5
C5
330
70
100
AcDbEntity
  8
Sichtbar schmal (ANSI)
100
AcDbBlockReference
  2
Block_10
 10
0.0
 20
0.0
 30
0.0
  0
INSERT
  5
CB
330
70
100
AcDbEntity
  8
Sichtbar schmal (ANSI)
100
AcDbBlockReference
  2
Block_11
 10
0.0
 20
0.0
 30
0.0
  0
INSERT
  5
E3
330
70
100
AcDbEntity
  8
Sichtbar schmal (ANSI)
100
AcDbBlockReference
  2
Block_15
 10
0.0
 20
0.0
 30
0.0
  0
INSERT
  5
F8
330
70
100
AcDbEntity
  8
Sichtbar schmal (ANSI)
100
AcDbBlockReference
  2
Block_19
 10
0.0
 20
0.0
 30
0.0
  0
LINE
  5
125
330
70
100
AcDbEntity
  8
Sichtbar schmal (ANSI)
 62
    18
420
        0
370
     5
100
AcDbLine
 10
126.4213848182168
 20
174.6762839729035
 30
0.0
 11
126.4213848182168
 21
175.227323517651
 31
0.0
  0
INSERT
  5
127
330
70
100
AcDbEntity
  8
Sichtbar schmal (ANSI)
100
AcDbBlockReference
  2
Block_20
 10
0.0
 20
0.0
 30
0.0
  0
INSERT
  5
136
330
70
100
AcDbEntity
  8
Sichtbar schmal (ANSI)
100
AcDbBlockReference
  2
Block_23
 10
0.0
 20
0.0
 30
0.0
  0
ENDSEC
  0
SECTION
  2
OBJECTS
  0
DICTIONARY
  5
C
330
0
100
AcDbDictionary
281
     1
  3
ACAD_COLOR
350
63
  3
ACAD_DETAILVIEWSTYLE
350
6A
  3
ACAD_GROUP
350
D
  3
ACAD_IMAGE_DICT
350
CE
  3
ACAD_LAYOUT
350
62
  3
ACAD_MATERIAL
350
10
  3
ACAD_MLEADERSTYLE
350
66
  3
ACAD_MLINESTYLE
350
5F
  3
ACAD_PLOTSETTINGS
350
61
  3
ACAD_PLOTSTYLENAME
350
E
  3
ACAD_SCALELIST
350
42
  3
ACAD_SECTIONVIEWSTYLE
350
68
  3
ACAD_TABLESTYLE
350
64
  3
ACAD_VISUALSTYLE
350
29
  3
ACDB_RECOMPOSE_DATA
350
154
  3
AcDbVariableDictionary
350
14C
  0
DICTIONARY
  5
63
102
{ACAD_REACTORS
330
C
102
}
330
C
100
AcDbDictionary
281
     1
  0
DICTIONARY
  5
6A
102
{ACAD_REACTORS
330
C
102
}
330
C
100
AcDbDictionary
281
     1
  3
Imperial24
350
6B
  0
DICTIONARY
  5
D
102
{ACAD_REACTORS
330
C
102
}
330
C
100
AcDbDictionary
281
     1
  0
DICTIONARY
  5
CE
102
{ACAD_REACTORS
330
C
102
}
330
C
100
AcDbDictionary
281
     1
  3
UDQ02H_1.png
350
CF
  0
DICTIONARY
  5
62
102
{ACAD_REACTORS
330
C
102
}
330
C
100
AcDbDictionary
281
     1
  3
Layout1
350
6F
  3
Layout2
350
77
  3
Model
350
73
  0
DICTIONARY
  5
10
102
{ACAD_REACTORS
330
C
102
}
330
C
100
AcDbDictionary
281
     1
  3
ByBlock
350
19
  3
ByLayer
350
11
  3
Global
350
21
  0
DICTIONARY
  5
66
102
{ACAD_REACTORS
330
C
102
}
330
C
100
AcDbDictionary
281
     1
  3
Standard
350
67
  0
DICTIONARY
  5
5F
102
{ACAD_REACTORS
330
C
102
}
330
C
100
AcDbDictionary
281
     1
  3
Standard
350
60
  0
DICTIONARY
  5
61
102
{ACAD_REACTORS
330
C
102
}
330
C
100
AcDbDictionary
281
     1
  0
ACDBDICTIONARYWDFLT
  5
E
102
{ACAD_REACTORS
330
C
102
}
330
C
100
AcDbDictionary
281
     1
  3
Normal
350
F
100
AcDbDictionaryWithDefault
340
F
  0
DICTIONARY
  5
42
102
{ACAD_REACTORS
330
C
102
}
330
C
100
AcDbDictionary
281
     1
  3
A0
350
43
  3
A1
350
44
  3
A2
350
45
  3
A3
350
46
  3
A4
350
47
  3
A5
350
48
  3
A6
350
49
  3
A7
350
4A
  3
A8
350
4B
  3
A9
350
4C
  3
B0
350
4D
  3
B1
350
4E
  3
B2
350
4F
  3
B3
350
50
  3
B4
350
51
  3
B5
350
52
  3
B6
350
53
  0
DICTIONARY
  5
68
102
{ACAD_REACTORS
330
C
102
}
330
C
100
AcDbDictionary
281
     1
  3
Imperial24
350
69
  0
DICTIONARY
  5
64
102
{ACAD_REACTORS
330
C
102
}
330
C
100
AcDbDictionary
281
     1
  3
Standard
350
65
  0
DICTIONARY
  5
29
102
{ACAD_REACTORS
330
C
102
}
330
C
100
AcDbDictionary
281
     1
  3
2dWireframe
350
2F
  3
Basic
350
2E
  3
Brighten
350
35
  3
ColorChange
350
39
  3
Conceptual
350
32
  3
Dim
350
34
  3
EdgeColorOff
350
41
  3
Facepattern
350
38
  3
Flat
350
2A
  3
FlatWithEdges
350
2B
  3
Gouraud
350
2C
  3
GouraudWithEdges
350
2D
  3
Hidden
350
31
  3
JitterOff
350
3F
  3
Linepattern
350
37
  3
OverhangOff
350
40
  3
Realistic
350
33
  3
Shaded
350
3E
  3
Shaded with edges
350
3D
  3
Shades of Gray
350
3A
  3
Sketchy
350
3B
  3
Thicken
350
36
  3
Wireframe
350
30
  3
X-Ray
350
3C
  0
XRECORD
  5
154
102
{ACAD_REACTORS
330
C
102
}
330
C
100
AcDbXrecord
280
     1
 90
        1
330
65
  0
DICTIONARY
  5
14C
102
{ACAD_REACTORS
330
C
102
}
330
C
100
AcDbDictionary
281
     1
  3
CANNOSCALE
350
151
  3
CMLEADERSTYLE
350
14E
  3
CTABLESTYLE
350
14D
  3
CVIEWDETAILSTYLE
350
14F
  3
CVIEWSECTIONSTYLE
350
150
  0
ACDBDETAILVIEWSTYLE
  5
6B
102
{ACAD_REACTORS
330
6A
102
}
330
6A
100
AcDbModelDocViewStyle
 70
     0
  3
Imperial24
290
     1
300
Imperial24
 90
        0
100
AcDbDetailViewStyle
 70
     0
 71
     0
 90
        3
 71
     1
340
55
 62
   256
 40
0.24
340
0
 62
   256
 40
0.24
300

 40
0.36
280
     3
 71
     2
340
5D
 90
       25
 62
   256
 71
     3
340
55
 62
   256
 40
0.24
 90
        1
 40
0.75
 90
        1
300
%<\AcVar ViewType \f "%tc1">% %<\AcVar ViewDetailId>%\PSCALE %<\AcVar ViewScale \f "%sn">%
 71
     4
340
5D
 90
       25
 62
   256
340
5D
 90
       25
 62
   256
280
     0
  0
IMAGEDEF
  5
CF
102
{ACAD_REACTORS
330
CE
102
}
330
CE
100
AcDbRasterImageDef
 90
        0
  1
/Users/pieroortoleva/Konzept Dropbox/Server1/Upload4Konzept/D/PPW/Auftrag_1384/1_benutzte_Dokumente/Zeichnungen_Export_PDF/DXF/Zeichnung_m_Bemaßung/UDQ02H_1.png
 10
1.0
 20
79.0
 11
0.3527336860670194
 21
0.3527336860670194
280
     1
281
     2
  0
LAYOUT
  5
6F
102
{ACAD_REACTORS
330
62
102
}
330
62
100
AcDbPlotSettings
  1

  2

  4

  6

 40
0.0
 41
0.0
 42
0.0
 43
0.0
 44
0.0
 45
0.0
 46
0.0
 47
0.0
 48
0.0
 49
0.0
140
0.0
141
0.0
142
1.0
143
1.0
 70
   688
 72
     0
 73
     0
 74
     5
  7

 75
    16
147
1.0
 76
     0
 77
     2
 78
   300
148
0.0
149
0.0
100
AcDbLayout
  1
Layout1
 70
     1
 71
     1
 10
0.0
 20
0.0
 11
12.0
 21
9.0
 12
0.0
 22
0.0
 32
0.0
 14
0.0
 24
0.0
 34
0.0
 15
0.0
 25
0.0
 35
0.0
146
0.0
 13
0.0
 23
0.0
 33
0.0
 16
1.0
 26
0.0
 36
0.0
 17
0.0
 27
1.0
 37
0.0
 76
     0
330
6C
  0
LAYOUT
  5
77
102
{ACAD_REACTORS
330
62
102
}
330
62
100
AcDbPlotSettings
  1

  2

  4

  6

 40
0.0
 41
0.0
 42
0.0
 43
0.0
 44
0.0
 45
0.0
 46
0.0
 47
0.0
 48
0.0
 49
0.0
140
0.0
141
0.0
142
1.0
143
1.0
 70
   688
 72
     0
 73
     0
 74
     5
  7

 75
    16
147
1.0
 76
     0
 77
     2
 78
   300
148
0.0
149
0.0
100
AcDbLayout
  1
Layout2
 70
     1
 71
     2
 10
0.0
 20
0.0
 11
12.0
 21
9.0
 12
0.0
 22
0.0
 32
0.0
 14
0.0
 24
0.0
 34
0.0
 15
0.0
 25
0.0
 35
0.0
146
0.0
 13
0.0
 23
0.0
 33
0.0
 16
1.0
 26
0.0
 36
0.0
 17
0.0
 27
1.0
 37
0.0
 76
     0
330
74
  0
LAYOUT
  5
73
102
{ACAD_REACTORS
330
62
102
}
330
62
100
AcDbPlotSettings
  1

  2

  4

  6

 40
0.0
 41
0.0
 42
0.0
 43
0.0
 44
0.0
 45
0.0
 46
0.0
 47
0.0
 48
0.0
 49
0.0
140
0.0
141
0.0
142
1.0
143
1.0
 70
  1712
 72
     0
 73
     0
 74
     0
  7

 75
     0
147
1.0
 76
     0
 77
     2
 78
   300
148
0.0
149
0.0
100
AcDbLayout
  1
Model
 70
     1
 71
     0
 10
0.0
 20
0.0
 11
12.0
 21
9.0
 12
0.0
 22
0.0
 32
0.0
 14
0.0
 24
0.0
 34
0.0
 15
0.0
 25
0.0
 35
0.0
146
0.0
 13
0.0
 23
0.0
 33
0.0
 16
1.0
 26
0.0
 36
0.0
 17
0.0
 27
1.0
 37
0.0
 76
     0
330
70
  0
MATERIAL
  5
19
102
{ACAD_XDICTIONARY
360
1A
102
}
102
{ACAD_REACTORS
330
10
102
}
330
10
100
AcDbMaterial
  1
ByBlock
 72
     0
 43
0.0208333333333333
 43
0.0
 43
0.0
 43
0.0
 43
0.0
 43
0.0208333333333333
 43
0.0
 43
0.0
 43
0.0
 43
0.0
 43
1.0
 43
0.0
 43
0.0
 43
0.0
 43
0.0
 43
1.0
 77
     0
 47
0.0208333333333333
 47
0.0
 47
0.0
 47
0.0
 47
0.0
 47
0.0208333333333333
 47
0.0
 47
0.0
 47
0.0
 47
0.0
 47
1.0
 47
0.0
 47
0.0
 47
0.0
 47
0.0
 47
1.0
171
     0
 49
0.0208333333333333
 49
0.0
 49
0.0
 49
0.0
 49
0.0
 49
0.0208333333333333
 49
0.0
 49
0.0
 49
0.0
 49
0.0
 49
1.0
 49
0.0
 49
0.0
 49
0.0
 49
0.0
 49
1.0
175
     0
142
0.0208333333333333
142
0.0
142
0.0
142
0.0
142
0.0
142
0.0208333333333333
142
0.0
142
0.0
142
0.0
142
0.0
142
1.0
142
0.0
142
0.0
142
0.0
142
0.0
142
1.0
179
     0
144
0.0208333333333333
144
0.0
144
0.0
144
0.0
144
0.0
144
0.0208333333333333
144
0.0
144
0.0
144
0.0
144
0.0
144
1.0
144
0.0
144
0.0
144
0.0
144
0.0
144
1.0
147
0.0208333333333333
147
0.0
147
0.0
147
0.0
147
0.0
147
0.0208333333333333
147
0.0
147
0.0
147
0.0
147
0.0
147
1.0
147
0.0
147
0.0
147
0.0
147
0.0
147
1.0
  0
MATERIAL
  5
11
102
{ACAD_XDICTIONARY
360
12
102
}
102
{ACAD_REACTORS
330
10
102
}
330
10
100
AcDbMaterial
  1
ByLayer
 72
     0
 43
0.0208333333333333
 43
0.0
 43
0.0
 43
0.0
 43
0.0
 43
0.0208333333333333
 43
0.0
 43
0.0
 43
0.0
 43
0.0
 43
1.0
 43
0.0
 43
0.0
 43
0.0
 43
0.0
 43
1.0
 77
     0
 47
0.0208333333333333
 47
0.0
 47
0.0
 47
0.0
 47
0.0
 47
0.0208333333333333
 47
0.0
 47
0.0
 47
0.0
 47
0.0
 47
1.0
 47
0.0
 47
0.0
 47
0.0
 47
0.0
 47
1.0
171
     0
 49
0.0208333333333333
 49
0.0
 49
0.0
 49
0.0
 49
0.0
 49
0.0208333333333333
 49
0.0
 49
0.0
 49
0.0
 49
0.0
 49
1.0
 49
0.0
 49
0.0
 49
0.0
 49
0.0
 49
1.0
175
     0
142
0.0208333333333333
142
0.0
142
0.0
142
0.0
142
0.0
142
0.0208333333333333
142
0.0
142
0.0
142
0.0
142
0.0
142
1.0
142
0.0
142
0.0
142
0.0
142
0.0
142
1.0
179
     0
144
0.0208333333333333
144
0.0
144
0.0
144
0.0
144
0.0
144
0.0208333333333333
144
0.0
144
0.0
144
0.0
144
0.0
144
1.0
144
0.0
144
0.0
144
0.0
144
0.0
144
1.0
147
0.0208333333333333
147
0.0
147
0.0
147
0.0
147
0.0
147
0.0208333333333333
147
0.0
147
0.0
147
0.0
147
0.0
147
1.0
147
0.0
147
0.0
147
0.0
147
0.0
147
1.0
  0
MATERIAL
  5
21
102
{ACAD_XDICTIONARY
360
22
102
}
102
{ACAD_REACTORS
330
10
102
}
330
10
100
AcDbMaterial
  1
Global
 72
     0
 43
0.0208333333333333
 43
0.0
 43
0.0
 43
0.0
 43
0.0
 43
0.0208333333333333
 43
0.0
 43
0.0
 43
0.0
 43
0.0
 43
1.0
 43
0.0
 43
0.0
 43
0.0
 43
0.0
 43
1.0
 77
     0
 47
0.0208333333333333
 47
0.0
 47
0.0
 47
0.0
 47
0.0
 47
0.0208333333333333
 47
0.0
 47
0.0
 47
0.0
 47
0.0
 47
1.0
 47
0.0
 47
0.0
 47
0.0
 47
0.0
 47
1.0
171
     0
 49
0.0208333333333333
 49
0.0
 49
0.0
 49
0.0
 49
0.0
 49
0.0208333333333333
 49
0.0
 49
0.0
 49
0.0
 49
0.0
 49
1.0
 49
0.0
 49
0.0
 49
0.0
 49
0.0
 49
1.0
175
     0
142
0.0208333333333333
142
0.0
142
0.0
142
0.0
142
0.0
142
0.0208333333333333
142
0.0
142
0.0
142
0.0
142
0.0
142
1.0
142
0.0
142
0.0
142
0.0
142
0.0
142
1.0
179
     0
144
0.0208333333333333
144
0.0
144
0.0
144
0.0
144
0.0
144
0.0208333333333333
144
0.0
144
0.0
144
0.0
144
0.0
144
1.0
144
0.0
144
0.0
144
0.0
144
0.0
144
1.0
147
0.0208333333333333
147
0.0
147
0.0
147
0.0
147
0.0
147
0.0208333333333333
147
0.0
147
0.0
147
0.0
147
0.0
147
1.0
147
0.0
147
0.0
147
0.0
147
0.0
147
1.0
  0
MLEADERSTYLE
  5
67
102
{ACAD_REACTORS
330
66
102
}
330
66
100
AcDbMLeaderStyle
179
     2
170
     2
171
     1
172
     0
 90
        2
 40
0.0
 41
0.0
173
     1
 91
-1056964608
340
5B
 92
       -2
290
     1
 42
0.09
291
     1
 43
0.36
  3
Standard
 44
0.18
300

342
55
174
     1
178
     6
175
     1
176
     0
 93
-1056964608
 45
0.18
292
     0
297
     0
 46
0.18
 94
-1056964608
 47
1.0
 49
1.0
140
1.0
293
     1
141
0.0
294
     1
177
     0
142
1.0
295
     1
296
     0
143
0.125
271
     0
272
     9
273
     9
298
     1
  0
MLINESTYLE
  5
60
102
{ACAD_REACTORS
330
5F
102
}
330
5F
100
AcDbMlineStyle
  2
STANDARD
 70
     0
  3

 62
   256
 51
90.0
 52
90.0
 71
     2
 49
0.5
 62
   256
  6
BYLAYER
 49
-0.5
 62
   256
  6
BYLAYER
  0
ACDBPLACEHOLDER
  5
F
102
{ACAD_REACTORS
330
E
102
}
330
E
  0
SCALE
  5
43
102
{ACAD_REACTORS
330
42
102
}
330
42
100
AcDbScale
 70
     0
300
1:1
140
1.0
141
1.0
290
     1
  0
SCALE
  5
44
102
{ACAD_REACTORS
330
42
102
}
330
42
100
AcDbScale
 70
     0
300
1/128" = 1'-0"
140
0.0078125
141
12.0
290
     0
  0
SCALE
  5
45
102
{ACAD_REACTORS
330
42
102
}
330
42
100
AcDbScale
 70
     0
300
1/64" = 1'-0"
140
0.015625
141
12.0
290
     0
  0
SCALE
  5
46
102
{ACAD_REACTORS
330
42
102
}
330
42
100
AcDbScale
 70
     0
300
1/32" = 1'-0"
140
0.03125
141
12.0
290
     0
  0
SCALE
  5
47
102
{ACAD_REACTORS
330
42
102
}
330
42
100
AcDbScale
 70
     0
300
1/16" = 1'-0"
140
0.0625
141
12.0
290
     0
  0
SCALE
  5
48
102
{ACAD_REACTORS
330
42
102
}
330
42
100
AcDbScale
 70
     0
300
3/32" = 1'-0"
140
0.09375
141
12.0
290
     0
  0
SCALE
  5
49
102
{ACAD_REACTORS
330
42
102
}
330
42
100
AcDbScale
 70
     0
300
1/8" = 1'-0"
140
0.125
141
12.0
290
     0
  0
SCALE
  5
4A
102
{ACAD_REACTORS
330
42
102
}
330
42
100
AcDbScale
 70
     0
300
3/16" = 1'-0"
140
0.1875
141
12.0
290
     0
  0
SCALE
  5
4B
102
{ACAD_REACTORS
330
42
102
}
330
42
100
AcDbScale
 70
     0
300
1/4" = 1'-0"
140
0.25
141
12.0
290
     0
  0
SCALE
  5
4C
102
{ACAD_REACTORS
330
42
102
}
330
42
100
AcDbScale
 70
     0
300
3/8" = 1'-0"
140
0.375
141
12.0
290
     0
  0
SCALE
  5
4D
102
{ACAD_REACTORS
330
42
102
}
330
42
100
AcDbScale
 70
     0
300
1/2" = 1'-0"
140
0.5
141
12.0
290
     0
  0
SCALE
  5
4E
102
{ACAD_REACTORS
330
42
102
}
330
42
100
AcDbScale
 70
     0
300
3/4" = 1'-0"
140
0.75
141
12.0
290
     0
  0
SCALE
  5
4F
102
{ACAD_REACTORS
330
42
102
}
330
42
100
AcDbScale
 70
     0
300
1" = 1'-0"
140
1.0
141
12.0
290
     0
  0
SCALE
  5
50
102
{ACAD_REACTORS
330
42
102
}
330
42
100
AcDbScale
 70
     0
300
1-1/2" = 1'-0"
140
1.5
141
12.0
290
     0
  0
SCALE
  5
51
102
{ACAD_REACTORS
330
42
102
}
330
42
100
AcDbScale
 70
     0
300
3" = 1'-0"
140
3.0
141
12.0
290
     0
  0
SCALE
  5
52
102
{ACAD_REACTORS
330
42
102
}
330
42
100
AcDbScale
 70
     0
300
6" = 1'-0"
140
6.0
141
12.0
290
     0
  0
SCALE
  5
53
102
{ACAD_REACTORS
330
42
102
}
330
42
100
AcDbScale
 70
     0
300
1'-0" = 1'-0"
140
12.0
141
12.0
290
     0
  0
ACDBSECTIONVIEWSTYLE
  5
69
102
{ACAD_REACTORS
330
68
102
}
330
68
100
AcDbModelDocViewStyle
 70
     0
  3
Imperial24
290
     1
300
Imperial24
 90
        0
100
AcDbSectionViewStyle
 70
     0
 71
     0
 90
       78
 71
     1
340
55
 62
   256
 40
0.24
340
0
340
0
 62
   256
 40
0.24
300
I, O, Q, S, X, Z
 40
0.48
 90
        3
 40
0.18
 90
        1
 71
     2
340
5D
 90
       25
 62
   256
340
5D
 90
       50
 62
   256
 40
0.24
 40
0.0
 40
0.24
 71
     3
340
55
 62
   256
 40
0.24
 90
        1
 40
0.75
 90
        1
300
%<\AcVar ViewType \f "%tc1">% %<\AcVar ViewSectionStartId>%-%<\AcVar ViewSectionEndId>%\PSCALE %<\AcVar ViewScale \f "%sn">%
 71
     4
 62
   256
 62
   257
300
ANSI31
 40
1.0
 90
        0
290
     0
290
     0
 90
        6
 40
0.0
 40
1.570796326794896
 40
0.2617993877991494
 40
1.308996938995747
 40
-0.2617993877991494
 40
1.832595714594046
  0
TABLESTYLE
  5
65
102
{ACAD_XDICTIONARY
360
152
102
}
102
{ACAD_REACTORS
330
64
102
}
330
64
100
AcDbTableStyle
280
     0
  3
Standard
 70
     0
 71
     0
 40
0.06
 41
0.06
280
     0
281
     0
  7
Standard
140
0.18
170
     2
 62
     0
 63
     7
283
     0
 90
      512
 91
        0
  1

274
    -2
284
     1
 64
     0
275
    -2
285
     1
 65
     0
276
    -2
286
     1
 66
     0
277
    -2
287
     1
 67
     0
278
    -2
288
     1
 68
     0
279
    -2
289
     1
 69
     0
  7
Standard
140
0.25
170
     5
 62
     0
 63
     7
283
     0
 90
      512
 91
        0
  1

274
    -2
284
     1
 64
     0
275
    -2
285
     1
 65
     0
276
    -2
286
     1
 66
     0
277
    -2
287
     1
 67
     0
278
    -2
288
     1
 68
     0
279
    -2
289
     1
 69
     0
  7
Standard
140
0.18
170
     5
 62
     0
 63
     7
283
     0
 90
      512
 91
        0
  1

274
    -2
284
     1
 64
     0
275
    -2
285
     1
 65
     0
276
    -2
286
     1
 66
     0
277
    -2
287
     1
 67
     0
278
    -2
288
     1
 68
     0
279
    -2
289
     1
 69
     0
  0
VISUALSTYLE
  5
2F
102
{ACAD_REACTORS
330
29
102
}
330
29
100
AcDbVisualStyle
  2
2dWireframe
 70
     4
177
     3
291
     0
 70
    58
 90
        0
176
     1
 90
        2
176
     1
 90
        0
176
     1
 90
        0
176
     1
 40
0.6
176
     1
 40
30.0
176
     1
 62
     7
420
 16777215
176
     1
 90
        1
176
     1
 90
        4
176
     1
 62
     7
176
     1
 62
   257
176
     1
 90
        1
176
     1
 90
        1
176
     1
 40
1.0
176
     1
 90
        0
176
     1
 62
   257
176
     1
 40
1.0
176
     1
 90
        1
176
     1
 90
        6
176
     1
 90
        2
176
     1
 62
     7
176
     1
 90
        5
176
     1
 90
        0
176
     1
 90
        0
176
     1
290
     0
176
     1
 90
        1
176
     1
 40
0.0
176
     1
 90
        0
176
     1
290
     1
176
     1
290
     1
176
     1
290
     0
176
     1
290
     0
176
     1
290
     0
176
     1
290
     0
176
     1
290
     0
176
     1
290
     0
176
     1
290
     0
176
     1
 90
       50
176
     1
 40
0.0
176
     1
 40
1.0
176
     1
 90
        0
176
     1
 62
    18
420
        0
176
     1
 90
       50
176
     1
 90
        3
176
     1
 62
     5
420
      255
176
     1
290
     0
176
     1
 90
       50
176
     1
 90
       50
176
     1
 90
       50
176
     1
290
     0
176
     1
 90
       50
176
     1
 62
   256
176
     0
 40
1.0
176
     0
 90
        2
176
     1
  1
strokes_ogs.tif
176
     1
290
     0
176
     1
 40
1.0
176
     1
 40
1.0
176
     1
  0
VISUALSTYLE
  5
2E
102
{ACAD_REACTORS
330
29
102
}
330
29
100
AcDbVisualStyle
  2
Basic
 70
     7
177
     3
291
     1
 70
    58
 90
        1
176
     1
 90
        0
176
     1
 90
        1
176
     1
 90
        0
176
     1
 40
0.6
176
     1
 40
30.0
176
     1
 62
     7
420
 16777215
176
     1
 90
        0
176
     1
 90
        4
176
     1
 62
     7
176
     1
 62
   257
176
     1
 90
        1
176
     1
 90
        1
176
     1
 40
1.0
176
     1
 90
        8
176
     1
 62
     7
176
     1
 40
1.0
176
     1
 90
        1
176
     1
 90
        6
176
     1
 90
        2
176
     1
 62
     7
176
     1
 90
        5
176
     1
 90
        0
176
     1
 90
        0
176
     1
290
     0
176
     1
 90
        1
176
     1
 40
0.0
176
     1
 90
        0
176
     1
290
     0
176
     1
290
     1
176
     1
290
     1
176
     1
290
     0
176
     1
290
     0
176
     1
290
     0
176
     1
290
     0
176
     1
290
     0
176
     1
290
     0
176
     1
 90
       50
176
     1
 40
0.0
176
     1
 40
1.0
176
     1
 90
        0
176
     1
 62
    18
420
        0
176
     1
 90
       50
176
     1
 90
        3
176
     1
 62
     5
420
      255
176
     1
290
     0
176
     1
 90
       50
176
     1
 90
       50
176
     1
 90
       50
176
     1
290
     0
176
     1
 90
       50
176
     1
 62
   256
176
     0
 40
1.0
176
     0
 90
        2
176
     1
  1
strokes_ogs.tif
176
     1
290
     0
176
     1
 40
1.0
176
     1
 40
1.0
176
     1
  0
VISUALSTYLE
  5
35
102
{ACAD_REACTORS
330
29
102
}
330
29
100
AcDbVisualStyle
  2
Brighten
 70
    12
177
     3
291
     1
 70
    58
 90
        2
176
     1
 90
        2
176
     1
 90
        0
176
     1
 90
        0
176
     1
 40
0.6
176
     1
 40
30.0
176
     1
 62
     7
420
 16777215
176
     1
 90
        1
176
     1
 90
        4
176
     1
 62
     7
176
     1
 62
   257
176
     1
 90
        1
176
     1
 90
        1
176
     1
 40
1.0
176
     1
 90
        8
176
     1
 62
     7
176
     1
 40
1.0
176
     1
 90
        1
176
     1
 90
        6
176
     1
 90
        2
176
     1
 62
     7
176
     1
 90
        5
176
     1
 90
        0
176
     1
 90
        0
176
     1
290
     0
176
     1
 90
        1
176
     1
 40
50.0
176
     1
 90
        0
176
     1
290
     0
176
     1
290
     1
176
     1
290
     1
176
     1
290
     0
176
     1
290
     0
176
     1
290
     0
176
     1
290
     0
176
     1
290
     0
176
     1
290
     0
176
     1
 90
       50
176
     1
 40
0.0
176
     1
 40
1.0
176
     1
 90
        0
176
     1
 62
    18
420
        0
176
     1
 90
       50
176
     1
 90
        3
176
     1
 62
     5
420
      255
176
     1
290
     0
176
     1
 90
       50
176
     1
 90
       50
176
     1
 90
       50
176
     1
290
     0
176
     1
 90
       50
176
     1
 62
   256
176
     0
 40
1.0
176
     0
 90
        2
176
     1
  1
strokes_ogs.tif
176
     1
290
     0
176
     1
 40
1.0
176
     1
 40
1.0
176
     1
  0
VISUALSTYLE
  5
39
102
{ACAD_REACTORS
330
29
102
}
330
29
100
AcDbVisualStyle
  2
ColorChange
 70
    16
177
     3
291
     1
 70
    58
 90
        2
176
     1
 90
        2
176
     1
 90
        3
176
     1
 90
        0
176
     1
 40
0.6
176
     1
 40
30.0
176
     1
 62
     8
420
  8421504
176
     1
 90
        1
176
     1
 90
        4
176
     1
 62
     7
176
     1
 62
   257
176
     1
 90
        1
176
     1
 90
        1
176
     1
 40
1.0
176
     1
 90
        8
176
     1
 62
     8
420
  8421504
176
     1
 40
1.0
176
     1
 90
        1
176
     1
 90
        6
176
     1
 90
        2
176
     1
 62
     7
176
     1
 90
        5
176
     1
 90
        0
176
     1
 90
        0
176
     1
290
     0
176
     1
 90
        1
176
     1
 40
0.0
176
     1
 90
        0
176
     1
290
     0
176
     1
290
     1
176
     1
290
     1
176
     1
290
     0
176
     1
290
     0
176
     1
290
     0
176
     1
290
     0
176
     1
290
     0
176
     1
290
     0
176
     1
 90
       50
176
     1
 40
0.0
176
     1
 40
1.0
176
     1
 90
        0
176
     1
 62
    18
420
        0
176
     1
 90
       50
176
     1
 90
        3
176
     1
 62
     5
420
      255
176
     1
290
     0
176
     1
 90
       50
176
     1
 90
       50
176
     1
 90
       50
176
     1
290
     0
176
     1
 90
       50
176
     1
 62
   256
176
     0
 40
1.0
176
     0
 90
        2
176
     1
  1
strokes_ogs.tif
176
     1
290
     0
176
     1
 40
1.0
176
     1
 40
1.0
176
     1
  0
VISUALSTYLE
  5
32
102
{ACAD_REACTORS
330
29
102
}
330
29
100
AcDbVisualStyle
  2
Conceptual
 70
     9
177
     3
291
     0
 70
    58
 90
        3
176
     1
 90
        2
176
     1
 90
        0
176
     1
 90
        0
176
     1
 40
0.6
176
     1
 40
30.0
176
     1
 62
     7
420
 16777215
176
     1
 90
        2
176
     1
 90
        2
176
     1
 62
     7
176
     1
 62
   257
176
     1
 90
        1
176
     1
 90
        1
176
     1
 40
179.0
176
     1
 90
        8
176
     1
 62
     7
176
     1
 40
1.0
176
     1
 90
        1
176
     1
 90
        6
176
     1
 90
        2
176
     1
 62
     7
176
     1
 90
        3
176
     1
 90
        0
176
     1
 90
        0
176
     1
290
     0
176
     1
 90
        1
176
     1
 40
0.0
176
     1
 90
        0
176
     1
290
     0
176
     1
290
     1
176
     1
290
     1
176
     1
290
     0
176
     1
290
     0
176
     1
290
     0
176
     1
290
     0
176
     1
290
     0
176
     1
290
     0
176
     1
 90
       50
176
     1
 40
0.0
176
     1
 40
1.0
176
     1
 90
        0
176
     1
 62
    18
420
        0
176
     1
 90
       50
176
     1
 90
        3
176
     1
 62
     5
420
      255
176
     1
290
     0
176
     1
 90
       50
176
     1
 90
       50
176
     1
 90
       50
176
     1
290
     0
176
     1
 90
       50
176
     1
 62
   256
176
     0
 40
1.0
176
     0
 90
        2
176
     1
  1
strokes_ogs.tif
176
     1
290
     0
176
     1
 40
1.0
176
     1
 40
1.0
176
     1
  0
VISUALSTYLE
  5
34
102
{ACAD_REACTORS
330
29
102
}
330
29
100
AcDbVisualStyle
  2
Dim
 70
    11
177
     3
291
     1
 70
    58
 90
        2
176
     1
 90
        2
176
     1
 90
        0
176
     1
 90
        0
176
     1
 40
0.6
176
     1
 40
30.0
176
     1
 62
     7
420
 16777215
176
     1
 90
        1
176
     1
 90
        4
176
     1
 62
     7
176
     1
 62
   257
176
     1
 90
        1
176
     1
 90
        1
176
     1
 40
1.0
176
     1
 90
        8
176
     1
 62
     7
176
     1
 40
1.0
176
     1
 90
        1
176
     1
 90
        6
176
     1
 90
        2
176
     1
 62
     7
176
     1
 90
        5
176
     1
 90
        0
176
     1
 90
        0
176
     1
290
     0
176
     1
 90
        1
176
     1
 40
-50.0
176
     1
 90
        0
176
     1
290
     0
176
     1
290
     1
176
     1
290
     1
176
     1
290
     0
176
     1
290
     0
176
     1
290
     0
176
     1
290
     0
176
     1
290
     0
176
     1
290
     0
176
     1
 90
       50
176
     1
 40
0.0
176
     1
 40
1.0
176
     1
 90
        0
176
     1
 62
    18
420
        0
176
     1
 90
       50
176
     1
 90
        3
176
     1
 62
     5
420
      255
176
     1
290
     0
176
     1
 90
       50
176
     1
 90
       50
176
     1
 90
       50
176
     1
290
     0
176
     1
 90
       50
176
     1
 62
   256
176
     0
 40
1.0
176
     0
 90
        2
176
     1
  1
strokes_ogs.tif
176
     1
290
     0
176
     1
 40
1.0
176
     1
 40
1.0
176
     1
  0
VISUALSTYLE
  5
41
102
{ACAD_REACTORS
330
29
102
}
330
29
100
AcDbVisualStyle
  2
EdgeColorOff
 70
    22
177
     3
291
     1
 70
    58
 90
        2
176
     0
 90
        2
176
     0
 90
        0
176
     0
 90
        0
176
     0
 40
0.6
176
     0
 40
30.0
176
     0
 62
     7
420
 16777215
176
     0
 90
        1
176
     0
 90
        4
176
     0
 62
     7
176
     0
 62
   257
176
     0
 90
        1
176
     0
 90
        1
176
     0
 40
1.0
176
     0
 90
        8
176
     2
 62
     7
176
     0
 40
1.0
176
     0
 90
        1
176
     0
 90
        6
176
     0
 90
        2
176
     0
 62
     7
176
     0
 90
        5
176
     0
 90
        0
176
     0
 90
        0
176
     0
290
     0
176
     0
 90
        1
176
     0
 40
0.0
176
     0
 90
        0
176
     0
290
     0
176
     0
290
     1
176
     0
290
     1
176
     0
290
     0
176
     0
290
     0
176
     0
290
     0
176
     0
290
     0
176
     0
290
     0
176
     0
290
     0
176
     0
 90
       50
176
     0
 40
0.0
176
     0
 40
1.0
176
     0
 90
        0
176
     0
 62
    18
420
        0
176
     0
 90
       50
176
     0
 90
        3
176
     0
 62
     5
420
      255
176
     0
290
     0
176
     0
 90
       50
176
     0
 90
       50
176
     0
 90
       50
176
     0
290
     0
176
     0
 90
       50
176
     0
 62
   256
176
     0
 40
1.0
176
     0
 90
        2
176
     0
  1
strokes_ogs.tif
176
     0
290
     0
176
     0
 40
1.0
176
     0
 40
1.0
176
     0
  0
VISUALSTYLE
  5
38
102
{ACAD_REACTORS
330
29
102
}
330
29
100
AcDbVisualStyle
  2
Facepattern
 70
    15
177
     3
291
     1
 70
    58
 90
        2
176
     1
 90
        2
176
     1
 90
        0
176
     1
 90
        0
176
     1
 40
0.6
176
     1
 40
30.0
176
     1
 62
     7
420
 16777215
176
     1
 90
        1
176
     1
 90
        4
176
     1
 62
     7
176
     1
 62
   257
176
     1
 90
        1
176
     1
 90
        1
176
     1
 40
1.0
176
     1
 90
        8
176
     1
 62
     7
176
     1
 40
1.0
176
     1
 90
        1
176
     1
 90
        6
176
     1
 90
        2
176
     1
 62
     7
176
     1
 90
        5
176
     1
 90
        0
176
     1
 90
        0
176
     1
290
     0
176
     1
 90
        1
176
     1
 40
0.0
176
     1
 90
        0
176
     1
290
     0
176
     1
290
     1
176
     1
290
     1
176
     1
290
     0
176
     1
290
     0
176
     1
290
     0
176
     1
290
     0
176
     1
290
     0
176
     1
290
     0
176
     1
 90
       50
176
     1
 40
0.0
176
     1
 40
1.0
176
     1
 90
        0
176
     1
 62
    18
420
        0
176
     1
 90
       50
176
     1
 90
        3
176
     1
 62
     5
420
      255
176
     1
290
     0
176
     1
 90
       50
176
     1
 90
       50
176
     1
 90
       50
176
     1
290
     0
176
     1
 90
       50
176
     1
 62
   256
176
     0
 40
1.0
176
     0
 90
        2
176
     1
  1
strokes_ogs.tif
176
     1
290
     0
176
     1
 40
1.0
176
     1
 40
1.0
176
     1
  0
VISUALSTYLE
  5
2A
102
{ACAD_REACTORS
330
29
102
}
330
29
100
AcDbVisualStyle
  2
Flat
 70
     0
177
     3
291
     1
 70
    58
 90
        2
176
     1
 90
        1
176
     1
 90
        1
176
     1
 90
        2
176
     1
 40
0.6
176
     1
 40
30.0
176
     1
 62
     7
420
 16777215
176
     1
 90
        0
176
     1
 90
        0
176
     1
 62
     7
176
     1
 62
   257
176
     1
 90
        1
176
     1
 90
        1
176
     1
 40
1.0
176
     1
 90
        8
176
     1
 62
     7
176
     1
 40
1.0
176
     1
 90
        1
176
     1
 90
        6
176
     1
 90
        2
176
     1
 62
     7
176
     1
 90
        5
176
     1
 90
        0
176
     1
 90
        0
176
     1
290
     0
176
     1
 90
       13
176
     1
 40
0.0
176
     1
 90
        0
176
     1
290
     0
176
     1
290
     1
176
     1
290
     1
176
     1
290
     0
176
     1
290
     0
176
     1
290
     0
176
     1
290
     0
176
     1
290
     0
176
     1
290
     0
176
     1
 90
       50
176
     1
 40
0.0
176
     1
 40
1.0
176
     1
 90
        0
176
     1
 62
    18
420
        0
176
     1
 90
       50
176
     1
 90
        3
176
     1
 62
     5
420
      255
176
     1
290
     0
176
     1
 90
       50
176
     1
 90
       50
176
     1
 90
       50
176
     1
290
     0
176
     1
 90
       50
176
     1
 62
   256
176
     0
 40
1.0
176
     0
 90
        2
176
     1
  1
strokes_ogs.tif
176
     1
290
     0
176
     1
 40
1.0
176
     1
 40
1.0
176
     1
  0
VISUALSTYLE
  5
2B
102
{ACAD_REACTORS
330
29
102
}
330
29
100
AcDbVisualStyle
  2
FlatWithEdges
 70
     1
177
     3
291
     1
 70
    58
 90
        2
176
     1
 90
        1
176
     1
 90
        1
176
     1
 90
        2
176
     1
 40
0.6
176
     1
 40
30.0
176
     1
 62
     7
420
 16777215
176
     1
 90
        1
176
     1
 90
        0
176
     1
 62
     7
176
     1
 62
   257
176
     1
 90
        1
176
     1
 90
        1
176
     1
 40
1.0
176
     1
 90
        0
176
     1
 62
   257
176
     1
 40
1.0
176
     1
 90
        1
176
     1
 90
        6
176
     1
 90
        2
176
     1
 62
     7
176
     1
 90
        5
176
     1
 90
        0
176
     1
 90
        0
176
     1
290
     0
176
     1
 90
       13
176
     1
 40
0.0
176
     1
 90
        0
176
     1
290
     0
176
     1
290
     1
176
     1
290
     1
176
     1
290
     0
176
     1
290
     0
176
     1
290
     0
176
     1
290
     0
176
     1
290
     0
176
     1
290
     0
176
     1
 90
       50
176
     1
 40
0.0
176
     1
 40
1.0
176
     1
 90
        0
176
     1
 62
    18
420
        0
176
     1
 90
       50
176
     1
 90
        3
176
     1
 62
     5
420
      255
176
     1
290
     0
176
     1
 90
       50
176
     1
 90
       50
176
     1
 90
       50
176
     1
290
     0
176
     1
 90
       50
176
     1
 62
   256
176
     0
 40
1.0
176
     0
 90
        2
176
     1
  1
strokes_ogs.tif
176
     1
290
     0
176
     1
 40
1.0
176
     1
 40
1.0
176
     1
  0
VISUALSTYLE
  5
2C
102
{ACAD_REACTORS
330
29
102
}
330
29
100
AcDbVisualStyle
  2
Gouraud
 70
     2
177
     3
291
     1
 70
    58
 90
        2
176
     1
 90
        2
176
     1
 90
        1
176
     1
 90
        2
176
     1
 40
0.6
176
     1
 40
30.0
176
     1
 62
     7
420
 16777215
176
     1
 90
        0
176
     1
 90
        0
176
     1
 62
     7
176
     1
 62
   257
176
     1
 90
        1
176
     1
 90
        1
176
     1
 40
1.0
176
     1
 90
        0
176
     1
 62
     7
176
     1
 40
1.0
176
     1
 90
        1
176
     1
 90
        6
176
     1
 90
        2
176
     1
 62
     7
176
     1
 90
        5
176
     1
 90
        0
176
     1
 90
        0
176
     1
290
     0
176
     1
 90
       13
176
     1
 40
0.0
176
     1
 90
        0
176
     1
290
     0
176
     1
290
     1
176
     1
290
     1
176
     1
290
     0
176
     1
290
     0
176
     1
290
     0
176
     1
290
     0
176
     1
290
     0
176
     1
290
     0
176
     1
 90
       50
176
     1
 40
0.0
176
     1
 40
1.0
176
     1
 90
        0
176
     1
 62
    18
420
        0
176
     1
 90
       50
176
     1
 90
        3
176
     1
 62
     5
420
      255
176
     1
290
     0
176
     1
 90
       50
176
     1
 90
       50
176
     1
 90
       50
176
     1
290
     0
176
     1
 90
       50
176
     1
 62
   256
176
     0
 40
1.0
176
     0
 90
        2
176
     1
  1
strokes_ogs.tif
176
     1
290
     0
176
     1
 40
1.0
176
     1
 40
1.0
176
     1
  0
VISUALSTYLE
  5
2D
102
{ACAD_REACTORS
330
29
102
}
330
29
100
AcDbVisualStyle
  2
GouraudWithEdges
 70
     3
177
     3
291
     1
 70
    58
 90
        2
176
     1
 90
        2
176
     1
 90
        1
176
     1
 90
        2
176
     1
 40
0.6
176
     1
 40
30.0
176
     1
 62
     7
420
 16777215
176
     1
 90
        1
176
     1
 90
        0
176
     1
 62
     7
176
     1
 62
   257
176
     1
 90
        1
176
     1
 90
        1
176
     1
 40
1.0
176
     1
 90
        0
176
     1
 62
   257
176
     1
 40
1.0
176
     1
 90
        1
176
     1
 90
        6
176
     1
 90
        2
176
     1
 62
     7
176
     1
 90
        5
176
     1
 90
        0
176
     1
 90
        0
176
     1
290
     0
176
     1
 90
       13
176
     1
 40
0.0
176
     1
 90
        0
176
     1
290
     0
176
     1
290
     1
176
     1
290
     1
176
     1
290
     0
176
     1
290
     0
176
     1
290
     0
176
     1
290
     0
176
     1
290
     0
176
     1
290
     0
176
     1
 90
       50
176
     1
 40
0.0
176
     1
 40
1.0
176
     1
 90
        0
176
     1
 62
    18
420
        0
176
     1
 90
       50
176
     1
 90
        3
176
     1
 62
     5
420
      255
176
     1
290
     0
176
     1
 90
       50
176
     1
 90
       50
176
     1
 90
       50
176
     1
290
     0
176
     1
 90
       50
176
     1
 62
   256
176
     0
 40
1.0
176
     0
 90
        2
176
     1
  1
strokes_ogs.tif
176
     1
290
     0
176
     1
 40
1.0
176
     1
 40
1.0
176
     1
  0
VISUALSTYLE
  5
31
102
{ACAD_REACTORS
330
29
102
}
330
29
100
AcDbVisualStyle
  2
Hidden
 70
     6
177
     3
291
     0
 70
    58
 90
        1
176
     1
 90
        2
176
     1
 90
        2
176
     1
 90
        0
176
     1
 40
0.6
176
     1
 40
30.0
176
     1
 62
     7
420
 16777215
176
     1
 90
        2
176
     1
 90
        2
176
     1
 62
     7
176
     1
 62
   257
176
     1
 90
        2
176
     1
 90
        1
176
     1
 40
40.0
176
     1
 90
        0
176
     1
 62
   257
176
     1
 40
1.0
176
     1
 90
        1
176
     1
 90
        6
176
     1
 90
        2
176
     1
 62
     7
176
     1
 90
        3
176
     1
 90
        0
176
     1
 90
        0
176
     1
290
     0
176
     1
 90
        1
176
     1
 40
0.0
176
     1
 90
        0
176
     1
290
     0
176
     1
290
     1
176
     1
290
     1
176
     1
290
     0
176
     1
290
     0
176
     1
290
     0
176
     1
290
     0
176
     1
290
     0
176
     1
290
     0
176
     1
 90
       50
176
     1
 40
0.0
176
     1
 40
1.0
176
     1
 90
        0
176
     1
 62
    18
420
        0
176
     1
 90
       50
176
     1
 90
        3
176
     1
 62
     5
420
      255
176
     1
290
     0
176
     1
 90
       50
176
     1
 90
       50
176
     1
 90
       50
176
     1
290
     0
176
     1
 90
       50
176
     1
 62
   256
176
     0
 40
1.0
176
     0
 90
        2
176
     1
  1
strokes_ogs.tif
176
     1
290
     0
176
     1
 40
1.0
176
     1
 40
1.0
176
     1
  0
VISUALSTYLE
  5
3F
102
{ACAD_REACTORS
330
29
102
}
330
29
100
AcDbVisualStyle
  2
JitterOff
 70
    20
177
     3
291
     1
 70
    58
 90
        2
176
     0
 90
        2
176
     0
 90
        0
176
     0
 90
        0
176
     0
 40
0.6
176
     0
 40
30.0
176
     0
 62
     7
420
 16777215
176
     0
 90
        1
176
     0
 90
        4
176
     0
 62
     7
176
     0
 62
   257
176
     0
 90
        1
176
     0
 90
        1
176
     0
 40
1.0
176
     0
 90
       10
176
     2
 62
     7
176
     0
 40
1.0
176
     0
 90
        1
176
     0
 90
        6
176
     0
 90
        2
176
     0
 62
     7
176
     0
 90
        5
176
     0
 90
        0
176
     0
 90
        0
176
     0
290
     0
176
     0
 90
        1
176
     0
 40
0.0
176
     0
 90
        0
176
     0
290
     0
176
     0
290
     1
176
     0
290
     1
176
     0
290
     0
176
     0
290
     0
176
     0
290
     0
176
     0
290
     0
176
     0
290
     0
176
     0
290
     0
176
     0
 90
       50
176
     0
 40
0.0
176
     0
 40
1.0
176
     0
 90
        0
176
     0
 62
    18
420
        0
176
     0
 90
       50
176
     0
 90
        3
176
     0
 62
     5
420
      255
176
     0
290
     0
176
     0
 90
       50
176
     0
 90
       50
176
     0
 90
       50
176
     0
290
     0
176
     0
 90
       50
176
     0
 62
   256
176
     0
 40
1.0
176
     0
 90
        2
176
     0
  1
strokes_ogs.tif
176
     0
290
     0
176
     0
 40
1.0
176
     0
 40
1.0
176
     0
  0
VISUALSTYLE
  5
37
102
{ACAD_REACTORS
330
29
102
}
330
29
100
AcDbVisualStyle
  2
Linepattern
 70
    14
177
     3
291
     1
 70
    58
 90
        2
176
     1
 90
        2
176
     1
 90
        0
176
     1
 90
        0
176
     1
 40
0.6
176
     1
 40
30.0
176
     1
 62
     7
420
 16777215
176
     1
 90
        1
176
     1
 90
        4
176
     1
 62
     7
176
     1
 62
   257
176
     1
 90
        7
176
     1
 90
        7
176
     1
 40
1.0
176
     1
 90
        8
176
     1
 62
     7
176
     1
 40
1.0
176
     1
 90
        1
176
     1
 90
        6
176
     1
 90
        2
176
     1
 62
     7
176
     1
 90
        5
176
     1
 90
        0
176
     1
 90
        0
176
     1
290
     0
176
     1
 90
        1
176
     1
 40
0.0
176
     1
 90
        0
176
     1
290
     0
176
     1
290
     1
176
     1
290
     1
176
     1
290
     0
176
     1
290
     0
176
     1
290
     0
176
     1
290
     0
176
     1
290
     0
176
     1
290
     0
176
     1
 90
       50
176
     1
 40
0.0
176
     1
 40
1.0
176
     1
 90
        0
176
     1
 62
    18
420
        0
176
     1
 90
       50
176
     1
 90
        3
176
     1
 62
     5
420
      255
176
     1
290
     0
176
     1
 90
       50
176
     1
 90
       50
176
     1
 90
       50
176
     1
290
     0
176
     1
 90
       50
176
     1
 62
   256
176
     0
 40
1.0
176
     0
 90
        2
176
     1
  1
strokes_ogs.tif
176
     1
290
     0
176
     1
 40
1.0
176
     1
 40
1.0
176
     1
  0
VISUALSTYLE
  5
40
102
{ACAD_REACTORS
330
29
102
}
330
29
100
AcDbVisualStyle
  2
OverhangOff
 70
    21
177
     3
291
     1
 70
    58
 90
        2
176
     0
 90
        2
176
     0
 90
        0
176
     0
 90
        0
176
     0
 40
0.6
176
     0
 40
30.0
176
     0
 62
     7
420
 16777215
176
     0
 90
        1
176
     0
 90
        4
176
     0
 62
     7
176
     0
 62
   257
176
     0
 90
        1
176
     0
 90
        1
176
     0
 40
1.0
176
     0
 90
        9
176
     2
 62
     7
176
     0
 40
1.0
176
     0
 90
        1
176
     0
 90
        6
176
     0
 90
        2
176
     0
 62
     7
176
     0
 90
        5
176
     0
 90
        0
176
     0
 90
        0
176
     0
290
     0
176
     0
 90
        1
176
     0
 40
0.0
176
     0
 90
        0
176
     0
290
     0
176
     0
290
     1
176
     0
290
     1
176
     0
290
     0
176
     0
290
     0
176
     0
290
     0
176
     0
290
     0
176
     0
290
     0
176
     0
290
     0
176
     0
 90
       50
176
     0
 40
0.0
176
     0
 40
1.0
176
     0
 90
        0
176
     0
 62
    18
420
        0
176
     0
 90
       50
176
     0
 90
        3
176
     0
 62
     5
420
      255
176
     0
290
     0
176
     0
 90
       50
176
     0
 90
       50
176
     0
 90
       50
176
     0
290
     0
176
     0
 90
       50
176
     0
 62
   256
176
     0
 40
1.0
176
     0
 90
        2
176
     0
  1
strokes_ogs.tif
176
     0
290
     0
176
     0
 40
1.0
176
     0
 40
1.0
176
     0
  0
VISUALSTYLE
  5
33
102
{ACAD_REACTORS
330
29
102
}
330
29
100
AcDbVisualStyle
  2
Realistic
 70
     8
177
     3
291
     0
 70
    58
 90
        2
176
     1
 90
        3
176
     1
 90
        0
176
     1
 90
        2
176
     1
 40
0.6
176
     1
 40
30.0
176
     1
 62
     7
420
 16777215
176
     1
 90
        0
176
     1
 90
        0
176
     1
 62
     7
176
     1
 62
   257
176
     1
 90
        1
176
     1
 90
        1
176
     1
 40
1.0
176
     1
 90
        8
176
     1
 62
   257
176
     1
 40
1.0
176
     1
 90
        1
176
     1
 90
        6
176
     1
 90
        2
176
     1
 62
     7
176
     1
 90
        3
176
     1
 90
        0
176
     1
 90
        0
176
     1
290
     0
176
     1
 90
       13
176
     1
 40
0.0
176
     1
 90
        0
176
     1
290
     0
176
     1
290
     1
176
     1
290
     1
176
     1
290
     0
176
     1
290
     0
176
     1
290
     0
176
     1
290
     0
176
     1
290
     0
176
     1
290
     0
176
     1
 90
       50
176
     1
 40
0.0
176
     1
 40
1.0
176
     1
 90
        0
176
     1
 62
    18
420
        0
176
     1
 90
       50
176
     1
 90
        3
176
     1
 62
     5
420
      255
176
     1
290
     0
176
     1
 90
       50
176
     1
 90
       50
176
     1
 90
       50
176
     1
290
     0
176
     1
 90
       50
176
     1
 62
   256
176
     0
 40
1.0
176
     0
 90
        2
176
     1
  1
strokes_ogs.tif
176
     1
290
     0
176
     1
 40
1.0
176
     1
 40
1.0
176
     1
  0
VISUALSTYLE
  5
3E
102
{ACAD_REACTORS
330
29
102
}
330
29
100
AcDbVisualStyle
  2
Shaded
 70
    27
177
     3
291
     0
 70
    58
 90
        2
176
     1
 90
        2
176
     1
 90
        1
176
     1
 90
        2
176
     1
 40
0.6
176
     1
 40
30.0
176
     1
 62
     7
420
 16777215
176
     1
 90
        0
176
     1
 90
        4
176
     1
 62
     7
176
     1
 62
   257
176
     1
 90
        1
176
     1
 90
        1
176
     1
 40
1.0
176
     1
 90
        8
176
     1
 62
   257
176
     1
 40
1.0
176
     1
 90
        1
176
     1
 90
        6
176
     1
 90
        2
176
     1
 62
     8
420
  7895160
176
     1
 90
        3
176
     1
 90
        0
176
     1
 90
        0
176
     1
290
     0
176
     1
 90
        5
176
     1
 40
0.0
176
     1
 90
        0
176
     1
290
     0
176
     1
290
     1
176
     1
290
     1
176
     1
290
     0
176
     1
290
     0
176
     1
290
     0
176
     1
290
     0
176
     1
290
     0
176
     1
290
     0
176
     1
 90
       50
176
     1
 40
0.0
176
     1
 40
1.0
176
     1
 90
        0
176
     1
 62
    18
420
        0
176
     1
 90
       50
176
     1
 90
        3
176
     1
 62
     5
420
      255
176
     1
290
     0
176
     1
 90
       50
176
     1
 90
       50
176
     1
 90
       50
176
     1
290
     0
176
     1
 90
       50
176
     1
 62
   256
176
     0
 40
1.0
176
     0
 90
        2
176
     1
  1
strokes_ogs.tif
176
     1
290
     0
176
     1
 40
1.0
176
     1
 40
1.0
176
     1
  0
VISUALSTYLE
  5
3D
102
{ACAD_REACTORS
330
29
102
}
330
29
100
AcDbVisualStyle
  2
Shaded with edges
 70
    26
177
     3
291
     0
 70
    58
 90
        2
176
     1
 90
        2
176
     1
 90
        1
176
     1
 90
        2
176
     1
 40
0.6
176
     1
 40
30.0
176
     1
 62
     7
420
 16777215
176
     1
 90
        1
176
     1
 90
        2
176
     1
 62
     7
176
     1
 62
   257
176
     1
 90
        2
176
     1
 90
        1
176
     1
 40
1.0
176
     1
 90
        8
176
     1
 62
   257
176
     1
 40
1.0
176
     1
 90
        1
176
     1
 90
        6
176
     1
 90
        2
176
     1
 62
     7
176
     1
 90
        3
176
     1
 90
        0
176
     1
 90
        0
176
     1
290
     0
176
     1
 90
        5
176
     1
 40
0.0
176
     1
 90
        0
176
     1
290
     0
176
     1
290
     1
176
     1
290
     1
176
     1
290
     0
176
     1
290
     0
176
     1
290
     0
176
     1
290
     0
176
     1
290
     0
176
     1
290
     0
176
     1
 90
       50
176
     1
 40
0.0
176
     1
 40
1.0
176
     1
 90
        0
176
     1
 62
    18
420
        0
176
     1
 90
       50
176
     1
 90
        3
176
     1
 62
     5
420
      255
176
     1
290
     0
176
     1
 90
       50
176
     1
 90
       50
176
     1
 90
       50
176
     1
290
     0
176
     1
 90
       50
176
     1
 62
   256
176
     0
 40
1.0
176
     0
 90
        2
176
     1
  1
strokes_ogs.tif
176
     1
290
     0
176
     1
 40
1.0
176
     1
 40
1.0
176
     1
  0
VISUALSTYLE
  5
3A
102
{ACAD_REACTORS
330
29
102
}
330
29
100
AcDbVisualStyle
  2
Shades of Gray
 70
    23
177
     3
291
     0
 70
    58
 90
        2
176
     1
 90
        2
176
     1
 90
        3
176
     1
 90
        0
176
     1
 40
0.6
176
     1
 40
30.0
176
     1
 62
     7
420
 16777215
176
     1
 90
        2
176
     1
 90
        2
176
     1
 62
     7
176
     1
 62
     7
176
     1
 90
        1
176
     1
 90
        1
176
     1
 40
40.0
176
     1
 90
        8
176
     1
 62
     7
176
     1
 40
1.0
176
     1
 90
        1
176
     1
 90
        6
176
     1
 90
        2
176
     1
 62
     7
176
     1
 90
        3
176
     1
 90
        0
176
     1
 90
        0
176
     1
290
     0
176
     1
 90
        1
176
     1
 40
0.0
176
     1
 90
        0
176
     1
290
     0
176
     1
290
     1
176
     1
290
     1
176
     1
290
     0
176
     1
290
     0
176
     1
290
     0
176
     1
290
     0
176
     1
290
     0
176
     1
290
     0
176
     1
 90
       50
176
     1
 40
0.0
176
     1
 40
1.0
176
     1
 90
        0
176
     1
 62
    18
420
        0
176
     1
 90
       50
176
     1
 90
        3
176
     1
 62
     5
420
      255
176
     1
290
     0
176
     1
 90
       50
176
     1
 90
       50
176
     1
 90
       50
176
     1
290
     0
176
     1
 90
       50
176
     1
 62
   256
176
     0
 40
1.0
176
     0
 90
        2
176
     1
  1
strokes_ogs.tif
176
     1
290
     0
176
     1
 40
1.0
176
     1
 40
1.0
176
     1
  0
VISUALSTYLE
  5
3B
102
{ACAD_REACTORS
330
29
102
}
330
29
100
AcDbVisualStyle
  2
Sketchy
 70
    24
177
     3
291
     0
 70
    58
 90
        1
176
     1
 90
        2
176
     1
 90
        2
176
     1
 90
        0
176
     1
 40
0.6
176
     1
 40
30.0
176
     1
 62
     7
420
 16777215
176
     1
 90
        2
176
     1
 90
        2
176
     1
 62
     7
176
     1
 62
     7
176
     1
 90
        1
176
     1
 90
        1
176
     1
 40
40.0
176
     1
 90
       11
176
     1
 62
     7
176
     1
 40
1.0
176
     1
 90
        1
176
     1
 90
        6
176
     1
 90
        2
176
     1
 62
     7
176
     1
 90
        6
176
     1
 90
        0
176
     1
 90
        0
176
     1
290
     0
176
     1
 90
        1
176
     1
 40
0.0
176
     1
 90
        0
176
     1
290
     0
176
     1
290
     1
176
     1
290
     1
176
     1
290
     0
176
     1
290
     0
176
     1
290
     0
176
     1
290
     0
176
     1
290
     0
176
     1
290
     0
176
     1
 90
       50
176
     1
 40
0.0
176
     1
 40
1.0
176
     1
 90
        0
176
     1
 62
    18
420
        0
176
     1
 90
       50
176
     1
 90
        3
176
     1
 62
     5
420
      255
176
     1
290
     0
176
     1
 90
       50
176
     1
 90
       50
176
     1
 90
       50
176
     1
290
     0
176
     1
 90
       50
176
     1
 62
   256
176
     0
 40
1.0
176
     0
 90
        2
176
     1
  1
strokes_ogs.tif
176
     1
290
     0
176
     1
 40
1.0
176
     1
 40
1.0
176
     1
  0
VISUALSTYLE
  5
36
102
{ACAD_REACTORS
330
29
102
}
330
29
100
AcDbVisualStyle
  2
Thicken
 70
    13
177
     3
291
     1
 70
    58
 90
        2
176
     1
 90
        2
176
     1
 90
        0
176
     1
 90
        0
176
     1
 40
0.6
176
     1
 40
30.0
176
     1
 62
     7
420
 16777215
176
     1
 90
        1
176
     1
 90
        4
176
     1
 62
     7
176
     1
 62
   257
176
     1
 90
        1
176
     1
 90
        1
176
     1
 40
1.0
176
     1
 90
       12
176
     1
 62
     7
176
     1
 40
1.0
176
     1
 90
        1
176
     1
 90
        6
176
     1
 90
        2
176
     1
 62
     7
176
     1
 90
        5
176
     1
 90
        0
176
     1
 90
        0
176
     1
290
     0
176
     1
 90
        1
176
     1
 40
0.0
176
     1
 90
        0
176
     1
290
     0
176
     1
290
     1
176
     1
290
     1
176
     1
290
     0
176
     1
290
     0
176
     1
290
     0
176
     1
290
     0
176
     1
290
     0
176
     1
290
     0
176
     1
 90
       50
176
     1
 40
0.0
176
     1
 40
1.0
176
     1
 90
        0
176
     1
 62
    18
420
        0
176
     1
 90
       50
176
     1
 90
        3
176
     1
 62
     5
420
      255
176
     1
290
     0
176
     1
 90
       50
176
     1
 90
       50
176
     1
 90
       50
176
     1
290
     0
176
     1
 90
       50
176
     1
 62
   256
176
     0
 40
1.0
176
     0
 90
        2
176
     1
  1
strokes_ogs.tif
176
     1
290
     0
176
     1
 40
1.0
176
     1
 40
1.0
176
     1
  0
VISUALSTYLE
  5
30
102
{ACAD_REACTORS
330
29
102
}
330
29
100
AcDbVisualStyle
  2
Wireframe
 70
     5
177
     3
291
     0
 70
    58
 90
        0
176
     1
 90
        2
176
     1
 90
        0
176
     1
 90
        0
176
     1
 40
0.6
176
     1
 40
30.0
176
     1
 62
     7
420
 16777215
176
     1
 90
        1
176
     1
 90
        4
176
     1
 62
     7
176
     1
 62
   257
176
     1
 90
        1
176
     1
 90
        1
176
     1
 40
1.0
176
     1
 90
        0
176
     1
 62
   257
176
     1
 40
1.0
176
     1
 90
        1
176
     1
 90
        6
176
     1
 90
        2
176
     1
 62
     7
176
     1
 90
        3
176
     1
 90
        0
176
     1
 90
        0
176
     1
290
     0
176
     1
 90
        1
176
     1
 40
0.0
176
     1
 90
        0
176
     1
290
     0
176
     1
290
     1
176
     1
290
     1
176
     1
290
     0
176
     1
290
     0
176
     1
290
     0
176
     1
290
     0
176
     1
290
     0
176
     1
290
     0
176
     1
 90
       50
176
     1
 40
0.0
176
     1
 40
1.0
176
     1
 90
        0
176
     1
 62
    18
420
        0
176
     1
 90
       50
176
     1
 90
        3
176
     1
 62
     5
420
      255
176
     1
290
     0
176
     1
 90
       50
176
     1
 90
       50
176
     1
 90
       50
176
     1
290
     0
176
     1
 90
       50
176
     1
 62
   256
176
     0
 40
1.0
176
     0
 90
        2
176
     1
  1
strokes_ogs.tif
176
     1
290
     0
176
     1
 40
1.0
176
     1
 40
1.0
176
     1
  0
VISUALSTYLE
  5
3C
102
{ACAD_REACTORS
330
29
102
}
330
29
100
AcDbVisualStyle
  2
X-Ray
 70
    25
177
     3
291
     0
 70
    58
 90
        2
176
     1
 90
        2
176
     1
 90
        1
176
     1
 90
        1
176
     1
 40
0.5
176
     1
 40
30.0
176
     1
 62
     7
420
 16777215
176
     1
 90
        1
176
     1
 90
        0
176
     1
 62
     7
176
     1
 62
   257
176
     1
 90
        1
176
     1
 90
        1
176
     1
 40
1.0
176
     1
 90
        8
176
     1
 62
     7
176
     1
 40
1.0
176
     1
 90
        1
176
     1
 90
        6
176
     1
 90
        2
176
     1
 62
     7
176
     1
 90
        3
176
     1
 90
        0
176
     1
 90
        0
176
     1
290
     0
176
     1
 90
       13
176
     1
 40
0.0
176
     1
 90
        0
176
     1
290
     0
176
     1
290
     1
176
     1
290
     1
176
     1
290
     0
176
     1
290
     0
176
     1
290
     0
176
     1
290
     0
176
     1
290
     0
176
     1
290
     0
176
     1
 90
       50
176
     1
 40
0.0
176
     1
 40
1.0
176
     1
 90
        0
176
     1
 62
    18
420
        0
176
     1
 90
       50
176
     1
 90
        3
176
     1
 62
     5
420
      255
176
     1
290
     0
176
     1
 90
       50
176
     1
 90
       50
176
     1
 90
       50
176
     1
290
     0
176
     1
 90
       50
176
     1
 62
   256
176
     0
 40
1.0
176
     0
 90
        2
176
     1
  1
strokes_ogs.tif
176
     1
290
     0
176
     1
 40
1.0
176
     1
 40
1.0
176
     1
  0
DICTIONARYVAR
  5
151
102
{ACAD_REACTORS
330
14C
102
}
330
14C
100
DictionaryVariables
280
     0
  1
1:1
  0
DICTIONARYVAR
  5
14E
102
{ACAD_REACTORS
330
14C
102
}
330
14C
100
DictionaryVariables
280
     0
  1
STANDARD
  0
DICTIONARYVAR
  5
14D
102
{ACAD_REACTORS
330
14C
102
}
330
14C
100
DictionaryVariables
280
     0
  1
STANDARD
  0
DICTIONARYVAR
  5
14F
102
{ACAD_REACTORS
330
14C
102
}
330
14C
100
DictionaryVariables
280
     0
  1
Imperial24
  0
DICTIONARYVAR
  5
150
102
{ACAD_REACTORS
330
14C
102
}
330
14C
100
DictionaryVariables
280
     0
  1
Imperial24
  0
DICTIONARY
  5
1A
330
19
100
AcDbDictionary
280
     1
281
     1
  3
BUMPTILE
360
1C
  3
DIFFUSETILE
360
1B
  3
OPACITYTILE
360
1F
  3
REFLECTIONTILE
360
1E
  3
REFRACTIONTILE
360
20
  3
SPECULARTILE
360
1D
  0
DICTIONARY
  5
12
330
11
100
AcDbDictionary
280
     1
281
     1
  3
BUMPTILE
360
14
  3
DIFFUSETILE
360
13
  3
OPACITYTILE
360
17
  3
REFLECTIONTILE
360
16
  3
REFRACTIONTILE
360
18
  3
SPECULARTILE
360
15
  0
DICTIONARY
  5
22
330
21
100
AcDbDictionary
280
     1
281
     1
  3
BUMPTILE
360
24
  3
DIFFUSETILE
360
23
  3
OPACITYTILE
360
27
  3
REFLECTIONTILE
360
26
  3
REFRACTIONTILE
360
28
  3
SPECULARTILE
360
25
  0
DICTIONARY
  5
152
330
65
100
AcDbDictionary
280
     1
281
     1
  3
ACAD_ROUNDTRIP_2008_TABLESTYLE_CELLSTYLEMAP
360
153
  0
XRECORD
  5
1C
102
{ACAD_REACTORS
330
1A
102
}
330
1A
100
AcDbXrecord
280
     1
270
     1
271
     1
  0
XRECORD
  5
1B
102
{ACAD_REACTORS
330
1A
102
}
330
1A
100
AcDbXrecord
280
     1
270
     1
271
     1
  0
XRECORD
  5
1F
102
{ACAD_REACTORS
330
1A
102
}
330
1A
100
AcDbXrecord
280
     1
270
     1
271
     1
  0
XRECORD
  5
1E
102
{ACAD_REACTORS
330
1A
102
}
330
1A
100
AcDbXrecord
280
     1
270
     1
271
     1
  0
XRECORD
  5
20
102
{ACAD_REACTORS
330
1A
102
}
330
1A
100
AcDbXrecord
280
     1
270
     1
271
     1
  0
XRECORD
  5
1D
102
{ACAD_REACTORS
330
1A
102
}
330
1A
100
AcDbXrecord
280
     1
270
     1
271
     1
  0
XRECORD
  5
14
102
{ACAD_REACTORS
330
12
102
}
330
12
100
AcDbXrecord
280
     1
270
     1
271
     1
  0
XRECORD
  5
13
102
{ACAD_REACTORS
330
12
102
}
330
12
100
AcDbXrecord
280
     1
270
     1
271
     1
  0
XRECORD
  5
17
102
{ACAD_REACTORS
330
12
102
}
330
12
100
AcDbXrecord
280
     1
270
     1
271
     1
  0
XRECORD
  5
16
102
{ACAD_REACTORS
330
12
102
}
330
12
100
AcDbXrecord
280
     1
270
     1
271
     1
  0
XRECORD
  5
18
102
{ACAD_REACTORS
330
12
102
}
330
12
100
AcDbXrecord
280
     1
270
     1
271
     1
  0
XRECORD
  5
15
102
{ACAD_REACTORS
330
12
102
}
330
12
100
AcDbXrecord
280
     1
270
     1
271
     1
  0
XRECORD
  5
24
102
{ACAD_REACTORS
330
22
102
}
330
22
100
AcDbXrecord
280
     1
270
     1
271
     1
  0
XRECORD
  5
23
102
{ACAD_REACTORS
330
22
102
}
330
22
100
AcDbXrecord
280
     1
270
     1
271
     1
  0
XRECORD
  5
27
102
{ACAD_REACTORS
330
22
102
}
330
22
100
AcDbXrecord
280
     1
270
     1
271
     1
  0
XRECORD
  5
26
102
{ACAD_REACTORS
330
22
102
}
330
22
100
AcDbXrecord
280
     1
270
     1
271
     1
  0
XRECORD
  5
28
102
{ACAD_REACTORS
330
22
102
}
330
22
100
AcDbXrecord
280
     1
270
     1
271
     1
  0
XRECORD
  5
25
102
{ACAD_REACTORS
330
22
102
}
330
22
100
AcDbXrecord
280
     1
270
     1
271
     1
  0
CELLSTYLEMAP
  5
153
102
{ACAD_REACTORS
330
152
102
}
330
152
100
AcDbCellStyleMap
 90
        3
300
CELLSTYLE
  1
TABLEFORMAT_BEGIN
 90
        5
170
     1
 91
        0
 92
    32768
 62
   257
 93
        1
300
CONTENTFORMAT
  1
CONTENTFORMAT_BEGIN
 90
        0
 91
        0
 92
      512
 93
        0
300

 40
0.0
140
1.0
 94
        5
 62
     0
340
55
144
0.25
309
CONTENTFORMAT_END
171
     0
 94
        0
309
TABLEFORMAT_END
  1
CELLSTYLE_BEGIN
 90
        1
 91
        1
300
_TITLE
309
CELLSTYLE_END
300
CELLSTYLE
  1
TABLEFORMAT_BEGIN
 90
        5
170
     1
 91
        0
 92
        0
 62
   257
 93
        1
300
CONTENTFORMAT
  1
CONTENTFORMAT_BEGIN
 90
        0
 91
        0
 92
      512
 93
        0
300

 40
0.0
140
1.0
 94
        5
 62
     0
340
55
144
0.18
309
CONTENTFORMAT_END
171
     0
 94
        0
309
TABLEFORMAT_END
  1
CELLSTYLE_BEGIN
 90
        2
 91
        1
300
_HEADER
309
CELLSTYLE_END
300
CELLSTYLE
  1
TABLEFORMAT_BEGIN
 90
        5
170
     1
 91
        0
 92
        0
 62
   257
 93
        1
300
CONTENTFORMAT
  1
CONTENTFORMAT_BEGIN
 90
        0
 91
        0
 92
      512
 93
        0
300

 40
0.0
140
1.0
 94
        2
 62
     0
340
55
144
0.18
309
CONTENTFORMAT_END
171
     0
 94
        0
309
TABLEFORMAT_END
  1
CELLSTYLE_BEGIN
 90
        3
 91
        2
300
_DATA
309
CELLSTYLE_END
  0
ENDSEC
  0
EOF
