999
DXF file: bkb20060531.dxf
999
Pro/ENGINEER 2022024 by Parametric Technology Corporation
  0
SECTION
  2
HEADER
  9
$EXTMAX
 10
210.0
 20
297.0
 30
0.0
  9
$EXTMIN
 10
0.0
 20
0.0
 30
0.0
  9
$LIMMIN
 10
0.0
 20
0.0
  9
$LIMMAX
 10
210.0
 20
297.0
  9
$VIEWCTR
 10
105.0
 20
148.5
  9
$VIEWSIZE
 40
297.0
  9
$CLAYER
  8
0
  9
$LTSCALE
 40
19.36
  9
$CELTYPE
  6
BYLAYER
  9
$DIMSCALE
 40
1.0
  9
$DIMASZ
 40
3.5
  9
$DIMEXO
 40
0.0
  9
$DIMDLI
 40
13.376
  9
$DIMEXE
 40
1.5
  9
$DIMCEN
 40
3.168
  9
$DIMLFAC
 40
1.0
  9
$DIMBLK
  1
_FILLED
  9
$DIMALT
 70
0
  9
$DIMALTF
 40
0.0393700787
  9
$DIMTXT
 40
3.0
  9
$AUNITS
 70
0
  9
$PDMODE
 70
3
  9
$PDSIZE
 40
0.3125
  9
$TILEMODE
 70
1
  0
ENDSEC
  0
SECTION
  2
TABLES
  0
TABLE
  2
LTYPE
 70
6
  0
LTYPE
  2
BYBLOCK
 70
0
  3

 72
65
 73
0
 40
0.0
  0
LTYPE
  2
BYLAYER
 70
0
  3

 72
65
 73
0
 40
0.0
  0
LTYPE
  2
CONTINUOUS
 70
64
  3
Solid line
 72
65
 73
0
 40
0.0
  0
LTYPE
  2
CENTER
 70
64
  3
____ _ ____ _ ____ _ ____ _ ____ _ ____ _ ____
 72
65
 73
4
 40
0.6
 49
0.375
 49
-0.075
 49
0.075
 49
-0.075
  0
LTYPE
  2
HIDDEN
 70
64
  3
- - - - - - - - - - - - - - - - - - - -
 72
65
 73
2
 40
0.2
 49
0.1
 49
-0.1
  0
LTYPE
  2
PHANTOM
 70
64
  3
_____ _ _ _____ _ _ _____ _ _ _____
 72
65
 73
6
 40
0.8
 49
0.45
 49
-0.05
 49
0.1
 49
-0.05
 49
0.1
 49
-0.05
  0
LTYPE
  2
DOT
 70
64
  3
. . . . . . . . . . . . . . . . . . . .
 72
65
 73
2
 40
0.2
 49
0.1
 49
-0.1
  0
LTYPE
  2
DASHED
 70
64
  3
- - - - - - - - - - - - - - - - - - - -
 72
65
 73
2
 40
0.2
 49
0.1
 49
-0.1
  0
ENDTAB
  0
TABLE
  2
LAYER
 70
36
  0
LAYER
  2
0
 70
0
 62
7
  6
CONTINUOUS
  0
LAYER
  2
DEFAULT_1
 70
0
 62
7
  6
CENTER
  0
LAYER
  2
DEFAULT_2
 70
0
 62
8
  6
HIDDEN
  0
LAYER
  2
DEFAULT_3
 70
0
 62
7
  6
PHANTOM
  0
LAYER
  2
01_STARTBEZUEGE
 70
0
 62
7
  6
CONTINUOUS
  0
LAYER
  2
AUSFORMSCHRAEGEN
 70
0
 62
7
  6
CONTINUOUS
  0
LAYER
  2
BEZUGSACHSEN
 70
0
 62
7
  6
CONTINUOUS
  0
LAYER
  2
BEZUGSEBENEN
 70
0
 62
7
  6
CONTINUOUS
  0
LAYER
  2
BEZUGSPUNKTE
 70
0
 62
7
  6
CONTINUOUS
  0
LAYER
  2
BOHRUNGEN
 70
0
 62
7
  6
CONTINUOUS
  0
LAYER
  2
EBENEN
 70
0
 62
7
  6
CONTINUOUS
  0
LAYER
  2
FASEN
 70
0
 62
7
  6
CONTINUOUS
  0
LAYER
  2
FLAECHEN
 70
0
 62
7
  6
CONTINUOUS
  0
LAYER
  2
GEWINDE
 70
0
 62
7
  6
CONTINUOUS
  0
LAYER
  2
GTOL
 70
0
 62
7
  6
CONTINUOUS
  0
LAYER
  2
KONSTRUKTIONSELEMENTE
 70
0
 62
7
  6
CONTINUOUS
  0
LAYER
  2
KOORDINATENSYSTEME
 70
0
 62
7
  6
CONTINUOUS
  0
LAYER
  2
KURVEN
 70
0
 62
7
  6
CONTINUOUS
  0
LAYER
  2
NOTIZ
 70
0
 62
7
  6
CONTINUOUS
  0
LAYER
  2
RUNDUNGEN
 70
0
 62
7
  6
CONTINUOUS
  0
LAYER
  2
SURFACES
 70
0
 62
7
  6
CONTINUOUS
  0
LAYER
  2
VOLUMEN
 70
0
 62
7
  6
CONTINUOUS
  0
LAYER
  2
XSEC_DATUMS
 70
0
 62
7
  6
CONTINUOUS
  0
ENDTAB
  0
TABLE
  2
STYLE
 70
1
  0
STYLE
  2
STANDARD
 70
0
 40
0.0
 41
0.8
 50
0.0
 71
0
 42
0.2
  3
txt
  4

  0
STYLE
  2
TEXTSTYLE_1
 70
0
 40
0.0
 41
0.8
 50
0.0
 71
0
 42
0.2
  3
gdt
  4

  0
ENDTAB
  0
ENDSEC
  0
SECTION
  2
BLOCKS
  0
BLOCK
  8
0
  2
_FILLED
 70
64
 10
0.0
 20
0.0
  0
SOLID
  8
0
  6
BYBLOCK
 62
0
 10
0.0
 20
0.0
 11
-1.0
 21
0.125
 12
-1.0
 22
-0.125
 13
-1.0
 23
-0.125
  0
ENDBLK
  8
0
  6
BYBLOCK
 62
0
  0
ENDSEC
  0
SECTION
  2
ENTITIES
  0
LINE
  8
FASEN
 62
3
  6
CONTINUOUS
 10
-114.8322129685
 20
235.2488488995
 11
-114.8322129685
 21
290.2488488995
  0
LINE
  8
FASEN
 62
7
  6
CONTINUOUS
 10
-112.8322129685
 20
235.2488488995
 11
-112.8322129685
 21
290.2488488995
  0
LINE
  8
0
 62
7
  6
CONTINUOUS
 10
-112.6322129685
 20
288.0488488995
 11
-112.6322129685
 21
287.2488488995
  0
LINE
  8
KONSTRUKTIONSELEMENTE
 62
9
  6
CONTINUOUS
 10
-111.8322129685
 20
232.2488488995
 11
-111.8322129685
 21
234.2488488995
  0
LINE
  8
KONSTRUKTIONSELEMENTE
 62
7
  6
CONTINUOUS
 10
-111.8322129685
 20
234.2488488995
 11
-111.8322129685
 21
235.2488488995
  0
LINE
  8
0
 62
7
  6
CONTINUOUS
 10
-111.1322129685
 20
288.0488488995
 11
-111.1322129685
 21
287.0488488995
  0
LINE
  8
KONSTRUKTIONSELEMENTE
 62
7
  6
CONTINUOUS
 10
-110.8322129685
 20
287.2488488995
 11
-110.8322129685
 21
237.2488488995
  0
LINE
  8
0
 62
7
  6
CONTINUOUS
 10
-100.3322129685
 20
257.0488488995
 11
-100.3322129685
 21
270.0488488995
  0
LINE
  8
0
 62
7
  6
CONTINUOUS
 10
-86.6322129685
 20
270.0488488995
 11
-86.6322129685
 21
287.0488488995
  0
LINE
  8
0
 62
7
  6
CONTINUOUS
 10
-85.3322129685
 20
257.0488488995
 11
-85.3322129685
 21
287.0488488995
  0
LINE
  8
BEZUGSACHSEN
 62
7
  6
CONTINUOUS
 10
-69.8322129685
 20
236.2488488995
 11
-69.8322129685
 21
234.3488488995
  0
LINE
  8
BEZUGSACHSEN
 62
7
  6
CONTINUOUS
 10
-59.8322129685
 20
236.2488488995
 11
-59.8322129685
 21
234.3488488995
  0
LINE
  8
0
 62
7
  6
CONTINUOUS
 10
-26.8322129685
 20
234.2488488995
 11
-26.8322129685
 21
286.7488488995
  0
LINE
  8
0
 62
7
  6
CONTINUOUS
 10
-2.2322129685
 20
234.2488488995
 11
-2.2322129685
 21
286.7488488995
  0
LINE
  8
0
 62
7
  6
CONTINUOUS
 10
2.7677870315
 20
236.2488488995
 11
2.7677870315
 21
234.2488488995
  0
LINE
  8
0
 62
9
  6
CONTINUOUS
 10
21.7677870315
 20
234.2488488995
 11
21.7677870315
 21
236.2488488995
  0
LINE
  8
0
 62
3
  6
CONTINUOUS
 10
22.7677870315
 20
281.7488488995
 11
22.7677870315
 21
237.2488488995
  0
LINE
  8
0
 62
7
  6
CONTINUOUS
 10
24.7677870315
 20
281.7488488995
 11
24.7677870315
 21
237.2488488995
  0
LINE
  8
0
 62
9
  6
CONTINUOUS
 10
25.7677870315
 20
284.7488488995
 11
25.7677870315
 21
282.7488488995
  0
LINE
  8
BEZUGSACHSEN
 62
7
  6
CONTINUOUS
 10
30.1677870315
 20
234.3488488995
 11
30.1677870315
 21
236.2488488995
  0
LINE
  8
BEZUGSACHSEN
 62
3
  6
CONTINUOUS
 10
82.1677870315
 20
232.2488488995
 11
-111.8322129685
 21
232.2488488995
  0
LINE
  8
KONSTRUKTIONSELEMENTE
 62
3
  6
CONTINUOUS
 10
82.1677870315
 20
232.2488488995
 11
235.1677870315
 21
232.2488488995
  0
LINE
  8
BEZUGSACHSEN
 62
7
  6
CONTINUOUS
 10
-111.8322129685
 20
234.2488488995
 11
82.1677870315
 21
234.2488488995
  0
LINE
  8
KONSTRUKTIONSELEMENTE
 62
7
  6
CONTINUOUS
 10
84.9959262935
 20
234.2488488995
 11
85.1677870315
 21
234.2488488995
  0
LINE
  8
BEZUGSACHSEN
 62
9
  6
CONTINUOUS
 10
-69.8322129685
 20
234.3488488995
 11
-59.8322129685
 21
234.3488488995
  0
LINE
  8
BEZUGSACHSEN
 62
9
  6
CONTINUOUS
 10
30.1677870315
 20
234.3488488995
 11
40.1677870315
 21
234.3488488995
  0
LINE
  8
BEZUGSACHSEN
 62
9
  6
CONTINUOUS
 10
72.5941939027
 20
234.3488488995
 11
82.5941939027
 21
234.3488488995
  0
LINE
  8
KONSTRUKTIONSELEMENTE
 62
9
  6
CONTINUOUS
 10
235.1677870315
 20
235.2488488995
 11
83.1677870315
 21
235.2488488995
  0
LINE
  8
KONSTRUKTIONSELEMENTE
 62
9
  6
CONTINUOUS
 10
48.0677870315
 20
235.2488488995
 11
40.1677870315
 21
235.2488488995
  0
LINE
  8
KONSTRUKTIONSELEMENTE
 62
9
  6
CONTINUOUS
 10
30.1677870315
 20
235.2488488995
 11
24.0032198886
 21
235.2488488995
  0
LINE
  8
KONSTRUKTIONSELEMENTE
 62
9
  6
CONTINUOUS
 10
2.7677870315
 20
235.2488488995
 11
-2.2322129685
 21
235.2488488995
  0
LINE
  8
KONSTRUKTIONSELEMENTE
 62
9
  6
CONTINUOUS
 10
-114.8322129685
 20
235.2488488995
 11
-112.8322129685
 21
235.2488488995
  0
LINE
  8
KONSTRUKTIONSELEMENTE
 62
7
  6
CONTINUOUS
 10
-112.8322129685
 20
235.2488488995
 11
-111.8322129685
 21
235.2488488995
  0
LINE
  8
KONSTRUKTIONSELEMENTE
 62
9
  6
CONTINUOUS
 10
-26.8322129685
 20
235.2488488995
 11
-59.8322129685
 21
235.2488488995
  0
LINE
  8
KONSTRUKTIONSELEMENTE
 62
9
  6
CONTINUOUS
 10
-69.8322129685
 20
235.2488488995
 11
-111.8322129685
 21
235.2488488995
  0
LINE
  8
BEZUGSACHSEN
 62
7
  6
CONTINUOUS
 10
82.5941939027
 20
236.2488488995
 11
72.5941939027
 21
236.2488488995
  0
LINE
  8
BEZUGSACHSEN
 62
7
  6
CONTINUOUS
 10
40.1677870315
 20
236.2488488995
 11
30.1677870315
 21
236.2488488995
  0
LINE
  8
0
 62
3
  6
CONTINUOUS
 10
21.7677870315
 20
236.2488488995
 11
2.7677870315
 21
236.2488488995
  0
LINE
  8
BEZUGSACHSEN
 62
7
  6
CONTINUOUS
 10
-59.8322129685
 20
236.2488488995
 11
-69.8322129685
 21
236.2488488995
  0
LINE
  8
KONSTRUKTIONSELEMENTE
 62
7
  6
CONTINUOUS
 10
48.0677870315
 20
237.2488488995
 11
24.7677870315
 21
237.2488488995
  0
LINE
  8
0
 62
9
  6
CONTINUOUS
 10
24.7677870315
 20
237.2488488995
 11
22.7677870315
 21
237.2488488995
  0
LINE
  8
KONSTRUKTIONSELEMENTE
 62
7
  6
CONTINUOUS
 10
22.7677870315
 20
237.2488488995
 11
-2.2322129685
 21
237.2488488995
  0
LINE
  8
KONSTRUKTIONSELEMENTE
 62
7
  6
CONTINUOUS
 10
-26.8322129685
 20
237.2488488995
 11
-112.8322129685
 21
237.2488488995
  0
LINE
  8
0
 62
9
  6
CONTINUOUS
 10
69.6677870315
 20
237.2488488995
 11
83.1677870315
 21
237.2488488995
  0
LINE
  8
0
 62
7
  6
CONTINUOUS
 10
35.7677870315
 20
284.7488488995
 11
35.7677870315
 21
282.7488488995
  0
LINE
  8
BEZUGSACHSEN
 62
7
  6
CONTINUOUS
 10
40.1677870315
 20
234.3488488995
 11
40.1677870315
 21
236.2488488995
  0
LINE
  8
0
 62
7
  6
CONTINUOUS
 10
48.0677870315
 20
234.2488488995
 11
48.0677870315
 21
286.7488488995
  0
LINE
  8
0
 62
7
  6
CONTINUOUS
 10
48.0677870315
 20
257.0488488995
 11
24.7677870315
 21
257.0488488995
  0
LINE
  8
0
 62
7
  6
CONTINUOUS
 10
22.7677870315
 20
257.0488488995
 11
-2.2322129685
 21
257.0488488995
  0
LINE
  8
0
 62
7
  6
CONTINUOUS
 10
-110.8322129685
 20
257.0488488995
 11
-100.3322129685
 21
257.0488488995
  0
LINE
  8
0
 62
7
  6
CONTINUOUS
 10
-26.8322129685
 20
257.0488488995
 11
-85.3322129685
 21
257.0488488995
  0
LINE
  8
0
 62
7
  6
CONTINUOUS
 10
80.5677870315
 20
257.5488488995
 11
70.5677870315
 21
257.5488488995
  0
LINE
  8
0
 62
7
  6
CONTINUOUS
 10
48.0677870315
 20
270.0488488995
 11
24.7677870315
 21
270.0488488995
  0
LINE
  8
0
 62
7
  6
CONTINUOUS
 10
22.7677870315
 20
270.0488488995
 11
-2.2322129685
 21
270.0488488995
  0
LINE
  8
0
 62
7
  6
CONTINUOUS
 10
-26.8322129685
 20
270.0488488995
 11
-85.3322129685
 21
270.0488488995
  0
LINE
  8
0
 62
7
  6
CONTINUOUS
 10
-86.6322129685
 20
270.0488488995
 11
-100.3322129685
 21
270.0488488995
  0
LINE
  8
0
 62
7
  6
CONTINUOUS
 10
70.5677870315
 20
271.5488488995
 11
78.8677870315
 21
271.5488488995
  0
LINE
  8
0
 62
7
  6
CONTINUOUS
 10
69.6677870315
 20
234.2488488995
 11
69.6677870315
 21
284.7488488995
  0
LINE
  8
0
 62
7
  6
CONTINUOUS
 10
70.5677870315
 20
257.5488488995
 11
70.5677870315
 21
271.5488488995
  0
LINE
  8
BEZUGSACHSEN
 62
7
  6
CONTINUOUS
 10
72.5941939027
 20
236.2488488995
 11
72.5941939027
 21
234.3488488995
  0
LINE
  8
0
 62
7
  6
CONTINUOUS
 10
79.0677870315
 20
271.7488488995
 11
79.0677870315
 21
279.43272393
  0
LINE
  8
0
 62
7
  6
CONTINUOUS
 10
80.5677870315
 20
279.43272393
 11
80.5677870315
 21
257.5488488995
  0
LINE
  8
0
 62
9
  6
CONTINUOUS
 10
80.9677870315
 20
288.0488488995
 11
80.9677870315
 21
287.0488488995
  0
LINE
  8
0
 62
7
  6
CONTINUOUS
 10
81.9677870315
 20
278.4488488995
 11
82.9677870315
 21
278.4488488995
  0
LINE
  8
0
 62
7
  6
CONTINUOUS
 10
79.0677870315
 20
279.43272393
 11
80.5677870315
 21
279.43272393
  0
LINE
  8
0
 62
7
  6
CONTINUOUS
 10
81.9677870315
 20
279.9488488995
 11
82.9677870315
 21
279.9488488995
  0
LINE
  8
0
 62
9
  6
CONTINUOUS
 10
83.1677870315
 20
281.7488488995
 11
82.9677870315
 21
281.7488488995
  0
LINE
  8
0
 62
9
  6
CONTINUOUS
 10
81.9677870315
 20
281.7488488995
 11
69.6677870315
 21
281.7488488995
  0
LINE
  8
0
 62
9
  6
CONTINUOUS
 10
22.7677870315
 20
281.7488488995
 11
24.7677870315
 21
281.7488488995
  0
LINE
  8
0
 62
7
  6
CONTINUOUS
 10
83.1677870315
 20
282.7488488995
 11
82.9677870315
 21
282.7488488995
  0
LINE
  8
0
 62
7
  6
CONTINUOUS
 10
81.9677870315
 20
282.7488488995
 11
69.6677870315
 21
282.7488488995
  0
LINE
  8
0
 62
7
  6
CONTINUOUS
 10
25.7677870315
 20
282.7488488995
 11
35.7677870315
 21
282.7488488995
  0
LINE
  8
0
 62
3
  6
CONTINUOUS
 10
83.1677870315
 20
284.7488488995
 11
82.9677870315
 21
284.7488488995
  0
LINE
  8
0
 62
3
  6
CONTINUOUS
 10
81.9677870315
 20
284.7488488995
 11
69.6677870315
 21
284.7488488995
  0
LINE
  8
0
 62
3
  6
CONTINUOUS
 10
25.7677870315
 20
284.7488488995
 11
35.7677870315
 21
284.7488488995
  0
LINE
  8
0
 62
9
  6
CONTINUOUS
 10
82.9677870315
 20
286.0488488995
 11
81.9677870315
 21
286.0488488995
  0
LINE
  8
0
 62
7
  6
CONTINUOUS
 10
-2.2322129685
 20
286.7488488995
 11
-26.8322129685
 21
286.7488488995
  0
LINE
  8
0
 62
7
  6
CONTINUOUS
 10
48.0677870315
 20
286.7488488995
 11
81.6817889508
 21
286.7488488995
  0
LINE
  8
0
 62
7
  6
CONTINUOUS
 10
82.8411540002
 20
286.7488488995
 11
83.1677870315
 21
286.7488488995
  0
LINE
  8
0
 62
3
  6
CONTINUOUS
 10
81.9677870315
 20
278.4488488995
 11
81.9677870315
 21
286.0488488995
  0
LINE
  8
KONSTRUKTIONSELEMENTE
 62
9
  6
CONTINUOUS
 10
82.1677870315
 20
232.2488488995
 11
82.1677870315
 21
234.2488488995
  0
LINE
  8
BEZUGSACHSEN
 62
7
  6
CONTINUOUS
 10
82.5941939027
 20
236.2488488995
 11
82.5941939027
 21
234.3488488995
  0
LINE
  8
0
 62
7
  6
CONTINUOUS
 10
82.9677870315
 20
286.0488488995
 11
82.9677870315
 21
278.4488488995
  0
LINE
  8
0
 62
7
  6
CONTINUOUS
 10
82.9677870315
 20
287.0488488995
 11
82.9677870315
 21
288.0488488995
  0
LINE
  8
BEZUGSACHSEN
 62
7
  6
CONTINUOUS
 10
83.1677870315
 20
235.2488488995
 11
83.1677870315
 21
290.2488488995
  0
LINE
  8
KONSTRUKTIONSELEMENTE
 62
3
  6
CONTINUOUS
 10
85.1677870315
 20
232.2488488995
 11
85.1677870315
 21
235.2488488995
  0
LINE
  8
BEZUGSACHSEN
 62
3
  6
CONTINUOUS
 10
85.1677870315
 20
235.2488488995
 11
85.1677870315
 21
290.2488488995
  0
LINE
  8
0
 62
3
  6
CONTINUOUS
 10
-111.1322129685
 20
287.0488488995
 11
80.9677870315
 21
287.0488488995
  0
LINE
  8
0
 62
3
  6
CONTINUOUS
 10
82.6996025302
 20
287.0488488995
 11
83.1677870315
 21
287.0488488995
  0
LINE
  8
KONSTRUKTIONSELEMENTE
 62
7
  6
CONTINUOUS
 10
-112.8322129685
 20
287.2488488995
 11
-110.8322129685
 21
287.2488488995
  0
LINE
  8
0
 62
7
  6
CONTINUOUS
 10
-112.6322129685
 20
288.0488488995
 11
83.1677870315
 21
288.0488488995
  0
LINE
  8
FASEN
 62
7
  6
CONTINUOUS
 10
-112.8322129685
 20
288.2488488995
 11
-114.8322129685
 21
288.2488488995
  0
LINE
  8
BEZUGSACHSEN
 62
7
  6
CONTINUOUS
 10
83.1677870315
 20
288.2488488995
 11
85.1677870315
 21
288.2488488995
  0
LINE
  8
KONSTRUKTIONSELEMENTE
 62
3
  6
CONTINUOUS
 10
233.1677870315
 20
290.2488488995
 11
85.1677870315
 21
290.2488488995
  0
LINE
  8
KONSTRUKTIONSELEMENTE
 62
7
  6
CONTINUOUS
 10
83.1677870315
 20
290.2488488995
 11
-112.8322129685
 21
290.2488488995
  0
LINE
  8
FASEN
 62
7
  6
CONTINUOUS
 10
-112.8322129685
 20
290.2488488995
 11
-114.8322129685
 21
290.2488488995
  0
LINE
  8
BEZUGSACHSEN
 62
7
  6
CONTINUOUS
 10
83.1677870315
 20
290.2488488995
 11
85.1677870315
 21
290.2488488995
  0
LINE
  8
FASEN
 62
3
  6
CONTINUOUS
 10
235.1677870315
 20
288.2488488995
 11
233.1677870315
 21
290.2488488995
  0
LINE
  8
KONSTRUKTIONSELEMENTE
 62
3
  6
CONTINUOUS
 10
235.1677870315
 20
232.2488488995
 11
235.1677870315
 21
235.2488488995
  0
LINE
  8
FASEN
 62
3
  6
CONTINUOUS
 10
235.1677870315
 20
235.2488488995
 11
235.1677870315
 21
288.2488488995
  0
LINE
  8
0
 62
7
  6
CONTINUOUS
 10
-111.1322129685
 20
202.5209845092
 11
-112.6322129685
 21
201.0209845092
  0
LINE
  8
0
 62
7
  6
CONTINUOUS
 10
-112.6322129685
 20
-143.2790154908
 11
-111.1322129685
 21
-144.7790154908
  0
LINE
  8
FASEN
 62
3
  6
CONTINUOUS
 10
-114.8322129685
 20
-145.2790154908
 11
-114.8322129685
 21
-143.2790154908
  0
LINE
  8
KONSTRUKTIONSELEMENTE
 62
3
  6
CONTINUOUS
 10
-114.8322129685
 20
-143.2790154908
 11
-114.8322129685
 21
204.5209845092
  0
LINE
  8
KONSTRUKTIONSELEMENTE
 62
7
  6
CONTINUOUS
 10
-112.8322129685
 20
204.7209845092
 11
-112.8322129685
 21
-143.2790154908
  0
LINE
  8
FASEN
 62
7
  6
CONTINUOUS
 10
-112.8322129685
 20
-143.2790154908
 11
-112.8322129685
 21
-145.2790154908
  0
LINE
  8
0
 62
7
  6
CONTINUOUS
 10
-112.6322129685
 20
201.0209845092
 11
-112.6322129685
 21
-143.2790154908
  0
LINE
  8
KONSTRUKTIONSELEMENTE
 62
7
  6
CONTINUOUS
 10
-112.3322129685
 20
201.3209845092
 11
-112.3322129685
 21
202.7209845092
  0
LINE
  8
KONSTRUKTIONSELEMENTE
 62
9
  6
CONTINUOUS
 10
-111.8322129685
 20
-145.2790154908
 11
-111.8322129685
 21
-144.7790154908
  0
LINE
  8
BEZUGSACHSEN
 62
7
  6
CONTINUOUS
 10
-111.8322129685
 20
-145.2790154908
 11
82.1677870315
 21
-145.2790154908
  0
LINE
  8
KONSTRUKTIONSELEMENTE
 62
7
  6
CONTINUOUS
 10
-111.8322129685
 20
-145.2790154908
 11
-112.8322129685
 21
-145.2790154908
  0
LINE
  8
FASEN
 62
7
  6
CONTINUOUS
 10
-112.8322129685
 20
-145.2790154908
 11
-114.8322129685
 21
-145.2790154908
  0
LINE
  8
KONSTRUKTIONSELEMENTE
 62
7
  6
CONTINUOUS
 10
82.1677870315
 20
-145.2790154908
 11
83.1677870315
 21
-145.2790154908
  0
LINE
  8
BEZUGSACHSEN
 62
7
  6
CONTINUOUS
 10
83.1677870315
 20
-145.2790154908
 11
85.1677870315
 21
-145.2790154908
  0
LINE
  8
KONSTRUKTIONSELEMENTE
 62
7
  6
CONTINUOUS
 10
-112.8322129685
 20
-144.7790154908
 11
-111.1322129685
 21
-144.7790154908
  0
LINE
  8
0
 62
7
  6
CONTINUOUS
 10
-111.1322129685
 20
-144.7790154908
 11
82.9677870315
 21
-144.7790154908
  0
LINE
  8
FASEN
 62
7
  6
CONTINUOUS
 10
-112.8322129685
 20
-143.2790154908
 11
-114.8322129685
 21
-143.2790154908
  0
LINE
  8
BEZUGSACHSEN
 62
7
  6
CONTINUOUS
 10
83.1677870315
 20
-143.2790154908
 11
85.1677870315
 21
-143.2790154908
  0
LINE
  8
0
 62
9
  6
CONTINUOUS
 10
80.9677870315
 20
5.4209845092
 11
80.9677870315
 21
-144.7790154908
  0
LINE
  8
KONSTRUKTIONSELEMENTE
 62
9
  6
CONTINUOUS
 10
82.1677870315
 20
-145.2790154908
 11
82.1677870315
 21
-144.7790154908
  0
LINE
  8
0
 62
7
  6
CONTINUOUS
 10
82.9677870315
 20
-144.7790154908
 11
82.9677870315
 21
6.9209845092
  0
LINE
  8
KONSTRUKTIONSELEMENTE
 62
7
  6
CONTINUOUS
 10
83.1677870315
 20
-143.2790154908
 11
83.1677870315
 21
6.5209845092
  0
LINE
  8
BEZUGSACHSEN
 62
7
  6
CONTINUOUS
 10
83.1677870315
 20
-143.2790154908
 11
83.1677870315
 21
-145.2790154908
  0
LINE
  8
0
 62
7
  6
CONTINUOUS
 10
84.4677870315
 20
8.9209845092
 11
84.4677870315
 21
6.9209845092
  0
LINE
  8
BEZUGSACHSEN
 62
3
  6
CONTINUOUS
 10
85.1677870315
 20
-145.2790154908
 11
85.1677870315
 21
-143.2790154908
  0
LINE
  8
KONSTRUKTIONSELEMENTE
 62
3
  6
CONTINUOUS
 10
85.1677870315
 20
6.5209845092
 11
85.1677870315
 21
-143.2790154908
  0
LINE
  8
KONSTRUKTIONSELEMENTE
 62
7
  6
CONTINUOUS
 10
85.1677870315
 20
6.5209845092
 11
85.1677870315
 21
6.9209845092
  0
LINE
  8
FASEN
 62
3
  6
CONTINUOUS
 10
235.1677870315
 20
4.7209845092
 11
233.1677870315
 21
4.7209845092
  0
LINE
  8
KONSTRUKTIONSELEMENTE
 62
3
  6
CONTINUOUS
 10
233.1677870315
 20
4.7209845092
 11
85.1677870315
 21
4.7209845092
  0
LINE
  8
KONSTRUKTIONSELEMENTE
 62
7
  6
CONTINUOUS
 10
82.9677870315
 20
4.7209845092
 11
83.1677870315
 21
4.7209845092
  0
LINE
  8
0
 62
7
  6
CONTINUOUS
 10
80.9677870315
 20
5.4209845092
 11
82.9677870315
 21
5.4209845092
  0
LINE
  8
KONSTRUKTIONSELEMENTE
 62
7
  6
CONTINUOUS
 10
85.1677870315
 20
6.5209845092
 11
83.1677870315
 21
6.5209845092
  0
LINE
  8
KONSTRUKTIONSELEMENTE
 62
7
  6
CONTINUOUS
 10
233.1677870315
 20
6.7209845092
 11
85.1677870315
 21
6.7209845092
  0
LINE
  8
FASEN
 62
7
  6
CONTINUOUS
 10
233.1677870315
 20
6.7209845092
 11
235.1677870315
 21
6.7209845092
  0
LINE
  8
0
 62
7
  6
CONTINUOUS
 10
82.9677870315
 20
6.9209845092
 11
234.6677870315
 21
6.9209845092
  0
LINE
  8
KONSTRUKTIONSELEMENTE
 62
9
  6
CONTINUOUS
 10
235.1677870315
 20
7.7209845092
 11
234.6677870315
 21
7.7209845092
  0
LINE
  8
0
 62
9
  6
CONTINUOUS
 10
234.6677870315
 20
8.9209845092
 11
84.4677870315
 21
8.9209845092
  0
LINE
  8
FASEN
 62
7
  6
CONTINUOUS
 10
233.1677870315
 20
6.7209845092
 11
233.1677870315
 21
4.7209845092
  0
LINE
  8
BEZUGSACHSEN
 62
7
  6
CONTINUOUS
 10
233.1677870315
 20
202.7209845092
 11
233.1677870315
 21
204.7209845092
  0
LINE
  8
0
 62
7
  6
CONTINUOUS
 10
234.6677870315
 20
6.9209845092
 11
234.6677870315
 21
201.0209845092
  0
LINE
  8
KONSTRUKTIONSELEMENTE
 62
7
  6
CONTINUOUS
 10
234.6677870315
 20
201.0209845092
 11
234.6677870315
 21
202.7209845092
  0
LINE
  8
KONSTRUKTIONSELEMENTE
 62
7
  6
CONTINUOUS
 10
235.1677870315
 20
7.7209845092
 11
235.1677870315
 21
6.7209845092
  0
LINE
  8
FASEN
 62
7
  6
CONTINUOUS
 10
235.1677870315
 20
6.7209845092
 11
235.1677870315
 21
4.7209845092
  0
LINE
  8
BEZUGSACHSEN
 62
7
  6
CONTINUOUS
 10
235.1677870315
 20
7.7209845092
 11
235.1677870315
 21
201.7209845092
  0
LINE
  8
KONSTRUKTIONSELEMENTE
 62
7
  6
CONTINUOUS
 10
235.1677870315
 20
201.7209845092
 11
235.1677870315
 21
202.7209845092
  0
LINE
  8
BEZUGSACHSEN
 62
7
  6
CONTINUOUS
 10
235.1677870315
 20
202.7209845092
 11
235.1677870315
 21
204.7209845092
  0
LINE
  8
KONSTRUKTIONSELEMENTE
 62
7
  6
CONTINUOUS
 10
-112.8322129685
 20
200.2209845092
 11
-112.6322129685
 21
200.2209845092
  0
LINE
  8
KONSTRUKTIONSELEMENTE
 62
9
  6
CONTINUOUS
 10
235.1677870315
 20
201.7209845092
 11
234.6677870315
 21
201.7209845092
  0
LINE
  8
KONSTRUKTIONSELEMENTE
 62
7
  6
CONTINUOUS
 10
-112.3322129685
 20
201.7209845092
 11
-112.8322129685
 21
201.7209845092
  0
LINE
  8
0
 62
7
  6
CONTINUOUS
 10
233.1677870315
 20
202.5209845092
 11
-111.1322129685
 21
202.5209845092
  0
LINE
  8
KONSTRUKTIONSELEMENTE
 62
7
  6
CONTINUOUS
 10
233.1677870315
 20
202.7209845092
 11
-112.8322129685
 21
202.7209845092
  0
LINE
  8
BEZUGSACHSEN
 62
7
  6
CONTINUOUS
 10
233.1677870315
 20
202.7209845092
 11
235.1677870315
 21
202.7209845092
  0
LINE
  8
KONSTRUKTIONSELEMENTE
 62
7
  6
CONTINUOUS
 10
-114.8322129685
 20
204.5209845092
 11
-112.8322129685
 21
204.5209845092
  0
LINE
  8
BEZUGSACHSEN
 62
3
  6
CONTINUOUS
 10
235.1677870315
 20
204.7209845092
 11
233.1677870315
 21
204.7209845092
  0
LINE
  8
KONSTRUKTIONSELEMENTE
 62
3
  6
CONTINUOUS
 10
233.1677870315
 20
204.7209845092
 11
-112.8322129685
 21
204.7209845092
  0
LINE
  8
0
 62
7
  6
CONTINUOUS
 10
234.6677870315
 20
201.0209845092
 11
233.1677870315
 21
202.5209845092
  0
ARC
  8
0
 62
7
  6
CONTINUOUS
 10
21.7677870315
 20
237.2488488995
 40
3.0
 50
270.0
 51
360.0
  0
ARC
  8
0
 62
3
  6
CONTINUOUS
 10
25.7677870315
 20
281.7488488995
 40
3.0
 50
90.0
 51
180.0
  0
ARC
  8
KONSTRUKTIONSELEMENTE
 62
3
  6
CONTINUOUS
 10
82.1677870315
 20
235.2488488995
 40
3.0
 50
270.0
 51
360.0
  0
ARC
  8
KONSTRUKTIONSELEMENTE
 62
3
  6
CONTINUOUS
 10
-111.8322129685
 20
235.2488488995
 40
3.0
 50
180.0
 51
270.0
  0
ARC
  8
0
 62
7
  6
CONTINUOUS
 10
80.9677870315
 20
286.0488488995
 40
2.0
 50
0.0
 51
90.0
  0
ARC
  8
0
 62
7
  6
CONTINUOUS
 10
25.7677870315
 20
281.7488488995
 40
1.0
 50
90.0
 51
180.0
  0
ARC
  8
KONSTRUKTIONSELEMENTE
 62
7
  6
CONTINUOUS
 10
82.1677870315
 20
235.2488488995
 40
1.0
 50
270.0
 51
360.0
  0
ARC
  8
KONSTRUKTIONSELEMENTE
 62
7
  6
CONTINUOUS
 10
-111.8322129685
 20
235.2488488995
 40
1.0
 50
180.0
 51
270.0
  0
ARC
  8
0
 62
3
  6
CONTINUOUS
 10
21.7677870315
 20
237.2488488995
 40
1.0
 50
270.0
 51
360.0
  0
ARC
  8
0
 62
3
  6
CONTINUOUS
 10
80.9677870315
 20
286.0488488995
 40
1.0
 50
0.0
 51
90.0
  0
ARC
  8
0
 62
7
  6
CONTINUOUS
 10
78.8677870315
 20
271.7488488995
 40
0.2
 50
270.0
 51
360.0
  0
ARC
  8
BEZUGSACHSEN
 62
7
  6
CONTINUOUS
 10
-59.7322129685
 20
234.3488488995
 40
0.1
 50
180.0
 51
270.0
  0
ARC
  8
BEZUGSACHSEN
 62
7
  6
CONTINUOUS
 10
-69.9322129685
 20
234.3488488995
 40
0.1
 50
270.0
 51
360.0
  0
ARC
  8
BEZUGSACHSEN
 62
7
  6
CONTINUOUS
 10
30.0677870315
 20
234.3488488995
 40
0.1
 50
270.0
 51
360.0
  0
ARC
  8
BEZUGSACHSEN
 62
7
  6
CONTINUOUS
 10
40.2677870315
 20
234.3488488995
 40
0.1
 50
180.0
 51
270.0
  0
ARC
  8
BEZUGSACHSEN
 62
7
  6
CONTINUOUS
 10
82.6941939027
 20
234.3488488995
 40
0.1
 50
180.0
 51
182.4686434781
  0
ARC
  8
BEZUGSACHSEN
 62
7
  6
CONTINUOUS
 10
72.4941939027
 20
234.3488488995
 40
0.1
 50
270.0
 51
360.0
  0
ENDSEC
  0
EOF
