999
DXF file: bkb30080531.dxf
999
Pro/ENGINEER 2022024 by Parametric Technology Corporation
  0
SECTION
  2
HEADER
  9
$EXTMAX
 10
594.0
 20
420.0
 30
0.0
  9
$EXTMIN
 10
0.0
 20
0.0
 30
0.0
  9
$LIMMIN
 10
0.0
 20
0.0
  9
$LIMMAX
 10
594.0
 20
420.0
  9
$VIEWCTR
 10
297.0
 20
210.0
  9
$VIEWSIZE
 40
420.0
  9
$CLAYER
  8
0
  9
$LTSCALE
 40
32.67
  9
$CELTYPE
  6
BYLAYER
  9
$DIMSCALE
 40
1.0
  9
$DIMASZ
 40
3.5
  9
$DIMEXO
 40
0.0
  9
$DIMDLI
 40
22.572
  9
$DIMEXE
 40
1.5
  9
$DIMCEN
 40
5.346
  9
$DIMLFAC
 40
1.0
  9
$DIMBLK
  1
_FILLED
  9
$DIMALT
 70
0
  9
$DIMALTF
 40
0.0393700787
  9
$DIMTXT
 40
3.5
  9
$AUNITS
 70
0
  9
$PDMODE
 70
3
  9
$PDSIZE
 40
0.3125
  9
$TILEMODE
 70
1
  0
ENDSEC
  0
SECTION
  2
TABLES
  0
TABLE
  2
LTYPE
 70
6
  0
LTYPE
  2
BYBLOCK
 70
0
  3

 72
65
 73
0
 40
0.0
  0
LTYPE
  2
BYLAYER
 70
0
  3

 72
65
 73
0
 40
0.0
  0
LTYPE
  2
CONTINUOUS
 70
64
  3
Solid line
 72
65
 73
0
 40
0.0
  0
LTYPE
  2
CENTER
 70
64
  3
____ _ ____ _ ____ _ ____ _ ____ _ ____ _ ____
 72
65
 73
4
 40
0.6
 49
0.375
 49
-0.075
 49
0.075
 49
-0.075
  0
LTYPE
  2
HIDDEN
 70
64
  3
- - - - - - - - - - - - - - - - - - - -
 72
65
 73
2
 40
0.2
 49
0.1
 49
-0.1
  0
LTYPE
  2
PHANTOM
 70
64
  3
_____ _ _ _____ _ _ _____ _ _ _____
 72
65
 73
6
 40
0.8
 49
0.45
 49
-0.05
 49
0.1
 49
-0.05
 49
0.1
 49
-0.05
  0
LTYPE
  2
DOT
 70
64
  3
. . . . . . . . . . . . . . . . . . . .
 72
65
 73
2
 40
0.2
 49
0.1
 49
-0.1
  0
LTYPE
  2
DASHED
 70
64
  3
- - - - - - - - - - - - - - - - - - - -
 72
65
 73
2
 40
0.2
 49
0.1
 49
-0.1
  0
ENDTAB
  0
TABLE
  2
LAYER
 70
36
  0
LAYER
  2
0
 70
0
 62
7
  6
CONTINUOUS
  0
LAYER
  2
DEFAULT_1
 70
0
 62
7
  6
CENTER
  0
LAYER
  2
DEFAULT_2
 70
0
 62
8
  6
HIDDEN
  0
LAYER
  2
DEFAULT_3
 70
0
 62
7
  6
PHANTOM
  0
LAYER
  2
01_STARTBEZUEGE
 70
0
 62
7
  6
CONTINUOUS
  0
LAYER
  2
AUSFORMSCHRAEGEN
 70
0
 62
7
  6
CONTINUOUS
  0
LAYER
  2
BEZUGSACHSEN
 70
0
 62
7
  6
CONTINUOUS
  0
LAYER
  2
BEZUGSEBENEN
 70
0
 62
7
  6
CONTINUOUS
  0
LAYER
  2
BEZUGSPUNKTE
 70
0
 62
7
  6
CONTINUOUS
  0
LAYER
  2
BOHRUNGEN
 70
0
 62
7
  6
CONTINUOUS
  0
LAYER
  2
EBENEN
 70
0
 62
7
  6
CONTINUOUS
  0
LAYER
  2
FASEN
 70
0
 62
7
  6
CONTINUOUS
  0
LAYER
  2
FLAECHEN
 70
0
 62
7
  6
CONTINUOUS
  0
LAYER
  2
GEWINDE
 70
0
 62
7
  6
CONTINUOUS
  0
LAYER
  2
GTOL
 70
0
 62
7
  6
CONTINUOUS
  0
LAYER
  2
KONSTRUKTIONSELEMENTE
 70
0
 62
7
  6
CONTINUOUS
  0
LAYER
  2
KOORDINATENSYSTEME
 70
0
 62
7
  6
CONTINUOUS
  0
LAYER
  2
KURVEN
 70
0
 62
7
  6
CONTINUOUS
  0
LAYER
  2
NOTIZ
 70
0
 62
7
  6
CONTINUOUS
  0
LAYER
  2
RUNDUNGEN
 70
0
 62
7
  6
CONTINUOUS
  0
LAYER
  2
SURFACES
 70
0
 62
7
  6
CONTINUOUS
  0
LAYER
  2
VOLUMEN
 70
0
 62
7
  6
CONTINUOUS
  0
LAYER
  2
XSEC_DATUMS
 70
0
 62
7
  6
CONTINUOUS
  0
ENDTAB
  0
TABLE
  2
STYLE
 70
1
  0
STYLE
  2
STANDARD
 70
0
 40
0.0
 41
0.7
 50
0.0
 71
0
 42
0.2
  3
txt
  4

  0
STYLE
  2
TEXTSTYLE_1
 70
0
 40
0.0
 41
0.8
 50
0.0
 71
0
 42
0.2
  3
gdt
  4

  0
ENDTAB
  0
ENDSEC
  0
SECTION
  2
BLOCKS
  0
BLOCK
  8
0
  2
_FILLED
 70
64
 10
0.0
 20
0.0
  0
SOLID
  8
0
  6
BYBLOCK
 62
0
 10
0.0
 20
0.0
 11
-1.0
 21
0.125
 12
-1.0
 22
-0.125
 13
-1.0
 23
-0.125
  0
ENDBLK
  8
0
  6
BYBLOCK
 62
0
  0
ENDSEC
  0
SECTION
  2
ENTITIES
  0
LINE
  8
0
 62
7
  6
CONTINUOUS
 10
-61.2474481743
 20
503.9664982826
 11
-62.7474481743
 21
502.4664982826
  0
LINE
  8
0
 62
7
  6
CONTINUOUS
 10
-62.7474481743
 20
58.1664982826
 11
-61.2474481743
 21
56.6664982826
  0
LINE
  8
FASEN
 62
3
  6
CONTINUOUS
 10
-64.9474481743
 20
56.1664982826
 11
-64.9474481743
 21
58.1664982826
  0
LINE
  8
KONSTRUKTIONSELEMENTE
 62
3
  6
CONTINUOUS
 10
-64.9474481743
 20
58.1664982826
 11
-64.9474481743
 21
505.9664982826
  0
LINE
  8
KONSTRUKTIONSELEMENTE
 62
7
  6
CONTINUOUS
 10
-62.9474481743
 20
506.1664982826
 11
-62.9474481743
 21
58.1664982826
  0
LINE
  8
FASEN
 62
7
  6
CONTINUOUS
 10
-62.9474481743
 20
58.1664982826
 11
-62.9474481743
 21
56.1664982826
  0
LINE
  8
0
 62
7
  6
CONTINUOUS
 10
-62.7474481743
 20
502.4664982826
 11
-62.7474481743
 21
58.1664982826
  0
LINE
  8
KONSTRUKTIONSELEMENTE
 62
7
  6
CONTINUOUS
 10
-62.4474481743
 20
502.7664982826
 11
-62.4474481743
 21
504.1664982826
  0
LINE
  8
KONSTRUKTIONSELEMENTE
 62
9
  6
CONTINUOUS
 10
-61.9474481743
 20
56.1664982826
 11
-61.9474481743
 21
56.6664982826
  0
LINE
  8
BEZUGSACHSEN
 62
7
  6
CONTINUOUS
 10
-61.9474481743
 20
56.1664982826
 11
232.0525518257
 21
56.1664982826
  0
LINE
  8
KONSTRUKTIONSELEMENTE
 62
7
  6
CONTINUOUS
 10
-61.9474481743
 20
56.1664982826
 11
-62.9474481743
 21
56.1664982826
  0
LINE
  8
FASEN
 62
7
  6
CONTINUOUS
 10
-62.9474481743
 20
56.1664982826
 11
-64.9474481743
 21
56.1664982826
  0
LINE
  8
KONSTRUKTIONSELEMENTE
 62
7
  6
CONTINUOUS
 10
232.0525518257
 20
56.1664982826
 11
233.0525518257
 21
56.1664982826
  0
LINE
  8
BEZUGSACHSEN
 62
7
  6
CONTINUOUS
 10
233.0525518257
 20
56.1664982826
 11
235.0525518257
 21
56.1664982826
  0
LINE
  8
KONSTRUKTIONSELEMENTE
 62
7
  6
CONTINUOUS
 10
-62.9474481743
 20
56.6664982826
 11
-61.2474481743
 21
56.6664982826
  0
LINE
  8
0
 62
7
  6
CONTINUOUS
 10
-61.2474481743
 20
56.6664982826
 11
232.8525518257
 21
56.6664982826
  0
LINE
  8
FASEN
 62
7
  6
CONTINUOUS
 10
-62.9474481743
 20
58.1664982826
 11
-64.9474481743
 21
58.1664982826
  0
LINE
  8
BEZUGSACHSEN
 62
7
  6
CONTINUOUS
 10
233.0525518257
 20
58.1664982826
 11
235.0525518257
 21
58.1664982826
  0
LINE
  8
0
 62
9
  6
CONTINUOUS
 10
230.8525518257
 20
206.8664982826
 11
230.8525518257
 21
56.6664982826
  0
LINE
  8
KONSTRUKTIONSELEMENTE
 62
9
  6
CONTINUOUS
 10
232.0525518257
 20
56.1664982826
 11
232.0525518257
 21
56.6664982826
  0
LINE
  8
0
 62
7
  6
CONTINUOUS
 10
232.8525518257
 20
56.6664982826
 11
232.8525518257
 21
208.3664982826
  0
LINE
  8
BEZUGSACHSEN
 62
7
  6
CONTINUOUS
 10
233.0525518257
 20
58.1664982826
 11
233.0525518257
 21
56.1664982826
  0
LINE
  8
KONSTRUKTIONSELEMENTE
 62
7
  6
CONTINUOUS
 10
233.0525518257
 20
58.1664982826
 11
233.0525518257
 21
207.9664982826
  0
LINE
  8
0
 62
7
  6
CONTINUOUS
 10
234.3525518257
 20
210.3664982826
 11
234.3525518257
 21
208.3664982826
  0
LINE
  8
KONSTRUKTIONSELEMENTE
 62
3
  6
CONTINUOUS
 10
235.0525518257
 20
207.9664982826
 11
235.0525518257
 21
58.1664982826
  0
LINE
  8
BEZUGSACHSEN
 62
3
  6
CONTINUOUS
 10
235.0525518257
 20
56.1664982826
 11
235.0525518257
 21
58.1664982826
  0
LINE
  8
KONSTRUKTIONSELEMENTE
 62
7
  6
CONTINUOUS
 10
235.0525518257
 20
207.9664982826
 11
235.0525518257
 21
208.3664982826
  0
LINE
  8
FASEN
 62
3
  6
CONTINUOUS
 10
385.0525518257
 20
206.1664982826
 11
383.0525518257
 21
206.1664982826
  0
LINE
  8
KONSTRUKTIONSELEMENTE
 62
3
  6
CONTINUOUS
 10
383.0525518257
 20
206.1664982826
 11
235.0525518257
 21
206.1664982826
  0
LINE
  8
KONSTRUKTIONSELEMENTE
 62
7
  6
CONTINUOUS
 10
232.8525518257
 20
206.1664982826
 11
233.0525518257
 21
206.1664982826
  0
LINE
  8
0
 62
7
  6
CONTINUOUS
 10
230.8525518257
 20
206.8664982826
 11
232.8525518257
 21
206.8664982826
  0
LINE
  8
KONSTRUKTIONSELEMENTE
 62
7
  6
CONTINUOUS
 10
235.0525518257
 20
207.9664982826
 11
233.0525518257
 21
207.9664982826
  0
LINE
  8
KONSTRUKTIONSELEMENTE
 62
7
  6
CONTINUOUS
 10
383.0525518257
 20
208.1664982826
 11
235.0525518257
 21
208.1664982826
  0
LINE
  8
FASEN
 62
7
  6
CONTINUOUS
 10
383.0525518257
 20
208.1664982826
 11
385.0525518257
 21
208.1664982826
  0
LINE
  8
0
 62
7
  6
CONTINUOUS
 10
232.8525518257
 20
208.3664982826
 11
384.5525518257
 21
208.3664982826
  0
LINE
  8
KONSTRUKTIONSELEMENTE
 62
9
  6
CONTINUOUS
 10
385.0525518257
 20
209.1664982826
 11
384.5525518257
 21
209.1664982826
  0
LINE
  8
0
 62
9
  6
CONTINUOUS
 10
384.5525518257
 20
210.3664982826
 11
234.3525518257
 21
210.3664982826
  0
LINE
  8
FASEN
 62
7
  6
CONTINUOUS
 10
383.0525518257
 20
208.1664982826
 11
383.0525518257
 21
206.1664982826
  0
LINE
  8
BEZUGSACHSEN
 62
7
  6
CONTINUOUS
 10
383.0525518257
 20
504.1664982826
 11
383.0525518257
 21
506.1664982826
  0
LINE
  8
0
 62
7
  6
CONTINUOUS
 10
384.5525518257
 20
208.3664982826
 11
384.5525518257
 21
502.4664982826
  0
LINE
  8
KONSTRUKTIONSELEMENTE
 62
7
  6
CONTINUOUS
 10
384.5525518257
 20
502.4664982826
 11
384.5525518257
 21
504.1664982826
  0
LINE
  8
KONSTRUKTIONSELEMENTE
 62
7
  6
CONTINUOUS
 10
385.0525518257
 20
209.1664982826
 11
385.0525518257
 21
208.1664982826
  0
LINE
  8
FASEN
 62
7
  6
CONTINUOUS
 10
385.0525518257
 20
208.1664982826
 11
385.0525518257
 21
206.1664982826
  0
LINE
  8
BEZUGSACHSEN
 62
7
  6
CONTINUOUS
 10
385.0525518257
 20
209.1664982826
 11
385.0525518257
 21
503.1664982826
  0
LINE
  8
KONSTRUKTIONSELEMENTE
 62
7
  6
CONTINUOUS
 10
385.0525518257
 20
503.1664982826
 11
385.0525518257
 21
504.1664982826
  0
LINE
  8
BEZUGSACHSEN
 62
7
  6
CONTINUOUS
 10
385.0525518257
 20
504.1664982826
 11
385.0525518257
 21
506.1664982826
  0
LINE
  8
KONSTRUKTIONSELEMENTE
 62
7
  6
CONTINUOUS
 10
-62.9474481743
 20
501.6664982826
 11
-62.7474481743
 21
501.6664982826
  0
LINE
  8
KONSTRUKTIONSELEMENTE
 62
9
  6
CONTINUOUS
 10
385.0525518257
 20
503.1664982826
 11
384.5525518257
 21
503.1664982826
  0
LINE
  8
KONSTRUKTIONSELEMENTE
 62
7
  6
CONTINUOUS
 10
-62.4474481743
 20
503.1664982826
 11
-62.9474481743
 21
503.1664982826
  0
LINE
  8
0
 62
7
  6
CONTINUOUS
 10
383.0525518257
 20
503.9664982826
 11
-61.2474481743
 21
503.9664982826
  0
LINE
  8
KONSTRUKTIONSELEMENTE
 62
7
  6
CONTINUOUS
 10
383.0525518257
 20
504.1664982826
 11
-62.9474481743
 21
504.1664982826
  0
LINE
  8
BEZUGSACHSEN
 62
7
  6
CONTINUOUS
 10
383.0525518257
 20
504.1664982826
 11
385.0525518257
 21
504.1664982826
  0
LINE
  8
KONSTRUKTIONSELEMENTE
 62
7
  6
CONTINUOUS
 10
-64.9474481743
 20
505.9664982826
 11
-62.9474481743
 21
505.9664982826
  0
LINE
  8
BEZUGSACHSEN
 62
3
  6
CONTINUOUS
 10
385.0525518257
 20
506.1664982826
 11
383.0525518257
 21
506.1664982826
  0
LINE
  8
KONSTRUKTIONSELEMENTE
 62
3
  6
CONTINUOUS
 10
383.0525518257
 20
506.1664982826
 11
-62.9474481743
 21
506.1664982826
  0
LINE
  8
0
 62
7
  6
CONTINUOUS
 10
384.5525518257
 20
502.4664982826
 11
383.0525518257
 21
503.9664982826
  0
LINE
  8
FASEN
 62
3
  6
CONTINUOUS
 10
-64.9474481743
 20
569.2482883096
 11
-64.9474481743
 21
644.2482883096
  0
LINE
  8
FASEN
 62
7
  6
CONTINUOUS
 10
-62.9474481743
 20
569.2482883096
 11
-62.9474481743
 21
644.2482883096
  0
LINE
  8
0
 62
7
  6
CONTINUOUS
 10
-62.7474481743
 20
642.0482883096
 11
-62.7474481743
 21
641.2482883096
  0
LINE
  8
KONSTRUKTIONSELEMENTE
 62
9
  6
CONTINUOUS
 10
-61.9474481743
 20
566.2482883096
 11
-61.9474481743
 21
568.2482883096
  0
LINE
  8
KONSTRUKTIONSELEMENTE
 62
7
  6
CONTINUOUS
 10
-61.9474481743
 20
568.2482883096
 11
-61.9474481743
 21
569.2482883096
  0
LINE
  8
0
 62
7
  6
CONTINUOUS
 10
-61.2474481743
 20
642.0482883096
 11
-61.2474481743
 21
641.0482883096
  0
LINE
  8
KONSTRUKTIONSELEMENTE
 62
7
  6
CONTINUOUS
 10
-60.9474481743
 20
641.2482883096
 11
-60.9474481743
 21
591.2482883096
  0
LINE
  8
0
 62
7
  6
CONTINUOUS
 10
-50.4474481743
 20
611.0482883096
 11
-50.4474481743
 21
624.0482883096
  0
LINE
  8
0
 62
7
  6
CONTINUOUS
 10
-36.7474481743
 20
624.0482883096
 11
-36.7474481743
 21
641.0482883096
  0
LINE
  8
0
 62
7
  6
CONTINUOUS
 10
-35.4474481743
 20
611.0482883096
 11
-35.4474481743
 21
641.0482883096
  0
LINE
  8
BEZUGSACHSEN
 62
7
  6
CONTINUOUS
 10
-19.9474481743
 20
570.2482883096
 11
-19.9474481743
 21
568.3482883096
  0
LINE
  8
BEZUGSACHSEN
 62
7
  6
CONTINUOUS
 10
-9.9474481743
 20
570.2482883096
 11
-9.9474481743
 21
568.3482883096
  0
LINE
  8
0
 62
7
  6
CONTINUOUS
 10
22.4525518257
 20
640.7482883096
 11
22.4525518257
 21
568.2482883096
  0
LINE
  8
0
 62
7
  6
CONTINUOUS
 10
47.0525518257
 20
640.7482883096
 11
47.0525518257
 21
568.2482883096
  0
LINE
  8
0
 62
7
  6
CONTINUOUS
 10
81.3296589161
 20
634.4482883096
 11
81.3296589161
 21
593.9482883096
  0
LINE
  8
BEZUGSACHSEN
 62
7
  6
CONTINUOUS
 10
85.0525518257
 20
568.3482883096
 11
85.0525518257
 21
570.2482883096
  0
LINE
  8
BEZUGSACHSEN
 62
7
  6
CONTINUOUS
 10
87.0525518257
 20
570.2482883096
 11
87.0525518257
 21
568.3482883096
  0
LINE
  8
BEZUGSACHSEN
 62
7
  6
CONTINUOUS
 10
97.0525518257
 20
570.2482883096
 11
97.0525518257
 21
568.3482883096
  0
LINE
  8
0
 62
7
  6
CONTINUOUS
 10
123.0525518257
 20
568.2482883096
 11
123.0525518257
 21
640.7482883096
  0
LINE
  8
0
 62
7
  6
CONTINUOUS
 10
147.6525518257
 20
568.2482883096
 11
147.6525518257
 21
640.7482883096
  0
LINE
  8
0
 62
7
  6
CONTINUOUS
 10
152.6525518257
 20
570.2482883096
 11
152.6525518257
 21
568.2482883096
  0
LINE
  8
0
 62
7
  6
CONTINUOUS
 10
169.5412298691
 20
570.2482883096
 11
169.5412298691
 21
640.7482883096
  0
LINE
  8
0
 62
9
  6
CONTINUOUS
 10
171.6525518257
 20
568.2482883096
 11
171.6525518257
 21
570.2482883096
  0
LINE
  8
0
 62
3
  6
CONTINUOUS
 10
172.6525518257
 20
635.7482883096
 11
172.6525518257
 21
571.2482883096
  0
LINE
  8
0
 62
7
  6
CONTINUOUS
 10
174.6525518257
 20
635.7482883096
 11
174.6525518257
 21
571.2482883096
  0
LINE
  8
0
 62
9
  6
CONTINUOUS
 10
175.6525518257
 20
638.7482883096
 11
175.6525518257
 21
636.7482883096
  0
LINE
  8
BEZUGSACHSEN
 62
7
  6
CONTINUOUS
 10
180.0525518257
 20
568.3482883096
 11
180.0525518257
 21
570.2482883096
  0
LINE
  8
0
 62
7
  6
CONTINUOUS
 10
185.6525518257
 20
638.7482883096
 11
185.6525518257
 21
636.7482883096
  0
LINE
  8
BEZUGSACHSEN
 62
7
  6
CONTINUOUS
 10
190.0525518257
 20
568.3482883096
 11
190.0525518257
 21
570.2482883096
  0
LINE
  8
0
 62
7
  6
CONTINUOUS
 10
195.2191518257
 20
640.7482883096
 11
195.2191518257
 21
568.2482883096
  0
LINE
  8
0
 62
7
  6
CONTINUOUS
 10
196.9525518257
 20
568.2482883096
 11
196.9525518257
 21
640.7482883096
  0
LINE
  8
BEZUGSACHSEN
 62
3
  6
CONTINUOUS
 10
232.0525518257
 20
566.2482883096
 11
-61.9474481743
 21
566.2482883096
  0
LINE
  8
KONSTRUKTIONSELEMENTE
 62
3
  6
CONTINUOUS
 10
232.0525518257
 20
566.2482883096
 11
385.0525518257
 21
566.2482883096
  0
LINE
  8
0
 62
7
  6
CONTINUOUS
 10
219.5525518257
 20
568.2482883096
 11
219.5525518257
 21
638.7482883096
  0
LINE
  8
0
 62
7
  6
CONTINUOUS
 10
220.4525518257
 20
611.5482883096
 11
220.4525518257
 21
625.5482883096
  0
LINE
  8
BEZUGSACHSEN
 62
7
  6
CONTINUOUS
 10
222.4789586969
 20
570.2482883096
 11
222.4789586969
 21
568.3482883096
  0
LINE
  8
BEZUGSACHSEN
 62
7
  6
CONTINUOUS
 10
-61.9474481743
 20
568.2482883096
 11
232.0525518257
 21
568.2482883096
  0
LINE
  8
KONSTRUKTIONSELEMENTE
 62
7
  6
CONTINUOUS
 10
234.880731739
 20
568.2482883096
 11
235.0525518257
 21
568.2482883096
  0
LINE
  8
BEZUGSACHSEN
 62
9
  6
CONTINUOUS
 10
-19.9474481743
 20
568.3482883096
 11
-9.9474481743
 21
568.3482883096
  0
LINE
  8
BEZUGSACHSEN
 62
9
  6
CONTINUOUS
 10
85.0525518257
 20
568.3482883096
 11
97.0525518257
 21
568.3482883096
  0
LINE
  8
BEZUGSACHSEN
 62
9
  6
CONTINUOUS
 10
180.0525518257
 20
568.3482883096
 11
190.0525518257
 21
568.3482883096
  0
LINE
  8
BEZUGSACHSEN
 62
9
  6
CONTINUOUS
 10
222.4789586969
 20
568.3482883096
 11
232.4789586969
 21
568.3482883096
  0
LINE
  8
KONSTRUKTIONSELEMENTE
 62
9
  6
CONTINUOUS
 10
385.0525518257
 20
569.2482883096
 11
233.0525518257
 21
569.2482883096
  0
LINE
  8
KONSTRUKTIONSELEMENTE
 62
9
  6
CONTINUOUS
 10
195.2191518257
 20
569.2482883096
 11
190.0525518257
 21
569.2482883096
  0
LINE
  8
KONSTRUKTIONSELEMENTE
 62
9
  6
CONTINUOUS
 10
180.0525518257
 20
569.2482883096
 11
173.8879846827
 21
569.2482883096
  0
LINE
  8
KONSTRUKTIONSELEMENTE
 62
9
  6
CONTINUOUS
 10
-64.9474481743
 20
569.2482883096
 11
-62.9474481743
 21
569.2482883096
  0
LINE
  8
KONSTRUKTIONSELEMENTE
 62
7
  6
CONTINUOUS
 10
-62.9474481743
 20
569.2482883096
 11
-61.9474481743
 21
569.2482883096
  0
LINE
  8
KONSTRUKTIONSELEMENTE
 62
9
  6
CONTINUOUS
 10
22.4525518257
 20
569.2482883096
 11
-9.9474481743
 21
569.2482883096
  0
LINE
  8
KONSTRUKTIONSELEMENTE
 62
9
  6
CONTINUOUS
 10
-19.9474481743
 20
569.2482883096
 11
-61.9474481743
 21
569.2482883096
  0
LINE
  8
BEZUGSACHSEN
 62
7
  6
CONTINUOUS
 10
232.4789586969
 20
570.2482883096
 11
222.4789586969
 21
570.2482883096
  0
LINE
  8
BEZUGSACHSEN
 62
7
  6
CONTINUOUS
 10
190.0525518257
 20
570.2482883096
 11
180.0525518257
 21
570.2482883096
  0
LINE
  8
0
 62
3
  6
CONTINUOUS
 10
171.6525518257
 20
570.2482883096
 11
152.6525518257
 21
570.2482883096
  0
LINE
  8
BEZUGSACHSEN
 62
7
  6
CONTINUOUS
 10
97.0525518257
 20
570.2482883096
 11
85.0525518257
 21
570.2482883096
  0
LINE
  8
BEZUGSACHSEN
 62
7
  6
CONTINUOUS
 10
-9.9474481743
 20
570.2482883096
 11
-19.9474481743
 21
570.2482883096
  0
LINE
  8
0
 62
9
  6
CONTINUOUS
 10
174.6525518257
 20
571.2482883096
 11
172.6525518257
 21
571.2482883096
  0
LINE
  8
0
 62
9
  6
CONTINUOUS
 10
219.5525518257
 20
571.2482883096
 11
233.0525518257
 21
571.2482883096
  0
LINE
  8
0
 62
7
  6
CONTINUOUS
 10
228.9525518257
 20
625.7482883096
 11
228.9525518257
 21
633.4321633401
  0
LINE
  8
0
 62
7
  6
CONTINUOUS
 10
230.4525518257
 20
633.4321633401
 11
230.4525518257
 21
611.5482883096
  0
LINE
  8
0
 62
9
  6
CONTINUOUS
 10
230.8525518257
 20
642.0482883096
 11
230.8525518257
 21
641.0482883096
  0
LINE
  8
0
 62
3
  6
CONTINUOUS
 10
231.8525518257
 20
632.4482883096
 11
231.8525518257
 21
640.0482883096
  0
LINE
  8
KONSTRUKTIONSELEMENTE
 62
9
  6
CONTINUOUS
 10
232.0525518257
 20
566.2482883096
 11
232.0525518257
 21
568.2482883096
  0
LINE
  8
BEZUGSACHSEN
 62
7
  6
CONTINUOUS
 10
232.4789586969
 20
570.2482883096
 11
232.4789586969
 21
568.3482883096
  0
LINE
  8
0
 62
7
  6
CONTINUOUS
 10
232.8525518257
 20
640.0482883096
 11
232.8525518257
 21
632.4482883096
  0
LINE
  8
0
 62
7
  6
CONTINUOUS
 10
232.8525518257
 20
641.0482883096
 11
232.8525518257
 21
642.0482883096
  0
LINE
  8
BEZUGSACHSEN
 62
7
  6
CONTINUOUS
 10
233.0525518257
 20
569.2482883096
 11
233.0525518257
 21
644.2482883096
  0
LINE
  8
KONSTRUKTIONSELEMENTE
 62
3
  6
CONTINUOUS
 10
235.0525518257
 20
566.2482883096
 11
235.0525518257
 21
569.2482883096
  0
LINE
  8
BEZUGSACHSEN
 62
3
  6
CONTINUOUS
 10
235.0525518257
 20
569.2482883096
 11
235.0525518257
 21
644.2482883096
  0
LINE
  8
KONSTRUKTIONSELEMENTE
 62
7
  6
CONTINUOUS
 10
195.2191518257
 20
591.2482883096
 11
174.6525518257
 21
591.2482883096
  0
LINE
  8
KONSTRUKTIONSELEMENTE
 62
7
  6
CONTINUOUS
 10
172.6525518257
 20
591.2482883096
 11
169.5412298691
 21
591.2482883096
  0
LINE
  8
KONSTRUKTIONSELEMENTE
 62
7
  6
CONTINUOUS
 10
22.4525518257
 20
591.2482883096
 11
-62.9474481743
 21
591.2482883096
  0
LINE
  8
0
 62
7
  6
CONTINUOUS
 10
81.3296589161
 20
593.9482883096
 11
123.0525518257
 21
593.9482883096
  0
LINE
  8
0
 62
7
  6
CONTINUOUS
 10
195.2191518257
 20
611.0482883096
 11
174.6525518257
 21
611.0482883096
  0
LINE
  8
0
 62
7
  6
CONTINUOUS
 10
172.6525518257
 20
611.0482883096
 11
169.5412298691
 21
611.0482883096
  0
LINE
  8
0
 62
7
  6
CONTINUOUS
 10
123.0525518257
 20
611.0482883096
 11
81.3296589161
 21
611.0482883096
  0
LINE
  8
0
 62
7
  6
CONTINUOUS
 10
-60.9474481743
 20
611.0482883096
 11
-50.4474481743
 21
611.0482883096
  0
LINE
  8
0
 62
7
  6
CONTINUOUS
 10
22.4525518257
 20
611.0482883096
 11
-35.4474481743
 21
611.0482883096
  0
LINE
  8
0
 62
7
  6
CONTINUOUS
 10
230.4525518257
 20
611.5482883096
 11
220.4525518257
 21
611.5482883096
  0
LINE
  8
0
 62
7
  6
CONTINUOUS
 10
195.2191518257
 20
624.0482883096
 11
174.6525518257
 21
624.0482883096
  0
LINE
  8
0
 62
7
  6
CONTINUOUS
 10
172.6525518257
 20
624.0482883096
 11
169.5412298691
 21
624.0482883096
  0
LINE
  8
0
 62
7
  6
CONTINUOUS
 10
123.0525518257
 20
624.0482883096
 11
81.3296589161
 21
624.0482883096
  0
LINE
  8
0
 62
7
  6
CONTINUOUS
 10
22.4525518257
 20
624.0482883096
 11
-35.4474481743
 21
624.0482883096
  0
LINE
  8
0
 62
7
  6
CONTINUOUS
 10
-36.7474481743
 20
624.0482883096
 11
-50.4474481743
 21
624.0482883096
  0
LINE
  8
0
 62
7
  6
CONTINUOUS
 10
220.4525518257
 20
625.5482883096
 11
228.7525518257
 21
625.5482883096
  0
LINE
  8
0
 62
7
  6
CONTINUOUS
 10
231.8525518257
 20
632.4482883096
 11
232.8525518257
 21
632.4482883096
  0
LINE
  8
0
 62
7
  6
CONTINUOUS
 10
228.9525518257
 20
633.4321633401
 11
230.4525518257
 21
633.4321633401
  0
LINE
  8
0
 62
7
  6
CONTINUOUS
 10
231.8525518257
 20
633.9482883096
 11
232.8525518257
 21
633.9482883096
  0
LINE
  8
0
 62
7
  6
CONTINUOUS
 10
123.0525518257
 20
634.4482883096
 11
81.3296589161
 21
634.4482883096
  0
LINE
  8
0
 62
9
  6
CONTINUOUS
 10
233.0525518257
 20
635.7482883096
 11
232.8525518257
 21
635.7482883096
  0
LINE
  8
0
 62
9
  6
CONTINUOUS
 10
231.8525518257
 20
635.7482883096
 11
219.5525518257
 21
635.7482883096
  0
LINE
  8
0
 62
9
  6
CONTINUOUS
 10
172.6525518257
 20
635.7482883096
 11
174.6525518257
 21
635.7482883096
  0
LINE
  8
0
 62
7
  6
CONTINUOUS
 10
233.0525518257
 20
636.7482883096
 11
232.8525518257
 21
636.7482883096
  0
LINE
  8
0
 62
7
  6
CONTINUOUS
 10
231.8525518257
 20
636.7482883096
 11
219.5525518257
 21
636.7482883096
  0
LINE
  8
0
 62
7
  6
CONTINUOUS
 10
175.6525518257
 20
636.7482883096
 11
185.6525518257
 21
636.7482883096
  0
LINE
  8
0
 62
3
  6
CONTINUOUS
 10
233.0525518257
 20
638.7482883096
 11
232.8525518257
 21
638.7482883096
  0
LINE
  8
0
 62
3
  6
CONTINUOUS
 10
231.8525518257
 20
638.7482883096
 11
219.5525518257
 21
638.7482883096
  0
LINE
  8
0
 62
3
  6
CONTINUOUS
 10
175.6525518257
 20
638.7482883096
 11
185.6525518257
 21
638.7482883096
  0
LINE
  8
0
 62
9
  6
CONTINUOUS
 10
232.8525518257
 20
640.0482883096
 11
231.8525518257
 21
640.0482883096
  0
LINE
  8
0
 62
7
  6
CONTINUOUS
 10
22.4525518257
 20
640.7482883096
 11
169.5412298691
 21
640.7482883096
  0
LINE
  8
0
 62
7
  6
CONTINUOUS
 10
195.2191518257
 20
640.7482883096
 11
231.5665613629
 21
640.7482883096
  0
LINE
  8
0
 62
7
  6
CONTINUOUS
 10
232.7258637452
 20
640.7482883096
 11
233.0525518257
 21
640.7482883096
  0
LINE
  8
0
 62
3
  6
CONTINUOUS
 10
-61.2474481743
 20
641.0482883096
 11
230.8525518257
 21
641.0482883096
  0
LINE
  8
0
 62
3
  6
CONTINUOUS
 10
232.5846026332
 20
641.0482883096
 11
233.0525518257
 21
641.0482883096
  0
LINE
  8
KONSTRUKTIONSELEMENTE
 62
7
  6
CONTINUOUS
 10
-62.9474481743
 20
641.2482883096
 11
-60.9474481743
 21
641.2482883096
  0
LINE
  8
0
 62
7
  6
CONTINUOUS
 10
-62.7474481743
 20
642.0482883096
 11
233.0525518257
 21
642.0482883096
  0
LINE
  8
FASEN
 62
7
  6
CONTINUOUS
 10
-62.9474481743
 20
642.2482883096
 11
-64.9474481743
 21
642.2482883096
  0
LINE
  8
BEZUGSACHSEN
 62
7
  6
CONTINUOUS
 10
233.0525518257
 20
642.2482883096
 11
235.0525518257
 21
642.2482883096
  0
LINE
  8
KONSTRUKTIONSELEMENTE
 62
3
  6
CONTINUOUS
 10
383.0525518257
 20
644.2482883096
 11
235.0525518257
 21
644.2482883096
  0
LINE
  8
KONSTRUKTIONSELEMENTE
 62
7
  6
CONTINUOUS
 10
233.0525518257
 20
644.2482883096
 11
-62.9474481743
 21
644.2482883096
  0
LINE
  8
FASEN
 62
7
  6
CONTINUOUS
 10
-62.9474481743
 20
644.2482883096
 11
-64.9474481743
 21
644.2482883096
  0
LINE
  8
BEZUGSACHSEN
 62
7
  6
CONTINUOUS
 10
233.0525518257
 20
644.2482883096
 11
235.0525518257
 21
644.2482883096
  0
LINE
  8
KONSTRUKTIONSELEMENTE
 62
3
  6
CONTINUOUS
 10
385.0525518257
 20
566.2482883096
 11
385.0525518257
 21
569.2482883096
  0
LINE
  8
FASEN
 62
3
  6
CONTINUOUS
 10
385.0525518257
 20
569.2482883096
 11
385.0525518257
 21
642.2482883096
  0
LINE
  8
FASEN
 62
3
  6
CONTINUOUS
 10
385.0525518257
 20
642.2482883096
 11
383.0525518257
 21
644.2482883096
  0
ARC
  8
0
 62
7
  6
CONTINUOUS
 10
171.6525518257
 20
571.2482883096
 40
3.0
 50
270.0
 51
360.0
  0
ARC
  8
0
 62
3
  6
CONTINUOUS
 10
175.6525518257
 20
635.7482883096
 40
3.0
 50
90.0
 51
180.0
  0
ARC
  8
KONSTRUKTIONSELEMENTE
 62
3
  6
CONTINUOUS
 10
232.0525518257
 20
569.2482883096
 40
3.0
 50
270.0
 51
360.0
  0
ARC
  8
KONSTRUKTIONSELEMENTE
 62
3
  6
CONTINUOUS
 10
-61.9474481743
 20
569.2482883096
 40
3.0
 50
180.0
 51
270.0
  0
ARC
  8
0
 62
7
  6
CONTINUOUS
 10
230.8525518257
 20
640.0482883096
 40
2.0
 50
0.0
 51
90.0
  0
ARC
  8
0
 62
7
  6
CONTINUOUS
 10
175.6525518257
 20
635.7482883096
 40
1.0
 50
90.0
 51
180.0
  0
ARC
  8
KONSTRUKTIONSELEMENTE
 62
7
  6
CONTINUOUS
 10
232.0525518257
 20
569.2482883096
 40
1.0
 50
270.0
 51
360.0
  0
ARC
  8
KONSTRUKTIONSELEMENTE
 62
7
  6
CONTINUOUS
 10
-61.9474481743
 20
569.2482883096
 40
1.0
 50
180.0
 51
270.0
  0
ARC
  8
0
 62
3
  6
CONTINUOUS
 10
171.6525518257
 20
571.2482883096
 40
1.0
 50
270.0
 51
360.0
  0
ARC
  8
0
 62
3
  6
CONTINUOUS
 10
230.8525518257
 20
640.0482883096
 40
1.0
 50
0.0
 51
90.0
  0
ARC
  8
0
 62
7
  6
CONTINUOUS
 10
228.7525518257
 20
625.7482883096
 40
0.2
 50
270.0
 51
360.0
  0
ARC
  8
BEZUGSACHSEN
 62
7
  6
CONTINUOUS
 10
-9.8474481743
 20
568.3482883096
 40
0.1
 50
180.0
 51
270.0
  0
ARC
  8
BEZUGSACHSEN
 62
7
  6
CONTINUOUS
 10
-20.0474481743
 20
568.3482883096
 40
0.1
 50
270.0
 51
360.0
  0
ARC
  8
BEZUGSACHSEN
 62
7
  6
CONTINUOUS
 10
86.9525518257
 20
568.3482883096
 40
0.1
 50
270.0
 51
360.0
  0
ARC
  8
BEZUGSACHSEN
 62
7
  6
CONTINUOUS
 10
97.1525518257
 20
568.3482883096
 40
0.1
 50
180.0
 51
270.0
  0
ARC
  8
BEZUGSACHSEN
 62
7
  6
CONTINUOUS
 10
84.9525518257
 20
568.3482883096
 40
0.1
 50
270.0
 51
360.0
  0
ARC
  8
BEZUGSACHSEN
 62
7
  6
CONTINUOUS
 10
190.1525518257
 20
568.3482883096
 40
0.1
 50
180.0
 51
270.0
  0
ARC
  8
BEZUGSACHSEN
 62
7
  6
CONTINUOUS
 10
179.9525518257
 20
568.3482883096
 40
0.1
 50
270.0
 51
360.0
  0
ARC
  8
BEZUGSACHSEN
 62
7
  6
CONTINUOUS
 10
232.5789586969
 20
568.3482883096
 40
0.1
 50
180.0
 51
182.5289063664
  0
ARC
  8
BEZUGSACHSEN
 62
7
  6
CONTINUOUS
 10
222.3789586969
 20
568.3482883096
 40
0.1
 50
270.0
 51
360.0
  0
ENDSEC
  0
EOF
