999
DXF file: bkg2006011.dxf
999
Pro/ENGINEER 2022024 by Parametric Technology Corporation
  0
SECTION
  2
HEADER
  9
$EXTMAX
 10
420.0
 20
297.0
 30
0.0
  9
$EXTMIN
 10
0.0
 20
-0.0
 30
0.0
  9
$LIMMIN
 10
0.0
 20
-0.0
  9
$LIMMAX
 10
420.0
 20
297.0
  9
$VIEWCTR
 10
210.0
 20
148.5
  9
$VIEWSIZE
 40
297.0
  9
$CLAYER
  8
0
  9
$LTSCALE
 40
23.1
  9
$CELTYPE
  6
BYLAYER
  9
$DIMSCALE
 40
1.0
  9
$DIMASZ
 40
3.5
  9
$DIMEXO
 40
0.0
  9
$DIMDLI
 40
15.96
  9
$DIMEXE
 40
1.5
  9
$DIMCEN
 40
3.78
  9
$DIMLFAC
 40
1.0
  9
$DIMBLK
  1
_FILLED
  9
$DIMALT
 70
0
  9
$DIMALTF
 40
0.0393700787
  9
$DIMTXT
 40
3.5
  9
$AUNITS
 70
0
  9
$PDMODE
 70
3
  9
$PDSIZE
 40
0.3125
  9
$TILEMODE
 70
1
  0
ENDSEC
  0
SECTION
  2
TABLES
  0
TABLE
  2
LTYPE
 70
6
  0
LTYPE
  2
BYBLOCK
 70
0
  3

 72
65
 73
0
 40
0.0
  0
LTYPE
  2
BYLAYER
 70
0
  3

 72
65
 73
0
 40
0.0
  0
LTYPE
  2
CONTINUOUS
 70
64
  3
Solid line
 72
65
 73
0
 40
0.0
  0
LTYPE
  2
CENTER
 70
64
  3
____ _ ____ _ ____ _ ____ _ ____ _ ____ _ ____
 72
65
 73
4
 40
0.6
 49
0.375
 49
-0.075
 49
0.075
 49
-0.075
  0
LTYPE
  2
HIDDEN
 70
64
  3
- - - - - - - - - - - - - - - - - - - -
 72
65
 73
2
 40
0.2
 49
0.1
 49
-0.1
  0
LTYPE
  2
PHANTOM
 70
64
  3
_____ _ _ _____ _ _ _____ _ _ _____
 72
65
 73
6
 40
0.8
 49
0.45
 49
-0.05
 49
0.1
 49
-0.05
 49
0.1
 49
-0.05
  0
LTYPE
  2
DOT
 70
64
  3
. . . . . . . . . . . . . . . . . . . .
 72
65
 73
2
 40
0.2
 49
0.1
 49
-0.1
  0
LTYPE
  2
DASHED
 70
64
  3
- - - - - - - - - - - - - - - - - - - -
 72
65
 73
2
 40
0.2
 49
0.1
 49
-0.1
  0
ENDTAB
  0
TABLE
  2
LAYER
 70
36
  0
LAYER
  2
0
 70
0
 62
7
  6
CONTINUOUS
  0
LAYER
  2
DEFAULT_1
 70
0
 62
7
  6
CENTER
  0
LAYER
  2
DEFAULT_2
 70
0
 62
8
  6
HIDDEN
  0
LAYER
  2
DEFAULT_3
 70
0
 62
7
  6
PHANTOM
  0
LAYER
  2
01_STARTBEZUEGE
 70
0
 62
7
  6
CONTINUOUS
  0
LAYER
  2
ASSEMBLY
 70
0
 62
7
  6
CONTINUOUS
  0
LAYER
  2
AUSFORMSCHRAEGEN
 70
0
 62
7
  6
CONTINUOUS
  0
LAYER
  2
AXIS
 70
0
 62
7
  6
CONTINUOUS
  0
LAYER
  2
BEZUGSACHSEN
 70
0
 62
7
  6
CONTINUOUS
  0
LAYER
  2
BEZUGSEBENEN
 70
0
 62
7
  6
CONTINUOUS
  0
LAYER
  2
BEZUGSPUNKTE
 70
0
 62
7
  6
CONTINUOUS
  0
LAYER
  2
BOHRUNGEN
 70
0
 62
7
  6
CONTINUOUS
  0
LAYER
  2
CSYS
 70
0
 62
7
  6
CONTINUOUS
  0
LAYER
  2
FASEN
 70
0
 62
7
  6
CONTINUOUS
  0
LAYER
  2
FLAECHEN
 70
0
 62
7
  6
CONTINUOUS
  0
LAYER
  2
GEWINDE
 70
0
 62
7
  6
CONTINUOUS
  0
LAYER
  2
GTOL
 70
0
 62
7
  6
CONTINUOUS
  0
LAYER
  2
KONSTRUKTIONSELEMENTE
 70
0
 62
7
  6
CONTINUOUS
  0
LAYER
  2
KOORDINATENSYSTEME
 70
0
 62
7
  6
CONTINUOUS
  0
LAYER
  2
KURVEN
 70
0
 62
7
  6
CONTINUOUS
  0
LAYER
  2
NOTIZ
 70
0
 62
7
  6
CONTINUOUS
  0
LAYER
  2
PLANES
 70
0
 62
7
  6
CONTINUOUS
  0
LAYER
  2
RUNDUNGEN
 70
0
 62
7
  6
CONTINUOUS
  0
LAYER
  2
SKELETON_MODELS
 70
0
 62
7
  6
CONTINUOUS
  0
LAYER
  2
STARTBEZUEGE
 70
0
 62
7
  6
CONTINUOUS
  0
LAYER
  2
SURFACES
 70
0
 62
7
  6
CONTINUOUS
  0
LAYER
  2
VOLUMEN
 70
0
 62
7
  6
CONTINUOUS
  0
LAYER
  2
XSEC_DATUMS
 70
0
 62
7
  6
CONTINUOUS
  0
ENDTAB
  0
TABLE
  2
STYLE
 70
1
  0
STYLE
  2
STANDARD
 70
0
 40
0.0
 41
0.7
 50
0.0
 71
0
 42
0.2
  3
txt
  4

  0
STYLE
  2
TEXTSTYLE_1
 70
0
 40
0.0
 41
0.8
 50
0.0
 71
0
 42
0.2
  3
gdt
  4

  0
ENDTAB
  0
ENDSEC
  0
SECTION
  2
BLOCKS
  0
BLOCK
  8
0
  2
_FILLED
 70
64
 10
0.0
 20
0.0
  0
SOLID
  8
0
  6
BYBLOCK
 62
0
 10
0.0
 20
0.0
 11
-1.0
 21
0.125
 12
-1.0
 22
-0.125
 13
-1.0
 23
-0.125
  0
ENDBLK
  8
0
  6
BYBLOCK
 62
0
  0
ENDSEC
  0
SECTION
  2
ENTITIES
  0
LINE
  8
FASEN
 62
3
  6
CONTINUOUS
 10
102.4992257698
 20
129.8607928859
 11
102.4992257698
 21
184.8607928859
  0
LINE
  8
FASEN
 62
7
  6
CONTINUOUS
 10
104.4992257698
 20
129.8607928859
 11
104.4992257698
 21
184.8607928859
  0
LINE
  8
KONSTRUKTIONSELEMENTE
 62
7
  6
CONTINUOUS
 10
104.6992257698
 20
181.8607928859
 11
104.6992257698
 21
182.6607928859
  0
LINE
  8
KONSTRUKTIONSELEMENTE
 62
9
  6
CONTINUOUS
 10
105.4992257698
 20
126.8607928859
 11
105.4992257698
 21
128.8607928859
  0
LINE
  8
KONSTRUKTIONSELEMENTE
 62
7
  6
CONTINUOUS
 10
106.4992257698
 20
181.8607928859
 11
106.4992257698
 21
131.8607928859
  0
LINE
  8
0
 62
7
  6
CONTINUOUS
 10
116.9992257698
 20
151.6607928859
 11
116.9992257698
 21
164.6607928859
  0
LINE
  8
0
 62
7
  6
CONTINUOUS
 10
130.6992257698
 20
164.6607928859
 11
130.6992257698
 21
181.6607928859
  0
LINE
  8
BEZUGSACHSEN
 62
7
  6
CONTINUOUS
 10
147.4992257698
 20
130.8607928859
 11
147.4992257698
 21
128.9607928859
  0
LINE
  8
BEZUGSACHSEN
 62
7
  6
CONTINUOUS
 10
157.4992257698
 20
130.8607928859
 11
157.4992257698
 21
128.9607928859
  0
LINE
  8
BEZUGSACHSEN
 62
3
  6
CONTINUOUS
 10
299.4992257698
 20
126.8607928859
 11
105.4992257698
 21
126.8607928859
  0
LINE
  8
BEZUGSACHSEN
 62
7
  6
CONTINUOUS
 10
105.4992257698
 20
128.8607928859
 11
299.4992257698
 21
128.8607928859
  0
LINE
  8
BEZUGSACHSEN
 62
9
  6
CONTINUOUS
 10
257.4992257698
 20
128.9607928859
 11
247.4992257698
 21
128.9607928859
  0
LINE
  8
BEZUGSACHSEN
 62
9
  6
CONTINUOUS
 10
147.4992257698
 20
128.9607928859
 11
157.4992257698
 21
128.9607928859
  0
LINE
  8
KONSTRUKTIONSELEMENTE
 62
9
  6
CONTINUOUS
 10
302.4992257698
 20
129.8607928859
 11
300.4992257698
 21
129.8607928859
  0
LINE
  8
KONSTRUKTIONSELEMENTE
 62
9
  6
CONTINUOUS
 10
102.4992257698
 20
129.8607928859
 11
104.4992257698
 21
129.8607928859
  0
LINE
  8
BEZUGSACHSEN
 62
7
  6
CONTINUOUS
 10
157.4992257698
 20
130.8607928859
 11
147.4992257698
 21
130.8607928859
  0
LINE
  8
BEZUGSACHSEN
 62
7
  6
CONTINUOUS
 10
247.4992257698
 20
130.8607928859
 11
257.4992257698
 21
130.8607928859
  0
LINE
  8
KONSTRUKTIONSELEMENTE
 62
7
  6
CONTINUOUS
 10
300.4992257698
 20
131.8607928859
 11
298.4992257698
 21
131.8607928859
  0
LINE
  8
KONSTRUKTIONSELEMENTE
 62
7
  6
CONTINUOUS
 10
106.4992257698
 20
131.8607928859
 11
104.4992257698
 21
131.8607928859
  0
LINE
  8
0
 62
7
  6
CONTINUOUS
 10
189.8992257698
 20
181.3607928859
 11
189.8992257698
 21
128.8607928859
  0
LINE
  8
0
 62
7
  6
CONTINUOUS
 10
106.4992257698
 20
151.6607928859
 11
116.9992257698
 21
151.6607928859
  0
LINE
  8
0
 62
7
  6
CONTINUOUS
 10
287.9992257698
 20
151.6607928859
 11
298.4992257698
 21
151.6607928859
  0
LINE
  8
0
 62
7
  6
CONTINUOUS
 10
214.4992257698
 20
181.3607928859
 11
214.4992257698
 21
128.8607928859
  0
LINE
  8
0
 62
7
  6
CONTINUOUS
 10
130.6992257698
 20
164.6607928859
 11
116.9992257698
 21
164.6607928859
  0
LINE
  8
0
 62
7
  6
CONTINUOUS
 10
274.2992257698
 20
164.6607928859
 11
287.9992257698
 21
164.6607928859
  0
LINE
  8
0
 62
7
  6
CONTINUOUS
 10
189.8992257698
 20
181.3607928859
 11
214.4992257698
 21
181.3607928859
  0
LINE
  8
0
 62
7
  6
CONTINUOUS
 10
298.4992257698
 20
181.6607928859
 11
274.2992257698
 21
181.6607928859
  0
LINE
  8
0
 62
7
  6
CONTINUOUS
 10
130.6992257698
 20
181.6607928859
 11
106.4992257698
 21
181.6607928859
  0
LINE
  8
KONSTRUKTIONSELEMENTE
 62
3
  6
CONTINUOUS
 10
130.6992257698
 20
181.6607928859
 11
274.2992257698
 21
181.6607928859
  0
LINE
  8
KONSTRUKTIONSELEMENTE
 62
7
  6
CONTINUOUS
 10
104.4992257698
 20
181.8607928859
 11
106.4992257698
 21
181.8607928859
  0
LINE
  8
KONSTRUKTIONSELEMENTE
 62
7
  6
CONTINUOUS
 10
298.4992257698
 20
181.8607928859
 11
300.4992257698
 21
181.8607928859
  0
LINE
  8
KONSTRUKTIONSELEMENTE
 62
7
  6
CONTINUOUS
 10
104.6992257698
 20
182.6607928859
 11
300.2992257698
 21
182.6607928859
  0
LINE
  8
FASEN
 62
7
  6
CONTINUOUS
 10
104.4992257698
 20
182.8607928859
 11
102.4992257698
 21
182.8607928859
  0
LINE
  8
BEZUGSACHSEN
 62
7
  6
CONTINUOUS
 10
300.4992257698
 20
182.8607928859
 11
302.4992257698
 21
182.8607928859
  0
LINE
  8
FASEN
 62
7
  6
CONTINUOUS
 10
104.4992257698
 20
184.8607928859
 11
102.4992257698
 21
184.8607928859
  0
LINE
  8
BEZUGSACHSEN
 62
7
  6
CONTINUOUS
 10
300.4992257698
 20
184.8607928859
 11
302.4992257698
 21
184.8607928859
  0
LINE
  8
BEZUGSACHSEN
 62
7
  6
CONTINUOUS
 10
247.4992257698
 20
128.9607928859
 11
247.4992257698
 21
130.8607928859
  0
LINE
  8
BEZUGSACHSEN
 62
7
  6
CONTINUOUS
 10
257.4992257698
 20
128.9607928859
 11
257.4992257698
 21
130.8607928859
  0
LINE
  8
0
 62
7
  6
CONTINUOUS
 10
274.2992257698
 20
181.6607928859
 11
274.2992257698
 21
164.6607928859
  0
LINE
  8
0
 62
7
  6
CONTINUOUS
 10
287.9992257698
 20
164.6607928859
 11
287.9992257698
 21
151.6607928859
  0
LINE
  8
KONSTRUKTIONSELEMENTE
 62
7
  6
CONTINUOUS
 10
298.4992257698
 20
131.8607928859
 11
298.4992257698
 21
181.8607928859
  0
LINE
  8
KONSTRUKTIONSELEMENTE
 62
9
  6
CONTINUOUS
 10
299.4992257698
 20
126.8607928859
 11
299.4992257698
 21
128.8607928859
  0
LINE
  8
KONSTRUKTIONSELEMENTE
 62
7
  6
CONTINUOUS
 10
300.2992257698
 20
181.8607928859
 11
300.2992257698
 21
182.6607928859
  0
LINE
  8
BEZUGSACHSEN
 62
7
  6
CONTINUOUS
 10
300.4992257698
 20
129.8607928859
 11
300.4992257698
 21
184.8607928859
  0
LINE
  8
BEZUGSACHSEN
 62
3
  6
CONTINUOUS
 10
302.4992257698
 20
129.8607928859
 11
302.4992257698
 21
184.8607928859
  0
ARC
  8
KONSTRUKTIONSELEMENTE
 62
3
  6
CONTINUOUS
 10
105.4992257698
 20
129.8607928859
 40
3.0
 50
180.0
 51
270.0
  0
ARC
  8
KONSTRUKTIONSELEMENTE
 62
3
  6
CONTINUOUS
 10
299.4992257698
 20
129.8607928859
 40
3.0
 50
270.0
 51
360.0
  0
ARC
  8
KONSTRUKTIONSELEMENTE
 62
7
  6
CONTINUOUS
 10
105.4992257698
 20
129.8607928859
 40
1.0
 50
180.0
 51
270.0
  0
ARC
  8
KONSTRUKTIONSELEMENTE
 62
7
  6
CONTINUOUS
 10
299.4992257698
 20
129.8607928859
 40
1.0
 50
270.0
 51
360.0
  0
ARC
  8
BEZUGSACHSEN
 62
7
  6
CONTINUOUS
 10
247.3992257698
 20
128.9607928859
 40
0.1
 50
270.0
 51
360.0
  0
ARC
  8
BEZUGSACHSEN
 62
7
  6
CONTINUOUS
 10
257.5992257698
 20
128.9607928859
 40
0.1
 50
180.0
 51
270.0
  0
ARC
  8
BEZUGSACHSEN
 62
7
  6
CONTINUOUS
 10
157.5992257698
 20
128.9607928859
 40
0.1
 50
180.0
 51
270.0
  0
ARC
  8
BEZUGSACHSEN
 62
7
  6
CONTINUOUS
 10
147.3992257698
 20
128.9607928859
 40
0.1
 50
270.0
 51
360.0
  0
ENDSEC
  0
EOF
