999
DXF file: bkg3006011.dxf
999
Pro/ENGINEER 2022024 by Parametric Technology Corporation
  0
SECTION
  2
HEADER
  9
$EXTMAX
 10
594.0
 20
420.0
 30
0.0
  9
$EXTMIN
 10
0.0
 20
0.0
 30
0.0
  9
$LIMMIN
 10
0.0
 20
0.0
  9
$LIMMAX
 10
594.0
 20
420.0
  9
$VIEWCTR
 10
297.0
 20
210.0
  9
$VIEWSIZE
 40
420.0
  9
$CLAYER
  8
0
  9
$LTSCALE
 40
32.67
  9
$CELTYPE
  6
BYLAYER
  9
$DIMSCALE
 40
1.0
  9
$DIMASZ
 40
3.5
  9
$DIMEXO
 40
0.0
  9
$DIMDLI
 40
22.572
  9
$DIMEXE
 40
1.5
  9
$DIMCEN
 40
5.346
  9
$DIMLFAC
 40
1.0
  9
$DIMBLK
  1
_FILLED
  9
$DIMALT
 70
0
  9
$DIMALTF
 40
0.0393700787
  9
$DIMTXT
 40
3.5
  9
$AUNITS
 70
0
  9
$PDMODE
 70
3
  9
$PDSIZE
 40
0.3125
  9
$TILEMODE
 70
1
  0
ENDSEC
  0
SECTION
  2
TABLES
  0
TABLE
  2
LTYPE
 70
6
  0
LTYPE
  2
BYBLOCK
 70
0
  3

 72
65
 73
0
 40
0.0
  0
LTYPE
  2
BYLAYER
 70
0
  3

 72
65
 73
0
 40
0.0
  0
LTYPE
  2
CONTINUOUS
 70
64
  3
Solid line
 72
65
 73
0
 40
0.0
  0
LTYPE
  2
CENTER
 70
64
  3
____ _ ____ _ ____ _ ____ _ ____ _ ____ _ ____
 72
65
 73
4
 40
0.6
 49
0.375
 49
-0.075
 49
0.075
 49
-0.075
  0
LTYPE
  2
HIDDEN
 70
64
  3
- - - - - - - - - - - - - - - - - - - -
 72
65
 73
2
 40
0.2
 49
0.1
 49
-0.1
  0
LTYPE
  2
PHANTOM
 70
64
  3
_____ _ _ _____ _ _ _____ _ _ _____
 72
65
 73
6
 40
0.8
 49
0.45
 49
-0.05
 49
0.1
 49
-0.05
 49
0.1
 49
-0.05
  0
LTYPE
  2
DOT
 70
64
  3
. . . . . . . . . . . . . . . . . . . .
 72
65
 73
2
 40
0.2
 49
0.1
 49
-0.1
  0
LTYPE
  2
DASHED
 70
64
  3
- - - - - - - - - - - - - - - - - - - -
 72
65
 73
2
 40
0.2
 49
0.1
 49
-0.1
  0
ENDTAB
  0
TABLE
  2
LAYER
 70
36
  0
LAYER
  2
0
 70
0
 62
7
  6
CONTINUOUS
  0
LAYER
  2
DEFAULT_1
 70
0
 62
7
  6
CENTER
  0
LAYER
  2
DEFAULT_2
 70
0
 62
8
  6
HIDDEN
  0
LAYER
  2
DEFAULT_3
 70
0
 62
7
  6
PHANTOM
  0
LAYER
  2
01_STARTBEZUEGE
 70
0
 62
7
  6
CONTINUOUS
  0
LAYER
  2
ASSEMBLY
 70
0
 62
7
  6
CONTINUOUS
  0
LAYER
  2
AUSFORMSCHRAEGEN
 70
0
 62
7
  6
CONTINUOUS
  0
LAYER
  2
AXIS
 70
0
 62
7
  6
CONTINUOUS
  0
LAYER
  2
BEZUGSACHSEN
 70
0
 62
7
  6
CONTINUOUS
  0
LAYER
  2
BEZUGSEBENEN
 70
0
 62
7
  6
CONTINUOUS
  0
LAYER
  2
BEZUGSPUNKTE
 70
0
 62
7
  6
CONTINUOUS
  0
LAYER
  2
BOHRUNGEN
 70
0
 62
7
  6
CONTINUOUS
  0
LAYER
  2
CSYS
 70
0
 62
7
  6
CONTINUOUS
  0
LAYER
  2
FASEN
 70
0
 62
7
  6
CONTINUOUS
  0
LAYER
  2
FLAECHEN
 70
0
 62
7
  6
CONTINUOUS
  0
LAYER
  2
GEWINDE
 70
0
 62
7
  6
CONTINUOUS
  0
LAYER
  2
GTOL
 70
0
 62
7
  6
CONTINUOUS
  0
LAYER
  2
KONSTRUKTIONSELEMENTE
 70
0
 62
7
  6
CONTINUOUS
  0
LAYER
  2
KOORDINATENSYSTEME
 70
0
 62
7
  6
CONTINUOUS
  0
LAYER
  2
KURVEN
 70
0
 62
7
  6
CONTINUOUS
  0
LAYER
  2
NOTIZ
 70
0
 62
7
  6
CONTINUOUS
  0
LAYER
  2
PLANES
 70
0
 62
7
  6
CONTINUOUS
  0
LAYER
  2
RUNDUNGEN
 70
0
 62
7
  6
CONTINUOUS
  0
LAYER
  2
SKELETON_MODELS
 70
0
 62
7
  6
CONTINUOUS
  0
LAYER
  2
STARTBEZUEGE
 70
0
 62
7
  6
CONTINUOUS
  0
LAYER
  2
SURFACES
 70
0
 62
7
  6
CONTINUOUS
  0
LAYER
  2
VOLUMEN
 70
0
 62
7
  6
CONTINUOUS
  0
LAYER
  2
XSEC_DATUMS
 70
0
 62
7
  6
CONTINUOUS
  0
ENDTAB
  0
TABLE
  2
STYLE
 70
1
  0
STYLE
  2
STANDARD
 70
0
 40
0.0
 41
0.7
 50
0.0
 71
0
 42
0.2
  3
txt
  4

  0
STYLE
  2
TEXTSTYLE_1
 70
0
 40
0.0
 41
0.8
 50
0.0
 71
0
 42
0.2
  3
gdt
  4

  0
ENDTAB
  0
ENDSEC
  0
SECTION
  2
BLOCKS
  0
BLOCK
  8
0
  2
_FILLED
 70
64
 10
0.0
 20
0.0
  0
SOLID
  8
0
  6
BYBLOCK
 62
0
 10
0.0
 20
0.0
 11
-1.0
 21
0.125
 12
-1.0
 22
-0.125
 13
-1.0
 23
-0.125
  0
ENDBLK
  8
0
  6
BYBLOCK
 62
0
  0
ENDSEC
  0
SECTION
  2
ENTITIES
  0
LINE
  8
FASEN
 62
3
  6
CONTINUOUS
 10
126.4027271755
 20
217.5750865036
 11
126.4027271755
 21
272.5750865036
  0
LINE
  8
FASEN
 62
7
  6
CONTINUOUS
 10
128.4027271755
 20
217.5750865036
 11
128.4027271755
 21
272.5750865036
  0
LINE
  8
KONSTRUKTIONSELEMENTE
 62
7
  6
CONTINUOUS
 10
128.6027271755
 20
269.5750865036
 11
128.6027271755
 21
270.3750865036
  0
LINE
  8
KONSTRUKTIONSELEMENTE
 62
9
  6
CONTINUOUS
 10
129.4027271755
 20
214.5750865036
 11
129.4027271755
 21
216.5750865036
  0
LINE
  8
KONSTRUKTIONSELEMENTE
 62
7
  6
CONTINUOUS
 10
130.4027271755
 20
269.5750865036
 11
130.4027271755
 21
219.5750865036
  0
LINE
  8
0
 62
7
  6
CONTINUOUS
 10
140.9027271755
 20
239.3750865036
 11
140.9027271755
 21
252.3750865036
  0
LINE
  8
0
 62
7
  6
CONTINUOUS
 10
154.6027271755
 20
252.3750865036
 11
154.6027271755
 21
269.3750865036
  0
LINE
  8
BEZUGSACHSEN
 62
7
  6
CONTINUOUS
 10
171.4027271755
 20
218.5750865036
 11
171.4027271755
 21
216.6750865036
  0
LINE
  8
BEZUGSACHSEN
 62
7
  6
CONTINUOUS
 10
181.4027271755
 20
218.5750865036
 11
181.4027271755
 21
216.6750865036
  0
LINE
  8
0
 62
7
  6
CONTINUOUS
 10
213.8027271755
 20
269.0750865036
 11
213.8027271755
 21
216.5750865036
  0
LINE
  8
0
 62
7
  6
CONTINUOUS
 10
238.4027271755
 20
269.0750865036
 11
238.4027271755
 21
216.5750865036
  0
POLYLINE
  8
0
 62
7
  6
CONTINUOUS
 66
1
 70
0
  0
VERTEX
  8
0
 62
7
  6
CONTINUOUS
 10
330.8844925162
 20
216.7470380187
  0
VERTEX
  8
0
 62
7
  6
CONTINUOUS
 10
330.8859238609
 20
216.7472648951
  0
VERTEX
  8
0
 62
7
  6
CONTINUOUS
 10
330.8872978333
 20
216.747489206
  0
VERTEX
  8
0
 62
7
  6
CONTINUOUS
 10
330.8886166112
 20
216.7477111957
  0
VERTEX
  8
0
 62
7
  6
CONTINUOUS
 10
330.8898826415
 20
216.7479311025
  0
VERTEX
  8
0
 62
7
  6
CONTINUOUS
 10
330.8910975244
 20
216.7481491272
  0
VERTEX
  8
0
 62
7
  6
CONTINUOUS
 10
330.8922631346
 20
216.7483654613
  0
VERTEX
  8
0
 62
7
  6
CONTINUOUS
 10
330.8933810946
 20
216.7485803708
  0
VERTEX
  8
0
 62
7
  6
CONTINUOUS
 10
330.8944531815
 20
216.7487940822
  0
VERTEX
  8
0
 62
7
  6
CONTINUOUS
 10
330.8954808073
 20
216.7490069054
  0
VERTEX
  8
0
 62
7
  6
CONTINUOUS
 10
330.8964655624
 20
216.749219096
  0
VERTEX
  8
0
 62
7
  6
CONTINUOUS
 10
330.8974086882
 20
216.7494310436
  0
VERTEX
  8
0
 62
7
  6
CONTINUOUS
 10
330.8983116164
 20
216.7496430537
  0
VERTEX
  8
0
 62
7
  6
CONTINUOUS
 10
330.8991753658
 20
216.7498556343
  0
VERTEX
  8
0
 62
7
  6
CONTINUOUS
 10
330.9000011792
 20
216.7500691582
  0
VERTEX
  8
0
 62
7
  6
CONTINUOUS
 10
330.9007898154
 20
216.7502843371
  0
VERTEX
  8
0
 62
7
  6
CONTINUOUS
 10
330.9015423542
 20
216.7505016599
  0
VERTEX
  8
0
 62
7
  6
CONTINUOUS
 10
330.9022590747
 20
216.7507221671
  0
VERTEX
  8
0
 62
7
  6
CONTINUOUS
 10
330.9029408158
 20
216.7509465142
  0
VERTEX
  8
0
 62
7
  6
CONTINUOUS
 10
330.9035869784
 20
216.7511763452
  0
VERTEX
  8
0
 62
7
  6
CONTINUOUS
 10
330.9041977023
 20
216.7514123348
  0
VERTEX
  8
0
 62
7
  6
CONTINUOUS
 10
330.9047716099
 20
216.7516580459
  0
VERTEX
  8
0
 62
7
  6
CONTINUOUS
 10
330.905309853
 20
216.7519147179
  0
VERTEX
  8
0
 62
7
  6
CONTINUOUS
 10
330.9058049838
 20
216.7521899963
  0
VERTEX
  8
0
 62
7
  6
CONTINUOUS
 10
330.9062615782
 20
216.7524829002
  0
VERTEX
  8
0
 62
7
  6
CONTINUOUS
 10
330.9066447167
 20
216.7528205489
  0
VERTEX
  8
0
 62
7
  6
CONTINUOUS
 10
330.9069168308
 20
216.7532330837
  0
VERTEX
  8
0
 62
7
  6
CONTINUOUS
 10
330.9070904433
 20
216.7537104575
  0
SEQEND
  0
LINE
  8
0
 62
7
  6
CONTINUOUS
 10
330.8814480812
 20
216.7465757941
 11
330.8844925162
 21
216.7470380187
  0
LINE
  8
0
 62
7
  6
CONTINUOUS
 10
330.8781462766
 20
216.7461011821
 11
330.8814480812
 21
216.7465757941
  0
LINE
  8
0
 62
7
  6
CONTINUOUS
 10
330.87456815
 20
216.7456130014
 11
330.8781462766
 21
216.7461011821
  0
LINE
  8
0
 62
7
  6
CONTINUOUS
 10
330.8706923867
 20
216.7451099819
 11
330.87456815
 21
216.7456130014
  0
LINE
  8
0
 62
7
  6
CONTINUOUS
 10
330.8664959104
 20
216.7445908629
 11
330.8706923867
 21
216.7451099819
  0
LINE
  8
0
 62
7
  6
CONTINUOUS
 10
330.861953796
 20
216.7440543845
 11
330.8664959104
 21
216.7445908629
  0
LINE
  8
0
 62
7
  6
CONTINUOUS
 10
330.8570390966
 20
216.7434992703
 11
330.861953796
 21
216.7440543845
  0
LINE
  8
0
 62
7
  6
CONTINUOUS
 10
330.851722688
 20
216.7429242179
 11
330.8570390966
 21
216.7434992703
  0
LINE
  8
0
 62
7
  6
CONTINUOUS
 10
330.8429252923
 20
216.7420213172
 11
330.851722688
 21
216.7429242179
  0
LINE
  8
0
 62
7
  6
CONTINUOUS
 10
330.8330357608
 20
216.7410658384
 11
330.8429252923
 21
216.7420213172
  0
LINE
  8
0
 62
7
  6
CONTINUOUS
 10
330.8219225835
 20
216.7400528135
 11
330.8330357608
 21
216.7410658384
  0
LINE
  8
0
 62
7
  6
CONTINUOUS
 10
330.8094370213
 20
216.7389768089
 11
330.8219225835
 21
216.7400528135
  0
LINE
  8
0
 62
7
  6
CONTINUOUS
 10
330.7903456786
 20
216.7374327589
 11
330.8094370213
 21
216.7389768089
  0
LINE
  8
0
 62
7
  6
CONTINUOUS
 10
330.76805256
 20
216.7357510084
 11
330.7903456786
 21
216.7374327589
  0
LINE
  8
0
 62
7
  6
CONTINUOUS
 10
330.7420314936
 20
216.7339153316
 11
330.76805256
 21
216.7357510084
  0
LINE
  8
0
 62
7
  6
CONTINUOUS
 10
330.7033137227
 20
216.7313761962
 11
330.7420314936
 21
216.7339153316
  0
LINE
  8
0
 62
7
  6
CONTINUOUS
 10
330.6563457371
 20
216.7285260754
 11
330.7033137227
 21
216.7313761962
  0
LINE
  8
0
 62
7
  6
CONTINUOUS
 10
330.5866312378
 20
216.7246300641
 11
330.6563457371
 21
216.7285260754
  0
LINE
  8
0
 62
7
  6
CONTINUOUS
 10
330.4821563984
 20
216.7193102316
 11
330.5866312378
 21
216.7246300641
  0
LINE
  8
0
 62
7
  6
CONTINUOUS
 10
330.4086025966
 20
216.7158320705
 11
330.4821563984
 21
216.7193102316
  0
LINE
  8
0
 62
7
  6
CONTINUOUS
 10
330.2230235537
 20
216.7077323635
 11
330.4086025966
 21
216.7158320705
  0
LINE
  8
0
 62
7
  6
CONTINUOUS
 10
329.8951156805
 20
216.6949535097
 11
330.2230235537
 21
216.7077323635
  0
LINE
  8
0
 62
7
  6
CONTINUOUS
 10
329.2946797037
 20
216.6744116093
 11
329.8951156805
 21
216.6949535097
  0
LINE
  8
0
 62
7
  6
CONTINUOUS
 10
328.4423902677
 20
216.6487226729
 11
329.2946797037
 21
216.6744116093
  0
LINE
  8
0
 62
7
  6
CONTINUOUS
 10
327.4225306003
 20
216.6210688702
 11
328.4423902677
 21
216.6487226729
  0
LINE
  8
0
 62
7
  6
CONTINUOUS
 10
326.1668732792
 20
216.5899573517
 11
327.4225306003
 21
216.6210688702
  0
LINE
  8
0
 62
9
  6
CONTINUOUS
 10
330.9070904433
 20
216.7537104575
 11
326.4027271755
 21
216.6750865042
  0
LINE
  8
BEZUGSACHSEN
 62
3
  6
CONTINUOUS
 10
423.4027271755
 20
214.5750865036
 11
129.4027271755
 21
214.5750865036
  0
LINE
  8
BEZUGSACHSEN
 62
7
  6
CONTINUOUS
 10
129.4027271755
 20
216.5750865036
 11
423.4027271755
 21
216.5750865036
  0
LINE
  8
BEZUGSACHSEN
 62
9
  6
CONTINUOUS
 10
381.4027271755
 20
216.6750865036
 11
371.4027271755
 21
216.6750865036
  0
LINE
  8
BEZUGSACHSEN
 62
9
  6
CONTINUOUS
 10
171.4027271755
 20
216.6750865036
 11
181.4027271755
 21
216.6750865036
  0
LINE
  8
KONSTRUKTIONSELEMENTE
 62
9
  6
CONTINUOUS
 10
426.4027271755
 20
217.5750865036
 11
424.4027271755
 21
217.5750865036
  0
LINE
  8
KONSTRUKTIONSELEMENTE
 62
9
  6
CONTINUOUS
 10
126.4027271755
 20
217.5750865036
 11
128.4027271755
 21
217.5750865036
  0
LINE
  8
BEZUGSACHSEN
 62
7
  6
CONTINUOUS
 10
181.4027271755
 20
218.5750865036
 11
171.4027271755
 21
218.5750865036
  0
LINE
  8
BEZUGSACHSEN
 62
7
  6
CONTINUOUS
 10
371.4027271755
 20
218.5750865036
 11
381.4027271755
 21
218.5750865036
  0
LINE
  8
KONSTRUKTIONSELEMENTE
 62
7
  6
CONTINUOUS
 10
424.4027271755
 20
219.5750865036
 11
422.4027271755
 21
219.5750865036
  0
LINE
  8
KONSTRUKTIONSELEMENTE
 62
7
  6
CONTINUOUS
 10
130.4027271755
 20
219.5750865036
 11
128.4027271755
 21
219.5750865036
  0
LINE
  8
0
 62
9
  6
CONTINUOUS
 10
326.4027271755
 20
216.6750865042
 11
321.8983639078
 21
216.7537104575
  0
LINE
  8
0
 62
7
  6
CONTINUOUS
 10
326.1668732792
 20
216.6013360728
 11
325.5619409574
 21
216.6164625002
  0
LINE
  8
0
 62
7
  6
CONTINUOUS
 10
325.5619409574
 20
216.6164625002
 11
325.0427288512
 21
216.6300080081
  0
LINE
  8
0
 62
7
  6
CONTINUOUS
 10
325.0427288512
 20
216.6300080081
 11
324.4958078284
 21
216.644965672
  0
LINE
  8
0
 62
7
  6
CONTINUOUS
 10
324.4958078284
 20
216.644965672
 11
324.0435743385
 21
216.6580050088
  0
LINE
  8
0
 62
7
  6
CONTINUOUS
 10
324.0435743385
 20
216.6580050088
 11
323.6694453452
 21
216.6693842116
  0
LINE
  8
0
 62
7
  6
CONTINUOUS
 10
323.6694453452
 20
216.6693842116
 11
323.3048248263
 21
216.6811544333
  0
LINE
  8
0
 62
7
  6
CONTINUOUS
 10
323.3048248263
 20
216.6811544333
 11
323.0142712019
 21
216.6911832914
  0
LINE
  8
0
 62
7
  6
CONTINUOUS
 10
323.0142712019
 20
216.6911832914
 11
322.7490412176
 21
216.7010473443
  0
LINE
  8
0
 62
7
  6
CONTINUOUS
 10
322.7490412176
 20
216.7010473443
 11
322.5457289798
 21
216.7092713294
  0
LINE
  8
0
 62
7
  6
CONTINUOUS
 10
322.5457289798
 20
216.7092713294
 11
322.3708052657
 21
216.7170426869
  0
LINE
  8
0
 62
7
  6
CONTINUOUS
 10
322.3708052657
 20
216.7170426869
 11
322.2557999863
 21
216.7226869168
  0
LINE
  8
0
 62
7
  6
CONTINUOUS
 10
322.2557999863
 20
216.7226869168
 11
322.1788983196
 21
216.7268192465
  0
LINE
  8
0
 62
7
  6
CONTINUOUS
 10
322.1788983196
 20
216.7268192465
 11
322.1177422911
 21
216.730405007
  0
LINE
  8
0
 62
7
  6
CONTINUOUS
 10
322.1177422911
 20
216.730405007
 11
322.0764907487
 21
216.7330354873
  0
LINE
  8
0
 62
7
  6
CONTINUOUS
 10
322.0764907487
 20
216.7330354873
 11
322.0487458778
 21
216.7349358014
  0
LINE
  8
0
 62
7
  6
CONTINUOUS
 10
322.0487458778
 20
216.7349358014
 11
322.0249496511
 21
216.7366761568
  0
LINE
  8
0
 62
7
  6
CONTINUOUS
 10
322.0249496511
 20
216.7366761568
 11
322.0045453546
 21
216.7382734907
  0
LINE
  8
0
 62
7
  6
CONTINUOUS
 10
322.0045453546
 20
216.7382734907
 11
321.9911778234
 21
216.7393868892
  0
LINE
  8
0
 62
7
  6
CONTINUOUS
 10
321.9911778234
 20
216.7393868892
 11
321.9792752352
 21
216.7404340377
  0
LINE
  8
0
 62
7
  6
CONTINUOUS
 10
321.9792752352
 20
216.7404340377
 11
321.9686820006
 21
216.7414202604
  0
LINE
  8
0
 62
7
  6
CONTINUOUS
 10
321.9686820006
 20
216.7414202604
 11
321.9592485223
 21
216.7423515587
  0
LINE
  8
0
 62
7
  6
CONTINUOUS
 10
321.9592485223
 20
216.7423515587
 11
321.9508514019
 21
216.7432327206
  0
LINE
  8
0
 62
7
  6
CONTINUOUS
 10
321.9508514019
 20
216.7432327206
 11
321.9457740002
 21
216.7437945663
  0
LINE
  8
0
 62
7
  6
CONTINUOUS
 10
321.9457740002
 20
216.7437945663
 11
321.9410782433
 21
216.7443374556
  0
LINE
  8
0
 62
7
  6
CONTINUOUS
 10
321.9410782433
 20
216.7443374556
 11
321.9367366584
 21
216.7448626615
  0
LINE
  8
0
 62
7
  6
CONTINUOUS
 10
321.9367366584
 20
216.7448626615
 11
321.9327238272
 21
216.7453714367
  0
LINE
  8
0
 62
7
  6
CONTINUOUS
 10
321.9327238272
 20
216.7453714367
 11
321.9290162295
 21
216.7458650262
  0
LINE
  8
0
 62
7
  6
CONTINUOUS
 10
321.9290162295
 20
216.7458650262
 11
321.9255921146
 21
216.7463446804
  0
POLYLINE
  8
0
 62
7
  6
CONTINUOUS
 66
1
 70
0
  0
VERTEX
  8
0
 62
7
  6
CONTINUOUS
 10
321.9255921146
 20
216.7463446804
  0
VERTEX
  8
0
 62
7
  6
CONTINUOUS
 10
321.9224313558
 20
216.7468116746
  0
VERTEX
  8
0
 62
7
  6
CONTINUOUS
 10
321.9209438189
 20
216.7470408362
  0
VERTEX
  8
0
 62
7
  6
CONTINUOUS
 10
321.9195155655
 20
216.7472672961
  0
VERTEX
  8
0
 62
7
  6
CONTINUOUS
 10
321.9181448193
 20
216.7474911447
  0
VERTEX
  8
0
 62
7
  6
CONTINUOUS
 10
321.9168290739
 20
216.7477126775
  0
VERTEX
  8
0
 62
7
  6
CONTINUOUS
 10
321.9155658074
 20
216.7479321433
  0
VERTEX
  8
0
 62
7
  6
CONTINUOUS
 10
321.9143532895
 20
216.7481497727
  0
VERTEX
  8
0
 62
7
  6
CONTINUOUS
 10
321.9131894206
 20
216.7483658012
  0
VERTEX
  8
0
 62
7
  6
CONTINUOUS
 10
321.9120727863
 20
216.7485804628
  0
VERTEX
  8
0
 62
7
  6
CONTINUOUS
 10
321.9110017582
 20
216.7487939623
  0
VERTEX
  8
0
 62
7
  6
CONTINUOUS
 10
321.9099748791
 20
216.7490066234
  0
VERTEX
  8
0
 62
7
  6
CONTINUOUS
 10
321.9089905475
 20
216.7492187091
  0
VERTEX
  8
0
 62
7
  6
CONTINUOUS
 10
321.9080475679
 20
216.7494306062
  0
VERTEX
  8
0
 62
7
  6
CONTINUOUS
 10
321.9071445454
 20
216.7496426182
  0
VERTEX
  8
0
 62
7
  6
CONTINUOUS
 10
321.9062804766
 20
216.7498552582
  0
VERTEX
  8
0
 62
7
  6
CONTINUOUS
 10
321.9054541388
 20
216.7500689009
  0
VERTEX
  8
0
 62
7
  6
CONTINUOUS
 10
321.9046647955
 20
216.7502842642
  0
VERTEX
  8
0
 62
7
  6
CONTINUOUS
 10
321.9039113874
 20
216.7505018401
  0
VERTEX
  8
0
 62
7
  6
CONTINUOUS
 10
321.9031936609
 20
216.7507226807
  0
VERTEX
  8
0
 62
7
  6
CONTINUOUS
 10
321.9025108271
 20
216.7509474331
  0
VERTEX
  8
0
 62
7
  6
CONTINUOUS
 10
321.9018634321
 20
216.7511778048
  0
VERTEX
  8
0
 62
7
  6
CONTINUOUS
 10
321.9012511806
 20
216.7514145557
  0
VERTEX
  8
0
 62
7
  6
CONTINUOUS
 10
321.9006758077
 20
216.7516611767
  0
VERTEX
  8
0
 62
7
  6
CONTINUOUS
 10
321.9001362312
 20
216.7519190321
  0
VERTEX
  8
0
 62
7
  6
CONTINUOUS
 10
321.8996406069
 20
216.7521952621
  0
VERTEX
  8
0
 62
7
  6
CONTINUOUS
 10
321.8991854471
 20
216.7524885257
  0
VERTEX
  8
0
 62
7
  6
CONTINUOUS
 10
321.8988046007
 20
216.7528256317
  0
VERTEX
  8
0
 62
7
  6
CONTINUOUS
 10
321.8985348401
 20
216.7532362376
  0
VERTEX
  8
0
 62
7
  6
CONTINUOUS
 10
321.8983639078
 20
216.7537104575
  0
SEQEND
  0
LINE
  8
0
 62
7
  6
CONTINUOUS
 10
130.4027271755
 20
239.3750865036
 11
140.9027271755
 21
239.3750865036
  0
LINE
  8
0
 62
7
  6
CONTINUOUS
 10
411.9027271755
 20
239.3750865036
 11
422.4027271755
 21
239.3750865036
  0
LINE
  8
0
 62
7
  6
CONTINUOUS
 10
154.6027271755
 20
252.3750865036
 11
140.9027271755
 21
252.3750865036
  0
LINE
  8
0
 62
7
  6
CONTINUOUS
 10
398.2027271755
 20
252.3750865036
 11
411.9027271755
 21
252.3750865036
  0
LINE
  8
0
 62
7
  6
CONTINUOUS
 10
322.5233156409
 20
265.2830096016
 11
322.5957134553
 21
265.2947318671
  0
LINE
  8
0
 62
7
  6
CONTINUOUS
 10
322.5957134553
 20
265.2947318671
 11
322.6748278611
 21
265.306866665
  0
LINE
  8
0
 62
7
  6
CONTINUOUS
 10
322.6748278611
 20
265.306866665
 11
322.7612298903
 21
265.3194340332
  0
LINE
  8
0
 62
7
  6
CONTINUOUS
 10
322.7612298903
 20
265.3194340332
 11
322.8555229872
 21
265.3324523225
  0
LINE
  8
0
 62
7
  6
CONTINUOUS
 10
322.8555229872
 20
265.3324523225
 11
322.9583745166
 21
265.3459425167
  0
LINE
  8
0
 62
7
  6
CONTINUOUS
 10
322.9583745166
 20
265.3459425167
 11
323.0705060388
 21
265.3599260618
  0
LINE
  8
0
 62
7
  6
CONTINUOUS
 10
323.0705060388
 20
265.3599260618
 11
323.1927033252
 21
265.3744255885
  0
LINE
  8
0
 62
7
  6
CONTINUOUS
 10
323.1927033252
 20
265.3744255885
 11
323.3258036802
 21
265.3894630142
  0
LINE
  8
0
 62
7
  6
CONTINUOUS
 10
323.3258036802
 20
265.3894630142
 11
323.4707612517
 21
265.4050659787
  0
LINE
  8
0
 62
7
  6
CONTINUOUS
 10
323.4707612517
 20
265.4050659787
 11
323.6286468967
 21
265.4212665232
  0
LINE
  8
0
 62
7
  6
CONTINUOUS
 10
323.6286468967
 20
265.4212665232
 11
323.8005432012
 21
265.4380894978
  0
LINE
  8
0
 62
7
  6
CONTINUOUS
 10
323.8005432012
 20
265.4380894978
 11
323.9875973204
 21
265.4555584283
  0
LINE
  8
0
 62
7
  6
CONTINUOUS
 10
323.9875973204
 20
265.4555584283
 11
324.1910812245
 21
265.4737008639
  0
LINE
  8
0
 62
7
  6
CONTINUOUS
 10
324.1910812245
 20
265.4737008639
 11
324.4123597463
 21
265.4925445056
  0
LINE
  8
0
 62
7
  6
CONTINUOUS
 10
324.4123597463
 20
265.4925445056
 11
324.6529548907
 21
265.5121217439
  0
LINE
  8
0
 62
7
  6
CONTINUOUS
 10
324.6529548907
 20
265.5121217439
 11
324.9145767203
 21
265.5324707887
  0
LINE
  8
0
 62
7
  6
CONTINUOUS
 10
324.9145767203
 20
265.5324707887
 11
325.1990087103
 21
265.5536256242
  0
LINE
  8
0
 62
7
  6
CONTINUOUS
 10
325.1990087103
 20
265.5536256242
 11
325.5081098031
 21
265.575616429
  0
LINE
  8
0
 62
7
  6
CONTINUOUS
 10
325.5081098031
 20
265.575616429
 11
325.8439357042
 21
265.5984780456
  0
POLYLINE
  8
0
 62
7
  6
CONTINUOUS
 66
1
 70
0
  0
VERTEX
  8
0
 62
7
  6
CONTINUOUS
 10
325.8439357042
 20
265.5984780456
  0
VERTEX
  8
0
 62
7
  6
CONTINUOUS
 10
326.2088814758
 20
265.6222502984
  0
VERTEX
  8
0
 62
7
  6
CONTINUOUS
 10
326.4027271755
 20
265.6344849892
  0
SEQEND
  0
LINE
  8
0
 62
9
  6
CONTINUOUS
 10
321.8983639078
 20
265.0750865036
 11
330.9070904433
 21
265.0750865036
  0
LINE
  8
0
 62
7
  6
CONTINUOUS
 10
339.0027271755
 20
269.0750865036
 11
314.4027271755
 21
269.0750865036
  0
LINE
  8
0
 62
7
  6
CONTINUOUS
 10
213.8027271755
 20
269.0750865036
 11
238.4027271755
 21
269.0750865036
  0
LINE
  8
0
 62
7
  6
CONTINUOUS
 10
422.4027271755
 20
269.3750865036
 11
398.2027271755
 21
269.3750865036
  0
LINE
  8
0
 62
7
  6
CONTINUOUS
 10
154.6027271755
 20
269.3750865036
 11
130.4027271755
 21
269.3750865036
  0
LINE
  8
KONSTRUKTIONSELEMENTE
 62
3
  6
CONTINUOUS
 10
154.6027271755
 20
269.3750865036
 11
398.2027271755
 21
269.3750865036
  0
LINE
  8
KONSTRUKTIONSELEMENTE
 62
7
  6
CONTINUOUS
 10
128.4027271755
 20
269.5750865036
 11
130.4027271755
 21
269.5750865036
  0
LINE
  8
KONSTRUKTIONSELEMENTE
 62
7
  6
CONTINUOUS
 10
422.4027271755
 20
269.5750865036
 11
424.4027271755
 21
269.5750865036
  0
LINE
  8
KONSTRUKTIONSELEMENTE
 62
7
  6
CONTINUOUS
 10
128.6027271755
 20
270.3750865036
 11
424.2027271755
 21
270.3750865036
  0
LINE
  8
FASEN
 62
7
  6
CONTINUOUS
 10
128.4027271755
 20
270.5750865036
 11
126.4027271755
 21
270.5750865036
  0
LINE
  8
BEZUGSACHSEN
 62
7
  6
CONTINUOUS
 10
424.4027271755
 20
270.5750865036
 11
426.4027271755
 21
270.5750865036
  0
LINE
  8
FASEN
 62
7
  6
CONTINUOUS
 10
128.4027271755
 20
272.5750865036
 11
126.4027271755
 21
272.5750865036
  0
LINE
  8
BEZUGSACHSEN
 62
7
  6
CONTINUOUS
 10
424.4027271755
 20
272.5750865036
 11
426.4027271755
 21
272.5750865036
  0
LINE
  8
0
 62
7
  6
CONTINUOUS
 10
326.7828846739
 20
265.6102472254
 11
326.4027271755
 21
265.6344849892
  0
LINE
  8
0
 62
7
  6
CONTINUOUS
 10
327.1329065684
 20
265.5869359327
 11
326.7828846739
 21
265.6102472254
  0
LINE
  8
0
 62
7
  6
CONTINUOUS
 10
327.4550956572
 20
265.5645147051
 11
327.1329065684
 21
265.5869359327
  0
LINE
  8
0
 62
7
  6
CONTINUOUS
 10
327.7516225899
 20
265.5429456506
 11
327.4550956572
 21
265.5645147051
  0
LINE
  8
0
 62
7
  6
CONTINUOUS
 10
328.0244274036
 20
265.5221972808
 11
327.7516225899
 21
265.5429456506
  0
LINE
  8
0
 62
7
  6
CONTINUOUS
 10
328.2753121931
 20
265.5022390585
 11
328.0244274036
 21
265.5221972808
  0
LINE
  8
0
 62
7
  6
CONTINUOUS
 10
328.506042415
 20
265.4830335008
 11
328.2753121931
 21
265.5022390585
  0
LINE
  8
0
 62
7
  6
CONTINUOUS
 10
328.7182503932
 20
265.4645436634
 11
328.506042415
 21
265.4830335008
  0
LINE
  8
0
 62
7
  6
CONTINUOUS
 10
328.9133530569
 20
265.4467415967
 11
328.7182503932
 21
265.4645436634
  0
LINE
  8
0
 62
7
  6
CONTINUOUS
 10
329.0926761461
 20
265.4295989871
 11
328.9133530569
 21
265.4467415967
  0
LINE
  8
0
 62
7
  6
CONTINUOUS
 10
329.2574340358
 20
265.4130896263
 11
329.0926761461
 21
265.4295989871
  0
LINE
  8
0
 62
7
  6
CONTINUOUS
 10
329.4087193107
 20
265.3971915531
 11
329.2574340358
 21
265.4130896263
  0
LINE
  8
0
 62
7
  6
CONTINUOUS
 10
329.5476143819
 20
265.3818759681
 11
329.4087193107
 21
265.3971915531
  0
LINE
  8
0
 62
7
  6
CONTINUOUS
 10
329.6751584641
 20
265.3671098376
 11
329.5476143819
 21
265.3818759681
  0
LINE
  8
0
 62
7
  6
CONTINUOUS
 10
329.7922198909
 20
265.3528712821
 11
329.6751584641
 21
265.3671098376
  0
LINE
  8
0
 62
7
  6
CONTINUOUS
 10
329.8996178178
 20
265.3391371208
 11
329.7922198909
 21
265.3528712821
  0
LINE
  8
0
 62
7
  6
CONTINUOUS
 10
329.9981035628
 20
265.3258855215
 11
329.8996178178
 21
265.3391371208
  0
LINE
  8
0
 62
7
  6
CONTINUOUS
 10
330.0883707135
 20
265.3130953384
 11
329.9981035628
 21
265.3258855215
  0
LINE
  8
0
 62
7
  6
CONTINUOUS
 10
330.1710592974
 20
265.3007460869
 11
330.0883707135
 21
265.3130953384
  0
LINE
  8
0
 62
7
  6
CONTINUOUS
 10
314.4027271755
 20
216.5750865036
 11
314.4027271755
 21
269.0750865036
  0
LINE
  8
0
 62
7
  6
CONTINUOUS
 10
321.8983639078
 20
216.7537104575
 11
321.8983639078
 21
265.0750865036
  0
LINE
  8
0
 62
7
  6
CONTINUOUS
 10
326.1668732792
 20
216.6013360728
 11
326.1668732792
 21
216.5899573517
  0
LINE
  8
KONSTRUKTIONSELEMENTE
 62
7
  6
CONTINUOUS
 10
326.4027271755
 20
216.6750865042
 11
326.4027271755
 21
265.0750865036
  0
LINE
  8
0
 62
7
  6
CONTINUOUS
 10
326.4027271755
 20
265.0750865036
 11
326.4027271755
 21
265.6344849892
  0
POLYLINE
  8
0
 62
7
  6
CONTINUOUS
 66
1
 70
0
  0
VERTEX
  8
0
 62
7
  6
CONTINUOUS
 10
321.8983639078
 20
265.0750865036
  0
VERTEX
  8
0
 62
7
  6
CONTINUOUS
 10
321.8984804845
 20
265.0780761293
  0
VERTEX
  8
0
 62
7
  6
CONTINUOUS
 10
321.8988975194
 20
265.0811600513
  0
VERTEX
  8
0
 62
7
  6
CONTINUOUS
 10
321.899603221
 20
265.0843407843
  0
VERTEX
  8
0
 62
7
  6
CONTINUOUS
 10
321.9006329634
 20
265.0876107843
  0
VERTEX
  8
0
 62
7
  6
CONTINUOUS
 10
321.9020095424
 20
265.0909622802
  0
VERTEX
  8
0
 62
7
  6
CONTINUOUS
 10
321.9037589013
 20
265.0943984671
  0
VERTEX
  8
0
 62
7
  6
CONTINUOUS
 10
321.905913687
 20
265.0979282765
  0
VERTEX
  8
0
 62
7
  6
CONTINUOUS
 10
321.908476584
 20
265.1015267287
  0
VERTEX
  8
0
 62
7
  6
CONTINUOUS
 10
321.9114602975
 20
265.1051738753
  0
VERTEX
  8
0
 62
7
  6
CONTINUOUS
 10
321.9148674124
 20
265.1088635535
  0
VERTEX
  8
0
 62
7
  6
CONTINUOUS
 10
321.9187033774
 20
265.1125835476
  0
VERTEX
  8
0
 62
7
  6
CONTINUOUS
 10
321.9229723066
 20
265.1163320673
  0
VERTEX
  8
0
 62
7
  6
CONTINUOUS
 10
321.9276787566
 20
265.1201036432
  0
VERTEX
  8
0
 62
7
  6
CONTINUOUS
 10
321.9328268493
 20
265.1238970978
  0
VERTEX
  8
0
 62
7
  6
CONTINUOUS
 10
321.9384194616
 20
265.1277089352
  0
VERTEX
  8
0
 62
7
  6
CONTINUOUS
 10
321.9444648851
 20
265.1315406405
  0
VERTEX
  8
0
 62
7
  6
CONTINUOUS
 10
321.9509689443
 20
265.135391986
  0
VERTEX
  8
0
 62
7
  6
CONTINUOUS
 10
321.9579419168
 20
265.1392646136
  0
VERTEX
  8
0
 62
7
  6
CONTINUOUS
 10
321.9653893419
 20
265.1431583761
  0
VERTEX
  8
0
 62
7
  6
CONTINUOUS
 10
321.9733312593
 20
265.1470784136
  0
VERTEX
  8
0
 62
7
  6
CONTINUOUS
 10
321.9817845482
 20
265.1510294401
  0
VERTEX
  8
0
 62
7
  6
CONTINUOUS
 10
321.9907642309
 20
265.155012586
  0
VERTEX
  8
0
 62
7
  6
CONTINUOUS
 10
322.0002846853
 20
265.1590298516
  0
VERTEX
  8
0
 62
7
  6
CONTINUOUS
 10
322.0103647239
 20
265.1630833409
  0
VERTEX
  8
0
 62
7
  6
CONTINUOUS
 10
322.0210209209
 20
265.1671751235
  0
VERTEX
  8
0
 62
7
  6
CONTINUOUS
 10
322.0322743692
 20
265.1713073037
  0
VERTEX
  8
0
 62
7
  6
CONTINUOUS
 10
322.0441426517
 20
265.1754816042
  0
VERTEX
  8
0
 62
7
  6
CONTINUOUS
 10
322.0566528731
 20
265.1797012392
  0
VERTEX
  8
0
 62
7
  6
CONTINUOUS
 10
322.0698280124
 20
265.1839690068
  0
VERTEX
  8
0
 62
7
  6
CONTINUOUS
 10
322.0836980305
 20
265.188287879
  0
VERTEX
  8
0
 62
7
  6
CONTINUOUS
 10
322.0982915397
 20
265.1926613432
  0
VERTEX
  8
0
 62
7
  6
CONTINUOUS
 10
322.1136355653
 20
265.1970906521
  0
VERTEX
  8
0
 62
7
  6
CONTINUOUS
 10
322.1297557572
 20
265.2015774798
  0
VERTEX
  8
0
 62
7
  6
CONTINUOUS
 10
322.1466848535
 20
265.2061240498
  0
VERTEX
  8
0
 62
7
  6
CONTINUOUS
 10
322.1644523045
 20
265.2107324274
  0
VERTEX
  8
0
 62
7
  6
CONTINUOUS
 10
322.1830936236
 20
265.2154047601
  0
VERTEX
  8
0
 62
7
  6
CONTINUOUS
 10
322.2026415665
 20
265.2201432362
  0
VERTEX
  8
0
 62
7
  6
CONTINUOUS
 10
322.2231338554
 20
265.2249497981
  0
VERTEX
  8
0
 62
7
  6
CONTINUOUS
 10
322.2446037911
 20
265.2298261145
  0
VERTEX
  8
0
 62
7
  6
CONTINUOUS
 10
322.2670973921
 20
265.2347751942
  0
VERTEX
  8
0
 62
7
  6
CONTINUOUS
 10
322.2906547014
 20
265.2397995619
  0
VERTEX
  8
0
 62
7
  6
CONTINUOUS
 10
322.3153269468
 20
265.2449023382
  0
VERTEX
  8
0
 62
7
  6
CONTINUOUS
 10
322.3411638917
 20
265.2500871568
  0
VERTEX
  8
0
 62
7
  6
CONTINUOUS
 10
322.3682099723
 20
265.2553550039
  0
VERTEX
  8
0
 62
7
  6
CONTINUOUS
 10
322.3965071799
 20
265.2607071568
  0
VERTEX
  8
0
 62
7
  6
CONTINUOUS
 10
322.4261126136
 20
265.2661463753
  0
VERTEX
  8
0
 62
7
  6
CONTINUOUS
 10
322.4570778082
 20
265.2716751125
  0
VERTEX
  8
0
 62
7
  6
CONTINUOUS
 10
322.4894614483
 20
265.2772955658
  0
VERTEX
  8
0
 62
7
  6
CONTINUOUS
 10
322.5233156409
 20
265.2830096016
  0
SEQEND
  0
POLYLINE
  8
0
 62
7
  6
CONTINUOUS
 66
1
 70
0
  0
VERTEX
  8
0
 62
7
  6
CONTINUOUS
 10
326.4027271755
 20
216.6750865041
  0
VERTEX
  8
0
 62
7
  6
CONTINUOUS
 10
326.402642899
 20
216.6732944623
  0
VERTEX
  8
0
 62
7
  6
CONTINUOUS
 10
326.4023525488
 20
216.6714549777
  0
VERTEX
  8
0
 62
7
  6
CONTINUOUS
 10
326.401864188
 20
216.6695690551
  0
VERTEX
  8
0
 62
7
  6
CONTINUOUS
 10
326.4011536274
 20
216.6676336803
  0
VERTEX
  8
0
 62
7
  6
CONTINUOUS
 10
326.4001986911
 20
216.6656382451
  0
VERTEX
  8
0
 62
7
  6
CONTINUOUS
 10
326.3990014024
 20
216.6636065356
  0
VERTEX
  8
0
 62
7
  6
CONTINUOUS
 10
326.3975548139
 20
216.6615569948
  0
VERTEX
  8
0
 62
7
  6
CONTINUOUS
 10
326.3958636622
 20
216.6594950441
  0
VERTEX
  8
0
 62
7
  6
CONTINUOUS
 10
326.3939293321
 20
216.6574317938
  0
VERTEX
  8
0
 62
7
  6
CONTINUOUS
 10
326.3917549327
 20
216.6553686201
  0
VERTEX
  8
0
 62
7
  6
CONTINUOUS
 10
326.3893440231
 20
216.6533108214
  0
VERTEX
  8
0
 62
7
  6
CONTINUOUS
 10
326.3866966391
 20
216.6512577406
  0
VERTEX
  8
0
 62
7
  6
CONTINUOUS
 10
326.3838148064
 20
216.6492108616
  0
VERTEX
  8
0
 62
7
  6
CONTINUOUS
 10
326.3806961133
 20
216.6471690603
  0
VERTEX
  8
0
 62
7
  6
CONTINUOUS
 10
326.3773403105
 20
216.645132101
  0
VERTEX
  8
0
 62
7
  6
CONTINUOUS
 10
326.3737429369
 20
216.6430988019
  0
VERTEX
  8
0
 62
7
  6
CONTINUOUS
 10
326.3699015064
 20
216.6410682505
  0
VERTEX
  8
0
 62
7
  6
CONTINUOUS
 10
326.3658098441
 20
216.6390394033
  0
VERTEX
  8
0
 62
7
  6
CONTINUOUS
 10
326.3614635096
 20
216.6370111901
  0
VERTEX
  8
0
 62
7
  6
CONTINUOUS
 10
326.3568548127
 20
216.6349827783
  0
VERTEX
  8
0
 62
7
  6
CONTINUOUS
 10
326.351977615
 20
216.6329531754
  0
VERTEX
  8
0
 62
7
  6
CONTINUOUS
 10
326.3468228212
 20
216.6309217902
  0
VERTEX
  8
0
 62
7
  6
CONTINUOUS
 10
326.3413827761
 20
216.6288878123
  0
VERTEX
  8
0
 62
7
  6
CONTINUOUS
 10
326.335647021
 20
216.6268509073
  0
VERTEX
  8
0
 62
7
  6
CONTINUOUS
 10
326.3296064882
 20
216.6248104916
  0
VERTEX
  8
0
 62
7
  6
CONTINUOUS
 10
326.3232493501
 20
216.6227665019
  0
VERTEX
  8
0
 62
7
  6
CONTINUOUS
 10
326.3165651673
 20
216.6207186042
  0
VERTEX
  8
0
 62
7
  6
CONTINUOUS
 10
326.3095407066
 20
216.6186670267
  0
VERTEX
  8
0
 62
7
  6
CONTINUOUS
 10
326.3021641599
 20
216.6166117043
  0
VERTEX
  8
0
 62
7
  6
CONTINUOUS
 10
326.2944208128
 20
216.6145531829
  0
VERTEX
  8
0
 62
7
  6
CONTINUOUS
 10
326.2862974511
 20
216.6124916872
  0
VERTEX
  8
0
 62
7
  6
CONTINUOUS
 10
326.277777766
 20
216.6104281158
  0
VERTEX
  8
0
 62
7
  6
CONTINUOUS
 10
326.268847054
 20
216.6083630076
  0
VERTEX
  8
0
 62
7
  6
CONTINUOUS
 10
326.2594872856
 20
216.6062976673
  0
VERTEX
  8
0
 62
7
  6
CONTINUOUS
 10
326.249682167
 20
216.604232986
  0
VERTEX
  8
0
 62
7
  6
CONTINUOUS
 10
326.239411787
 20
216.6021707421
  0
VERTEX
  8
0
 62
7
  6
CONTINUOUS
 10
326.2286581351
 20
216.600112231
  0
VERTEX
  8
0
 62
7
  6
CONTINUOUS
 10
326.2173992162
 20
216.5980597923
  0
VERTEX
  8
0
 62
7
  6
CONTINUOUS
 10
326.2056151325
 20
216.5960151909
  0
VERTEX
  8
0
 62
7
  6
CONTINUOUS
 10
326.1932815823
 20
216.5939814463
  0
VERTEX
  8
0
 62
7
  6
CONTINUOUS
 10
326.1803637644
 20
216.5919626176
  0
VERTEX
  8
0
 62
7
  6
CONTINUOUS
 10
326.1668732792
 20
216.5899573517
  0
SEQEND
  0
POLYLINE
  8
0
 62
7
  6
CONTINUOUS
 66
1
 70
0
  0
VERTEX
  8
0
 62
7
  6
CONTINUOUS
 10
330.9070904433
 20
265.0750865036
  0
VERTEX
  8
0
 62
7
  6
CONTINUOUS
 10
330.9069738665
 20
265.0780761293
  0
VERTEX
  8
0
 62
7
  6
CONTINUOUS
 10
330.9065568316
 20
265.0811600513
  0
VERTEX
  8
0
 62
7
  6
CONTINUOUS
 10
330.90585113
 20
265.0843407843
  0
VERTEX
  8
0
 62
7
  6
CONTINUOUS
 10
330.9048213876
 20
265.0876107843
  0
VERTEX
  8
0
 62
7
  6
CONTINUOUS
 10
330.9034448086
 20
265.0909622802
  0
VERTEX
  8
0
 62
7
  6
CONTINUOUS
 10
330.9016954498
 20
265.0943984671
  0
VERTEX
  8
0
 62
7
  6
CONTINUOUS
 10
330.8995406641
 20
265.0979282765
  0
VERTEX
  8
0
 62
7
  6
CONTINUOUS
 10
330.8969777671
 20
265.1015267287
  0
VERTEX
  8
0
 62
7
  6
CONTINUOUS
 10
330.8939940536
 20
265.1051738753
  0
VERTEX
  8
0
 62
7
  6
CONTINUOUS
 10
330.8905869386
 20
265.1088635535
  0
VERTEX
  8
0
 62
7
  6
CONTINUOUS
 10
330.8867509737
 20
265.1125835476
  0
VERTEX
  8
0
 62
7
  6
CONTINUOUS
 10
330.8824820444
 20
265.1163320673
  0
VERTEX
  8
0
 62
7
  6
CONTINUOUS
 10
330.8777755944
 20
265.1201036432
  0
VERTEX
  8
0
 62
7
  6
CONTINUOUS
 10
330.8726275017
 20
265.1238970978
  0
VERTEX
  8
0
 62
7
  6
CONTINUOUS
 10
330.8670348894
 20
265.1277089352
  0
VERTEX
  8
0
 62
7
  6
CONTINUOUS
 10
330.8609894659
 20
265.1315406405
  0
VERTEX
  8
0
 62
7
  6
CONTINUOUS
 10
330.8544854067
 20
265.135391986
  0
VERTEX
  8
0
 62
7
  6
CONTINUOUS
 10
330.8475124342
 20
265.1392646136
  0
VERTEX
  8
0
 62
7
  6
CONTINUOUS
 10
330.8400650092
 20
265.1431583761
  0
VERTEX
  8
0
 62
7
  6
CONTINUOUS
 10
330.8321230917
 20
265.1470784136
  0
VERTEX
  8
0
 62
7
  6
CONTINUOUS
 10
330.8236698028
 20
265.1510294401
  0
VERTEX
  8
0
 62
7
  6
CONTINUOUS
 10
330.8146901202
 20
265.155012586
  0
VERTEX
  8
0
 62
7
  6
CONTINUOUS
 10
330.8051696658
 20
265.1590298516
  0
VERTEX
  8
0
 62
7
  6
CONTINUOUS
 10
330.7950896271
 20
265.1630833409
  0
VERTEX
  8
0
 62
7
  6
CONTINUOUS
 10
330.7844334301
 20
265.1671751235
  0
VERTEX
  8
0
 62
7
  6
CONTINUOUS
 10
330.7731799818
 20
265.1713073037
  0
VERTEX
  8
0
 62
7
  6
CONTINUOUS
 10
330.7613116994
 20
265.1754816042
  0
VERTEX
  8
0
 62
7
  6
CONTINUOUS
 10
330.7488014779
 20
265.1797012392
  0
VERTEX
  8
0
 62
7
  6
CONTINUOUS
 10
330.7356263386
 20
265.1839690068
  0
VERTEX
  8
0
 62
7
  6
CONTINUOUS
 10
330.7217563205
 20
265.188287879
  0
VERTEX
  8
0
 62
7
  6
CONTINUOUS
 10
330.7071628113
 20
265.1926613432
  0
VERTEX
  8
0
 62
7
  6
CONTINUOUS
 10
330.6918187857
 20
265.1970906521
  0
VERTEX
  8
0
 62
7
  6
CONTINUOUS
 10
330.6756985938
 20
265.2015774798
  0
VERTEX
  8
0
 62
7
  6
CONTINUOUS
 10
330.6587694975
 20
265.2061240498
  0
VERTEX
  8
0
 62
7
  6
CONTINUOUS
 10
330.6410020465
 20
265.2107324274
  0
VERTEX
  8
0
 62
7
  6
CONTINUOUS
 10
330.6223607275
 20
265.2154047601
  0
VERTEX
  8
0
 62
7
  6
CONTINUOUS
 10
330.6028127845
 20
265.2201432362
  0
VERTEX
  8
0
 62
7
  6
CONTINUOUS
 10
330.5823204957
 20
265.2249497981
  0
VERTEX
  8
0
 62
7
  6
CONTINUOUS
 10
330.56085056
 20
265.2298261145
  0
VERTEX
  8
0
 62
7
  6
CONTINUOUS
 10
330.5383569589
 20
265.2347751942
  0
VERTEX
  8
0
 62
7
  6
CONTINUOUS
 10
330.5147996496
 20
265.2397995619
  0
VERTEX
  8
0
 62
7
  6
CONTINUOUS
 10
330.4901274042
 20
265.2449023382
  0
VERTEX
  8
0
 62
7
  6
CONTINUOUS
 10
330.4642904594
 20
265.2500871568
  0
VERTEX
  8
0
 62
7
  6
CONTINUOUS
 10
330.4372443787
 20
265.2553550039
  0
VERTEX
  8
0
 62
7
  6
CONTINUOUS
 10
330.4089471711
 20
265.2607071568
  0
VERTEX
  8
0
 62
7
  6
CONTINUOUS
 10
330.3793417374
 20
265.2661463753
  0
VERTEX
  8
0
 62
7
  6
CONTINUOUS
 10
330.3483765429
 20
265.2716751125
  0
VERTEX
  8
0
 62
7
  6
CONTINUOUS
 10
330.3159929027
 20
265.2772955658
  0
VERTEX
  8
0
 62
7
  6
CONTINUOUS
 10
330.2821387101
 20
265.2830096016
  0
VERTEX
  8
0
 62
7
  6
CONTINUOUS
 10
330.2467426969
 20
265.2888206662
  0
VERTEX
  8
0
 62
7
  6
CONTINUOUS
 10
330.1710592974
 20
265.3007460869
  0
SEQEND
  0
LINE
  8
0
 62
7
  6
CONTINUOUS
 10
330.9070904433
 20
265.0750865036
 11
330.9070904433
 21
216.7537104575
  0
POLYLINE
  8
0
 62
7
  6
CONTINUOUS
 66
1
 70
0
  0
VERTEX
  8
0
 62
7
  6
CONTINUOUS
 10
326.4023803306
 20
216.6717825755
  0
VERTEX
  8
0
 62
7
  6
CONTINUOUS
 10
326.4019308347
 20
216.6700836828
  0
VERTEX
  8
0
 62
7
  6
CONTINUOUS
 10
326.4012783491
 20
216.6683497801
  0
VERTEX
  8
0
 62
7
  6
CONTINUOUS
 10
326.4004038298
 20
216.6665705821
  0
VERTEX
  8
0
 62
7
  6
CONTINUOUS
 10
326.3993075863
 20
216.6647657709
  0
VERTEX
  8
0
 62
7
  6
CONTINUOUS
 10
326.3979816018
 20
216.662949198
  0
VERTEX
  8
0
 62
7
  6
CONTINUOUS
 10
326.3964318114
 20
216.6611280704
  0
VERTEX
  8
0
 62
7
  6
CONTINUOUS
 10
326.394660114
 20
216.6593137754
  0
VERTEX
  8
0
 62
7
  6
CONTINUOUS
 10
326.3926706018
 20
216.6575076244
  0
VERTEX
  8
0
 62
7
  6
CONTINUOUS
 10
326.3904675559
 20
216.6557149101
  0
VERTEX
  8
0
 62
7
  6
CONTINUOUS
 10
326.3880523078
 20
216.6539350766
  0
VERTEX
  8
0
 62
7
  6
CONTINUOUS
 10
326.3854280685
 20
216.6521697463
  0
VERTEX
  8
0
 62
7
  6
CONTINUOUS
 10
326.3825934805
 20
216.6504176775
  0
VERTEX
  8
0
 62
7
  6
CONTINUOUS
 10
326.3795498996
 20
216.6486788168
  0
VERTEX
  8
0
 62
7
  6
CONTINUOUS
 10
326.3762923977
 20
216.6469512216
  0
VERTEX
  8
0
 62
7
  6
CONTINUOUS
 10
326.3728185288
 20
216.645233343
  0
VERTEX
  8
0
 62
7
  6
CONTINUOUS
 10
326.369122203
 20
216.6435239467
  0
VERTEX
  8
0
 62
7
  6
CONTINUOUS
 10
326.3651983693
 20
216.6418213606
  0
VERTEX
  8
0
 62
7
  6
CONTINUOUS
 10
326.3610414655
 20
216.6401253484
  0
VERTEX
  8
0
 62
7
  6
CONTINUOUS
 10
326.356646738
 20
216.6384352616
  0
VERTEX
  8
0
 62
7
  6
CONTINUOUS
 10
326.3520067095
 20
216.6367506636
  0
VERTEX
  8
0
 62
7
  6
CONTINUOUS
 10
326.3471151948
 20
216.6350709731
  0
VERTEX
  8
0
 62
7
  6
CONTINUOUS
 10
326.3419635643
 20
216.6333959749
  0
VERTEX
  8
0
 62
7
  6
CONTINUOUS
 10
326.3365443608
 20
216.6317252502
  0
VERTEX
  8
0
 62
7
  6
CONTINUOUS
 10
326.3308478821
 20
216.6300588282
  0
VERTEX
  8
0
 62
7
  6
CONTINUOUS
 10
326.324865631
 20
216.6283965288
  0
VERTEX
  8
0
 62
7
  6
CONTINUOUS
 10
326.3185865366
 20
216.6267385615
  0
VERTEX
  8
0
 62
7
  6
CONTINUOUS
 10
326.3120004978
 20
216.6250848564
  0
VERTEX
  8
0
 62
7
  6
CONTINUOUS
 10
326.3050961081
 20
216.6234360718
  0
VERTEX
  8
0
 62
7
  6
CONTINUOUS
 10
326.2978641253
 20
216.6217928039
  0
VERTEX
  8
0
 62
7
  6
CONTINUOUS
 10
326.2902879555
 20
216.6201551698
  0
VERTEX
  8
0
 62
7
  6
CONTINUOUS
 10
326.2823527254
 20
216.6185230542
  0
VERTEX
  8
0
 62
7
  6
CONTINUOUS
 10
326.2740440321
 20
216.616897751
  0
VERTEX
  8
0
 62
7
  6
CONTINUOUS
 10
326.2653477716
 20
216.6152799888
  0
VERTEX
  8
0
 62
7
  6
CONTINUOUS
 10
326.2562481738
 20
216.6136713489
  0
VERTEX
  8
0
 62
7
  6
CONTINUOUS
 10
326.2467307908
 20
216.6120730481
  0
VERTEX
  8
0
 62
7
  6
CONTINUOUS
 10
326.2367775519
 20
216.6104869083
  0
VERTEX
  8
0
 62
7
  6
CONTINUOUS
 10
326.2263721826
 20
216.6089143971
  0
VERTEX
  8
0
 62
7
  6
CONTINUOUS
 10
326.2154948466
 20
216.6073577934
  0
VERTEX
  8
0
 62
7
  6
CONTINUOUS
 10
326.2041274499
 20
216.6058189167
  0
VERTEX
  8
0
 62
7
  6
CONTINUOUS
 10
326.19224849
 20
216.6043006119
  0
VERTEX
  8
0
 62
7
  6
CONTINUOUS
 10
326.1798269914
 20
216.6028067621
  0
VERTEX
  8
0
 62
7
  6
CONTINUOUS
 10
326.1668732792
 20
216.6013360728
  0
SEQEND
  0
LINE
  8
0
 62
7
  6
CONTINUOUS
 10
339.0027271755
 20
216.5750865036
 11
339.0027271755
 21
269.0750865036
  0
LINE
  8
BEZUGSACHSEN
 62
7
  6
CONTINUOUS
 10
371.4027271755
 20
216.6750865036
 11
371.4027271755
 21
218.5750865036
  0
LINE
  8
BEZUGSACHSEN
 62
7
  6
CONTINUOUS
 10
381.4027271755
 20
216.6750865036
 11
381.4027271755
 21
218.5750865036
  0
LINE
  8
0
 62
7
  6
CONTINUOUS
 10
398.2027271755
 20
269.3750865036
 11
398.2027271755
 21
252.3750865036
  0
LINE
  8
0
 62
7
  6
CONTINUOUS
 10
411.9027271755
 20
252.3750865036
 11
411.9027271755
 21
239.3750865036
  0
LINE
  8
KONSTRUKTIONSELEMENTE
 62
7
  6
CONTINUOUS
 10
422.4027271755
 20
219.5750865036
 11
422.4027271755
 21
269.5750865036
  0
LINE
  8
KONSTRUKTIONSELEMENTE
 62
9
  6
CONTINUOUS
 10
423.4027271755
 20
214.5750865036
 11
423.4027271755
 21
216.5750865036
  0
LINE
  8
KONSTRUKTIONSELEMENTE
 62
7
  6
CONTINUOUS
 10
424.2027271755
 20
269.5750865036
 11
424.2027271755
 21
270.3750865036
  0
LINE
  8
BEZUGSACHSEN
 62
7
  6
CONTINUOUS
 10
424.4027271755
 20
217.5750865036
 11
424.4027271755
 21
272.5750865036
  0
LINE
  8
BEZUGSACHSEN
 62
3
  6
CONTINUOUS
 10
426.4027271755
 20
217.5750865036
 11
426.4027271755
 21
272.5750865036
  0
ARC
  8
KONSTRUKTIONSELEMENTE
 62
3
  6
CONTINUOUS
 10
129.4027271755
 20
217.5750865036
 40
3.0
 50
180.0
 51
270.0
  0
ARC
  8
KONSTRUKTIONSELEMENTE
 62
3
  6
CONTINUOUS
 10
423.4027271755
 20
217.5750865036
 40
3.0
 50
270.0
 51
360.0
  0
ARC
  8
KONSTRUKTIONSELEMENTE
 62
7
  6
CONTINUOUS
 10
129.4027271755
 20
217.5750865036
 40
1.0
 50
180.0
 51
270.0
  0
ARC
  8
KONSTRUKTIONSELEMENTE
 62
7
  6
CONTINUOUS
 10
423.4027271755
 20
217.5750865036
 40
1.0
 50
270.0
 51
360.0
  0
ARC
  8
BEZUGSACHSEN
 62
7
  6
CONTINUOUS
 10
371.3027271755
 20
216.6750865036
 40
0.1
 50
270.0
 51
360.0
  0
ARC
  8
BEZUGSACHSEN
 62
7
  6
CONTINUOUS
 10
381.5027271755
 20
216.6750865036
 40
0.1
 50
180.0
 51
270.0
  0
ARC
  8
BEZUGSACHSEN
 62
7
  6
CONTINUOUS
 10
181.5027271755
 20
216.6750865036
 40
0.1
 50
180.0
 51
270.0
  0
ARC
  8
BEZUGSACHSEN
 62
7
  6
CONTINUOUS
 10
171.3027271755
 20
216.6750865036
 40
0.1
 50
270.0
 51
360.0
  0
ENDSEC
  0
EOF
