999
DXF file: bkg3008011.dxf
999
Pro/ENGINEER 2022024 by Parametric Technology Corporation
  0
SECTION
  2
HEADER
  9
$EXTMAX
 10
594.0
 20
420.0
 30
0.0
  9
$EXTMIN
 10
0.0
 20
0.0
 30
0.0
  9
$LIMMIN
 10
0.0
 20
0.0
  9
$LIMMAX
 10
594.0
 20
420.0
  9
$VIEWCTR
 10
297.0
 20
210.0
  9
$VIEWSIZE
 40
420.0
  9
$CLAYER
  8
0
  9
$LTSCALE
 40
32.67
  9
$CELTYPE
  6
BYLAYER
  9
$DIMSCALE
 40
1.0
  9
$DIMASZ
 40
3.5
  9
$DIMEXO
 40
0.0
  9
$DIMDLI
 40
22.572
  9
$DIMEXE
 40
1.5
  9
$DIMCEN
 40
5.346
  9
$DIMLFAC
 40
1.0
  9
$DIMBLK
  1
_FILLED
  9
$DIMALT
 70
0
  9
$DIMALTF
 40
0.0393700787
  9
$DIMTXT
 40
3.5
  9
$AUNITS
 70
0
  9
$PDMODE
 70
3
  9
$PDSIZE
 40
0.3125
  9
$TILEMODE
 70
1
  0
ENDSEC
  0
SECTION
  2
TABLES
  0
TABLE
  2
LTYPE
 70
6
  0
LTYPE
  2
BYBLOCK
 70
0
  3

 72
65
 73
0
 40
0.0
  0
LTYPE
  2
BYLAYER
 70
0
  3

 72
65
 73
0
 40
0.0
  0
LTYPE
  2
CONTINUOUS
 70
64
  3
Solid line
 72
65
 73
0
 40
0.0
  0
LTYPE
  2
CENTER
 70
64
  3
____ _ ____ _ ____ _ ____ _ ____ _ ____ _ ____
 72
65
 73
4
 40
0.6
 49
0.375
 49
-0.075
 49
0.075
 49
-0.075
  0
LTYPE
  2
HIDDEN
 70
64
  3
- - - - - - - - - - - - - - - - - - - -
 72
65
 73
2
 40
0.2
 49
0.1
 49
-0.1
  0
LTYPE
  2
PHANTOM
 70
64
  3
_____ _ _ _____ _ _ _____ _ _ _____
 72
65
 73
6
 40
0.8
 49
0.45
 49
-0.05
 49
0.1
 49
-0.05
 49
0.1
 49
-0.05
  0
LTYPE
  2
DOT
 70
64
  3
. . . . . . . . . . . . . . . . . . . .
 72
65
 73
2
 40
0.2
 49
0.1
 49
-0.1
  0
LTYPE
  2
DASHED
 70
64
  3
- - - - - - - - - - - - - - - - - - - -
 72
65
 73
2
 40
0.2
 49
0.1
 49
-0.1
  0
ENDTAB
  0
TABLE
  2
LAYER
 70
36
  0
LAYER
  2
0
 70
0
 62
7
  6
CONTINUOUS
  0
LAYER
  2
DEFAULT_1
 70
0
 62
7
  6
CENTER
  0
LAYER
  2
DEFAULT_2
 70
0
 62
8
  6
HIDDEN
  0
LAYER
  2
DEFAULT_3
 70
0
 62
7
  6
PHANTOM
  0
LAYER
  2
01_STARTBEZUEGE
 70
0
 62
7
  6
CONTINUOUS
  0
LAYER
  2
ASSEMBLY
 70
0
 62
7
  6
CONTINUOUS
  0
LAYER
  2
AUSFORMSCHRAEGEN
 70
0
 62
7
  6
CONTINUOUS
  0
LAYER
  2
AXIS
 70
0
 62
7
  6
CONTINUOUS
  0
LAYER
  2
BEZUGSACHSEN
 70
0
 62
7
  6
CONTINUOUS
  0
LAYER
  2
BEZUGSEBENEN
 70
0
 62
7
  6
CONTINUOUS
  0
LAYER
  2
BEZUGSPUNKTE
 70
0
 62
7
  6
CONTINUOUS
  0
LAYER
  2
BOHRUNGEN
 70
0
 62
7
  6
CONTINUOUS
  0
LAYER
  2
CSYS
 70
0
 62
7
  6
CONTINUOUS
  0
LAYER
  2
FASEN
 70
0
 62
7
  6
CONTINUOUS
  0
LAYER
  2
FLAECHEN
 70
0
 62
7
  6
CONTINUOUS
  0
LAYER
  2
GEWINDE
 70
0
 62
7
  6
CONTINUOUS
  0
LAYER
  2
GTOL
 70
0
 62
7
  6
CONTINUOUS
  0
LAYER
  2
KONSTRUKTIONSELEMENTE
 70
0
 62
7
  6
CONTINUOUS
  0
LAYER
  2
KOORDINATENSYSTEME
 70
0
 62
7
  6
CONTINUOUS
  0
LAYER
  2
KURVEN
 70
0
 62
7
  6
CONTINUOUS
  0
LAYER
  2
NOTIZ
 70
0
 62
7
  6
CONTINUOUS
  0
LAYER
  2
PLANES
 70
0
 62
7
  6
CONTINUOUS
  0
LAYER
  2
RUNDUNGEN
 70
0
 62
7
  6
CONTINUOUS
  0
LAYER
  2
SKELETON_MODELS
 70
0
 62
7
  6
CONTINUOUS
  0
LAYER
  2
STARTBEZUEGE
 70
0
 62
7
  6
CONTINUOUS
  0
LAYER
  2
SURFACES
 70
0
 62
7
  6
CONTINUOUS
  0
LAYER
  2
VOLUMEN
 70
0
 62
7
  6
CONTINUOUS
  0
LAYER
  2
XSEC_DATUMS
 70
0
 62
7
  6
CONTINUOUS
  0
ENDTAB
  0
TABLE
  2
STYLE
 70
1
  0
STYLE
  2
STANDARD
 70
0
 40
0.0
 41
0.7
 50
0.0
 71
0
 42
0.2
  3
txt
  4

  0
STYLE
  2
TEXTSTYLE_1
 70
0
 40
0.0
 41
0.8
 50
0.0
 71
0
 42
0.2
  3
gdt
  4

  0
ENDTAB
  0
ENDSEC
  0
SECTION
  2
BLOCKS
  0
BLOCK
  8
0
  2
_FILLED
 70
64
 10
0.0
 20
0.0
  0
SOLID
  8
0
  6
BYBLOCK
 62
0
 10
0.0
 20
0.0
 11
-1.0
 21
0.125
 12
-1.0
 22
-0.125
 13
-1.0
 23
-0.125
  0
ENDBLK
  8
0
  6
BYBLOCK
 62
0
  0
ENDSEC
  0
SECTION
  2
ENTITIES
  0
LINE
  8
FASEN
 62
3
  6
CONTINUOUS
 10
134.6872890909
 20
211.5514717497
 11
134.6872890909
 21
286.5514717497
  0
LINE
  8
FASEN
 62
7
  6
CONTINUOUS
 10
136.6872890909
 20
211.5514717497
 11
136.6872890909
 21
286.5514717497
  0
LINE
  8
KONSTRUKTIONSELEMENTE
 62
7
  6
CONTINUOUS
 10
136.8872890909
 20
283.5514717497
 11
136.8872890909
 21
284.3514717497
  0
LINE
  8
KONSTRUKTIONSELEMENTE
 62
9
  6
CONTINUOUS
 10
137.6872890909
 20
208.5514717497
 11
137.6872890909
 21
210.5514717497
  0
LINE
  8
KONSTRUKTIONSELEMENTE
 62
7
  6
CONTINUOUS
 10
138.6872890909
 20
283.5514717497
 11
138.6872890909
 21
233.5514717497
  0
LINE
  8
0
 62
7
  6
CONTINUOUS
 10
149.1872890909
 20
253.3514717497
 11
149.1872890909
 21
266.3514717497
  0
LINE
  8
0
 62
7
  6
CONTINUOUS
 10
162.8872890909
 20
266.3514717497
 11
162.8872890909
 21
283.3514717497
  0
LINE
  8
BEZUGSACHSEN
 62
7
  6
CONTINUOUS
 10
179.6872890909
 20
212.5514717497
 11
179.6872890909
 21
210.6514717497
  0
LINE
  8
BEZUGSACHSEN
 62
7
  6
CONTINUOUS
 10
189.6872890909
 20
212.5514717497
 11
189.6872890909
 21
210.6514717497
  0
LINE
  8
0
 62
7
  6
CONTINUOUS
 10
222.0872890909
 20
283.0514717497
 11
222.0872890909
 21
210.5514717497
  0
POLYLINE
  8
0
 62
7
  6
CONTINUOUS
 66
1
 70
0
  0
VERTEX
  8
0
 62
7
  6
CONTINUOUS
 10
339.1690528663
 20
210.7234230203
  0
VERTEX
  8
0
 62
7
  6
CONTINUOUS
 10
339.1704844115
 20
210.7236499217
  0
VERTEX
  8
0
 62
7
  6
CONTINUOUS
 10
339.1718585719
 20
210.7238742571
  0
VERTEX
  8
0
 62
7
  6
CONTINUOUS
 10
339.1731775259
 20
210.7240962707
  0
VERTEX
  8
0
 62
7
  6
CONTINUOUS
 10
339.1744437211
 20
210.724316201
  0
VERTEX
  8
0
 62
7
  6
CONTINUOUS
 10
339.1756587577
 20
210.7245342488
  0
VERTEX
  8
0
 62
7
  6
CONTINUOUS
 10
339.176824511
 20
210.7247506057
  0
VERTEX
  8
0
 62
7
  6
CONTINUOUS
 10
339.1779426036
 20
210.7249655374
  0
VERTEX
  8
0
 62
7
  6
CONTINUOUS
 10
339.1790148124
 20
210.7251792705
  0
VERTEX
  8
0
 62
7
  6
CONTINUOUS
 10
339.1800425496
 20
210.725392115
  0
VERTEX
  8
0
 62
7
  6
CONTINUOUS
 10
339.1810274058
 20
210.7256043263
  0
VERTEX
  8
0
 62
7
  6
CONTINUOUS
 10
339.1819706223
 20
210.7258162941
  0
VERTEX
  8
0
 62
7
  6
CONTINUOUS
 10
339.182873631
 20
210.7260283236
  0
VERTEX
  8
0
 62
7
  6
CONTINUOUS
 10
339.1837374503
 20
210.726240923
  0
VERTEX
  8
0
 62
7
  6
CONTINUOUS
 10
339.1845633233
 20
210.7264544651
  0
VERTEX
  8
0
 62
7
  6
CONTINUOUS
 10
339.1853520083
 20
210.7266696611
  0
VERTEX
  8
0
 62
7
  6
CONTINUOUS
 10
339.186104585
 20
210.726887
  0
VERTEX
  8
0
 62
7
  6
CONTINUOUS
 10
339.1868213323
 20
210.727107522
  0
VERTEX
  8
0
 62
7
  6
CONTINUOUS
 10
339.1875030886
 20
210.7273318825
  0
VERTEX
  8
0
 62
7
  6
CONTINUOUS
 10
339.1881492538
 20
210.7275617246
  0
VERTEX
  8
0
 62
7
  6
CONTINUOUS
 10
339.1887599664
 20
210.7277977225
  0
VERTEX
  8
0
 62
7
  6
CONTINUOUS
 10
339.1893338497
 20
210.7280434384
  0
VERTEX
  8
0
 62
7
  6
CONTINUOUS
 10
339.1898720555
 20
210.7283001118
  0
VERTEX
  8
0
 62
7
  6
CONTINUOUS
 10
339.1903671364
 20
210.7285753848
  0
VERTEX
  8
0
 62
7
  6
CONTINUOUS
 10
339.1908236631
 20
210.7288682741
  0
VERTEX
  8
0
 62
7
  6
CONTINUOUS
 10
339.1912067323
 20
210.729205896
  0
VERTEX
  8
0
 62
7
  6
CONTINUOUS
 10
339.1914787917
 20
210.7296183877
  0
VERTEX
  8
0
 62
7
  6
CONTINUOUS
 10
339.1916523586
 20
210.7300957036
  0
SEQEND
  0
LINE
  8
0
 62
7
  6
CONTINUOUS
 10
339.1660079931
 20
210.7229607443
 11
339.1690528663
 21
210.7234230203
  0
LINE
  8
0
 62
7
  6
CONTINUOUS
 10
339.1627056986
 20
210.7224860791
 11
339.1660079931
 21
210.7229607443
  0
LINE
  8
0
 62
7
  6
CONTINUOUS
 10
339.1591270265
 20
210.7219978432
 11
339.1627056986
 21
210.7224860791
  0
LINE
  8
0
 62
7
  6
CONTINUOUS
 10
339.1552506599
 20
210.7214947665
 11
339.1591270265
 21
210.7219978432
  0
LINE
  8
0
 62
7
  6
CONTINUOUS
 10
339.15105352
 20
210.7209755886
 11
339.1552506599
 21
210.7214947665
  0
LINE
  8
0
 62
7
  6
CONTINUOUS
 10
339.146510679
 20
210.7204390494
 11
339.15105352
 21
210.7209755886
  0
LINE
  8
0
 62
7
  6
CONTINUOUS
 10
339.1415951871
 20
210.7198838727
 11
339.146510679
 21
210.7204390494
  0
LINE
  8
0
 62
7
  6
CONTINUOUS
 10
339.1362779171
 20
210.7193087559
 11
339.1415951871
 21
210.7198838727
  0
LINE
  8
0
 62
7
  6
CONTINUOUS
 10
339.1274790935
 20
210.7184057553
 11
339.1362779171
 21
210.7193087559
  0
LINE
  8
0
 62
7
  6
CONTINUOUS
 10
339.1175879605
 20
210.7174501727
 11
339.1274790935
 21
210.7184057553
  0
LINE
  8
0
 62
7
  6
CONTINUOUS
 10
339.1064729995
 20
210.7164370403
 11
339.1175879605
 21
210.7174501727
  0
LINE
  8
0
 62
7
  6
CONTINUOUS
 10
339.093985439
 20
210.7153609229
 11
339.1064729995
 21
210.7164370403
  0
LINE
  8
0
 62
7
  6
CONTINUOUS
 10
339.0748910965
 20
210.7138167161
 11
339.093985439
 21
210.7153609229
  0
LINE
  8
0
 62
7
  6
CONTINUOUS
 10
339.0525945586
 20
210.7121348012
 11
339.0748910965
 21
210.7138167161
  0
LINE
  8
0
 62
7
  6
CONTINUOUS
 10
339.0265696061
 20
210.7102989515
 11
339.0525945586
 21
210.7121348012
  0
LINE
  8
0
 62
7
  6
CONTINUOUS
 10
338.9878462593
 20
210.7077595882
 11
339.0265696061
 21
210.7102989515
  0
LINE
  8
0
 62
7
  6
CONTINUOUS
 10
338.9607570648
 20
210.7060896038
 11
338.9878462593
 21
210.7077595882
  0
LINE
  8
0
 62
7
  6
CONTINUOUS
 10
246.6872890909
 20
283.0514717497
 11
246.6872890909
 21
210.5514717497
  0
LINE
  8
0
 62
7
  6
CONTINUOUS
 10
338.8961977934
 20
210.7023741925
 11
338.9607570648
 21
210.7060896038
  0
LINE
  8
0
 62
7
  6
CONTINUOUS
 10
338.8148922245
 20
210.6980846202
 11
338.8961977934
 21
210.7023741925
  0
LINE
  8
0
 62
7
  6
CONTINUOUS
 10
338.693099036
 20
210.6922143002
 11
338.8148922245
 21
210.6980846202
  0
LINE
  8
0
 62
7
  6
CONTINUOUS
 10
338.5075017852
 20
210.6841141311
 11
338.693099036
 21
210.6922143002
  0
LINE
  8
0
 62
7
  6
CONTINUOUS
 10
338.1795678042
 20
210.6713347134
 11
338.5075017852
 21
210.6841141311
  0
LINE
  8
0
 62
7
  6
CONTINUOUS
 10
337.5790986096
 20
210.6507922625
 11
338.1795678042
 21
210.6713347134
  0
LINE
  8
0
 62
7
  6
CONTINUOUS
 10
336.7268002518
 20
210.6251035875
 11
337.5790986096
 21
210.6507922625
  0
LINE
  8
0
 62
7
  6
CONTINUOUS
 10
335.7069832713
 20
210.5974512856
 11
336.7268002518
 21
210.6251035875
  0
LINE
  8
0
 62
7
  6
CONTINUOUS
 10
334.4514351945
 20
210.5663425978
 11
335.7069832713
 21
210.5974512856
  0
LINE
  8
0
 62
9
  6
CONTINUOUS
 10
339.1916523586
 20
210.7300957036
 11
334.6872890909
 21
210.6514717503
  0
LINE
  8
BEZUGSACHSEN
 62
3
  6
CONTINUOUS
 10
431.6872890909
 20
208.5514717497
 11
137.6872890909
 21
208.5514717497
  0
LINE
  8
BEZUGSACHSEN
 62
7
  6
CONTINUOUS
 10
137.6872890909
 20
210.5514717497
 11
431.6872890909
 21
210.5514717497
  0
LINE
  8
BEZUGSACHSEN
 62
9
  6
CONTINUOUS
 10
389.6872890909
 20
210.6514717497
 11
379.6872890909
 21
210.6514717497
  0
LINE
  8
BEZUGSACHSEN
 62
9
  6
CONTINUOUS
 10
179.6872890909
 20
210.6514717497
 11
189.6872890909
 21
210.6514717497
  0
LINE
  8
KONSTRUKTIONSELEMENTE
 62
9
  6
CONTINUOUS
 10
434.6872890909
 20
211.5514717497
 11
432.6872890909
 21
211.5514717497
  0
LINE
  8
KONSTRUKTIONSELEMENTE
 62
9
  6
CONTINUOUS
 10
134.6872890909
 20
211.5514717497
 11
136.6872890909
 21
211.5514717497
  0
LINE
  8
BEZUGSACHSEN
 62
7
  6
CONTINUOUS
 10
189.6872890909
 20
212.5514717497
 11
179.6872890909
 21
212.5514717497
  0
LINE
  8
BEZUGSACHSEN
 62
7
  6
CONTINUOUS
 10
379.6872890909
 20
212.5514717497
 11
389.6872890909
 21
212.5514717497
  0
LINE
  8
0
 62
9
  6
CONTINUOUS
 10
334.6872890909
 20
210.6514717503
 11
330.1829258231
 21
210.7300957036
  0
LINE
  8
0
 62
7
  6
CONTINUOUS
 10
334.4514351945
 20
210.5777213189
 11
333.8465632814
 21
210.5928462025
  0
LINE
  8
0
 62
7
  6
CONTINUOUS
 10
333.8465632814
 20
210.5928462025
 11
333.3273914612
 21
210.60639057
  0
LINE
  8
0
 62
7
  6
CONTINUOUS
 10
333.3273914612
 20
210.60639057
 11
332.7804993016
 21
210.6213472776
  0
LINE
  8
0
 62
7
  6
CONTINUOUS
 10
332.7804993016
 20
210.6213472776
 11
332.3282772877
 21
210.6343860759
  0
LINE
  8
0
 62
7
  6
CONTINUOUS
 10
332.3282772877
 20
210.6343860759
 11
331.9541475283
 21
210.6457650715
  0
LINE
  8
0
 62
7
  6
CONTINUOUS
 10
331.9541475283
 20
210.6457650715
 11
331.5895157774
 21
210.657535369
  0
LINE
  8
0
 62
7
  6
CONTINUOUS
 10
331.5895157774
 20
210.657535369
 11
331.2989478644
 21
210.6675644347
  0
LINE
  8
0
 62
7
  6
CONTINUOUS
 10
331.2989478644
 20
210.6675644347
 11
331.0337007415
 21
210.6774288009
  0
LINE
  8
0
 62
7
  6
CONTINUOUS
 10
331.0337007415
 20
210.6774288009
 11
330.8303720238
 21
210.6856531433
  0
LINE
  8
0
 62
7
  6
CONTINUOUS
 10
330.8303720238
 20
210.6856531433
 11
330.6554312699
 21
210.6934249272
  0
LINE
  8
0
 62
7
  6
CONTINUOUS
 10
330.6554312699
 20
210.6934249272
 11
330.540412962
 21
210.6990695295
  0
LINE
  8
0
 62
7
  6
CONTINUOUS
 10
330.540412962
 20
210.6990695295
 11
330.4635016175
 21
210.7032021682
  0
LINE
  8
0
 62
7
  6
CONTINUOUS
 10
330.4635016175
 20
210.7032021682
 11
330.4023372601
 21
210.7067882232
  0
LINE
  8
0
 62
7
  6
CONTINUOUS
 10
330.4023372601
 20
210.7067882232
 11
330.3610797354
 21
210.7094189366
  0
LINE
  8
0
 62
7
  6
CONTINUOUS
 10
330.3610797354
 20
210.7094189366
 11
330.3333306739
 21
210.7113194277
  0
LINE
  8
0
 62
7
  6
CONTINUOUS
 10
330.3333306739
 20
210.7113194277
 11
330.3095307294
 21
210.7130599526
  0
LINE
  8
0
 62
7
  6
CONTINUOUS
 10
330.3095307294
 20
210.7130599526
 11
330.2891231518
 21
210.7146574485
  0
LINE
  8
0
 62
7
  6
CONTINUOUS
 10
330.2891231518
 20
210.7146574485
 11
330.2757534254
 21
210.7157709637
  0
LINE
  8
0
 62
7
  6
CONTINUOUS
 10
330.2757534254
 20
210.7157709637
 11
330.2638488443
 21
210.7168182255
  0
LINE
  8
0
 62
7
  6
CONTINUOUS
 10
330.2638488443
 20
210.7168182255
 11
330.2532538227
 21
210.7178045567
  0
LINE
  8
0
 62
7
  6
CONTINUOUS
 10
330.2532538227
 20
210.7178045567
 11
330.2438187396
 21
210.7187359599
  0
LINE
  8
0
 62
7
  6
CONTINUOUS
 10
330.2438187396
 20
210.7187359599
 11
330.2354201829
 21
210.719617223
  0
LINE
  8
0
 62
7
  6
CONTINUOUS
 10
330.2354201829
 20
210.719617223
 11
330.2303419123
 21
210.7201791342
  0
LINE
  8
0
 62
7
  6
CONTINUOUS
 10
330.2303419123
 20
210.7201791342
 11
330.2256453541
 21
210.7207220874
  0
LINE
  8
0
 62
7
  6
CONTINUOUS
 10
330.2256453541
 20
210.7207220874
 11
330.2213030327
 21
210.7212473554
  0
LINE
  8
0
 62
7
  6
CONTINUOUS
 10
330.2213030327
 20
210.7212473554
 11
330.2172895272
 21
210.7217561912
  0
LINE
  8
0
 62
7
  6
CONTINUOUS
 10
330.2172895272
 20
210.7217561912
 11
330.2135813149
 21
210.7222498395
  0
POLYLINE
  8
0
 62
7
  6
CONTINUOUS
 66
1
 70
0
  0
VERTEX
  8
0
 62
7
  6
CONTINUOUS
 10
330.2135813149
 20
210.7222498395
  0
VERTEX
  8
0
 62
7
  6
CONTINUOUS
 10
330.2101566428
 20
210.7227295507
  0
VERTEX
  8
0
 62
7
  6
CONTINUOUS
 10
330.2085442353
 20
210.7229645776
  0
SEQEND
  0
POLYLINE
  8
0
 62
7
  6
CONTINUOUS
 66
1
 70
0
  0
VERTEX
  8
0
 62
7
  6
CONTINUOUS
 10
330.2085442353
 20
210.7229645776
  0
VERTEX
  8
0
 62
7
  6
CONTINUOUS
 10
330.2055076136
 20
210.7234257886
  0
VERTEX
  8
0
 62
7
  6
CONTINUOUS
 10
330.2040791418
 20
210.723652275
  0
VERTEX
  8
0
 62
7
  6
CONTINUOUS
 10
330.2027081899
 20
210.7238761495
  0
VERTEX
  8
0
 62
7
  6
CONTINUOUS
 10
330.201392251
 20
210.7240977078
  0
VERTEX
  8
0
 62
7
  6
CONTINUOUS
 10
330.2001288027
 20
210.7243171987
  0
VERTEX
  8
0
 62
7
  6
CONTINUOUS
 10
330.1989161144
 20
210.7245348528
  0
VERTEX
  8
0
 62
7
  6
CONTINUOUS
 10
330.1977520859
 20
210.7247509056
  0
VERTEX
  8
0
 62
7
  6
CONTINUOUS
 10
330.1966353031
 20
210.7249655912
  0
VERTEX
  8
0
 62
7
  6
CONTINUOUS
 10
330.1955641374
 20
210.7251791142
  0
VERTEX
  8
0
 62
7
  6
CONTINUOUS
 10
330.1945371315
 20
210.7253917983
  0
VERTEX
  8
0
 62
7
  6
CONTINUOUS
 10
330.1935526838
 20
210.7256039066
  0
VERTEX
  8
0
 62
7
  6
CONTINUOUS
 10
330.1926095989
 20
210.7258158257
  0
VERTEX
  8
0
 62
7
  6
CONTINUOUS
 10
330.1917064817
 20
210.7260278593
  0
VERTEX
  8
0
 62
7
  6
CONTINUOUS
 10
330.1908423291
 20
210.7262405202
  0
VERTEX
  8
0
 62
7
  6
CONTINUOUS
 10
330.1900159182
 20
210.7264541831
  0
VERTEX
  8
0
 62
7
  6
CONTINUOUS
 10
330.189226513
 20
210.7266695658
  0
VERTEX
  8
0
 62
7
  6
CONTINUOUS
 10
330.1884730543
 20
210.7268871602
  0
VERTEX
  8
0
 62
7
  6
CONTINUOUS
 10
330.1877552889
 20
210.7271080182
  0
VERTEX
  8
0
 62
7
  6
CONTINUOUS
 10
330.1870724282
 20
210.7273327866
  0
VERTEX
  8
0
 62
7
  6
CONTINUOUS
 10
330.1864250193
 20
210.7275631725
  0
VERTEX
  8
0
 62
7
  6
CONTINUOUS
 10
330.1858127681
 20
210.7277999351
  0
VERTEX
  8
0
 62
7
  6
CONTINUOUS
 10
330.1852374096
 20
210.7280465645
  0
VERTEX
  8
0
 62
7
  6
CONTINUOUS
 10
330.1846978617
 20
210.7283044253
  0
VERTEX
  8
0
 62
7
  6
CONTINUOUS
 10
330.1842022815
 20
210.7285806532
  0
VERTEX
  8
0
 62
7
  6
CONTINUOUS
 10
330.1837471882
 20
210.7288739036
  0
VERTEX
  8
0
 62
7
  6
CONTINUOUS
 10
330.1833664123
 20
210.7292109829
  0
VERTEX
  8
0
 62
7
  6
CONTINUOUS
 10
330.1830967077
 20
210.7296215444
  0
VERTEX
  8
0
 62
7
  6
CONTINUOUS
 10
330.1829258231
 20
210.7300957036
  0
SEQEND
  0
LINE
  8
KONSTRUKTIONSELEMENTE
 62
7
  6
CONTINUOUS
 10
432.6872890909
 20
233.5514717497
 11
430.6872890909
 21
233.5514717497
  0
LINE
  8
KONSTRUKTIONSELEMENTE
 62
7
  6
CONTINUOUS
 10
138.6872890909
 20
233.5514717497
 11
136.6872890909
 21
233.5514717497
  0
LINE
  8
0
 62
7
  6
CONTINUOUS
 10
138.6872890909
 20
253.3514717497
 11
149.1872890909
 21
253.3514717497
  0
LINE
  8
0
 62
7
  6
CONTINUOUS
 10
420.1872890909
 20
253.3514717497
 11
430.6872890909
 21
253.3514717497
  0
LINE
  8
0
 62
7
  6
CONTINUOUS
 10
162.8872890909
 20
266.3514717497
 11
149.1872890909
 21
266.3514717497
  0
LINE
  8
0
 62
7
  6
CONTINUOUS
 10
406.4872890909
 20
266.3514717497
 11
420.1872890909
 21
266.3514717497
  0
LINE
  8
0
 62
7
  6
CONTINUOUS
 10
330.8070576425
 20
279.2592583151
 11
330.8794156173
 21
279.2709815699
  0
LINE
  8
0
 62
7
  6
CONTINUOUS
 10
330.8794156173
 20
279.2709815699
 11
330.9584917857
 21
279.2831177297
  0
LINE
  8
0
 62
7
  6
CONTINUOUS
 10
330.9584917857
 20
279.2831177297
 11
331.0448582821
 21
279.2956869403
  0
LINE
  8
0
 62
7
  6
CONTINUOUS
 10
331.0448582821
 20
279.2956869403
 11
331.1391189722
 21
279.3087075374
  0
LINE
  8
0
 62
7
  6
CONTINUOUS
 10
331.1391189722
 20
279.3087075374
 11
331.2419418811
 21
279.3222005205
  0
LINE
  8
0
 62
7
  6
CONTINUOUS
 10
331.2419418811
 20
279.3222005205
 11
331.3540493412
 21
279.3361873564
  0
LINE
  8
0
 62
7
  6
CONTINUOUS
 10
331.3540493412
 20
279.3361873564
 11
331.4762279551
 21
279.350690695
  0
LINE
  8
0
 62
7
  6
CONTINUOUS
 10
331.4762279551
 20
279.350690695
 11
331.6093161383
 21
279.3657324925
  0
LINE
  8
0
 62
7
  6
CONTINUOUS
 10
331.6093161383
 20
279.3657324925
 11
331.7542687055
 21
279.3813403725
  0
LINE
  8
0
 62
7
  6
CONTINUOUS
 10
331.7542687055
 20
279.3813403725
 11
331.9121577876
 21
279.3975464139
  0
LINE
  8
0
 62
7
  6
CONTINUOUS
 10
331.9121577876
 20
279.3975464139
 11
332.0840681072
 21
279.4143755749
  0
LINE
  8
0
 62
7
  6
CONTINUOUS
 10
332.0840681072
 20
279.4143755749
 11
332.2711482642
 21
279.431851398
  0
LINE
  8
0
 62
7
  6
CONTINUOUS
 10
332.2711482642
 20
279.431851398
 11
332.4746717828
 21
279.4500014483
  0
LINE
  8
0
 62
7
  6
CONTINUOUS
 10
332.4746717828
 20
279.4500014483
 11
332.6960055469
 21
279.468853473
  0
LINE
  8
0
 62
7
  6
CONTINUOUS
 10
332.6960055469
 20
279.468853473
 11
332.9366734378
 21
279.4884398801
  0
LINE
  8
0
 62
7
  6
CONTINUOUS
 10
332.9366734378
 20
279.4884398801
 11
333.1983879805
 21
279.508798928
  0
LINE
  8
0
 62
7
  6
CONTINUOUS
 10
333.1983879805
 20
279.508798928
 11
333.4829359911
 21
279.5299646961
  0
LINE
  8
0
 62
7
  6
CONTINUOUS
 10
333.4829359911
 20
279.5299646961
 11
333.7921793248
 21
279.5519674015
  0
LINE
  8
0
 62
7
  6
CONTINUOUS
 10
333.7921793248
 20
279.5519674015
 11
334.1281768341
 21
279.5748419231
  0
POLYLINE
  8
0
 62
7
  6
CONTINUOUS
 66
1
 70
0
  0
VERTEX
  8
0
 62
7
  6
CONTINUOUS
 10
334.1281768341
 20
279.5748419231
  0
VERTEX
  8
0
 62
7
  6
CONTINUOUS
 10
334.4933276136
 20
279.5986281484
  0
VERTEX
  8
0
 62
7
  6
CONTINUOUS
 10
334.6872890909
 20
279.6108702353
  0
SEQEND
  0
LINE
  8
0
 62
9
  6
CONTINUOUS
 10
330.1829258231
 20
279.0514717497
 11
339.1916523586
 21
279.0514717497
  0
LINE
  8
0
 62
7
  6
CONTINUOUS
 10
322.6872890909
 20
210.5514717497
 11
322.6872890909
 21
283.0514717497
  0
LINE
  8
0
 62
7
  6
CONTINUOUS
 10
347.2872890909
 20
283.0514717497
 11
322.6872890909
 21
283.0514717497
  0
LINE
  8
0
 62
7
  6
CONTINUOUS
 10
222.0872890909
 20
283.0514717497
 11
246.6872890909
 21
283.0514717497
  0
LINE
  8
0
 62
7
  6
CONTINUOUS
 10
430.6872890909
 20
283.3514717497
 11
406.4872890909
 21
283.3514717497
  0
LINE
  8
0
 62
7
  6
CONTINUOUS
 10
162.8872890909
 20
283.3514717497
 11
138.6872890909
 21
283.3514717497
  0
LINE
  8
KONSTRUKTIONSELEMENTE
 62
3
  6
CONTINUOUS
 10
162.8872890909
 20
283.3514717497
 11
406.4872890909
 21
283.3514717497
  0
LINE
  8
KONSTRUKTIONSELEMENTE
 62
7
  6
CONTINUOUS
 10
136.6872890909
 20
283.5514717497
 11
138.6872890909
 21
283.5514717497
  0
LINE
  8
KONSTRUKTIONSELEMENTE
 62
7
  6
CONTINUOUS
 10
430.6872890909
 20
283.5514717497
 11
432.6872890909
 21
283.5514717497
  0
LINE
  8
KONSTRUKTIONSELEMENTE
 62
7
  6
CONTINUOUS
 10
136.8872890909
 20
284.3514717497
 11
432.4872890909
 21
284.3514717497
  0
LINE
  8
FASEN
 62
7
  6
CONTINUOUS
 10
136.6872890909
 20
284.5514717497
 11
134.6872890909
 21
284.5514717497
  0
LINE
  8
BEZUGSACHSEN
 62
7
  6
CONTINUOUS
 10
432.6872890909
 20
284.5514717497
 11
434.6872890909
 21
284.5514717497
  0
LINE
  8
FASEN
 62
7
  6
CONTINUOUS
 10
136.6872890909
 20
286.5514717497
 11
134.6872890909
 21
286.5514717497
  0
LINE
  8
BEZUGSACHSEN
 62
7
  6
CONTINUOUS
 10
432.6872890909
 20
286.5514717497
 11
434.6872890909
 21
286.5514717497
  0
LINE
  8
0
 62
7
  6
CONTINUOUS
 10
335.0676693748
 20
279.5866179515
 11
334.6872890909
 21
279.6108702353
  0
LINE
  8
0
 62
7
  6
CONTINUOUS
 10
335.4178789765
 20
279.5632932276
 11
335.0676693748
 21
279.5866179515
  0
LINE
  8
0
 62
7
  6
CONTINUOUS
 10
335.7402245084
 20
279.5408596069
 11
335.4178789765
 21
279.5632932276
  0
LINE
  8
0
 62
7
  6
CONTINUOUS
 10
336.0368802768
 20
279.5192791344
 11
335.7402245084
 21
279.5408596069
  0
LINE
  8
0
 62
7
  6
CONTINUOUS
 10
336.3097890388
 20
279.4985203067
 11
336.0368802768
 21
279.5192791344
  0
LINE
  8
0
 62
7
  6
CONTINUOUS
 10
336.5607561108
 20
279.4785525147
 11
336.3097890388
 21
279.4985203067
  0
LINE
  8
0
 62
7
  6
CONTINUOUS
 10
336.7915501648
 20
279.4593381767
 11
336.5607561108
 21
279.4785525147
  0
LINE
  8
0
 62
7
  6
CONTINUOUS
 10
337.003805283
 20
279.4408403477
 11
336.7915501648
 21
279.4593381767
  0
LINE
  8
0
 62
7
  6
CONTINUOUS
 10
337.1989405345
 20
279.4230310329
 11
337.003805283
 21
279.4408403477
  0
LINE
  8
0
 62
7
  6
CONTINUOUS
 10
337.3782835099
 20
279.4058818815
 11
337.1989405345
 21
279.4230310329
  0
LINE
  8
0
 62
7
  6
CONTINUOUS
 10
337.5430499223
 20
279.3893666836
 11
337.3782835099
 21
279.4058818815
  0
LINE
  8
0
 62
7
  6
CONTINUOUS
 10
337.6943340462
 20
279.3734634305
 11
337.5430499223
 21
279.3893666836
  0
LINE
  8
0
 62
7
  6
CONTINUOUS
 10
337.8332205836
 20
279.3581431847
 11
337.6943340462
 21
279.3734634305
  0
LINE
  8
0
 62
7
  6
CONTINUOUS
 10
337.960749048
 20
279.3433729727
 11
337.8332205836
 21
279.3581431847
  0
LINE
  8
0
 62
7
  6
CONTINUOUS
 10
338.0777890101
 20
279.3291308669
 11
337.960749048
 21
279.3433729727
  0
LINE
  8
0
 62
7
  6
CONTINUOUS
 10
338.1851604891
 20
279.315393669
 11
338.0777890101
 21
279.3291308669
  0
LINE
  8
0
 62
7
  6
CONTINUOUS
 10
338.283615633
 20
279.3021395234
 11
338.1851604891
 21
279.315393669
  0
LINE
  8
0
 62
7
  6
CONTINUOUS
 10
338.3738487349
 20
279.2893472674
 11
338.283615633
 21
279.3021395234
  0
LINE
  8
0
 62
7
  6
CONTINUOUS
 10
338.4565004275
 20
279.2769964045
 11
338.3738487349
 21
279.2893472674
  0
LINE
  8
0
 62
7
  6
CONTINUOUS
 10
330.1829258231
 20
210.7300957036
 11
330.1829258231
 21
279.0514717497
  0
LINE
  8
0
 62
7
  6
CONTINUOUS
 10
334.4514351945
 20
210.5777213189
 11
334.4514351945
 21
210.5663425978
  0
LINE
  8
KONSTRUKTIONSELEMENTE
 62
7
  6
CONTINUOUS
 10
334.6872890909
 20
210.6514717503
 11
334.6872890909
 21
279.0514717497
  0
LINE
  8
0
 62
7
  6
CONTINUOUS
 10
334.6872890909
 20
279.0514717497
 11
334.6872890909
 21
279.6108702353
  0
POLYLINE
  8
0
 62
7
  6
CONTINUOUS
 66
1
 70
0
  0
VERTEX
  8
0
 62
7
  6
CONTINUOUS
 10
330.1829258231
 20
279.0514717497
  0
VERTEX
  8
0
 62
7
  6
CONTINUOUS
 10
330.1830419385
 20
279.0544547876
  0
VERTEX
  8
0
 62
7
  6
CONTINUOUS
 10
330.1834570206
 20
279.0575315429
  0
VERTEX
  8
0
 62
7
  6
CONTINUOUS
 10
330.1841593268
 20
279.0607044202
  0
VERTEX
  8
0
 62
7
  6
CONTINUOUS
 10
330.1851840847
 20
279.0639662055
  0
VERTEX
  8
0
 62
7
  6
CONTINUOUS
 10
330.1865538792
 20
279.0673093068
  0
VERTEX
  8
0
 62
7
  6
CONTINUOUS
 10
330.1882948953
 20
279.0707372629
  0
VERTEX
  8
0
 62
7
  6
CONTINUOUS
 10
330.1904398768
 20
279.074259425
  0
VERTEX
  8
0
 62
7
  6
CONTINUOUS
 10
330.1929917315
 20
279.0778507646
  0
VERTEX
  8
0
 62
7
  6
CONTINUOUS
 10
330.1959633905
 20
279.0814914632
  0
VERTEX
  8
0
 62
7
  6
CONTINUOUS
 10
330.1993575274
 20
279.0851752428
  0
VERTEX
  8
0
 62
7
  6
CONTINUOUS
 10
330.2031797107
 20
279.088889817
  0
VERTEX
  8
0
 62
7
  6
CONTINUOUS
 10
330.207434187
 20
279.0926333926
  0
VERTEX
  8
0
 62
7
  6
CONTINUOUS
 10
330.2121256728
 20
279.0964004944
  0
VERTEX
  8
0
 62
7
  6
CONTINUOUS
 10
330.2172583265
 20
279.1001898816
  0
VERTEX
  8
0
 62
7
  6
CONTINUOUS
 10
330.2228351096
 20
279.1039980066
  0
VERTEX
  8
0
 62
7
  6
CONTINUOUS
 10
330.2288643301
 20
279.1078263152
  0
VERTEX
  8
0
 62
7
  6
CONTINUOUS
 10
330.2353518478
 20
279.1116745288
  0
VERTEX
  8
0
 62
7
  6
CONTINUOUS
 10
330.2423079689
 20
279.1155442729
  0
VERTEX
  8
0
 62
7
  6
CONTINUOUS
 10
330.2497383028
 20
279.1194353857
  0
VERTEX
  8
0
 62
7
  6
CONTINUOUS
 10
330.2576627998
 20
279.1233529498
  0
VERTEX
  8
0
 62
7
  6
CONTINUOUS
 10
330.2660982302
 20
279.1273016023
  0
VERTEX
  8
0
 62
7
  6
CONTINUOUS
 10
330.2750597437
 20
279.1312825184
  0
VERTEX
  8
0
 62
7
  6
CONTINUOUS
 10
330.2845618229
 20
279.1352977284
  0
VERTEX
  8
0
 62
7
  6
CONTINUOUS
 10
330.2946232391
 20
279.1393493038
  0
VERTEX
  8
0
 62
7
  6
CONTINUOUS
 10
330.3052605504
 20
279.1434392908
  0
VERTEX
  8
0
 62
7
  6
CONTINUOUS
 10
330.3164948789
 20
279.1475697957
  0
VERTEX
  8
0
 62
7
  6
CONTINUOUS
 10
330.3283438511
 20
279.1517425436
  0
VERTEX
  8
0
 62
7
  6
CONTINUOUS
 10
330.3408345121
 20
279.1559607237
  0
VERTEX
  8
0
 62
7
  6
CONTINUOUS
 10
330.3539897765
 20
279.1602271042
  0
VERTEX
  8
0
 62
7
  6
CONTINUOUS
 10
330.3678396633
 20
279.1645446726
  0
VERTEX
  8
0
 62
7
  6
CONTINUOUS
 10
330.3824128028
 20
279.1689169191
  0
VERTEX
  8
0
 62
7
  6
CONTINUOUS
 10
330.3977362761
 20
279.1733451044
  0
VERTEX
  8
0
 62
7
  6
CONTINUOUS
 10
330.4138358012
 20
279.1778309157
  0
VERTEX
  8
0
 62
7
  6
CONTINUOUS
 10
330.4307440976
 20
279.1823765641
  0
VERTEX
  8
0
 62
7
  6
CONTINUOUS
 10
330.4484906076
 20
279.1869841062
  0
VERTEX
  8
0
 62
7
  6
CONTINUOUS
 10
330.4671108802
 20
279.1916556927
  0
VERTEX
  8
0
 62
7
  6
CONTINUOUS
 10
330.4866377178
 20
279.1963935174
  0
VERTEX
  8
0
 62
7
  6
CONTINUOUS
 10
330.5071088021
 20
279.2011995079
  0
VERTEX
  8
0
 62
7
  6
CONTINUOUS
 10
330.5285574143
 20
279.2060753219
  0
VERTEX
  8
0
 62
7
  6
CONTINUOUS
 10
330.5510295583
 20
279.2110239629
  0
VERTEX
  8
0
 62
7
  6
CONTINUOUS
 10
330.5745651781
 20
279.2160479323
  0
VERTEX
  8
0
 62
7
  6
CONTINUOUS
 10
330.5992157352
 20
279.2211503944
  0
VERTEX
  8
0
 62
7
  6
CONTINUOUS
 10
330.6250312269
 20
279.2263350282
  0
VERTEX
  8
0
 62
7
  6
CONTINUOUS
 10
330.6520559901
 20
279.2316027904
  0
VERTEX
  8
0
 62
7
  6
CONTINUOUS
 10
330.6803319711
 20
279.2369549418
  0
VERTEX
  8
0
 62
7
  6
CONTINUOUS
 10
330.7099163385
 20
279.2423942493
  0
VERTEX
  8
0
 62
7
  6
CONTINUOUS
 10
330.7408606574
 20
279.2479231662
  0
VERTEX
  8
0
 62
7
  6
CONTINUOUS
 10
330.7732236837
 20
279.253543895
  0
VERTEX
  8
0
 62
7
  6
CONTINUOUS
 10
330.8070576425
 20
279.2592583151
  0
SEQEND
  0
POLYLINE
  8
0
 62
7
  6
CONTINUOUS
 66
1
 70
0
  0
VERTEX
  8
0
 62
7
  6
CONTINUOUS
 10
334.6872890909
 20
210.6514717502
  0
VERTEX
  8
0
 62
7
  6
CONTINUOUS
 10
334.6872051457
 20
210.6496830292
  0
VERTEX
  8
0
 62
7
  6
CONTINUOUS
 10
334.6869158248
 20
210.6478468343
  0
VERTEX
  8
0
 62
7
  6
CONTINUOUS
 10
334.6864292244
 20
210.6459642348
  0
VERTEX
  8
0
 62
7
  6
CONTINUOUS
 10
334.6857210557
 20
210.6440320235
  0
VERTEX
  8
0
 62
7
  6
CONTINUOUS
 10
334.6847691022
 20
210.6420394143
  0
VERTEX
  8
0
 62
7
  6
CONTINUOUS
 10
334.6835752432
 20
210.640010213
  0
VERTEX
  8
0
 62
7
  6
CONTINUOUS
 10
334.6821324037
 20
210.637962808
  0
VERTEX
  8
0
 62
7
  6
CONTINUOUS
 10
334.6804452301
 20
210.6359026651
  0
VERTEX
  8
0
 62
7
  6
CONTINUOUS
 10
334.6785149896
 20
210.6338409078
  0
VERTEX
  8
0
 62
7
  6
CONTINUOUS
 10
334.6763447449
 20
210.6317789505
  0
VERTEX
  8
0
 62
7
  6
CONTINUOUS
 10
334.6739379782
 20
210.629722126
  0
VERTEX
  8
0
 62
7
  6
CONTINUOUS
 10
334.6712946982
 20
210.6276698018
  0
VERTEX
  8
0
 62
7
  6
CONTINUOUS
 10
334.6684168852
 20
210.6256234927
  0
VERTEX
  8
0
 62
7
  6
CONTINUOUS
 10
334.6653021065
 20
210.6235820896
  0
VERTEX
  8
0
 62
7
  6
CONTINUOUS
 10
334.6619500831
 20
210.6215453792
  0
VERTEX
  8
0
 62
7
  6
CONTINUOUS
 10
334.6583563346
 20
210.6195121892
  0
VERTEX
  8
0
 62
7
  6
CONTINUOUS
 10
334.6545183526
 20
210.6174816219
  0
VERTEX
  8
0
 62
7
  6
CONTINUOUS
 10
334.6504299417
 20
210.6154526401
  0
VERTEX
  8
0
 62
7
  6
CONTINUOUS
 10
334.646086641
 20
210.6134241835
  0
VERTEX
  8
0
 62
7
  6
CONTINUOUS
 10
334.641480738
 20
210.6113954234
  0
VERTEX
  8
0
 62
7
  6
CONTINUOUS
 10
334.6366060733
 20
210.609365374
  0
VERTEX
  8
0
 62
7
  6
CONTINUOUS
 10
334.6314535263
 20
210.6073334471
  0
VERTEX
  8
0
 62
7
  6
CONTINUOUS
 10
334.6260154189
 20
210.6052988364
  0
VERTEX
  8
0
 62
7
  6
CONTINUOUS
 10
334.6202812639
 20
210.6032612099
  0
VERTEX
  8
0
 62
7
  6
CONTINUOUS
 10
334.6142419679
 20
210.6012199872
  0
VERTEX
  8
0
 62
7
  6
CONTINUOUS
 10
334.6078856705
 20
210.599175107
  0
VERTEX
  8
0
 62
7
  6
CONTINUOUS
 10
334.6012019036
 20
210.5971262376
  0
VERTEX
  8
0
 62
7
  6
CONTINUOUS
 10
334.5941773965
 20
210.5950736092
  0
VERTEX
  8
0
 62
7
  6
CONTINUOUS
 10
334.5868003082
 20
210.593017159
  0
VERTEX
  8
0
 62
7
  6
CONTINUOUS
 10
334.5790558817
 20
210.5909574352
  0
VERTEX
  8
0
 62
7
  6
CONTINUOUS
 10
334.5709308652
 20
210.5888946643
  0
VERTEX
  8
0
 62
7
  6
CONTINUOUS
 10
334.5624089013
 20
210.5868297483
  0
VERTEX
  8
0
 62
7
  6
CONTINUOUS
 10
334.553475244
 20
210.5847632283
  0
VERTEX
  8
0
 62
7
  6
CONTINUOUS
 10
334.5441118078
 20
210.5826964128
  0
VERTEX
  8
0
 62
7
  6
CONTINUOUS
 10
334.5343022503
 20
210.5806301961
  0
VERTEX
  8
0
 62
7
  6
CONTINUOUS
 10
334.5240265967
 20
210.5785663616
  0
VERTEX
  8
0
 62
7
  6
CONTINUOUS
 10
334.5132667807
 20
210.5765062087
  0
VERTEX
  8
0
 62
7
  6
CONTINUOUS
 10
334.5020007341
 20
210.5744520839
  0
VERTEX
  8
0
 62
7
  6
CONTINUOUS
 10
334.4902084953
 20
210.5724057572
  0
VERTEX
  8
0
 62
7
  6
CONTINUOUS
 10
334.4778656788
 20
210.5703702577
  0
VERTEX
  8
0
 62
7
  6
CONTINUOUS
 10
334.4649373653
 20
210.568349657
  0
VERTEX
  8
0
 62
7
  6
CONTINUOUS
 10
334.4514351945
 20
210.5663425978
  0
SEQEND
  0
POLYLINE
  8
0
 62
7
  6
CONTINUOUS
 66
1
 70
0
  0
VERTEX
  8
0
 62
7
  6
CONTINUOUS
 10
339.1916523586
 20
279.0514717497
  0
VERTEX
  8
0
 62
7
  6
CONTINUOUS
 10
339.1915362432
 20
279.0544547876
  0
VERTEX
  8
0
 62
7
  6
CONTINUOUS
 10
339.1911211611
 20
279.0575315429
  0
VERTEX
  8
0
 62
7
  6
CONTINUOUS
 10
339.1904188549
 20
279.0607044202
  0
VERTEX
  8
0
 62
7
  6
CONTINUOUS
 10
339.189394097
 20
279.0639662055
  0
VERTEX
  8
0
 62
7
  6
CONTINUOUS
 10
339.1880243025
 20
279.0673093068
  0
VERTEX
  8
0
 62
7
  6
CONTINUOUS
 10
339.1862832864
 20
279.0707372629
  0
VERTEX
  8
0
 62
7
  6
CONTINUOUS
 10
339.1841383049
 20
279.074259425
  0
VERTEX
  8
0
 62
7
  6
CONTINUOUS
 10
339.1815864502
 20
279.0778507646
  0
VERTEX
  8
0
 62
7
  6
CONTINUOUS
 10
339.1786147912
 20
279.0814914632
  0
VERTEX
  8
0
 62
7
  6
CONTINUOUS
 10
339.1752206543
 20
279.0851752428
  0
VERTEX
  8
0
 62
7
  6
CONTINUOUS
 10
339.171398471
 20
279.088889817
  0
VERTEX
  8
0
 62
7
  6
CONTINUOUS
 10
339.1671439947
 20
279.0926333926
  0
VERTEX
  8
0
 62
7
  6
CONTINUOUS
 10
339.162452509
 20
279.0964004944
  0
VERTEX
  8
0
 62
7
  6
CONTINUOUS
 10
339.1573198552
 20
279.1001898816
  0
VERTEX
  8
0
 62
7
  6
CONTINUOUS
 10
339.1517430721
 20
279.1039980066
  0
VERTEX
  8
0
 62
7
  6
CONTINUOUS
 10
339.1457138517
 20
279.1078263152
  0
VERTEX
  8
0
 62
7
  6
CONTINUOUS
 10
339.1392263339
 20
279.1116745288
  0
VERTEX
  8
0
 62
7
  6
CONTINUOUS
 10
339.1322702128
 20
279.1155442729
  0
VERTEX
  8
0
 62
7
  6
CONTINUOUS
 10
339.1248398789
 20
279.1194353856
  0
VERTEX
  8
0
 62
7
  6
CONTINUOUS
 10
339.1169153819
 20
279.1233529498
  0
VERTEX
  8
0
 62
7
  6
CONTINUOUS
 10
339.1084799515
 20
279.1273016023
  0
VERTEX
  8
0
 62
7
  6
CONTINUOUS
 10
339.099518438
 20
279.1312825184
  0
VERTEX
  8
0
 62
7
  6
CONTINUOUS
 10
339.0900163588
 20
279.1352977284
  0
VERTEX
  8
0
 62
7
  6
CONTINUOUS
 10
339.0799549427
 20
279.1393493037
  0
VERTEX
  8
0
 62
7
  6
CONTINUOUS
 10
339.0693176314
 20
279.1434392908
  0
VERTEX
  8
0
 62
7
  6
CONTINUOUS
 10
339.0580833028
 20
279.1475697957
  0
VERTEX
  8
0
 62
7
  6
CONTINUOUS
 10
339.0462343307
 20
279.1517425436
  0
VERTEX
  8
0
 62
7
  6
CONTINUOUS
 10
339.0337436696
 20
279.1559607237
  0
VERTEX
  8
0
 62
7
  6
CONTINUOUS
 10
339.0205884053
 20
279.1602271042
  0
VERTEX
  8
0
 62
7
  6
CONTINUOUS
 10
339.0067385185
 20
279.1645446726
  0
VERTEX
  8
0
 62
7
  6
CONTINUOUS
 10
338.992165379
 20
279.1689169191
  0
VERTEX
  8
0
 62
7
  6
CONTINUOUS
 10
338.9768419057
 20
279.1733451044
  0
VERTEX
  8
0
 62
7
  6
CONTINUOUS
 10
338.9607423806
 20
279.1778309157
  0
VERTEX
  8
0
 62
7
  6
CONTINUOUS
 10
338.9438340842
 20
279.1823765641
  0
VERTEX
  8
0
 62
7
  6
CONTINUOUS
 10
338.9260875742
 20
279.1869841062
  0
VERTEX
  8
0
 62
7
  6
CONTINUOUS
 10
338.9074673016
 20
279.1916556927
  0
VERTEX
  8
0
 62
7
  6
CONTINUOUS
 10
338.887940464
 20
279.1963935174
  0
VERTEX
  8
0
 62
7
  6
CONTINUOUS
 10
338.8674693797
 20
279.2011995078
  0
VERTEX
  8
0
 62
7
  6
CONTINUOUS
 10
338.8460207675
 20
279.2060753219
  0
VERTEX
  8
0
 62
7
  6
CONTINUOUS
 10
338.8235486235
 20
279.2110239629
  0
VERTEX
  8
0
 62
7
  6
CONTINUOUS
 10
338.8000130037
 20
279.2160479323
  0
VERTEX
  8
0
 62
7
  6
CONTINUOUS
 10
338.7753624466
 20
279.2211503944
  0
VERTEX
  8
0
 62
7
  6
CONTINUOUS
 10
338.7495469549
 20
279.2263350282
  0
VERTEX
  8
0
 62
7
  6
CONTINUOUS
 10
338.7225221917
 20
279.2316027904
  0
VERTEX
  8
0
 62
7
  6
CONTINUOUS
 10
338.6942462107
 20
279.2369549417
  0
VERTEX
  8
0
 62
7
  6
CONTINUOUS
 10
338.6646618434
 20
279.2423942493
  0
VERTEX
  8
0
 62
7
  6
CONTINUOUS
 10
338.6337175244
 20
279.2479231662
  0
VERTEX
  8
0
 62
7
  6
CONTINUOUS
 10
338.6013544981
 20
279.253543895
  0
VERTEX
  8
0
 62
7
  6
CONTINUOUS
 10
338.5675205394
 20
279.2592583151
  0
VERTEX
  8
0
 62
7
  6
CONTINUOUS
 10
338.5321444908
 20
279.2650698489
  0
VERTEX
  8
0
 62
7
  6
CONTINUOUS
 10
338.4565004275
 20
279.2769964045
  0
SEQEND
  0
LINE
  8
0
 62
7
  6
CONTINUOUS
 10
339.1916523586
 20
279.0514717497
 11
339.1916523586
 21
210.7300957036
  0
LINE
  8
0
 62
7
  6
CONTINUOUS
 10
347.2872890909
 20
210.5514717497
 11
347.2872890909
 21
283.0514717497
  0
POLYLINE
  8
0
 62
7
  6
CONTINUOUS
 66
1
 70
0
  0
VERTEX
  8
0
 62
7
  6
CONTINUOUS
 10
334.6869435256
 20
210.648173909
  0
VERTEX
  8
0
 62
7
  6
CONTINUOUS
 10
334.6864956809
 20
210.6464780498
  0
VERTEX
  8
0
 62
7
  6
CONTINUOUS
 10
334.6858454486
 20
210.6447470306
  0
VERTEX
  8
0
 62
7
  6
CONTINUOUS
 10
334.6849737616
 20
210.6429704263
  0
VERTEX
  8
0
 62
7
  6
CONTINUOUS
 10
334.6838807821
 20
210.6411679093
  0
VERTEX
  8
0
 62
7
  6
CONTINUOUS
 10
334.6825583665
 20
210.6393532552
  0
VERTEX
  8
0
 62
7
  6
CONTINUOUS
 10
334.6810123654
 20
210.6375337285
  0
VERTEX
  8
0
 62
7
  6
CONTINUOUS
 10
334.6792445663
 20
210.6357207363
  0
VERTEX
  8
0
 62
7
  6
CONTINUOUS
 10
334.6772590146
 20
210.6339156261
  0
VERTEX
  8
0
 62
7
  6
CONTINUOUS
 10
334.6750599166
 20
210.6321237251
  0
VERTEX
  8
0
 62
7
  6
CONTINUOUS
 10
334.6726485777
 20
210.630344502
  0
VERTEX
  8
0
 62
7
  6
CONTINUOUS
 10
334.6700281589
 20
210.6285796071
  0
VERTEX
  8
0
 62
7
  6
CONTINUOUS
 10
334.6671973002
 20
210.6268278224
  0
VERTEX
  8
0
 62
7
  6
CONTINUOUS
 10
334.6641573377
 20
210.6250891227
  0
VERTEX
  8
0
 62
7
  6
CONTINUOUS
 10
334.6609033446
 20
210.6233615794
  0
VERTEX
  8
0
 62
7
  6
CONTINUOUS
 10
334.6574328892
 20
210.6216436718
  0
VERTEX
  8
0
 62
7
  6
CONTINUOUS
 10
334.6537398223
 20
210.6199341505
  0
VERTEX
  8
0
 62
7
  6
CONTINUOUS
 10
334.6498190379
 20
210.6182313329
  0
VERTEX
  8
0
 62
7
  6
CONTINUOUS
 10
334.6456649743
 20
210.6165349978
  0
VERTEX
  8
0
 62
7
  6
CONTINUOUS
 10
334.6412728677
 20
210.614844508
  0
VERTEX
  8
0
 62
7
  6
CONTINUOUS
 10
334.6366352177
 20
210.6131594289
  0
VERTEX
  8
0
 62
7
  6
CONTINUOUS
 10
334.6317458197
 20
210.6114791841
  0
VERTEX
  8
0
 62
7
  6
CONTINUOUS
 10
334.6265960226
 20
210.6098035618
  0
VERTEX
  8
0
 62
7
  6
CONTINUOUS
 10
334.6211783495
 20
210.6081321472
  0
VERTEX
  8
0
 62
7
  6
CONTINUOUS
 10
334.6154830729
 20
210.6064649722
  0
VERTEX
  8
0
 62
7
  6
CONTINUOUS
 10
334.6095016725
 20
210.6048018596
  0
VERTEX
  8
0
 62
7
  6
CONTINUOUS
 10
334.6032230501
 20
210.6031430219
  0
VERTEX
  8
0
 62
7
  6
CONTINUOUS
 10
334.5966370825
 20
210.6014883924
  0
VERTEX
  8
0
 62
7
  6
CONTINUOUS
 10
334.5897323247
 20
210.5998386311
  0
VERTEX
  8
0
 62
7
  6
CONTINUOUS
 10
334.5824995002
 20
210.5981943353
  0
VERTEX
  8
0
 62
7
  6
CONTINUOUS
 10
334.5749219804
 20
210.5965556258
  0
VERTEX
  8
0
 62
7
  6
CONTINUOUS
 10
334.5669848593
 20
210.5949223896
  0
VERTEX
  8
0
 62
7
  6
CONTINUOUS
 10
334.5586736922
 20
210.5932959248
  0
VERTEX
  8
0
 62
7
  6
CONTINUOUS
 10
334.5499743421
 20
210.5916769637
  0
VERTEX
  8
0
 62
7
  6
CONTINUOUS
 10
334.5408709802
 20
210.5900670904
  0
VERTEX
  8
0
 62
7
  6
CONTINUOUS
 10
334.5313491053
 20
210.5884675237
  0
VERTEX
  8
0
 62
7
  6
CONTINUOUS
 10
334.5213905973
 20
210.5868800921
  0
VERTEX
  8
0
 62
7
  6
CONTINUOUS
 10
334.510979136
 20
210.5853062687
  0
VERTEX
  8
0
 62
7
  6
CONTINUOUS
 10
334.5000948204
 20
210.5837483389
  0
VERTEX
  8
0
 62
7
  6
CONTINUOUS
 10
334.4887195005
 20
210.5822081279
  0
VERTEX
  8
0
 62
7
  6
CONTINUOUS
 10
334.4768316019
 20
210.5806884898
  0
VERTEX
  8
0
 62
7
  6
CONTINUOUS
 10
334.4644000468
 20
210.5791933196
  0
VERTEX
  8
0
 62
7
  6
CONTINUOUS
 10
334.4514351945
 20
210.5777213189
  0
SEQEND
  0
LINE
  8
BEZUGSACHSEN
 62
7
  6
CONTINUOUS
 10
379.6872890909
 20
210.6514717497
 11
379.6872890909
 21
212.5514717497
  0
LINE
  8
BEZUGSACHSEN
 62
7
  6
CONTINUOUS
 10
389.6872890909
 20
210.6514717497
 11
389.6872890909
 21
212.5514717497
  0
LINE
  8
0
 62
7
  6
CONTINUOUS
 10
406.4872890909
 20
283.3514717497
 11
406.4872890909
 21
266.3514717497
  0
LINE
  8
0
 62
7
  6
CONTINUOUS
 10
420.1872890909
 20
266.3514717497
 11
420.1872890909
 21
253.3514717497
  0
LINE
  8
KONSTRUKTIONSELEMENTE
 62
7
  6
CONTINUOUS
 10
430.6872890909
 20
233.5514717497
 11
430.6872890909
 21
283.5514717497
  0
LINE
  8
KONSTRUKTIONSELEMENTE
 62
9
  6
CONTINUOUS
 10
431.6872890909
 20
208.5514717497
 11
431.6872890909
 21
210.5514717497
  0
LINE
  8
KONSTRUKTIONSELEMENTE
 62
7
  6
CONTINUOUS
 10
432.4872890909
 20
283.5514717497
 11
432.4872890909
 21
284.3514717497
  0
LINE
  8
BEZUGSACHSEN
 62
7
  6
CONTINUOUS
 10
432.6872890909
 20
211.5514717497
 11
432.6872890909
 21
286.5514717497
  0
LINE
  8
BEZUGSACHSEN
 62
3
  6
CONTINUOUS
 10
434.6872890909
 20
211.5514717497
 11
434.6872890909
 21
286.5514717497
  0
ARC
  8
KONSTRUKTIONSELEMENTE
 62
3
  6
CONTINUOUS
 10
137.6872890909
 20
211.5514717497
 40
3.0
 50
180.0
 51
270.0
  0
ARC
  8
KONSTRUKTIONSELEMENTE
 62
3
  6
CONTINUOUS
 10
431.6872890909
 20
211.5514717497
 40
3.0
 50
270.0
 51
360.0
  0
ARC
  8
KONSTRUKTIONSELEMENTE
 62
7
  6
CONTINUOUS
 10
137.6872890909
 20
211.5514717497
 40
1.0
 50
180.0
 51
270.0
  0
ARC
  8
KONSTRUKTIONSELEMENTE
 62
7
  6
CONTINUOUS
 10
431.6872890909
 20
211.5514717497
 40
1.0
 50
270.0
 51
360.0
  0
ARC
  8
BEZUGSACHSEN
 62
7
  6
CONTINUOUS
 10
379.5872890909
 20
210.6514717497
 40
0.1
 50
270.0
 51
360.0
  0
ARC
  8
BEZUGSACHSEN
 62
7
  6
CONTINUOUS
 10
389.7872890909
 20
210.6514717497
 40
0.1
 50
180.0
 51
270.0
  0
ARC
  8
BEZUGSACHSEN
 62
7
  6
CONTINUOUS
 10
189.7872890909
 20
210.6514717497
 40
0.1
 50
180.0
 51
270.0
  0
ARC
  8
BEZUGSACHSEN
 62
7
  6
CONTINUOUS
 10
179.5872890909
 20
210.6514717497
 40
0.1
 50
270.0
 51
360.0
  0
ENDSEC
  0
EOF
