999
DXF file: bkg4006011.dxf
999
Pro/ENGINEER 2022024 by Parametric Technology Corporation
  0
SECTION
  2
HEADER
  9
$EXTMAX
 10
420.0
 20
297.0
 30
0.0
  9
$EXTMIN
 10
0.0
 20
-0.0
 30
0.0
  9
$LIMMIN
 10
0.0
 20
-0.0
  9
$LIMMAX
 10
420.0
 20
297.0
  9
$VIEWCTR
 10
210.0
 20
148.5
  9
$VIEWSIZE
 40
297.0
  9
$CLAYER
  8
0
  9
$LTSCALE
 40
23.1
  9
$CELTYPE
  6
BYLAYER
  9
$DIMSCALE
 40
1.0
  9
$DIMASZ
 40
3.5
  9
$DIMEXO
 40
0.0
  9
$DIMDLI
 40
15.96
  9
$DIMEXE
 40
1.5
  9
$DIMCEN
 40
3.78
  9
$DIMLFAC
 40
1.0
  9
$DIMBLK
  1
_FILLED
  9
$DIMALT
 70
0
  9
$DIMALTF
 40
0.0393700787
  9
$DIMTXT
 40
3.5
  9
$AUNITS
 70
0
  9
$PDMODE
 70
3
  9
$PDSIZE
 40
0.3125
  9
$TILEMODE
 70
1
  0
ENDSEC
  0
SECTION
  2
TABLES
  0
TABLE
  2
LTYPE
 70
6
  0
LTYPE
  2
BYBLOCK
 70
0
  3

 72
65
 73
0
 40
0.0
  0
LTYPE
  2
BYLAYER
 70
0
  3

 72
65
 73
0
 40
0.0
  0
LTYPE
  2
CONTINUOUS
 70
64
  3
Solid line
 72
65
 73
0
 40
0.0
  0
LTYPE
  2
CENTER
 70
64
  3
____ _ ____ _ ____ _ ____ _ ____ _ ____ _ ____
 72
65
 73
4
 40
0.6
 49
0.375
 49
-0.075
 49
0.075
 49
-0.075
  0
LTYPE
  2
HIDDEN
 70
64
  3
- - - - - - - - - - - - - - - - - - - -
 72
65
 73
2
 40
0.2
 49
0.1
 49
-0.1
  0
LTYPE
  2
PHANTOM
 70
64
  3
_____ _ _ _____ _ _ _____ _ _ _____
 72
65
 73
6
 40
0.8
 49
0.45
 49
-0.05
 49
0.1
 49
-0.05
 49
0.1
 49
-0.05
  0
LTYPE
  2
DOT
 70
64
  3
. . . . . . . . . . . . . . . . . . . .
 72
65
 73
2
 40
0.2
 49
0.1
 49
-0.1
  0
LTYPE
  2
DASHED
 70
64
  3
- - - - - - - - - - - - - - - - - - - -
 72
65
 73
2
 40
0.2
 49
0.1
 49
-0.1
  0
ENDTAB
  0
TABLE
  2
LAYER
 70
36
  0
LAYER
  2
0
 70
0
 62
7
  6
CONTINUOUS
  0
LAYER
  2
DEFAULT_1
 70
0
 62
7
  6
CENTER
  0
LAYER
  2
DEFAULT_2
 70
0
 62
8
  6
HIDDEN
  0
LAYER
  2
DEFAULT_3
 70
0
 62
7
  6
PHANTOM
  0
LAYER
  2
01_STARTBEZUEGE
 70
0
 62
7
  6
CONTINUOUS
  0
LAYER
  2
ASSEMBLY
 70
0
 62
7
  6
CONTINUOUS
  0
LAYER
  2
AUSFORMSCHRAEGEN
 70
0
 62
7
  6
CONTINUOUS
  0
LAYER
  2
AXIS
 70
0
 62
7
  6
CONTINUOUS
  0
LAYER
  2
BEZUGSACHSEN
 70
0
 62
7
  6
CONTINUOUS
  0
LAYER
  2
BEZUGSEBENEN
 70
0
 62
7
  6
CONTINUOUS
  0
LAYER
  2
BEZUGSPUNKTE
 70
0
 62
7
  6
CONTINUOUS
  0
LAYER
  2
BOHRUNGEN
 70
0
 62
7
  6
CONTINUOUS
  0
LAYER
  2
CSYS
 70
0
 62
7
  6
CONTINUOUS
  0
LAYER
  2
FASEN
 70
0
 62
7
  6
CONTINUOUS
  0
LAYER
  2
FLAECHEN
 70
0
 62
7
  6
CONTINUOUS
  0
LAYER
  2
GEWINDE
 70
0
 62
7
  6
CONTINUOUS
  0
LAYER
  2
GTOL
 70
0
 62
7
  6
CONTINUOUS
  0
LAYER
  2
KONSTRUKTIONSELEMENTE
 70
0
 62
7
  6
CONTINUOUS
  0
LAYER
  2
KOORDINATENSYSTEME
 70
0
 62
7
  6
CONTINUOUS
  0
LAYER
  2
KURVEN
 70
0
 62
7
  6
CONTINUOUS
  0
LAYER
  2
NOTIZ
 70
0
 62
7
  6
CONTINUOUS
  0
LAYER
  2
PLANES
 70
0
 62
7
  6
CONTINUOUS
  0
LAYER
  2
RUNDUNGEN
 70
0
 62
7
  6
CONTINUOUS
  0
LAYER
  2
SKELETON_MODELS
 70
0
 62
7
  6
CONTINUOUS
  0
LAYER
  2
STARTBEZUEGE
 70
0
 62
7
  6
CONTINUOUS
  0
LAYER
  2
SURFACES
 70
0
 62
7
  6
CONTINUOUS
  0
LAYER
  2
VOLUMEN
 70
0
 62
7
  6
CONTINUOUS
  0
LAYER
  2
XSEC_DATUMS
 70
0
 62
7
  6
CONTINUOUS
  0
ENDTAB
  0
TABLE
  2
STYLE
 70
1
  0
STYLE
  2
STANDARD
 70
0
 40
0.0
 41
0.7
 50
0.0
 71
0
 42
0.2
  3
txt
  4

  0
STYLE
  2
TEXTSTYLE_1
 70
0
 40
0.0
 41
0.8
 50
0.0
 71
0
 42
0.2
  3
gdt
  4

  0
ENDTAB
  0
ENDSEC
  0
SECTION
  2
BLOCKS
  0
BLOCK
  8
0
  2
_FILLED
 70
64
 10
0.0
 20
0.0
  0
SOLID
  8
0
  6
BYBLOCK
 62
0
 10
0.0
 20
0.0
 11
-1.0
 21
0.125
 12
-1.0
 22
-0.125
 13
-1.0
 23
-0.125
  0
ENDBLK
  8
0
  6
BYBLOCK
 62
0
  0
ENDSEC
  0
SECTION
  2
ENTITIES
  0
LINE
  8
FASEN
 62
3
  6
CONTINUOUS
 10
3.7570461126
 20
162.4766453797
 11
3.7570461126
 21
217.4766453797
  0
LINE
  8
FASEN
 62
7
  6
CONTINUOUS
 10
5.7570461126
 20
162.4766453797
 11
5.7570461126
 21
217.4766453797
  0
LINE
  8
KONSTRUKTIONSELEMENTE
 62
7
  6
CONTINUOUS
 10
5.9570461126
 20
214.4766453797
 11
5.9570461126
 21
215.2766453797
  0
LINE
  8
KONSTRUKTIONSELEMENTE
 62
9
  6
CONTINUOUS
 10
6.7570461126
 20
159.4766453797
 11
6.7570461126
 21
161.4766453797
  0
LINE
  8
KONSTRUKTIONSELEMENTE
 62
7
  6
CONTINUOUS
 10
7.7570461126
 20
214.4766453797
 11
7.7570461126
 21
164.4766453797
  0
LINE
  8
0
 62
7
  6
CONTINUOUS
 10
18.2570461126
 20
184.2766453797
 11
18.2570461126
 21
197.2766453797
  0
LINE
  8
0
 62
7
  6
CONTINUOUS
 10
31.9570461126
 20
197.2766453797
 11
31.9570461126
 21
214.2766453797
  0
LINE
  8
BEZUGSACHSEN
 62
7
  6
CONTINUOUS
 10
48.7570461126
 20
163.4766453797
 11
48.7570461126
 21
161.5766453797
  0
LINE
  8
BEZUGSACHSEN
 62
7
  6
CONTINUOUS
 10
58.7570461126
 20
163.4766453797
 11
58.7570461126
 21
161.5766453797
  0
LINE
  8
0
 62
7
  6
CONTINUOUS
 10
91.1570461126
 20
213.9766453797
 11
91.1570461126
 21
161.4766453797
  0
LINE
  8
0
 62
7
  6
CONTINUOUS
 10
115.7570461126
 20
213.9766453797
 11
115.7570461126
 21
161.4766453797
  0
POLYLINE
  8
0
 62
7
  6
CONTINUOUS
 66
1
 70
0
  0
VERTEX
  8
0
 62
7
  6
CONTINUOUS
 10
208.2388114533
 20
161.6485968948
  0
VERTEX
  8
0
 62
7
  6
CONTINUOUS
 10
208.240242798
 20
161.6488237712
  0
VERTEX
  8
0
 62
7
  6
CONTINUOUS
 10
208.2416167704
 20
161.6490480821
  0
VERTEX
  8
0
 62
7
  6
CONTINUOUS
 10
208.2429355483
 20
161.6492700718
  0
VERTEX
  8
0
 62
7
  6
CONTINUOUS
 10
208.2442015786
 20
161.6494899786
  0
VERTEX
  8
0
 62
7
  6
CONTINUOUS
 10
208.2454164615
 20
161.6497080033
  0
VERTEX
  8
0
 62
7
  6
CONTINUOUS
 10
208.2465820716
 20
161.6499243374
  0
VERTEX
  8
0
 62
7
  6
CONTINUOUS
 10
208.2477000317
 20
161.6501392469
  0
VERTEX
  8
0
 62
7
  6
CONTINUOUS
 10
208.2487721186
 20
161.6503529583
  0
VERTEX
  8
0
 62
7
  6
CONTINUOUS
 10
208.2497997444
 20
161.6505657815
  0
VERTEX
  8
0
 62
7
  6
CONTINUOUS
 10
208.2507844995
 20
161.6507779721
  0
VERTEX
  8
0
 62
7
  6
CONTINUOUS
 10
208.2517276253
 20
161.6509899197
  0
VERTEX
  8
0
 62
7
  6
CONTINUOUS
 10
208.2526305535
 20
161.6512019298
  0
VERTEX
  8
0
 62
7
  6
CONTINUOUS
 10
208.2534943029
 20
161.6514145104
  0
VERTEX
  8
0
 62
7
  6
CONTINUOUS
 10
208.2543201163
 20
161.6516280343
  0
VERTEX
  8
0
 62
7
  6
CONTINUOUS
 10
208.2551087524
 20
161.6518432132
  0
VERTEX
  8
0
 62
7
  6
CONTINUOUS
 10
208.2558612912
 20
161.652060536
  0
VERTEX
  8
0
 62
7
  6
CONTINUOUS
 10
208.2565780118
 20
161.6522810432
  0
VERTEX
  8
0
 62
7
  6
CONTINUOUS
 10
208.2572597529
 20
161.6525053903
  0
VERTEX
  8
0
 62
7
  6
CONTINUOUS
 10
208.2579059155
 20
161.6527352213
  0
VERTEX
  8
0
 62
7
  6
CONTINUOUS
 10
208.2585166394
 20
161.6529712109
  0
VERTEX
  8
0
 62
7
  6
CONTINUOUS
 10
208.259090547
 20
161.653216922
  0
VERTEX
  8
0
 62
7
  6
CONTINUOUS
 10
208.2596287901
 20
161.653473594
  0
VERTEX
  8
0
 62
7
  6
CONTINUOUS
 10
208.2601239209
 20
161.6537488725
  0
VERTEX
  8
0
 62
7
  6
CONTINUOUS
 10
208.2605805153
 20
161.6540417763
  0
VERTEX
  8
0
 62
7
  6
CONTINUOUS
 10
208.2609636538
 20
161.654379425
  0
VERTEX
  8
0
 62
7
  6
CONTINUOUS
 10
208.2612357679
 20
161.6547919598
  0
VERTEX
  8
0
 62
7
  6
CONTINUOUS
 10
208.2614093803
 20
161.6552693336
  0
SEQEND
  0
LINE
  8
0
 62
7
  6
CONTINUOUS
 10
208.2357670182
 20
161.6481346702
 11
208.2388114533
 21
161.6485968948
  0
LINE
  8
0
 62
7
  6
CONTINUOUS
 10
208.2324652137
 20
161.6476600582
 11
208.2357670182
 21
161.6481346702
  0
LINE
  8
0
 62
7
  6
CONTINUOUS
 10
208.2288870871
 20
161.6471718776
 11
208.2324652137
 21
161.6476600582
  0
LINE
  8
0
 62
7
  6
CONTINUOUS
 10
208.2250113237
 20
161.646668858
 11
208.2288870871
 21
161.6471718776
  0
LINE
  8
0
 62
7
  6
CONTINUOUS
 10
208.2208148475
 20
161.646149739
 11
208.2250113237
 21
161.646668858
  0
LINE
  8
0
 62
7
  6
CONTINUOUS
 10
208.2162727331
 20
161.6456132606
 11
208.2208148475
 21
161.646149739
  0
LINE
  8
0
 62
7
  6
CONTINUOUS
 10
208.2113580337
 20
161.6450581465
 11
208.2162727331
 21
161.6456132606
  0
LINE
  8
0
 62
7
  6
CONTINUOUS
 10
208.2060416251
 20
161.644483094
 11
208.2113580337
 21
161.6450581465
  0
LINE
  8
0
 62
7
  6
CONTINUOUS
 10
208.1972442294
 20
161.6435801933
 11
208.2060416251
 21
161.644483094
  0
LINE
  8
0
 62
7
  6
CONTINUOUS
 10
208.1873546979
 20
161.6426247145
 11
208.1972442294
 21
161.6435801933
  0
LINE
  8
0
 62
7
  6
CONTINUOUS
 10
208.1762415206
 20
161.6416116896
 11
208.1873546979
 21
161.6426247145
  0
LINE
  8
0
 62
7
  6
CONTINUOUS
 10
208.1637559583
 20
161.640535685
 11
208.1762415206
 21
161.6416116896
  0
LINE
  8
0
 62
7
  6
CONTINUOUS
 10
208.1446646157
 20
161.638991635
 11
208.1637559583
 21
161.640535685
  0
LINE
  8
0
 62
7
  6
CONTINUOUS
 10
208.122371497
 20
161.6373098845
 11
208.1446646157
 21
161.638991635
  0
LINE
  8
0
 62
7
  6
CONTINUOUS
 10
208.0963504307
 20
161.6354742077
 11
208.122371497
 21
161.6373098845
  0
LINE
  8
0
 62
7
  6
CONTINUOUS
 10
208.0576326598
 20
161.6329350724
 11
208.0963504307
 21
161.6354742077
  0
LINE
  8
0
 62
7
  6
CONTINUOUS
 10
208.0106646742
 20
161.6300849515
 11
208.0576326598
 21
161.6329350724
  0
LINE
  8
0
 62
7
  6
CONTINUOUS
 10
207.9409501749
 20
161.6261889402
 11
208.0106646742
 21
161.6300849515
  0
LINE
  8
0
 62
7
  6
CONTINUOUS
 10
207.8364753354
 20
161.6208691077
 11
207.9409501749
 21
161.6261889402
  0
LINE
  8
0
 62
7
  6
CONTINUOUS
 10
207.6772083956
 20
161.6135463041
 11
207.8364753354
 21
161.6208691077
  0
LINE
  8
0
 62
7
  6
CONTINUOUS
 10
207.4290374149
 20
161.6033192695
 11
207.6772083956
 21
161.6135463041
  0
LINE
  8
0
 62
7
  6
CONTINUOUS
 10
206.9833845644
 20
161.5870630908
 11
207.4290374149
 21
161.6033192695
  0
LINE
  8
0
 62
7
  6
CONTINUOUS
 10
206.2286834889
 20
161.5629219117
 11
206.9833845644
 21
161.5870630908
  0
LINE
  8
0
 62
7
  6
CONTINUOUS
 10
205.2737282556
 20
161.5357729483
 11
206.2286834889
 21
161.5629219117
  0
LINE
  8
0
 62
7
  6
CONTINUOUS
 10
204.1972745667
 20
161.5079339716
 11
205.2737282556
 21
161.5357729483
  0
LINE
  8
0
 62
7
  6
CONTINUOUS
 10
203.5211922163
 20
161.4915162278
 11
204.1972745667
 21
161.5079339716
  0
LINE
  8
0
 62
9
  6
CONTINUOUS
 10
208.2614093803
 20
161.6552693336
 11
203.7570461126
 21
161.5766453803
  0
LINE
  8
BEZUGSACHSEN
 62
3
  6
CONTINUOUS
 10
400.7570461126
 20
159.4766453797
 11
6.7570461126
 21
159.4766453797
  0
LINE
  8
BEZUGSACHSEN
 62
7
  6
CONTINUOUS
 10
6.7570461126
 20
161.4766453797
 11
400.7570461126
 21
161.4766453797
  0
LINE
  8
BEZUGSACHSEN
 62
9
  6
CONTINUOUS
 10
358.7570461126
 20
161.5766453797
 11
348.7570461126
 21
161.5766453797
  0
LINE
  8
BEZUGSACHSEN
 62
9
  6
CONTINUOUS
 10
48.7570461126
 20
161.5766453797
 11
58.7570461126
 21
161.5766453797
  0
LINE
  8
KONSTRUKTIONSELEMENTE
 62
9
  6
CONTINUOUS
 10
403.7570461126
 20
162.4766453797
 11
401.7570461126
 21
162.4766453797
  0
LINE
  8
KONSTRUKTIONSELEMENTE
 62
9
  6
CONTINUOUS
 10
3.7570461126
 20
162.4766453797
 11
5.7570461126
 21
162.4766453797
  0
LINE
  8
0
 62
9
  6
CONTINUOUS
 10
203.7570461126
 20
161.5766453803
 11
199.2526828448
 21
161.6552693336
  0
LINE
  8
0
 62
7
  6
CONTINUOUS
 10
203.5211922163
 20
161.5028949489
 11
202.9162598944
 21
161.5180213763
  0
LINE
  8
0
 62
7
  6
CONTINUOUS
 10
202.9162598944
 20
161.5180213763
 11
202.3970477883
 21
161.5315668842
  0
LINE
  8
0
 62
7
  6
CONTINUOUS
 10
202.3970477883
 20
161.5315668842
 11
201.8501267654
 21
161.5465245481
  0
LINE
  8
0
 62
7
  6
CONTINUOUS
 10
201.8501267654
 20
161.5465245481
 11
201.3978932756
 21
161.5595638849
  0
LINE
  8
0
 62
7
  6
CONTINUOUS
 10
201.3978932756
 20
161.5595638849
 11
201.0237642822
 21
161.5709430877
  0
LINE
  8
0
 62
7
  6
CONTINUOUS
 10
201.0237642822
 20
161.5709430877
 11
200.6591437634
 21
161.5827133094
  0
LINE
  8
0
 62
7
  6
CONTINUOUS
 10
200.6591437634
 20
161.5827133094
 11
200.368590139
 21
161.5927421675
  0
LINE
  8
0
 62
7
  6
CONTINUOUS
 10
200.368590139
 20
161.5927421675
 11
200.1033601547
 21
161.6026062204
  0
LINE
  8
0
 62
7
  6
CONTINUOUS
 10
200.1033601547
 20
161.6026062204
 11
199.9000479169
 21
161.6108302055
  0
LINE
  8
0
 62
7
  6
CONTINUOUS
 10
199.9000479169
 20
161.6108302055
 11
199.7251242028
 21
161.618601563
  0
LINE
  8
0
 62
7
  6
CONTINUOUS
 10
199.7251242028
 20
161.618601563
 11
199.6101189233
 21
161.6242457929
  0
LINE
  8
0
 62
7
  6
CONTINUOUS
 10
199.6101189233
 20
161.6242457929
 11
199.5332172566
 21
161.6283781226
  0
LINE
  8
0
 62
7
  6
CONTINUOUS
 10
199.5332172566
 20
161.6283781226
 11
199.4720612282
 21
161.6319638831
  0
LINE
  8
0
 62
7
  6
CONTINUOUS
 10
199.4720612282
 20
161.6319638831
 11
199.4308096858
 21
161.6345943634
  0
LINE
  8
0
 62
7
  6
CONTINUOUS
 10
199.4308096858
 20
161.6345943634
 11
199.4030648148
 21
161.6364946775
  0
LINE
  8
0
 62
7
  6
CONTINUOUS
 10
199.4030648148
 20
161.6364946775
 11
199.3792685882
 21
161.6382350329
  0
LINE
  8
0
 62
7
  6
CONTINUOUS
 10
199.3792685882
 20
161.6382350329
 11
199.3588642917
 21
161.6398323668
  0
LINE
  8
0
 62
7
  6
CONTINUOUS
 10
199.3588642917
 20
161.6398323668
 11
199.3454967605
 21
161.6409457654
  0
LINE
  8
0
 62
7
  6
CONTINUOUS
 10
199.3454967605
 20
161.6409457654
 11
199.3335941722
 21
161.6419929139
  0
LINE
  8
0
 62
7
  6
CONTINUOUS
 10
199.3335941722
 20
161.6419929139
 11
199.3230009377
 21
161.6429791365
  0
LINE
  8
0
 62
7
  6
CONTINUOUS
 10
199.3230009377
 20
161.6429791365
 11
199.3135674594
 21
161.6439104348
  0
LINE
  8
0
 62
7
  6
CONTINUOUS
 10
199.3135674594
 20
161.6439104348
 11
199.305170339
 21
161.6447915967
  0
LINE
  8
0
 62
7
  6
CONTINUOUS
 10
199.305170339
 20
161.6447915967
 11
199.3000929373
 21
161.6453534425
  0
LINE
  8
0
 62
7
  6
CONTINUOUS
 10
199.3000929373
 20
161.6453534425
 11
199.2953971804
 21
161.6458963317
  0
LINE
  8
0
 62
7
  6
CONTINUOUS
 10
199.2953971804
 20
161.6458963317
 11
199.2910555955
 21
161.6464215376
  0
LINE
  8
0
 62
7
  6
CONTINUOUS
 10
199.2910555955
 20
161.6464215376
 11
199.2870427642
 21
161.6469303128
  0
LINE
  8
0
 62
7
  6
CONTINUOUS
 10
199.2870427642
 20
161.6469303128
 11
199.2833351666
 21
161.6474239024
  0
LINE
  8
0
 62
7
  6
CONTINUOUS
 10
199.2833351666
 20
161.6474239024
 11
199.2799110517
 21
161.6479035565
  0
POLYLINE
  8
0
 62
7
  6
CONTINUOUS
 66
1
 70
0
  0
VERTEX
  8
0
 62
7
  6
CONTINUOUS
 10
199.2799110517
 20
161.6479035565
  0
VERTEX
  8
0
 62
7
  6
CONTINUOUS
 10
199.2767502929
 20
161.6483705507
  0
VERTEX
  8
0
 62
7
  6
CONTINUOUS
 10
199.275262756
 20
161.6485997123
  0
VERTEX
  8
0
 62
7
  6
CONTINUOUS
 10
199.2738345025
 20
161.6488261723
  0
VERTEX
  8
0
 62
7
  6
CONTINUOUS
 10
199.2724637564
 20
161.6490500208
  0
VERTEX
  8
0
 62
7
  6
CONTINUOUS
 10
199.271148011
 20
161.6492715536
  0
VERTEX
  8
0
 62
7
  6
CONTINUOUS
 10
199.2698847445
 20
161.6494910194
  0
VERTEX
  8
0
 62
7
  6
CONTINUOUS
 10
199.2686722266
 20
161.6497086488
  0
VERTEX
  8
0
 62
7
  6
CONTINUOUS
 10
199.2675083577
 20
161.6499246773
  0
VERTEX
  8
0
 62
7
  6
CONTINUOUS
 10
199.2663917234
 20
161.6501393389
  0
VERTEX
  8
0
 62
7
  6
CONTINUOUS
 10
199.2653206953
 20
161.6503528384
  0
VERTEX
  8
0
 62
7
  6
CONTINUOUS
 10
199.2642938161
 20
161.6505654995
  0
VERTEX
  8
0
 62
7
  6
CONTINUOUS
 10
199.2633094846
 20
161.6507775852
  0
VERTEX
  8
0
 62
7
  6
CONTINUOUS
 10
199.262366505
 20
161.6509894823
  0
VERTEX
  8
0
 62
7
  6
CONTINUOUS
 10
199.2614634825
 20
161.6512014944
  0
VERTEX
  8
0
 62
7
  6
CONTINUOUS
 10
199.2605994137
 20
161.6514141343
  0
VERTEX
  8
0
 62
7
  6
CONTINUOUS
 10
199.2597730759
 20
161.651627777
  0
VERTEX
  8
0
 62
7
  6
CONTINUOUS
 10
199.2589837326
 20
161.6518431403
  0
VERTEX
  8
0
 62
7
  6
CONTINUOUS
 10
199.2582303245
 20
161.6520607162
  0
VERTEX
  8
0
 62
7
  6
CONTINUOUS
 10
199.2575125979
 20
161.6522815568
  0
VERTEX
  8
0
 62
7
  6
CONTINUOUS
 10
199.2568297641
 20
161.6525063092
  0
VERTEX
  8
0
 62
7
  6
CONTINUOUS
 10
199.2561823691
 20
161.6527366809
  0
VERTEX
  8
0
 62
7
  6
CONTINUOUS
 10
199.2555701177
 20
161.6529734318
  0
VERTEX
  8
0
 62
7
  6
CONTINUOUS
 10
199.2549947448
 20
161.6532200529
  0
VERTEX
  8
0
 62
7
  6
CONTINUOUS
 10
199.2544551683
 20
161.6534779082
  0
VERTEX
  8
0
 62
7
  6
CONTINUOUS
 10
199.253959544
 20
161.6537541382
  0
VERTEX
  8
0
 62
7
  6
CONTINUOUS
 10
199.2535043842
 20
161.6540474018
  0
VERTEX
  8
0
 62
7
  6
CONTINUOUS
 10
199.2531235378
 20
161.6543845078
  0
VERTEX
  8
0
 62
7
  6
CONTINUOUS
 10
199.2528537772
 20
161.6547951137
  0
VERTEX
  8
0
 62
7
  6
CONTINUOUS
 10
199.2526828448
 20
161.6552693336
  0
SEQEND
  0
LINE
  8
0
 62
7
  6
CONTINUOUS
 10
191.7570461126
 20
161.4766453797
 11
191.7570461126
 21
213.9766453797
  0
LINE
  8
BEZUGSACHSEN
 62
7
  6
CONTINUOUS
 10
58.7570461126
 20
163.4766453797
 11
48.7570461126
 21
163.4766453797
  0
LINE
  8
BEZUGSACHSEN
 62
7
  6
CONTINUOUS
 10
348.7570461126
 20
163.4766453797
 11
358.7570461126
 21
163.4766453797
  0
LINE
  8
KONSTRUKTIONSELEMENTE
 62
7
  6
CONTINUOUS
 10
401.7570461126
 20
164.4766453797
 11
399.7570461126
 21
164.4766453797
  0
LINE
  8
KONSTRUKTIONSELEMENTE
 62
7
  6
CONTINUOUS
 10
7.7570461126
 20
164.4766453797
 11
5.7570461126
 21
164.4766453797
  0
LINE
  8
0
 62
7
  6
CONTINUOUS
 10
199.2526828448
 20
161.6552693336
 11
199.2526828448
 21
209.9766453797
  0
LINE
  8
0
 62
7
  6
CONTINUOUS
 10
203.5211922163
 20
161.5028949489
 11
203.5211922163
 21
161.4915162278
  0
LINE
  8
KONSTRUKTIONSELEMENTE
 62
7
  6
CONTINUOUS
 10
203.7570461126
 20
161.5766453803
 11
203.7570461126
 21
209.9766453797
  0
LINE
  8
0
 62
7
  6
CONTINUOUS
 10
203.7570461126
 20
209.9766453797
 11
203.7570461126
 21
210.5360438653
  0
POLYLINE
  8
0
 62
7
  6
CONTINUOUS
 66
1
 70
0
  0
VERTEX
  8
0
 62
7
  6
CONTINUOUS
 10
199.2526828448
 20
209.9766453797
  0
VERTEX
  8
0
 62
7
  6
CONTINUOUS
 10
199.2527994216
 20
209.9796350054
  0
VERTEX
  8
0
 62
7
  6
CONTINUOUS
 10
199.2532164565
 20
209.9827189274
  0
VERTEX
  8
0
 62
7
  6
CONTINUOUS
 10
199.2539221581
 20
209.9858996605
  0
VERTEX
  8
0
 62
7
  6
CONTINUOUS
 10
199.2549519005
 20
209.9891696604
  0
VERTEX
  8
0
 62
7
  6
CONTINUOUS
 10
199.2563284795
 20
209.9925211563
  0
VERTEX
  8
0
 62
7
  6
CONTINUOUS
 10
199.2580778383
 20
209.9959573432
  0
VERTEX
  8
0
 62
7
  6
CONTINUOUS
 10
199.260232624
 20
209.9994871526
  0
VERTEX
  8
0
 62
7
  6
CONTINUOUS
 10
199.262795521
 20
210.0030856048
  0
VERTEX
  8
0
 62
7
  6
CONTINUOUS
 10
199.2657792345
 20
210.0067327515
  0
VERTEX
  8
0
 62
7
  6
CONTINUOUS
 10
199.2691863495
 20
210.0104224296
  0
VERTEX
  8
0
 62
7
  6
CONTINUOUS
 10
199.2730223144
 20
210.0141424237
  0
VERTEX
  8
0
 62
7
  6
CONTINUOUS
 10
199.2772912437
 20
210.0178909434
  0
VERTEX
  8
0
 62
7
  6
CONTINUOUS
 10
199.2819976937
 20
210.0216625193
  0
VERTEX
  8
0
 62
7
  6
CONTINUOUS
 10
199.2871457864
 20
210.0254559739
  0
VERTEX
  8
0
 62
7
  6
CONTINUOUS
 10
199.2927383987
 20
210.0292678113
  0
VERTEX
  8
0
 62
7
  6
CONTINUOUS
 10
199.2987838222
 20
210.0330995167
  0
VERTEX
  8
0
 62
7
  6
CONTINUOUS
 10
199.3052878814
 20
210.0369508621
  0
VERTEX
  8
0
 62
7
  6
CONTINUOUS
 10
199.3122608539
 20
210.0408234897
  0
VERTEX
  8
0
 62
7
  6
CONTINUOUS
 10
199.3197082789
 20
210.0447172522
  0
VERTEX
  8
0
 62
7
  6
CONTINUOUS
 10
199.3276501964
 20
210.0486372897
  0
VERTEX
  8
0
 62
7
  6
CONTINUOUS
 10
199.3361034853
 20
210.0525883162
  0
VERTEX
  8
0
 62
7
  6
CONTINUOUS
 10
199.3450831679
 20
210.0565714621
  0
VERTEX
  8
0
 62
7
  6
CONTINUOUS
 10
199.3546036223
 20
210.0605887277
  0
VERTEX
  8
0
 62
7
  6
CONTINUOUS
 10
199.364683661
 20
210.064642217
  0
VERTEX
  8
0
 62
7
  6
CONTINUOUS
 10
199.375339858
 20
210.0687339996
  0
VERTEX
  8
0
 62
7
  6
CONTINUOUS
 10
199.3865933063
 20
210.0728661798
  0
VERTEX
  8
0
 62
7
  6
CONTINUOUS
 10
199.3984615887
 20
210.0770404803
  0
VERTEX
  8
0
 62
7
  6
CONTINUOUS
 10
199.4109718102
 20
210.0812601153
  0
VERTEX
  8
0
 62
7
  6
CONTINUOUS
 10
199.4241469495
 20
210.0855278829
  0
VERTEX
  8
0
 62
7
  6
CONTINUOUS
 10
199.4380169676
 20
210.0898467552
  0
VERTEX
  8
0
 62
7
  6
CONTINUOUS
 10
199.4526104768
 20
210.0942202193
  0
VERTEX
  8
0
 62
7
  6
CONTINUOUS
 10
199.4679545024
 20
210.0986495282
  0
VERTEX
  8
0
 62
7
  6
CONTINUOUS
 10
199.4840746943
 20
210.1031363559
  0
VERTEX
  8
0
 62
7
  6
CONTINUOUS
 10
199.5010037906
 20
210.1076829259
  0
VERTEX
  8
0
 62
7
  6
CONTINUOUS
 10
199.5187712416
 20
210.1122913035
  0
VERTEX
  8
0
 62
7
  6
CONTINUOUS
 10
199.5374125606
 20
210.1169636362
  0
VERTEX
  8
0
 62
7
  6
CONTINUOUS
 10
199.5569605036
 20
210.1217021123
  0
VERTEX
  8
0
 62
7
  6
CONTINUOUS
 10
199.5774527924
 20
210.1265086742
  0
VERTEX
  8
0
 62
7
  6
CONTINUOUS
 10
199.5989227281
 20
210.1313849906
  0
VERTEX
  8
0
 62
7
  6
CONTINUOUS
 10
199.6214163292
 20
210.1363340703
  0
VERTEX
  8
0
 62
7
  6
CONTINUOUS
 10
199.6449736385
 20
210.141358438
  0
VERTEX
  8
0
 62
7
  6
CONTINUOUS
 10
199.6696458839
 20
210.1464612143
  0
VERTEX
  8
0
 62
7
  6
CONTINUOUS
 10
199.6954828287
 20
210.1516460329
  0
VERTEX
  8
0
 62
7
  6
CONTINUOUS
 10
199.7225289094
 20
210.15691388
  0
VERTEX
  8
0
 62
7
  6
CONTINUOUS
 10
199.750826117
 20
210.1622660329
  0
VERTEX
  8
0
 62
7
  6
CONTINUOUS
 10
199.7804315507
 20
210.1677052514
  0
VERTEX
  8
0
 62
7
  6
CONTINUOUS
 10
199.8113967452
 20
210.1732339886
  0
VERTEX
  8
0
 62
7
  6
CONTINUOUS
 10
199.8437803854
 20
210.1788544419
  0
VERTEX
  8
0
 62
7
  6
CONTINUOUS
 10
199.877634578
 20
210.1845684777
  0
SEQEND
  0
POLYLINE
  8
0
 62
7
  6
CONTINUOUS
 66
1
 70
0
  0
VERTEX
  8
0
 62
7
  6
CONTINUOUS
 10
203.7570461126
 20
161.5766453803
  0
VERTEX
  8
0
 62
7
  6
CONTINUOUS
 10
203.7569618361
 20
161.5748533384
  0
VERTEX
  8
0
 62
7
  6
CONTINUOUS
 10
203.7566714859
 20
161.5730138538
  0
VERTEX
  8
0
 62
7
  6
CONTINUOUS
 10
203.7561831251
 20
161.5711279312
  0
VERTEX
  8
0
 62
7
  6
CONTINUOUS
 10
203.7554725645
 20
161.5691925564
  0
VERTEX
  8
0
 62
7
  6
CONTINUOUS
 10
203.7545176282
 20
161.5671971212
  0
VERTEX
  8
0
 62
7
  6
CONTINUOUS
 10
203.7533203395
 20
161.5651654118
  0
VERTEX
  8
0
 62
7
  6
CONTINUOUS
 10
203.751873751
 20
161.5631158709
  0
VERTEX
  8
0
 62
7
  6
CONTINUOUS
 10
203.7501825993
 20
161.5610539202
  0
VERTEX
  8
0
 62
7
  6
CONTINUOUS
 10
203.7482482691
 20
161.5589906699
  0
VERTEX
  8
0
 62
7
  6
CONTINUOUS
 10
203.7460738698
 20
161.5569274962
  0
VERTEX
  8
0
 62
7
  6
CONTINUOUS
 10
203.7436629602
 20
161.5548696975
  0
VERTEX
  8
0
 62
7
  6
CONTINUOUS
 10
203.7410155762
 20
161.5528166168
  0
VERTEX
  8
0
 62
7
  6
CONTINUOUS
 10
203.7381337434
 20
161.5507697378
  0
VERTEX
  8
0
 62
7
  6
CONTINUOUS
 10
203.7350150504
 20
161.5487279364
  0
VERTEX
  8
0
 62
7
  6
CONTINUOUS
 10
203.7316592476
 20
161.5466909771
  0
VERTEX
  8
0
 62
7
  6
CONTINUOUS
 10
203.7280618739
 20
161.5446576781
  0
VERTEX
  8
0
 62
7
  6
CONTINUOUS
 10
203.7242204435
 20
161.5426271267
  0
VERTEX
  8
0
 62
7
  6
CONTINUOUS
 10
203.7201287812
 20
161.5405982794
  0
VERTEX
  8
0
 62
7
  6
CONTINUOUS
 10
203.7157824467
 20
161.5385700662
  0
VERTEX
  8
0
 62
7
  6
CONTINUOUS
 10
203.7111737498
 20
161.5365416544
  0
VERTEX
  8
0
 62
7
  6
CONTINUOUS
 10
203.7062965521
 20
161.5345120515
  0
VERTEX
  8
0
 62
7
  6
CONTINUOUS
 10
203.7011417583
 20
161.5324806663
  0
VERTEX
  8
0
 62
7
  6
CONTINUOUS
 10
203.6957017132
 20
161.5304466884
  0
VERTEX
  8
0
 62
7
  6
CONTINUOUS
 10
203.6899659581
 20
161.5284097834
  0
VERTEX
  8
0
 62
7
  6
CONTINUOUS
 10
203.6839254253
 20
161.5263693677
  0
VERTEX
  8
0
 62
7
  6
CONTINUOUS
 10
203.6775682872
 20
161.524325378
  0
VERTEX
  8
0
 62
7
  6
CONTINUOUS
 10
203.6708841043
 20
161.5222774803
  0
VERTEX
  8
0
 62
7
  6
CONTINUOUS
 10
203.6638596437
 20
161.5202259028
  0
VERTEX
  8
0
 62
7
  6
CONTINUOUS
 10
203.656483097
 20
161.5181705804
  0
VERTEX
  8
0
 62
7
  6
CONTINUOUS
 10
203.6487397499
 20
161.5161120591
  0
VERTEX
  8
0
 62
7
  6
CONTINUOUS
 10
203.6406163881
 20
161.5140505633
  0
VERTEX
  8
0
 62
7
  6
CONTINUOUS
 10
203.632096703
 20
161.5119869919
  0
VERTEX
  8
0
 62
7
  6
CONTINUOUS
 10
203.6231659911
 20
161.5099218837
  0
VERTEX
  8
0
 62
7
  6
CONTINUOUS
 10
203.6138062227
 20
161.5078565434
  0
VERTEX
  8
0
 62
7
  6
CONTINUOUS
 10
203.6040011041
 20
161.5057918621
  0
VERTEX
  8
0
 62
7
  6
CONTINUOUS
 10
203.5937307241
 20
161.5037296182
  0
VERTEX
  8
0
 62
7
  6
CONTINUOUS
 10
203.5829770721
 20
161.5016711071
  0
VERTEX
  8
0
 62
7
  6
CONTINUOUS
 10
203.5717181533
 20
161.4996186684
  0
VERTEX
  8
0
 62
7
  6
CONTINUOUS
 10
203.5599340696
 20
161.497574067
  0
VERTEX
  8
0
 62
7
  6
CONTINUOUS
 10
203.5476005194
 20
161.4955403224
  0
VERTEX
  8
0
 62
7
  6
CONTINUOUS
 10
203.5346827015
 20
161.4935214937
  0
VERTEX
  8
0
 62
7
  6
CONTINUOUS
 10
203.5211922163
 20
161.4915162278
  0
SEQEND
  0
LINE
  8
0
 62
7
  6
CONTINUOUS
 10
7.7570461126
 20
184.2766453797
 11
18.2570461126
 21
184.2766453797
  0
LINE
  8
0
 62
7
  6
CONTINUOUS
 10
389.2570461126
 20
184.2766453797
 11
399.7570461126
 21
184.2766453797
  0
POLYLINE
  8
0
 62
7
  6
CONTINUOUS
 66
1
 70
0
  0
VERTEX
  8
0
 62
7
  6
CONTINUOUS
 10
208.2614093803
 20
209.9766453797
  0
VERTEX
  8
0
 62
7
  6
CONTINUOUS
 10
208.2612928036
 20
209.9796350054
  0
VERTEX
  8
0
 62
7
  6
CONTINUOUS
 10
208.2608757687
 20
209.9827189274
  0
VERTEX
  8
0
 62
7
  6
CONTINUOUS
 10
208.2601700671
 20
209.9858996605
  0
VERTEX
  8
0
 62
7
  6
CONTINUOUS
 10
208.2591403247
 20
209.9891696604
  0
VERTEX
  8
0
 62
7
  6
CONTINUOUS
 10
208.2577637457
 20
209.9925211563
  0
VERTEX
  8
0
 62
7
  6
CONTINUOUS
 10
208.2560143868
 20
209.9959573432
  0
VERTEX
  8
0
 62
7
  6
CONTINUOUS
 10
208.2538596011
 20
209.9994871526
  0
VERTEX
  8
0
 62
7
  6
CONTINUOUS
 10
208.2512967041
 20
210.0030856048
  0
VERTEX
  8
0
 62
7
  6
CONTINUOUS
 10
208.2483129906
 20
210.0067327515
  0
VERTEX
  8
0
 62
7
  6
CONTINUOUS
 10
208.2449058757
 20
210.0104224296
  0
VERTEX
  8
0
 62
7
  6
CONTINUOUS
 10
208.2410699107
 20
210.0141424237
  0
VERTEX
  8
0
 62
7
  6
CONTINUOUS
 10
208.2368009815
 20
210.0178909434
  0
VERTEX
  8
0
 62
7
  6
CONTINUOUS
 10
208.2320945315
 20
210.0216625193
  0
VERTEX
  8
0
 62
7
  6
CONTINUOUS
 10
208.2269464388
 20
210.0254559739
  0
VERTEX
  8
0
 62
7
  6
CONTINUOUS
 10
208.2213538265
 20
210.0292678113
  0
VERTEX
  8
0
 62
7
  6
CONTINUOUS
 10
208.215308403
 20
210.0330995167
  0
VERTEX
  8
0
 62
7
  6
CONTINUOUS
 10
208.2088043438
 20
210.0369508621
  0
VERTEX
  8
0
 62
7
  6
CONTINUOUS
 10
208.2018313713
 20
210.0408234897
  0
VERTEX
  8
0
 62
7
  6
CONTINUOUS
 10
208.1943839462
 20
210.0447172522
  0
VERTEX
  8
0
 62
7
  6
CONTINUOUS
 10
208.1864420288
 20
210.0486372897
  0
VERTEX
  8
0
 62
7
  6
CONTINUOUS
 10
208.1779887399
 20
210.0525883162
  0
VERTEX
  8
0
 62
7
  6
CONTINUOUS
 10
208.1690090572
 20
210.0565714621
  0
VERTEX
  8
0
 62
7
  6
CONTINUOUS
 10
208.1594886028
 20
210.0605887277
  0
VERTEX
  8
0
 62
7
  6
CONTINUOUS
 10
208.1494085642
 20
210.064642217
  0
VERTEX
  8
0
 62
7
  6
CONTINUOUS
 10
208.1387523672
 20
210.0687339996
  0
VERTEX
  8
0
 62
7
  6
CONTINUOUS
 10
208.1274989189
 20
210.0728661798
  0
VERTEX
  8
0
 62
7
  6
CONTINUOUS
 10
208.1156306364
 20
210.0770404803
  0
VERTEX
  8
0
 62
7
  6
CONTINUOUS
 10
208.103120415
 20
210.0812601153
  0
VERTEX
  8
0
 62
7
  6
CONTINUOUS
 10
208.0899452757
 20
210.0855278829
  0
VERTEX
  8
0
 62
7
  6
CONTINUOUS
 10
208.0760752576
 20
210.0898467552
  0
VERTEX
  8
0
 62
7
  6
CONTINUOUS
 10
208.0614817484
 20
210.0942202193
  0
VERTEX
  8
0
 62
7
  6
CONTINUOUS
 10
208.0461377228
 20
210.0986495282
  0
VERTEX
  8
0
 62
7
  6
CONTINUOUS
 10
208.0300175309
 20
210.1031363559
  0
VERTEX
  8
0
 62
7
  6
CONTINUOUS
 10
208.0130884346
 20
210.1076829259
  0
VERTEX
  8
0
 62
7
  6
CONTINUOUS
 10
207.9953209836
 20
210.1122913035
  0
VERTEX
  8
0
 62
7
  6
CONTINUOUS
 10
207.9766796645
 20
210.1169636362
  0
VERTEX
  8
0
 62
7
  6
CONTINUOUS
 10
207.9571317216
 20
210.1217021123
  0
VERTEX
  8
0
 62
7
  6
CONTINUOUS
 10
207.9366394327
 20
210.1265086742
  0
VERTEX
  8
0
 62
7
  6
CONTINUOUS
 10
207.915169497
 20
210.1313849906
  0
VERTEX
  8
0
 62
7
  6
CONTINUOUS
 10
207.892675896
 20
210.1363340703
  0
VERTEX
  8
0
 62
7
  6
CONTINUOUS
 10
207.8691185867
 20
210.141358438
  0
VERTEX
  8
0
 62
7
  6
CONTINUOUS
 10
207.8444463413
 20
210.1464612143
  0
VERTEX
  8
0
 62
7
  6
CONTINUOUS
 10
207.8186093964
 20
210.1516460329
  0
VERTEX
  8
0
 62
7
  6
CONTINUOUS
 10
207.7915633158
 20
210.15691388
  0
VERTEX
  8
0
 62
7
  6
CONTINUOUS
 10
207.7632661082
 20
210.1622660329
  0
VERTEX
  8
0
 62
7
  6
CONTINUOUS
 10
207.7336606745
 20
210.1677052514
  0
VERTEX
  8
0
 62
7
  6
CONTINUOUS
 10
207.7026954799
 20
210.1732339886
  0
VERTEX
  8
0
 62
7
  6
CONTINUOUS
 10
207.6703118398
 20
210.1788544419
  0
VERTEX
  8
0
 62
7
  6
CONTINUOUS
 10
207.6364576472
 20
210.1845684777
  0
VERTEX
  8
0
 62
7
  6
CONTINUOUS
 10
207.6010616339
 20
210.1903795423
  0
VERTEX
  8
0
 62
7
  6
CONTINUOUS
 10
207.5253782344
 20
210.202304963
  0
SEQEND
  0
LINE
  8
0
 62
7
  6
CONTINUOUS
 10
208.2614093803
 20
209.9766453797
 11
208.2614093803
 21
161.6552693336
  0
LINE
  8
0
 62
7
  6
CONTINUOUS
 10
216.3570461126
 20
161.4766453797
 11
216.3570461126
 21
213.9766453797
  0
POLYLINE
  8
0
 62
7
  6
CONTINUOUS
 66
1
 70
0
  0
VERTEX
  8
0
 62
7
  6
CONTINUOUS
 10
203.7566992677
 20
161.5733414516
  0
VERTEX
  8
0
 62
7
  6
CONTINUOUS
 10
203.7562497718
 20
161.5716425589
  0
VERTEX
  8
0
 62
7
  6
CONTINUOUS
 10
203.7555972861
 20
161.5699086562
  0
VERTEX
  8
0
 62
7
  6
CONTINUOUS
 10
203.7547227669
 20
161.5681294582
  0
VERTEX
  8
0
 62
7
  6
CONTINUOUS
 10
203.7536265234
 20
161.5663246471
  0
VERTEX
  8
0
 62
7
  6
CONTINUOUS
 10
203.7523005388
 20
161.5645080741
  0
VERTEX
  8
0
 62
7
  6
CONTINUOUS
 10
203.7507507484
 20
161.5626869465
  0
VERTEX
  8
0
 62
7
  6
CONTINUOUS
 10
203.7489790511
 20
161.5608726515
  0
VERTEX
  8
0
 62
7
  6
CONTINUOUS
 10
203.7469895389
 20
161.5590665005
  0
VERTEX
  8
0
 62
7
  6
CONTINUOUS
 10
203.744786493
 20
161.5572737862
  0
VERTEX
  8
0
 62
7
  6
CONTINUOUS
 10
203.7423712449
 20
161.5554939527
  0
VERTEX
  8
0
 62
7
  6
CONTINUOUS
 10
203.7397470055
 20
161.5537286224
  0
VERTEX
  8
0
 62
7
  6
CONTINUOUS
 10
203.7369124176
 20
161.5519765536
  0
VERTEX
  8
0
 62
7
  6
CONTINUOUS
 10
203.7338688366
 20
161.5502376929
  0
VERTEX
  8
0
 62
7
  6
CONTINUOUS
 10
203.7306113348
 20
161.5485100977
  0
VERTEX
  8
0
 62
7
  6
CONTINUOUS
 10
203.7271374658
 20
161.5467922191
  0
VERTEX
  8
0
 62
7
  6
CONTINUOUS
 10
203.72344114
 20
161.5450828228
  0
VERTEX
  8
0
 62
7
  6
CONTINUOUS
 10
203.7195173064
 20
161.5433802368
  0
VERTEX
  8
0
 62
7
  6
CONTINUOUS
 10
203.7153604026
 20
161.5416842245
  0
VERTEX
  8
0
 62
7
  6
CONTINUOUS
 10
203.7109656751
 20
161.5399941377
  0
VERTEX
  8
0
 62
7
  6
CONTINUOUS
 10
203.7063256466
 20
161.5383095397
  0
VERTEX
  8
0
 62
7
  6
CONTINUOUS
 10
203.7014341319
 20
161.5366298492
  0
VERTEX
  8
0
 62
7
  6
CONTINUOUS
 10
203.6962825014
 20
161.534954851
  0
VERTEX
  8
0
 62
7
  6
CONTINUOUS
 10
203.6908632978
 20
161.5332841263
  0
VERTEX
  8
0
 62
7
  6
CONTINUOUS
 10
203.6851668192
 20
161.5316177043
  0
VERTEX
  8
0
 62
7
  6
CONTINUOUS
 10
203.6791845681
 20
161.5299554049
  0
VERTEX
  8
0
 62
7
  6
CONTINUOUS
 10
203.6729054737
 20
161.5282974376
  0
VERTEX
  8
0
 62
7
  6
CONTINUOUS
 10
203.6663194349
 20
161.5266437325
  0
VERTEX
  8
0
 62
7
  6
CONTINUOUS
 10
203.6594150452
 20
161.5249949479
  0
VERTEX
  8
0
 62
7
  6
CONTINUOUS
 10
203.6521830623
 20
161.52335168
  0
VERTEX
  8
0
 62
7
  6
CONTINUOUS
 10
203.6446068926
 20
161.521714046
  0
VERTEX
  8
0
 62
7
  6
CONTINUOUS
 10
203.6366716625
 20
161.5200819303
  0
VERTEX
  8
0
 62
7
  6
CONTINUOUS
 10
203.6283629691
 20
161.5184566271
  0
VERTEX
  8
0
 62
7
  6
CONTINUOUS
 10
203.6196667087
 20
161.5168388649
  0
VERTEX
  8
0
 62
7
  6
CONTINUOUS
 10
203.6105671109
 20
161.515230225
  0
VERTEX
  8
0
 62
7
  6
CONTINUOUS
 10
203.6010497278
 20
161.5136319242
  0
VERTEX
  8
0
 62
7
  6
CONTINUOUS
 10
203.5910964889
 20
161.5120457844
  0
VERTEX
  8
0
 62
7
  6
CONTINUOUS
 10
203.5806911197
 20
161.5104732732
  0
VERTEX
  8
0
 62
7
  6
CONTINUOUS
 10
203.5698137837
 20
161.5089166695
  0
VERTEX
  8
0
 62
7
  6
CONTINUOUS
 10
203.558446387
 20
161.5073777928
  0
VERTEX
  8
0
 62
7
  6
CONTINUOUS
 10
203.5465674271
 20
161.505859488
  0
VERTEX
  8
0
 62
7
  6
CONTINUOUS
 10
203.5341459285
 20
161.5043656382
  0
VERTEX
  8
0
 62
7
  6
CONTINUOUS
 10
203.5211922163
 20
161.5028949489
  0
SEQEND
  0
LINE
  8
0
 62
7
  6
CONTINUOUS
 10
31.9570461126
 20
197.2766453797
 11
18.2570461126
 21
197.2766453797
  0
LINE
  8
0
 62
7
  6
CONTINUOUS
 10
375.5570461126
 20
197.2766453797
 11
389.2570461126
 21
197.2766453797
  0
LINE
  8
0
 62
7
  6
CONTINUOUS
 10
199.877634578
 20
210.1845684777
 11
199.9500323924
 21
210.1962907432
  0
LINE
  8
0
 62
7
  6
CONTINUOUS
 10
199.9500323924
 20
210.1962907432
 11
200.0291467982
 21
210.2084255411
  0
LINE
  8
0
 62
7
  6
CONTINUOUS
 10
200.0291467982
 20
210.2084255411
 11
200.1155488274
 21
210.2209929093
  0
LINE
  8
0
 62
7
  6
CONTINUOUS
 10
200.1155488274
 20
210.2209929093
 11
200.2098419243
 21
210.2340111986
  0
LINE
  8
0
 62
7
  6
CONTINUOUS
 10
200.2098419243
 20
210.2340111986
 11
200.3126934536
 21
210.2475013928
  0
LINE
  8
0
 62
7
  6
CONTINUOUS
 10
200.3126934536
 20
210.2475013928
 11
200.4248249759
 21
210.2614849379
  0
LINE
  8
0
 62
7
  6
CONTINUOUS
 10
200.4248249759
 20
210.2614849379
 11
200.5470222623
 21
210.2759844646
  0
LINE
  8
0
 62
7
  6
CONTINUOUS
 10
200.5470222623
 20
210.2759844646
 11
200.6801226173
 21
210.2910218903
  0
LINE
  8
0
 62
7
  6
CONTINUOUS
 10
200.6801226173
 20
210.2910218903
 11
200.8250801887
 21
210.3066248548
  0
LINE
  8
0
 62
7
  6
CONTINUOUS
 10
200.8250801887
 20
210.3066248548
 11
200.9829658338
 21
210.3228253993
  0
LINE
  8
0
 62
7
  6
CONTINUOUS
 10
200.9829658338
 20
210.3228253993
 11
201.1548621382
 21
210.3396483739
  0
LINE
  8
0
 62
7
  6
CONTINUOUS
 10
201.1548621382
 20
210.3396483739
 11
201.3419162575
 21
210.3571173044
  0
LINE
  8
0
 62
7
  6
CONTINUOUS
 10
201.3419162575
 20
210.3571173044
 11
201.5454001616
 21
210.37525974
  0
LINE
  8
0
 62
7
  6
CONTINUOUS
 10
201.5454001616
 20
210.37525974
 11
201.7666786833
 21
210.3941033817
  0
LINE
  8
0
 62
7
  6
CONTINUOUS
 10
201.7666786833
 20
210.3941033817
 11
202.0072738277
 21
210.41368062
  0
LINE
  8
0
 62
7
  6
CONTINUOUS
 10
202.0072738277
 20
210.41368062
 11
202.2688956574
 21
210.4340296648
  0
LINE
  8
0
 62
7
  6
CONTINUOUS
 10
202.2688956574
 20
210.4340296648
 11
202.5533276474
 21
210.4551845003
  0
LINE
  8
0
 62
7
  6
CONTINUOUS
 10
202.5533276474
 20
210.4551845003
 11
202.8624287402
 21
210.4771753052
  0
LINE
  8
0
 62
7
  6
CONTINUOUS
 10
202.8624287402
 20
210.4771753052
 11
203.1982546413
 21
210.5000369217
  0
POLYLINE
  8
0
 62
7
  6
CONTINUOUS
 66
1
 70
0
  0
VERTEX
  8
0
 62
7
  6
CONTINUOUS
 10
203.1982546413
 20
210.5000369217
  0
VERTEX
  8
0
 62
7
  6
CONTINUOUS
 10
203.5632004129
 20
210.5238091745
  0
VERTEX
  8
0
 62
7
  6
CONTINUOUS
 10
203.7570461126
 20
210.5360438653
  0
SEQEND
  0
LINE
  8
0
 62
9
  6
CONTINUOUS
 10
199.2526828448
 20
209.9766453797
 11
208.2614093803
 21
209.9766453797
  0
LINE
  8
0
 62
7
  6
CONTINUOUS
 10
216.3570461126
 20
213.9766453797
 11
191.7570461126
 21
213.9766453797
  0
LINE
  8
0
 62
7
  6
CONTINUOUS
 10
91.1570461126
 20
213.9766453797
 11
115.7570461126
 21
213.9766453797
  0
LINE
  8
0
 62
7
  6
CONTINUOUS
 10
399.7570461126
 20
214.2766453797
 11
375.5570461126
 21
214.2766453797
  0
LINE
  8
0
 62
7
  6
CONTINUOUS
 10
31.9570461126
 20
214.2766453797
 11
7.7570461126
 21
214.2766453797
  0
LINE
  8
KONSTRUKTIONSELEMENTE
 62
3
  6
CONTINUOUS
 10
31.9570461126
 20
214.2766453797
 11
375.5570461126
 21
214.2766453797
  0
LINE
  8
KONSTRUKTIONSELEMENTE
 62
7
  6
CONTINUOUS
 10
5.7570461126
 20
214.4766453797
 11
7.7570461126
 21
214.4766453797
  0
LINE
  8
KONSTRUKTIONSELEMENTE
 62
7
  6
CONTINUOUS
 10
399.7570461126
 20
214.4766453797
 11
401.7570461126
 21
214.4766453797
  0
LINE
  8
KONSTRUKTIONSELEMENTE
 62
7
  6
CONTINUOUS
 10
5.9570461126
 20
215.2766453797
 11
401.5570461126
 21
215.2766453797
  0
LINE
  8
FASEN
 62
7
  6
CONTINUOUS
 10
5.7570461126
 20
215.4766453797
 11
3.7570461126
 21
215.4766453797
  0
LINE
  8
BEZUGSACHSEN
 62
7
  6
CONTINUOUS
 10
401.7570461126
 20
215.4766453797
 11
403.7570461126
 21
215.4766453797
  0
LINE
  8
0
 62
7
  6
CONTINUOUS
 10
204.137203611
 20
210.5118061015
 11
203.7570461126
 21
210.5360438653
  0
LINE
  8
0
 62
7
  6
CONTINUOUS
 10
204.4872255055
 20
210.4884948088
 11
204.137203611
 21
210.5118061015
  0
LINE
  8
0
 62
7
  6
CONTINUOUS
 10
204.8094145942
 20
210.4660735812
 11
204.4872255055
 21
210.4884948088
  0
LINE
  8
0
 62
7
  6
CONTINUOUS
 10
205.105941527
 20
210.4445045267
 11
204.8094145942
 21
210.4660735812
  0
LINE
  8
0
 62
7
  6
CONTINUOUS
 10
205.3787463407
 20
210.423756157
 11
205.105941527
 21
210.4445045267
  0
LINE
  8
0
 62
7
  6
CONTINUOUS
 10
205.6296311302
 20
210.4037979346
 11
205.3787463407
 21
210.423756157
  0
LINE
  8
0
 62
7
  6
CONTINUOUS
 10
205.8603613521
 20
210.3845923769
 11
205.6296311302
 21
210.4037979346
  0
LINE
  8
0
 62
7
  6
CONTINUOUS
 10
206.0725693303
 20
210.3661025395
 11
205.8603613521
 21
210.3845923769
  0
LINE
  8
0
 62
7
  6
CONTINUOUS
 10
206.2676719939
 20
210.3483004728
 11
206.0725693303
 21
210.3661025395
  0
LINE
  8
0
 62
7
  6
CONTINUOUS
 10
206.4469950832
 20
210.3311578633
 11
206.2676719939
 21
210.3483004728
  0
LINE
  8
0
 62
7
  6
CONTINUOUS
 10
206.6117529728
 20
210.3146485024
 11
206.4469950832
 21
210.3311578633
  0
LINE
  8
0
 62
7
  6
CONTINUOUS
 10
206.7630382478
 20
210.2987504292
 11
206.6117529728
 21
210.3146485024
  0
LINE
  8
0
 62
7
  6
CONTINUOUS
 10
206.901933319
 20
210.2834348442
 11
206.7630382478
 21
210.2987504292
  0
LINE
  8
0
 62
7
  6
CONTINUOUS
 10
207.0294774012
 20
210.2686687137
 11
206.901933319
 21
210.2834348442
  0
LINE
  8
0
 62
7
  6
CONTINUOUS
 10
207.146538828
 20
210.2544301582
 11
207.0294774012
 21
210.2686687137
  0
LINE
  8
0
 62
7
  6
CONTINUOUS
 10
207.2539367549
 20
210.2406959969
 11
207.146538828
 21
210.2544301582
  0
LINE
  8
0
 62
7
  6
CONTINUOUS
 10
207.3524224999
 20
210.2274443976
 11
207.2539367549
 21
210.2406959969
  0
LINE
  8
0
 62
7
  6
CONTINUOUS
 10
207.4426896506
 20
210.2146542145
 11
207.3524224999
 21
210.2274443976
  0
LINE
  8
0
 62
7
  6
CONTINUOUS
 10
207.5253782344
 20
210.202304963
 11
207.4426896506
 21
210.2146542145
  0
LINE
  8
FASEN
 62
7
  6
CONTINUOUS
 10
5.7570461126
 20
217.4766453797
 11
3.7570461126
 21
217.4766453797
  0
LINE
  8
BEZUGSACHSEN
 62
7
  6
CONTINUOUS
 10
401.7570461126
 20
217.4766453797
 11
403.7570461126
 21
217.4766453797
  0
LINE
  8
BEZUGSACHSEN
 62
7
  6
CONTINUOUS
 10
348.7570461126
 20
161.5766453797
 11
348.7570461126
 21
163.4766453797
  0
LINE
  8
BEZUGSACHSEN
 62
7
  6
CONTINUOUS
 10
358.7570461126
 20
161.5766453797
 11
358.7570461126
 21
163.4766453797
  0
LINE
  8
0
 62
7
  6
CONTINUOUS
 10
375.5570461126
 20
214.2766453797
 11
375.5570461126
 21
197.2766453797
  0
LINE
  8
0
 62
7
  6
CONTINUOUS
 10
389.2570461126
 20
197.2766453797
 11
389.2570461126
 21
184.2766453797
  0
LINE
  8
KONSTRUKTIONSELEMENTE
 62
7
  6
CONTINUOUS
 10
399.7570461126
 20
164.4766453797
 11
399.7570461126
 21
214.4766453797
  0
LINE
  8
KONSTRUKTIONSELEMENTE
 62
9
  6
CONTINUOUS
 10
400.7570461126
 20
159.4766453797
 11
400.7570461126
 21
161.4766453797
  0
LINE
  8
KONSTRUKTIONSELEMENTE
 62
7
  6
CONTINUOUS
 10
401.5570461126
 20
214.4766453797
 11
401.5570461126
 21
215.2766453797
  0
LINE
  8
BEZUGSACHSEN
 62
7
  6
CONTINUOUS
 10
401.7570461126
 20
162.4766453797
 11
401.7570461126
 21
217.4766453797
  0
LINE
  8
BEZUGSACHSEN
 62
3
  6
CONTINUOUS
 10
403.7570461126
 20
162.4766453797
 11
403.7570461126
 21
217.4766453797
  0
ARC
  8
KONSTRUKTIONSELEMENTE
 62
3
  6
CONTINUOUS
 10
6.7570461126
 20
162.4766453797
 40
3.0
 50
180.0
 51
270.0
  0
ARC
  8
KONSTRUKTIONSELEMENTE
 62
3
  6
CONTINUOUS
 10
400.7570461126
 20
162.4766453797
 40
3.0
 50
270.0
 51
360.0
  0
ARC
  8
KONSTRUKTIONSELEMENTE
 62
7
  6
CONTINUOUS
 10
6.7570461126
 20
162.4766453797
 40
1.0
 50
180.0
 51
270.0
  0
ARC
  8
KONSTRUKTIONSELEMENTE
 62
7
  6
CONTINUOUS
 10
400.7570461126
 20
162.4766453797
 40
1.0
 50
270.0
 51
360.0
  0
ARC
  8
BEZUGSACHSEN
 62
7
  6
CONTINUOUS
 10
348.6570461126
 20
161.5766453797
 40
0.1
 50
270.0
 51
360.0
  0
ARC
  8
BEZUGSACHSEN
 62
7
  6
CONTINUOUS
 10
358.8570461126
 20
161.5766453797
 40
0.1
 50
180.0
 51
270.0
  0
ARC
  8
BEZUGSACHSEN
 62
7
  6
CONTINUOUS
 10
58.8570461126
 20
161.5766453797
 40
0.1
 50
180.0
 51
270.0
  0
ARC
  8
BEZUGSACHSEN
 62
7
  6
CONTINUOUS
 10
48.6570461126
 20
161.5766453797
 40
0.1
 50
270.0
 51
360.0
  0
ENDSEC
  0
EOF
