999
DXF file: bkg4008011.dxf
999
Pro/ENGINEER 2022024 by Parametric Technology Corporation
  0
SECTION
  2
HEADER
  9
$EXTMAX
 10
594.0
 20
420.0
 30
0.0
  9
$EXTMIN
 10
0.0
 20
0.0
 30
0.0
  9
$LIMMIN
 10
0.0
 20
0.0
  9
$LIMMAX
 10
594.0
 20
420.0
  9
$VIEWCTR
 10
297.0
 20
210.0
  9
$VIEWSIZE
 40
420.0
  9
$CLAYER
  8
0
  9
$LTSCALE
 40
32.67
  9
$CELTYPE
  6
BYLAYER
  9
$DIMSCALE
 40
1.0
  9
$DIMASZ
 40
3.5
  9
$DIMEXO
 40
0.0
  9
$DIMDLI
 40
22.572
  9
$DIMEXE
 40
1.5
  9
$DIMCEN
 40
5.346
  9
$DIMLFAC
 40
1.0
  9
$DIMBLK
  1
_FILLED
  9
$DIMALT
 70
0
  9
$DIMALTF
 40
0.0393700787
  9
$DIMTXT
 40
3.5
  9
$AUNITS
 70
0
  9
$PDMODE
 70
3
  9
$PDSIZE
 40
0.3125
  9
$TILEMODE
 70
1
  0
ENDSEC
  0
SECTION
  2
TABLES
  0
TABLE
  2
LTYPE
 70
6
  0
LTYPE
  2
BYBLOCK
 70
0
  3

 72
65
 73
0
 40
0.0
  0
LTYPE
  2
BYLAYER
 70
0
  3

 72
65
 73
0
 40
0.0
  0
LTYPE
  2
CONTINUOUS
 70
64
  3
Solid line
 72
65
 73
0
 40
0.0
  0
LTYPE
  2
CENTER
 70
64
  3
____ _ ____ _ ____ _ ____ _ ____ _ ____ _ ____
 72
65
 73
4
 40
0.6
 49
0.375
 49
-0.075
 49
0.075
 49
-0.075
  0
LTYPE
  2
HIDDEN
 70
64
  3
- - - - - - - - - - - - - - - - - - - -
 72
65
 73
2
 40
0.2
 49
0.1
 49
-0.1
  0
LTYPE
  2
PHANTOM
 70
64
  3
_____ _ _ _____ _ _ _____ _ _ _____
 72
65
 73
6
 40
0.8
 49
0.45
 49
-0.05
 49
0.1
 49
-0.05
 49
0.1
 49
-0.05
  0
LTYPE
  2
DOT
 70
64
  3
. . . . . . . . . . . . . . . . . . . .
 72
65
 73
2
 40
0.2
 49
0.1
 49
-0.1
  0
LTYPE
  2
DASHED
 70
64
  3
- - - - - - - - - - - - - - - - - - - -
 72
65
 73
2
 40
0.2
 49
0.1
 49
-0.1
  0
ENDTAB
  0
TABLE
  2
LAYER
 70
36
  0
LAYER
  2
0
 70
0
 62
7
  6
CONTINUOUS
  0
LAYER
  2
DEFAULT_1
 70
0
 62
7
  6
CENTER
  0
LAYER
  2
DEFAULT_2
 70
0
 62
8
  6
HIDDEN
  0
LAYER
  2
DEFAULT_3
 70
0
 62
7
  6
PHANTOM
  0
LAYER
  2
01_STARTBEZUEGE
 70
0
 62
7
  6
CONTINUOUS
  0
LAYER
  2
ASSEMBLY
 70
0
 62
7
  6
CONTINUOUS
  0
LAYER
  2
AUSFORMSCHRAEGEN
 70
0
 62
7
  6
CONTINUOUS
  0
LAYER
  2
AXIS
 70
0
 62
7
  6
CONTINUOUS
  0
LAYER
  2
BEZUGSACHSEN
 70
0
 62
7
  6
CONTINUOUS
  0
LAYER
  2
BEZUGSEBENEN
 70
0
 62
7
  6
CONTINUOUS
  0
LAYER
  2
BEZUGSPUNKTE
 70
0
 62
7
  6
CONTINUOUS
  0
LAYER
  2
BOHRUNGEN
 70
0
 62
7
  6
CONTINUOUS
  0
LAYER
  2
CSYS
 70
0
 62
7
  6
CONTINUOUS
  0
LAYER
  2
FASEN
 70
0
 62
7
  6
CONTINUOUS
  0
LAYER
  2
FLAECHEN
 70
0
 62
7
  6
CONTINUOUS
  0
LAYER
  2
GEWINDE
 70
0
 62
7
  6
CONTINUOUS
  0
LAYER
  2
GTOL
 70
0
 62
7
  6
CONTINUOUS
  0
LAYER
  2
KONSTRUKTIONSELEMENTE
 70
0
 62
7
  6
CONTINUOUS
  0
LAYER
  2
KOORDINATENSYSTEME
 70
0
 62
7
  6
CONTINUOUS
  0
LAYER
  2
KURVEN
 70
0
 62
7
  6
CONTINUOUS
  0
LAYER
  2
NOTIZ
 70
0
 62
7
  6
CONTINUOUS
  0
LAYER
  2
PLANES
 70
0
 62
7
  6
CONTINUOUS
  0
LAYER
  2
RUNDUNGEN
 70
0
 62
7
  6
CONTINUOUS
  0
LAYER
  2
SKELETON_MODELS
 70
0
 62
7
  6
CONTINUOUS
  0
LAYER
  2
STARTBEZUEGE
 70
0
 62
7
  6
CONTINUOUS
  0
LAYER
  2
SURFACES
 70
0
 62
7
  6
CONTINUOUS
  0
LAYER
  2
VOLUMEN
 70
0
 62
7
  6
CONTINUOUS
  0
LAYER
  2
XSEC_DATUMS
 70
0
 62
7
  6
CONTINUOUS
  0
ENDTAB
  0
TABLE
  2
STYLE
 70
1
  0
STYLE
  2
STANDARD
 70
0
 40
0.0
 41
0.7
 50
0.0
 71
0
 42
0.2
  3
txt
  4

  0
STYLE
  2
TEXTSTYLE_1
 70
0
 40
0.0
 41
0.8
 50
0.0
 71
0
 42
0.2
  3
gdt
  4

  0
ENDTAB
  0
ENDSEC
  0
SECTION
  2
BLOCKS
  0
BLOCK
  8
0
  2
_FILLED
 70
64
 10
0.0
 20
0.0
  0
SOLID
  8
0
  6
BYBLOCK
 62
0
 10
0.0
 20
0.0
 11
-1.0
 21
0.125
 12
-1.0
 22
-0.125
 13
-1.0
 23
-0.125
  0
ENDBLK
  8
0
  6
BYBLOCK
 62
0
  0
ENDSEC
  0
SECTION
  2
ENTITIES
  0
LINE
  8
FASEN
 62
3
  6
CONTINUOUS
 10
105.4723700862
 20
205.7484587349
 11
105.4723700862
 21
280.7484587349
  0
LINE
  8
FASEN
 62
7
  6
CONTINUOUS
 10
107.4723700862
 20
205.7484587349
 11
107.4723700862
 21
280.7484587349
  0
LINE
  8
KONSTRUKTIONSELEMENTE
 62
7
  6
CONTINUOUS
 10
107.6723700862
 20
277.7484587349
 11
107.6723700862
 21
278.5484587349
  0
LINE
  8
KONSTRUKTIONSELEMENTE
 62
9
  6
CONTINUOUS
 10
108.4723700862
 20
202.7484587349
 11
108.4723700862
 21
204.7484587349
  0
LINE
  8
KONSTRUKTIONSELEMENTE
 62
7
  6
CONTINUOUS
 10
109.4723700862
 20
277.7484587349
 11
109.4723700862
 21
227.7484587349
  0
LINE
  8
0
 62
7
  6
CONTINUOUS
 10
119.9723700862
 20
247.5484587349
 11
119.9723700862
 21
260.5484587349
  0
LINE
  8
0
 62
7
  6
CONTINUOUS
 10
133.6723700862
 20
260.5484587349
 11
133.6723700862
 21
277.5484587349
  0
LINE
  8
BEZUGSACHSEN
 62
7
  6
CONTINUOUS
 10
150.4723700862
 20
206.7484587349
 11
150.4723700862
 21
204.8484587349
  0
LINE
  8
BEZUGSACHSEN
 62
7
  6
CONTINUOUS
 10
160.4723700862
 20
206.7484587349
 11
160.4723700862
 21
204.8484587349
  0
LINE
  8
0
 62
7
  6
CONTINUOUS
 10
192.8723700862
 20
277.2484587349
 11
192.8723700862
 21
204.7484587349
  0
LINE
  8
0
 62
7
  6
CONTINUOUS
 10
217.4723700862
 20
277.2484587349
 11
217.4723700862
 21
204.7484587349
  0
POLYLINE
  8
0
 62
7
  6
CONTINUOUS
 66
1
 70
0
  0
VERTEX
  8
0
 62
7
  6
CONTINUOUS
 10
309.9541338616
 20
204.9204100055
  0
VERTEX
  8
0
 62
7
  6
CONTINUOUS
 10
309.9555654068
 20
204.9206369069
  0
VERTEX
  8
0
 62
7
  6
CONTINUOUS
 10
309.9569395672
 20
204.9208612423
  0
VERTEX
  8
0
 62
7
  6
CONTINUOUS
 10
309.9582585212
 20
204.9210832559
  0
VERTEX
  8
0
 62
7
  6
CONTINUOUS
 10
309.9595247164
 20
204.9213031862
  0
VERTEX
  8
0
 62
7
  6
CONTINUOUS
 10
309.9607397531
 20
204.921521234
  0
VERTEX
  8
0
 62
7
  6
CONTINUOUS
 10
309.9619055064
 20
204.9217375909
  0
VERTEX
  8
0
 62
7
  6
CONTINUOUS
 10
309.9630235989
 20
204.9219525226
  0
VERTEX
  8
0
 62
7
  6
CONTINUOUS
 10
309.9640958077
 20
204.9221662557
  0
VERTEX
  8
0
 62
7
  6
CONTINUOUS
 10
309.9651235449
 20
204.9223791002
  0
VERTEX
  8
0
 62
7
  6
CONTINUOUS
 10
309.9661084011
 20
204.9225913115
  0
VERTEX
  8
0
 62
7
  6
CONTINUOUS
 10
309.9670516176
 20
204.9228032793
  0
VERTEX
  8
0
 62
7
  6
CONTINUOUS
 10
309.9679546263
 20
204.9230153088
  0
VERTEX
  8
0
 62
7
  6
CONTINUOUS
 10
309.9688184456
 20
204.9232279082
  0
VERTEX
  8
0
 62
7
  6
CONTINUOUS
 10
309.9696443186
 20
204.9234414503
  0
VERTEX
  8
0
 62
7
  6
CONTINUOUS
 10
309.9704330036
 20
204.9236566463
  0
VERTEX
  8
0
 62
7
  6
CONTINUOUS
 10
309.9711855804
 20
204.9238739852
  0
VERTEX
  8
0
 62
7
  6
CONTINUOUS
 10
309.9719023276
 20
204.9240945072
  0
VERTEX
  8
0
 62
7
  6
CONTINUOUS
 10
309.9725840839
 20
204.9243188677
  0
VERTEX
  8
0
 62
7
  6
CONTINUOUS
 10
309.9732302492
 20
204.9245487098
  0
VERTEX
  8
0
 62
7
  6
CONTINUOUS
 10
309.9738409618
 20
204.9247847077
  0
VERTEX
  8
0
 62
7
  6
CONTINUOUS
 10
309.974414845
 20
204.9250304236
  0
VERTEX
  8
0
 62
7
  6
CONTINUOUS
 10
309.9749530508
 20
204.925287097
  0
VERTEX
  8
0
 62
7
  6
CONTINUOUS
 10
309.9754481317
 20
204.92556237
  0
VERTEX
  8
0
 62
7
  6
CONTINUOUS
 10
309.9759046585
 20
204.9258552593
  0
VERTEX
  8
0
 62
7
  6
CONTINUOUS
 10
309.9762877277
 20
204.9261928812
  0
VERTEX
  8
0
 62
7
  6
CONTINUOUS
 10
309.976559787
 20
204.9266053729
  0
VERTEX
  8
0
 62
7
  6
CONTINUOUS
 10
309.9767333539
 20
204.9270826888
  0
SEQEND
  0
LINE
  8
0
 62
7
  6
CONTINUOUS
 10
309.9510889884
 20
204.9199477295
 11
309.9541338616
 21
204.9204100055
  0
LINE
  8
0
 62
7
  6
CONTINUOUS
 10
309.9477866939
 20
204.9194730643
 11
309.9510889884
 21
204.9199477295
  0
LINE
  8
0
 62
7
  6
CONTINUOUS
 10
309.9442080218
 20
204.9189848284
 11
309.9477866939
 21
204.9194730643
  0
LINE
  8
0
 62
7
  6
CONTINUOUS
 10
309.9403316552
 20
204.9184817517
 11
309.9442080218
 21
204.9189848284
  0
LINE
  8
0
 62
7
  6
CONTINUOUS
 10
309.9361345154
 20
204.9179625738
 11
309.9403316552
 21
204.9184817517
  0
LINE
  8
0
 62
7
  6
CONTINUOUS
 10
309.9315916743
 20
204.9174260346
 11
309.9361345154
 21
204.9179625738
  0
LINE
  8
0
 62
7
  6
CONTINUOUS
 10
309.9266761824
 20
204.9168708579
 11
309.9315916743
 21
204.9174260346
  0
LINE
  8
0
 62
7
  6
CONTINUOUS
 10
309.9213589125
 20
204.9162957411
 11
309.9266761824
 21
204.9168708579
  0
LINE
  8
0
 62
7
  6
CONTINUOUS
 10
309.9125600888
 20
204.9153927405
 11
309.9213589125
 21
204.9162957411
  0
LINE
  8
0
 62
7
  6
CONTINUOUS
 10
309.9026689558
 20
204.9144371579
 11
309.9125600888
 21
204.9153927405
  0
LINE
  8
0
 62
7
  6
CONTINUOUS
 10
309.8915539948
 20
204.9134240255
 11
309.9026689558
 21
204.9144371579
  0
LINE
  8
0
 62
7
  6
CONTINUOUS
 10
309.8790664344
 20
204.9123479081
 11
309.8915539948
 21
204.9134240255
  0
LINE
  8
0
 62
7
  6
CONTINUOUS
 10
309.8599720918
 20
204.9108037013
 11
309.8790664344
 21
204.9123479081
  0
LINE
  8
0
 62
7
  6
CONTINUOUS
 10
309.8376755539
 20
204.9091217864
 11
309.8599720918
 21
204.9108037013
  0
LINE
  8
0
 62
7
  6
CONTINUOUS
 10
309.8116506014
 20
204.9072859367
 11
309.8376755539
 21
204.9091217864
  0
LINE
  8
0
 62
7
  6
CONTINUOUS
 10
309.7729272546
 20
204.9047465734
 11
309.8116506014
 21
204.9072859367
  0
LINE
  8
0
 62
7
  6
CONTINUOUS
 10
309.7259527858
 20
204.9018962093
 11
309.7729272546
 21
204.9047465734
  0
LINE
  8
0
 62
7
  6
CONTINUOUS
 10
309.6562292341
 20
204.8979998889
 11
309.7259527858
 21
204.9018962093
  0
LINE
  8
0
 62
7
  6
CONTINUOUS
 10
309.551741918
 20
204.8926796735
 11
309.6562292341
 21
204.8979998889
  0
LINE
  8
0
 62
7
  6
CONTINUOUS
 10
309.3924581189
 20
204.8853564124
 11
309.551741918
 21
204.8926796735
  0
LINE
  8
0
 62
7
  6
CONTINUOUS
 10
309.1442650666
 20
204.87512886
 11
309.3924581189
 21
204.8853564124
  0
LINE
  8
0
 62
7
  6
CONTINUOUS
 10
308.6985820274
 20
204.8588721003
 11
309.1442650666
 21
204.87512886
  0
LINE
  8
0
 62
7
  6
CONTINUOUS
 10
307.9438538584
 20
204.8347306464
 11
308.6985820274
 21
204.8588721003
  0
LINE
  8
0
 62
7
  6
CONTINUOUS
 10
306.9889161634
 20
204.8075826249
 11
307.9438538584
 21
204.8347306464
  0
LINE
  8
0
 62
7
  6
CONTINUOUS
 10
305.9125330148
 20
204.7797457
 11
306.9889161634
 21
204.8075826249
  0
LINE
  8
0
 62
7
  6
CONTINUOUS
 10
305.2365161899
 20
204.763329583
 11
305.9125330148
 21
204.7797457
  0
LINE
  8
0
 62
9
  6
CONTINUOUS
 10
309.9767333539
 20
204.9270826888
 11
305.4723700862
 21
204.8484587355
  0
LINE
  8
BEZUGSACHSEN
 62
3
  6
CONTINUOUS
 10
502.4723700862
 20
202.7484587349
 11
108.4723700862
 21
202.7484587349
  0
LINE
  8
BEZUGSACHSEN
 62
7
  6
CONTINUOUS
 10
108.4723700862
 20
204.7484587349
 11
502.4723700862
 21
204.7484587349
  0
LINE
  8
BEZUGSACHSEN
 62
9
  6
CONTINUOUS
 10
460.4723700862
 20
204.8484587349
 11
450.4723700862
 21
204.8484587349
  0
LINE
  8
BEZUGSACHSEN
 62
9
  6
CONTINUOUS
 10
150.4723700862
 20
204.8484587349
 11
160.4723700862
 21
204.8484587349
  0
LINE
  8
KONSTRUKTIONSELEMENTE
 62
9
  6
CONTINUOUS
 10
505.4723700862
 20
205.7484587349
 11
503.4723700862
 21
205.7484587349
  0
LINE
  8
KONSTRUKTIONSELEMENTE
 62
9
  6
CONTINUOUS
 10
105.4723700862
 20
205.7484587349
 11
107.4723700862
 21
205.7484587349
  0
LINE
  8
BEZUGSACHSEN
 62
7
  6
CONTINUOUS
 10
160.4723700862
 20
206.7484587349
 11
150.4723700862
 21
206.7484587349
  0
LINE
  8
BEZUGSACHSEN
 62
7
  6
CONTINUOUS
 10
450.4723700862
 20
206.7484587349
 11
460.4723700862
 21
206.7484587349
  0
LINE
  8
0
 62
9
  6
CONTINUOUS
 10
305.4723700862
 20
204.8484587355
 11
300.9680068184
 21
204.9270826888
  0
LINE
  8
0
 62
7
  6
CONTINUOUS
 10
305.2365161899
 20
204.7747083041
 11
304.6316442767
 21
204.7898331877
  0
LINE
  8
0
 62
7
  6
CONTINUOUS
 10
304.6316442767
 20
204.7898331877
 11
304.1124724566
 21
204.8033775552
  0
LINE
  8
0
 62
7
  6
CONTINUOUS
 10
304.1124724566
 20
204.8033775552
 11
303.565580297
 21
204.8183342628
  0
LINE
  8
0
 62
7
  6
CONTINUOUS
 10
303.565580297
 20
204.8183342628
 11
303.113358283
 21
204.8313730611
  0
LINE
  8
0
 62
7
  6
CONTINUOUS
 10
303.113358283
 20
204.8313730611
 11
302.7392285236
 21
204.8427520567
  0
LINE
  8
0
 62
7
  6
CONTINUOUS
 10
302.7392285236
 20
204.8427520567
 11
302.3745967728
 21
204.8545223542
  0
LINE
  8
0
 62
7
  6
CONTINUOUS
 10
302.3745967728
 20
204.8545223542
 11
302.0840288597
 21
204.8645514199
  0
LINE
  8
0
 62
7
  6
CONTINUOUS
 10
302.0840288597
 20
204.8645514199
 11
301.8187817368
 21
204.8744157861
  0
LINE
  8
0
 62
7
  6
CONTINUOUS
 10
301.8187817368
 20
204.8744157861
 11
301.6154530191
 21
204.8826401285
  0
LINE
  8
0
 62
7
  6
CONTINUOUS
 10
301.6154530191
 20
204.8826401285
 11
301.4405122653
 21
204.8904119124
  0
LINE
  8
0
 62
7
  6
CONTINUOUS
 10
301.4405122653
 20
204.8904119124
 11
301.3254939573
 21
204.8960565147
  0
LINE
  8
0
 62
7
  6
CONTINUOUS
 10
301.3254939573
 20
204.8960565147
 11
301.2485826128
 21
204.9001891534
  0
LINE
  8
0
 62
7
  6
CONTINUOUS
 10
301.2485826128
 20
204.9001891534
 11
301.1874182554
 21
204.9037752084
  0
LINE
  8
0
 62
7
  6
CONTINUOUS
 10
301.1874182554
 20
204.9037752084
 11
301.1461607307
 21
204.9064059218
  0
LINE
  8
0
 62
7
  6
CONTINUOUS
 10
301.1461607307
 20
204.9064059218
 11
301.1184116693
 21
204.9083064129
  0
LINE
  8
0
 62
7
  6
CONTINUOUS
 10
301.1184116693
 20
204.9083064129
 11
301.0946117247
 21
204.9100469378
  0
LINE
  8
0
 62
7
  6
CONTINUOUS
 10
301.0946117247
 20
204.9100469378
 11
301.0742041471
 21
204.9116444337
  0
LINE
  8
0
 62
7
  6
CONTINUOUS
 10
301.0742041471
 20
204.9116444337
 11
301.0608344207
 21
204.9127579489
  0
LINE
  8
0
 62
7
  6
CONTINUOUS
 10
301.0608344207
 20
204.9127579489
 11
301.0489298396
 21
204.9138052107
  0
LINE
  8
0
 62
7
  6
CONTINUOUS
 10
301.0489298396
 20
204.9138052107
 11
301.038334818
 21
204.9147915419
  0
LINE
  8
0
 62
7
  6
CONTINUOUS
 10
301.038334818
 20
204.9147915419
 11
301.0288997349
 21
204.9157229451
  0
LINE
  8
0
 62
7
  6
CONTINUOUS
 10
301.0288997349
 20
204.9157229451
 11
301.0205011782
 21
204.9166042082
  0
LINE
  8
0
 62
7
  6
CONTINUOUS
 10
301.0205011782
 20
204.9166042082
 11
301.0154229076
 21
204.9171661194
  0
LINE
  8
0
 62
7
  6
CONTINUOUS
 10
301.0154229076
 20
204.9171661194
 11
301.0107263495
 21
204.9177090726
  0
LINE
  8
0
 62
7
  6
CONTINUOUS
 10
301.0107263495
 20
204.9177090726
 11
301.0063840281
 21
204.9182343406
  0
LINE
  8
0
 62
7
  6
CONTINUOUS
 10
301.0063840281
 20
204.9182343406
 11
301.0023705226
 21
204.9187431764
  0
LINE
  8
0
 62
7
  6
CONTINUOUS
 10
301.0023705226
 20
204.9187431764
 11
300.9986623103
 21
204.9192368247
  0
LINE
  8
0
 62
7
  6
CONTINUOUS
 10
300.9986623103
 20
204.9192368247
 11
300.9952376381
 21
204.9197165359
  0
POLYLINE
  8
0
 62
7
  6
CONTINUOUS
 66
1
 70
0
  0
VERTEX
  8
0
 62
7
  6
CONTINUOUS
 10
300.9952376381
 20
204.9197165359
  0
VERTEX
  8
0
 62
7
  6
CONTINUOUS
 10
300.9920763771
 20
204.9201835853
  0
VERTEX
  8
0
 62
7
  6
CONTINUOUS
 10
300.990588609
 20
204.9204127738
  0
VERTEX
  8
0
 62
7
  6
CONTINUOUS
 10
300.9891601371
 20
204.9206392602
  0
VERTEX
  8
0
 62
7
  6
CONTINUOUS
 10
300.9877891853
 20
204.9208631347
  0
VERTEX
  8
0
 62
7
  6
CONTINUOUS
 10
300.9864732463
 20
204.921084693
  0
VERTEX
  8
0
 62
7
  6
CONTINUOUS
 10
300.985209798
 20
204.9213041839
  0
VERTEX
  8
0
 62
7
  6
CONTINUOUS
 10
300.9839971097
 20
204.921521838
  0
VERTEX
  8
0
 62
7
  6
CONTINUOUS
 10
300.9828330813
 20
204.9217378908
  0
VERTEX
  8
0
 62
7
  6
CONTINUOUS
 10
300.9817162985
 20
204.9219525764
  0
VERTEX
  8
0
 62
7
  6
CONTINUOUS
 10
300.9806451327
 20
204.9221660994
  0
VERTEX
  8
0
 62
7
  6
CONTINUOUS
 10
300.9796181268
 20
204.9223787835
  0
VERTEX
  8
0
 62
7
  6
CONTINUOUS
 10
300.9786336791
 20
204.9225908918
  0
VERTEX
  8
0
 62
7
  6
CONTINUOUS
 10
300.9776905942
 20
204.9228028109
  0
VERTEX
  8
0
 62
7
  6
CONTINUOUS
 10
300.976787477
 20
204.9230148445
  0
VERTEX
  8
0
 62
7
  6
CONTINUOUS
 10
300.9759233244
 20
204.9232275054
  0
VERTEX
  8
0
 62
7
  6
CONTINUOUS
 10
300.9750969135
 20
204.9234411683
  0
VERTEX
  8
0
 62
7
  6
CONTINUOUS
 10
300.9743075083
 20
204.923656551
  0
VERTEX
  8
0
 62
7
  6
CONTINUOUS
 10
300.9735540496
 20
204.9238741454
  0
VERTEX
  8
0
 62
7
  6
CONTINUOUS
 10
300.9728362842
 20
204.9240950034
  0
VERTEX
  8
0
 62
7
  6
CONTINUOUS
 10
300.9721534235
 20
204.9243197718
  0
VERTEX
  8
0
 62
7
  6
CONTINUOUS
 10
300.9715060146
 20
204.9245501577
  0
VERTEX
  8
0
 62
7
  6
CONTINUOUS
 10
300.9708937634
 20
204.9247869203
  0
VERTEX
  8
0
 62
7
  6
CONTINUOUS
 10
300.9703184049
 20
204.9250335497
  0
VERTEX
  8
0
 62
7
  6
CONTINUOUS
 10
300.9697788571
 20
204.9252914105
  0
VERTEX
  8
0
 62
7
  6
CONTINUOUS
 10
300.9692832768
 20
204.9255676384
  0
VERTEX
  8
0
 62
7
  6
CONTINUOUS
 10
300.9688281835
 20
204.9258608888
  0
VERTEX
  8
0
 62
7
  6
CONTINUOUS
 10
300.9684474076
 20
204.9261979681
  0
VERTEX
  8
0
 62
7
  6
CONTINUOUS
 10
300.968177703
 20
204.9266085296
  0
VERTEX
  8
0
 62
7
  6
CONTINUOUS
 10
300.9680068184
 20
204.9270826888
  0
SEQEND
  0
LINE
  8
0
 62
7
  6
CONTINUOUS
 10
293.4723700862
 20
204.7484587349
 11
293.4723700862
 21
277.2484587349
  0
LINE
  8
KONSTRUKTIONSELEMENTE
 62
7
  6
CONTINUOUS
 10
503.4723700862
 20
227.7484587349
 11
501.4723700862
 21
227.7484587349
  0
LINE
  8
KONSTRUKTIONSELEMENTE
 62
7
  6
CONTINUOUS
 10
109.4723700862
 20
227.7484587349
 11
107.4723700862
 21
227.7484587349
  0
LINE
  8
0
 62
7
  6
CONTINUOUS
 10
300.9680068184
 20
204.9270826888
 11
300.9680068184
 21
273.2484587349
  0
LINE
  8
0
 62
7
  6
CONTINUOUS
 10
305.2365161899
 20
204.7747083041
 11
305.2365161899
 21
204.763329583
  0
LINE
  8
KONSTRUKTIONSELEMENTE
 62
7
  6
CONTINUOUS
 10
305.4723700862
 20
204.8484587355
 11
305.4723700862
 21
273.2484587349
  0
LINE
  8
0
 62
7
  6
CONTINUOUS
 10
305.4723700862
 20
273.2484587349
 11
305.4723700862
 21
273.8078572205
  0
POLYLINE
  8
0
 62
7
  6
CONTINUOUS
 66
1
 70
0
  0
VERTEX
  8
0
 62
7
  6
CONTINUOUS
 10
300.9680068184
 20
273.2484587349
  0
VERTEX
  8
0
 62
7
  6
CONTINUOUS
 10
300.9681229338
 20
273.2514417728
  0
VERTEX
  8
0
 62
7
  6
CONTINUOUS
 10
300.9685380159
 20
273.2545185281
  0
VERTEX
  8
0
 62
7
  6
CONTINUOUS
 10
300.9692403222
 20
273.2576914054
  0
VERTEX
  8
0
 62
7
  6
CONTINUOUS
 10
300.9702650801
 20
273.2609531907
  0
VERTEX
  8
0
 62
7
  6
CONTINUOUS
 10
300.9716348746
 20
273.264296292
  0
VERTEX
  8
0
 62
7
  6
CONTINUOUS
 10
300.9733758906
 20
273.2677242481
  0
VERTEX
  8
0
 62
7
  6
CONTINUOUS
 10
300.9755208721
 20
273.2712464102
  0
VERTEX
  8
0
 62
7
  6
CONTINUOUS
 10
300.9780727269
 20
273.2748377498
  0
VERTEX
  8
0
 62
7
  6
CONTINUOUS
 10
300.9810443858
 20
273.2784784484
  0
VERTEX
  8
0
 62
7
  6
CONTINUOUS
 10
300.9844385227
 20
273.282162228
  0
VERTEX
  8
0
 62
7
  6
CONTINUOUS
 10
300.9882607061
 20
273.2858768022
  0
VERTEX
  8
0
 62
7
  6
CONTINUOUS
 10
300.9925151823
 20
273.2896203779
  0
VERTEX
  8
0
 62
7
  6
CONTINUOUS
 10
300.9972066681
 20
273.2933874796
  0
VERTEX
  8
0
 62
7
  6
CONTINUOUS
 10
301.0023393218
 20
273.2971768668
  0
VERTEX
  8
0
 62
7
  6
CONTINUOUS
 10
301.0079161049
 20
273.3009849918
  0
VERTEX
  8
0
 62
7
  6
CONTINUOUS
 10
301.0139453254
 20
273.3048133004
  0
VERTEX
  8
0
 62
7
  6
CONTINUOUS
 10
301.0204328431
 20
273.308661514
  0
VERTEX
  8
0
 62
7
  6
CONTINUOUS
 10
301.0273889643
 20
273.3125312581
  0
VERTEX
  8
0
 62
7
  6
CONTINUOUS
 10
301.0348192982
 20
273.3164223709
  0
VERTEX
  8
0
 62
7
  6
CONTINUOUS
 10
301.0427437952
 20
273.320339935
  0
VERTEX
  8
0
 62
7
  6
CONTINUOUS
 10
301.0511792256
 20
273.3242885875
  0
VERTEX
  8
0
 62
7
  6
CONTINUOUS
 10
301.060140739
 20
273.3282695036
  0
VERTEX
  8
0
 62
7
  6
CONTINUOUS
 10
301.0696428182
 20
273.3322847136
  0
VERTEX
  8
0
 62
7
  6
CONTINUOUS
 10
301.0797042344
 20
273.336336289
  0
VERTEX
  8
0
 62
7
  6
CONTINUOUS
 10
301.0903415457
 20
273.340426276
  0
VERTEX
  8
0
 62
7
  6
CONTINUOUS
 10
301.1015758742
 20
273.3445567809
  0
VERTEX
  8
0
 62
7
  6
CONTINUOUS
 10
301.1134248464
 20
273.3487295288
  0
VERTEX
  8
0
 62
7
  6
CONTINUOUS
 10
301.1259155075
 20
273.3529477089
  0
VERTEX
  8
0
 62
7
  6
CONTINUOUS
 10
301.1390707718
 20
273.3572140894
  0
VERTEX
  8
0
 62
7
  6
CONTINUOUS
 10
301.1529206586
 20
273.3615316578
  0
VERTEX
  8
0
 62
7
  6
CONTINUOUS
 10
301.1674937981
 20
273.3659039043
  0
VERTEX
  8
0
 62
7
  6
CONTINUOUS
 10
301.1828172714
 20
273.3703320897
  0
VERTEX
  8
0
 62
7
  6
CONTINUOUS
 10
301.1989167966
 20
273.3748179009
  0
VERTEX
  8
0
 62
7
  6
CONTINUOUS
 10
301.2158250929
 20
273.3793635493
  0
VERTEX
  8
0
 62
7
  6
CONTINUOUS
 10
301.2335716029
 20
273.3839710914
  0
VERTEX
  8
0
 62
7
  6
CONTINUOUS
 10
301.2521918755
 20
273.3886426779
  0
VERTEX
  8
0
 62
7
  6
CONTINUOUS
 10
301.2717187131
 20
273.3933805026
  0
VERTEX
  8
0
 62
7
  6
CONTINUOUS
 10
301.2921897975
 20
273.3981864931
  0
VERTEX
  8
0
 62
7
  6
CONTINUOUS
 10
301.3136384096
 20
273.4030623071
  0
VERTEX
  8
0
 62
7
  6
CONTINUOUS
 10
301.3361105536
 20
273.4080109481
  0
VERTEX
  8
0
 62
7
  6
CONTINUOUS
 10
301.3596461734
 20
273.4130349175
  0
VERTEX
  8
0
 62
7
  6
CONTINUOUS
 10
301.3842967305
 20
273.4181373796
  0
VERTEX
  8
0
 62
7
  6
CONTINUOUS
 10
301.4101122223
 20
273.4233220134
  0
VERTEX
  8
0
 62
7
  6
CONTINUOUS
 10
301.4371369854
 20
273.4285897757
  0
VERTEX
  8
0
 62
7
  6
CONTINUOUS
 10
301.4654129665
 20
273.433941927
  0
VERTEX
  8
0
 62
7
  6
CONTINUOUS
 10
301.4949973338
 20
273.4393812345
  0
VERTEX
  8
0
 62
7
  6
CONTINUOUS
 10
301.5259416527
 20
273.4449101514
  0
VERTEX
  8
0
 62
7
  6
CONTINUOUS
 10
301.558304679
 20
273.4505308803
  0
VERTEX
  8
0
 62
7
  6
CONTINUOUS
 10
301.5921386378
 20
273.4562453004
  0
SEQEND
  0
POLYLINE
  8
0
 62
7
  6
CONTINUOUS
 66
1
 70
0
  0
VERTEX
  8
0
 62
7
  6
CONTINUOUS
 10
305.4723700862
 20
204.8484587355
  0
VERTEX
  8
0
 62
7
  6
CONTINUOUS
 10
305.472286141
 20
204.8466700144
  0
VERTEX
  8
0
 62
7
  6
CONTINUOUS
 10
305.4719968201
 20
204.8448338195
  0
VERTEX
  8
0
 62
7
  6
CONTINUOUS
 10
305.4715102197
 20
204.84295122
  0
VERTEX
  8
0
 62
7
  6
CONTINUOUS
 10
305.470802051
 20
204.8410190087
  0
VERTEX
  8
0
 62
7
  6
CONTINUOUS
 10
305.4698500975
 20
204.8390263995
  0
VERTEX
  8
0
 62
7
  6
CONTINUOUS
 10
305.4686562385
 20
204.8369971982
  0
VERTEX
  8
0
 62
7
  6
CONTINUOUS
 10
305.467213399
 20
204.8349497933
  0
VERTEX
  8
0
 62
7
  6
CONTINUOUS
 10
305.4655262254
 20
204.8328896503
  0
VERTEX
  8
0
 62
7
  6
CONTINUOUS
 10
305.4635959849
 20
204.8308278931
  0
VERTEX
  8
0
 62
7
  6
CONTINUOUS
 10
305.4614257402
 20
204.8287659357
  0
VERTEX
  8
0
 62
7
  6
CONTINUOUS
 10
305.4590189735
 20
204.8267091112
  0
VERTEX
  8
0
 62
7
  6
CONTINUOUS
 10
305.4563756936
 20
204.824656787
  0
VERTEX
  8
0
 62
7
  6
CONTINUOUS
 10
305.4534978805
 20
204.8226104779
  0
VERTEX
  8
0
 62
7
  6
CONTINUOUS
 10
305.4503831018
 20
204.8205690748
  0
VERTEX
  8
0
 62
7
  6
CONTINUOUS
 10
305.4470310784
 20
204.8185323644
  0
VERTEX
  8
0
 62
7
  6
CONTINUOUS
 10
305.4434373299
 20
204.8164991744
  0
VERTEX
  8
0
 62
7
  6
CONTINUOUS
 10
305.4395993479
 20
204.8144686071
  0
VERTEX
  8
0
 62
7
  6
CONTINUOUS
 10
305.435510937
 20
204.8124396253
  0
VERTEX
  8
0
 62
7
  6
CONTINUOUS
 10
305.4311676364
 20
204.8104111687
  0
VERTEX
  8
0
 62
7
  6
CONTINUOUS
 10
305.4265617333
 20
204.8083824086
  0
VERTEX
  8
0
 62
7
  6
CONTINUOUS
 10
305.4216870686
 20
204.8063523592
  0
VERTEX
  8
0
 62
7
  6
CONTINUOUS
 10
305.4165345216
 20
204.8043204323
  0
VERTEX
  8
0
 62
7
  6
CONTINUOUS
 10
305.4110964143
 20
204.8022858216
  0
VERTEX
  8
0
 62
7
  6
CONTINUOUS
 10
305.4053622592
 20
204.8002481951
  0
VERTEX
  8
0
 62
7
  6
CONTINUOUS
 10
305.3993229633
 20
204.7982069724
  0
VERTEX
  8
0
 62
7
  6
CONTINUOUS
 10
305.3929666659
 20
204.7961620922
  0
VERTEX
  8
0
 62
7
  6
CONTINUOUS
 10
305.3862828989
 20
204.7941132228
  0
VERTEX
  8
0
 62
7
  6
CONTINUOUS
 10
305.3792583918
 20
204.7920605945
  0
VERTEX
  8
0
 62
7
  6
CONTINUOUS
 10
305.3718813035
 20
204.7900041442
  0
VERTEX
  8
0
 62
7
  6
CONTINUOUS
 10
305.364136877
 20
204.7879444204
  0
VERTEX
  8
0
 62
7
  6
CONTINUOUS
 10
305.3560118605
 20
204.7858816495
  0
VERTEX
  8
0
 62
7
  6
CONTINUOUS
 10
305.3474898967
 20
204.7838167335
  0
VERTEX
  8
0
 62
7
  6
CONTINUOUS
 10
305.3385562393
 20
204.7817502135
  0
VERTEX
  8
0
 62
7
  6
CONTINUOUS
 10
305.3291928032
 20
204.779683398
  0
VERTEX
  8
0
 62
7
  6
CONTINUOUS
 10
305.3193832457
 20
204.7776171813
  0
VERTEX
  8
0
 62
7
  6
CONTINUOUS
 10
305.309107592
 20
204.7755533468
  0
VERTEX
  8
0
 62
7
  6
CONTINUOUS
 10
305.298347776
 20
204.7734931939
  0
VERTEX
  8
0
 62
7
  6
CONTINUOUS
 10
305.2870817294
 20
204.7714390691
  0
VERTEX
  8
0
 62
7
  6
CONTINUOUS
 10
305.2752894906
 20
204.7693927424
  0
VERTEX
  8
0
 62
7
  6
CONTINUOUS
 10
305.2629466741
 20
204.767357243
  0
VERTEX
  8
0
 62
7
  6
CONTINUOUS
 10
305.2500183606
 20
204.7653366422
  0
VERTEX
  8
0
 62
7
  6
CONTINUOUS
 10
305.2365161899
 20
204.763329583
  0
SEQEND
  0
POLYLINE
  8
0
 62
7
  6
CONTINUOUS
 66
1
 70
0
  0
VERTEX
  8
0
 62
7
  6
CONTINUOUS
 10
309.9767333539
 20
273.2484587349
  0
VERTEX
  8
0
 62
7
  6
CONTINUOUS
 10
309.9766172385
 20
273.2514417728
  0
VERTEX
  8
0
 62
7
  6
CONTINUOUS
 10
309.9762021565
 20
273.2545185281
  0
VERTEX
  8
0
 62
7
  6
CONTINUOUS
 10
309.9754998502
 20
273.2576914054
  0
VERTEX
  8
0
 62
7
  6
CONTINUOUS
 10
309.9744750923
 20
273.2609531907
  0
VERTEX
  8
0
 62
7
  6
CONTINUOUS
 10
309.9731052978
 20
273.264296292
  0
VERTEX
  8
0
 62
7
  6
CONTINUOUS
 10
309.9713642818
 20
273.2677242481
  0
VERTEX
  8
0
 62
7
  6
CONTINUOUS
 10
309.9692193002
 20
273.2712464102
  0
VERTEX
  8
0
 62
7
  6
CONTINUOUS
 10
309.9666674455
 20
273.2748377498
  0
VERTEX
  8
0
 62
7
  6
CONTINUOUS
 10
309.9636957865
 20
273.2784784484
  0
VERTEX
  8
0
 62
7
  6
CONTINUOUS
 10
309.9603016497
 20
273.282162228
  0
VERTEX
  8
0
 62
7
  6
CONTINUOUS
 10
309.9564794663
 20
273.2858768022
  0
VERTEX
  8
0
 62
7
  6
CONTINUOUS
 10
309.95222499
 20
273.2896203778
  0
VERTEX
  8
0
 62
7
  6
CONTINUOUS
 10
309.9475335043
 20
273.2933874796
  0
VERTEX
  8
0
 62
7
  6
CONTINUOUS
 10
309.9424008506
 20
273.2971768668
  0
VERTEX
  8
0
 62
7
  6
CONTINUOUS
 10
309.9368240675
 20
273.3009849918
  0
VERTEX
  8
0
 62
7
  6
CONTINUOUS
 10
309.930794847
 20
273.3048133004
  0
VERTEX
  8
0
 62
7
  6
CONTINUOUS
 10
309.9243073293
 20
273.308661514
  0
VERTEX
  8
0
 62
7
  6
CONTINUOUS
 10
309.9173512081
 20
273.3125312581
  0
VERTEX
  8
0
 62
7
  6
CONTINUOUS
 10
309.9099208742
 20
273.3164223709
  0
VERTEX
  8
0
 62
7
  6
CONTINUOUS
 10
309.9019963772
 20
273.320339935
  0
VERTEX
  8
0
 62
7
  6
CONTINUOUS
 10
309.8935609468
 20
273.3242885875
  0
VERTEX
  8
0
 62
7
  6
CONTINUOUS
 10
309.8845994334
 20
273.3282695036
  0
VERTEX
  8
0
 62
7
  6
CONTINUOUS
 10
309.8750973542
 20
273.3322847136
  0
VERTEX
  8
0
 62
7
  6
CONTINUOUS
 10
309.865035938
 20
273.336336289
  0
VERTEX
  8
0
 62
7
  6
CONTINUOUS
 10
309.8543986267
 20
273.340426276
  0
VERTEX
  8
0
 62
7
  6
CONTINUOUS
 10
309.8431642982
 20
273.3445567809
  0
VERTEX
  8
0
 62
7
  6
CONTINUOUS
 10
309.831315326
 20
273.3487295288
  0
VERTEX
  8
0
 62
7
  6
CONTINUOUS
 10
309.8188246649
 20
273.3529477089
  0
VERTEX
  8
0
 62
7
  6
CONTINUOUS
 10
309.8056694006
 20
273.3572140894
  0
VERTEX
  8
0
 62
7
  6
CONTINUOUS
 10
309.7918195138
 20
273.3615316578
  0
VERTEX
  8
0
 62
7
  6
CONTINUOUS
 10
309.7772463743
 20
273.3659039043
  0
VERTEX
  8
0
 62
7
  6
CONTINUOUS
 10
309.761922901
 20
273.3703320896
  0
VERTEX
  8
0
 62
7
  6
CONTINUOUS
 10
309.7458233759
 20
273.3748179009
  0
VERTEX
  8
0
 62
7
  6
CONTINUOUS
 10
309.7289150795
 20
273.3793635493
  0
VERTEX
  8
0
 62
7
  6
CONTINUOUS
 10
309.7111685695
 20
273.3839710914
  0
VERTEX
  8
0
 62
7
  6
CONTINUOUS
 10
309.6925482969
 20
273.3886426779
  0
VERTEX
  8
0
 62
7
  6
CONTINUOUS
 10
309.6730214593
 20
273.3933805026
  0
VERTEX
  8
0
 62
7
  6
CONTINUOUS
 10
309.652550375
 20
273.3981864931
  0
VERTEX
  8
0
 62
7
  6
CONTINUOUS
 10
309.6311017628
 20
273.4030623071
  0
VERTEX
  8
0
 62
7
  6
CONTINUOUS
 10
309.6086296188
 20
273.4080109481
  0
VERTEX
  8
0
 62
7
  6
CONTINUOUS
 10
309.5850939991
 20
273.4130349175
  0
VERTEX
  8
0
 62
7
  6
CONTINUOUS
 10
309.5604434419
 20
273.4181373796
  0
VERTEX
  8
0
 62
7
  6
CONTINUOUS
 10
309.5346279502
 20
273.4233220134
  0
VERTEX
  8
0
 62
7
  6
CONTINUOUS
 10
309.507603187
 20
273.4285897756
  0
VERTEX
  8
0
 62
7
  6
CONTINUOUS
 10
309.479327206
 20
273.4339419269
  0
VERTEX
  8
0
 62
7
  6
CONTINUOUS
 10
309.4497428387
 20
273.4393812345
  0
VERTEX
  8
0
 62
7
  6
CONTINUOUS
 10
309.4187985197
 20
273.4449101514
  0
VERTEX
  8
0
 62
7
  6
CONTINUOUS
 10
309.3864354934
 20
273.4505308802
  0
VERTEX
  8
0
 62
7
  6
CONTINUOUS
 10
309.3526015347
 20
273.4562453003
  0
VERTEX
  8
0
 62
7
  6
CONTINUOUS
 10
309.3172254862
 20
273.4620568342
  0
VERTEX
  8
0
 62
7
  6
CONTINUOUS
 10
309.2415814229
 20
273.4739833897
  0
SEQEND
  0
LINE
  8
0
 62
7
  6
CONTINUOUS
 10
309.9767333539
 20
273.2484587349
 11
309.9767333539
 21
204.9270826888
  0
LINE
  8
0
 62
7
  6
CONTINUOUS
 10
318.0723700862
 20
204.7484587349
 11
318.0723700862
 21
277.2484587349
  0
POLYLINE
  8
0
 62
7
  6
CONTINUOUS
 66
1
 70
0
  0
VERTEX
  8
0
 62
7
  6
CONTINUOUS
 10
305.4720245209
 20
204.8451608942
  0
VERTEX
  8
0
 62
7
  6
CONTINUOUS
 10
305.4715766762
 20
204.843465035
  0
VERTEX
  8
0
 62
7
  6
CONTINUOUS
 10
305.4709264439
 20
204.8417340158
  0
VERTEX
  8
0
 62
7
  6
CONTINUOUS
 10
305.4700547569
 20
204.8399574115
  0
VERTEX
  8
0
 62
7
  6
CONTINUOUS
 10
305.4689617775
 20
204.8381548945
  0
VERTEX
  8
0
 62
7
  6
CONTINUOUS
 10
305.4676393619
 20
204.8363402404
  0
VERTEX
  8
0
 62
7
  6
CONTINUOUS
 10
305.4660933607
 20
204.8345207137
  0
VERTEX
  8
0
 62
7
  6
CONTINUOUS
 10
305.4643255616
 20
204.8327077215
  0
VERTEX
  8
0
 62
7
  6
CONTINUOUS
 10
305.4623400099
 20
204.8309026113
  0
VERTEX
  8
0
 62
7
  6
CONTINUOUS
 10
305.4601409119
 20
204.8291107103
  0
VERTEX
  8
0
 62
7
  6
CONTINUOUS
 10
305.457729573
 20
204.8273314872
  0
VERTEX
  8
0
 62
7
  6
CONTINUOUS
 10
305.4551091542
 20
204.8255665923
  0
VERTEX
  8
0
 62
7
  6
CONTINUOUS
 10
305.4522782955
 20
204.8238148076
  0
VERTEX
  8
0
 62
7
  6
CONTINUOUS
 10
305.449238333
 20
204.8220761079
  0
VERTEX
  8
0
 62
7
  6
CONTINUOUS
 10
305.4459843399
 20
204.8203485646
  0
VERTEX
  8
0
 62
7
  6
CONTINUOUS
 10
305.4425138846
 20
204.818630657
  0
VERTEX
  8
0
 62
7
  6
CONTINUOUS
 10
305.4388208177
 20
204.8169211357
  0
VERTEX
  8
0
 62
7
  6
CONTINUOUS
 10
305.4349000333
 20
204.8152183181
  0
VERTEX
  8
0
 62
7
  6
CONTINUOUS
 10
305.4307459696
 20
204.8135219831
  0
VERTEX
  8
0
 62
7
  6
CONTINUOUS
 10
305.426353863
 20
204.8118314932
  0
VERTEX
  8
0
 62
7
  6
CONTINUOUS
 10
305.4217162131
 20
204.8101464141
  0
VERTEX
  8
0
 62
7
  6
CONTINUOUS
 10
305.4168268151
 20
204.8084661693
  0
VERTEX
  8
0
 62
7
  6
CONTINUOUS
 10
305.4116770179
 20
204.806790547
  0
VERTEX
  8
0
 62
7
  6
CONTINUOUS
 10
305.4062593448
 20
204.8051191324
  0
VERTEX
  8
0
 62
7
  6
CONTINUOUS
 10
305.4005640682
 20
204.8034519574
  0
VERTEX
  8
0
 62
7
  6
CONTINUOUS
 10
305.3945826678
 20
204.8017888448
  0
VERTEX
  8
0
 62
7
  6
CONTINUOUS
 10
305.3883040454
 20
204.8001300071
  0
VERTEX
  8
0
 62
7
  6
CONTINUOUS
 10
305.3817180778
 20
204.7984753776
  0
VERTEX
  8
0
 62
7
  6
CONTINUOUS
 10
305.37481332
 20
204.7968256163
  0
VERTEX
  8
0
 62
7
  6
CONTINUOUS
 10
305.3675804955
 20
204.7951813205
  0
VERTEX
  8
0
 62
7
  6
CONTINUOUS
 10
305.3600029757
 20
204.793542611
  0
VERTEX
  8
0
 62
7
  6
CONTINUOUS
 10
305.3520658546
 20
204.7919093748
  0
VERTEX
  8
0
 62
7
  6
CONTINUOUS
 10
305.3437546876
 20
204.7902829101
  0
VERTEX
  8
0
 62
7
  6
CONTINUOUS
 10
305.3350553374
 20
204.7886639489
  0
VERTEX
  8
0
 62
7
  6
CONTINUOUS
 10
305.3259519755
 20
204.7870540756
  0
VERTEX
  8
0
 62
7
  6
CONTINUOUS
 10
305.3164301006
 20
204.7854545089
  0
VERTEX
  8
0
 62
7
  6
CONTINUOUS
 10
305.3064715926
 20
204.7838670773
  0
VERTEX
  8
0
 62
7
  6
CONTINUOUS
 10
305.2960601314
 20
204.7822932539
  0
VERTEX
  8
0
 62
7
  6
CONTINUOUS
 10
305.2851758157
 20
204.7807353241
  0
VERTEX
  8
0
 62
7
  6
CONTINUOUS
 10
305.2738004958
 20
204.7791951131
  0
VERTEX
  8
0
 62
7
  6
CONTINUOUS
 10
305.2619125972
 20
204.777675475
  0
VERTEX
  8
0
 62
7
  6
CONTINUOUS
 10
305.2494810421
 20
204.7761803048
  0
VERTEX
  8
0
 62
7
  6
CONTINUOUS
 10
305.2365161899
 20
204.7747083041
  0
SEQEND
  0
LINE
  8
0
 62
7
  6
CONTINUOUS
 10
109.4723700862
 20
247.5484587349
 11
119.9723700862
 21
247.5484587349
  0
LINE
  8
0
 62
7
  6
CONTINUOUS
 10
490.9723700862
 20
247.5484587349
 11
501.4723700862
 21
247.5484587349
  0
LINE
  8
0
 62
7
  6
CONTINUOUS
 10
133.6723700862
 20
260.5484587349
 11
119.9723700862
 21
260.5484587349
  0
LINE
  8
0
 62
7
  6
CONTINUOUS
 10
477.2723700862
 20
260.5484587349
 11
490.9723700862
 21
260.5484587349
  0
LINE
  8
0
 62
7
  6
CONTINUOUS
 10
301.5921386378
 20
273.4562453004
 11
301.6644966126
 21
273.4679685551
  0
LINE
  8
0
 62
7
  6
CONTINUOUS
 10
301.6644966126
 20
273.4679685551
 11
301.743572781
 21
273.4801047149
  0
LINE
  8
0
 62
7
  6
CONTINUOUS
 10
301.743572781
 20
273.4801047149
 11
301.8299392775
 21
273.4926739255
  0
LINE
  8
0
 62
7
  6
CONTINUOUS
 10
301.8299392775
 20
273.4926739255
 11
301.9241999675
 21
273.5056945226
  0
LINE
  8
0
 62
7
  6
CONTINUOUS
 10
301.9241999675
 20
273.5056945226
 11
302.0270228764
 21
273.5191875057
  0
LINE
  8
0
 62
7
  6
CONTINUOUS
 10
302.0270228764
 20
273.5191875057
 11
302.1391303365
 21
273.5331743417
  0
LINE
  8
0
 62
7
  6
CONTINUOUS
 10
302.1391303365
 20
273.5331743417
 11
302.2613089505
 21
273.5476776802
  0
LINE
  8
0
 62
7
  6
CONTINUOUS
 10
302.2613089505
 20
273.5476776802
 11
302.3943971336
 21
273.5627194778
  0
LINE
  8
0
 62
7
  6
CONTINUOUS
 10
302.3943971336
 20
273.5627194778
 11
302.5393497008
 21
273.5783273578
  0
LINE
  8
0
 62
7
  6
CONTINUOUS
 10
302.5393497008
 20
273.5783273578
 11
302.6972387829
 21
273.5945333991
  0
LINE
  8
0
 62
7
  6
CONTINUOUS
 10
302.6972387829
 20
273.5945333991
 11
302.8691491025
 21
273.6113625601
  0
LINE
  8
0
 62
7
  6
CONTINUOUS
 10
302.8691491025
 20
273.6113625601
 11
303.0562292596
 21
273.6288383832
  0
LINE
  8
0
 62
7
  6
CONTINUOUS
 10
303.0562292596
 20
273.6288383832
 11
303.2597527782
 21
273.6469884335
  0
LINE
  8
0
 62
7
  6
CONTINUOUS
 10
303.2597527782
 20
273.6469884335
 11
303.4810865423
 21
273.6658404582
  0
LINE
  8
0
 62
7
  6
CONTINUOUS
 10
303.4810865423
 20
273.6658404582
 11
303.7217544331
 21
273.6854268653
  0
LINE
  8
0
 62
7
  6
CONTINUOUS
 10
303.7217544331
 20
273.6854268653
 11
303.9834689758
 21
273.7057859132
  0
LINE
  8
0
 62
7
  6
CONTINUOUS
 10
303.9834689758
 20
273.7057859132
 11
304.2680169864
 21
273.7269516813
  0
LINE
  8
0
 62
7
  6
CONTINUOUS
 10
304.2680169864
 20
273.7269516813
 11
304.5772603201
 21
273.7489543867
  0
LINE
  8
0
 62
7
  6
CONTINUOUS
 10
304.5772603201
 20
273.7489543867
 11
304.9132578294
 21
273.7718289083
  0
POLYLINE
  8
0
 62
7
  6
CONTINUOUS
 66
1
 70
0
  0
VERTEX
  8
0
 62
7
  6
CONTINUOUS
 10
304.9132578294
 20
273.7718289083
  0
VERTEX
  8
0
 62
7
  6
CONTINUOUS
 10
305.2784086089
 20
273.7956151336
  0
VERTEX
  8
0
 62
7
  6
CONTINUOUS
 10
305.4723700862
 20
273.8078572205
  0
SEQEND
  0
LINE
  8
0
 62
9
  6
CONTINUOUS
 10
300.9680068184
 20
273.2484587349
 11
309.9767333539
 21
273.2484587349
  0
LINE
  8
0
 62
7
  6
CONTINUOUS
 10
318.0723700862
 20
277.2484587349
 11
293.4723700862
 21
277.2484587349
  0
LINE
  8
0
 62
7
  6
CONTINUOUS
 10
192.8723700862
 20
277.2484587349
 11
217.4723700862
 21
277.2484587349
  0
LINE
  8
0
 62
7
  6
CONTINUOUS
 10
501.4723700862
 20
277.5484587349
 11
477.2723700862
 21
277.5484587349
  0
LINE
  8
0
 62
7
  6
CONTINUOUS
 10
133.6723700862
 20
277.5484587349
 11
109.4723700862
 21
277.5484587349
  0
LINE
  8
KONSTRUKTIONSELEMENTE
 62
3
  6
CONTINUOUS
 10
133.6723700862
 20
277.5484587349
 11
477.2723700862
 21
277.5484587349
  0
LINE
  8
KONSTRUKTIONSELEMENTE
 62
7
  6
CONTINUOUS
 10
107.4723700862
 20
277.7484587349
 11
109.4723700862
 21
277.7484587349
  0
LINE
  8
KONSTRUKTIONSELEMENTE
 62
7
  6
CONTINUOUS
 10
501.4723700862
 20
277.7484587349
 11
503.4723700862
 21
277.7484587349
  0
LINE
  8
KONSTRUKTIONSELEMENTE
 62
7
  6
CONTINUOUS
 10
107.6723700862
 20
278.5484587349
 11
503.2723700862
 21
278.5484587349
  0
LINE
  8
FASEN
 62
7
  6
CONTINUOUS
 10
107.4723700862
 20
278.7484587349
 11
105.4723700862
 21
278.7484587349
  0
LINE
  8
BEZUGSACHSEN
 62
7
  6
CONTINUOUS
 10
503.4723700862
 20
278.7484587349
 11
505.4723700862
 21
278.7484587349
  0
LINE
  8
FASEN
 62
7
  6
CONTINUOUS
 10
107.4723700862
 20
280.7484587349
 11
105.4723700862
 21
280.7484587349
  0
LINE
  8
BEZUGSACHSEN
 62
7
  6
CONTINUOUS
 10
503.4723700862
 20
280.7484587349
 11
505.4723700862
 21
280.7484587349
  0
LINE
  8
0
 62
7
  6
CONTINUOUS
 10
305.8527503702
 20
273.7836049367
 11
305.4723700862
 21
273.8078572205
  0
LINE
  8
0
 62
7
  6
CONTINUOUS
 10
306.2029599718
 20
273.7602802128
 11
305.8527503702
 21
273.7836049367
  0
LINE
  8
0
 62
7
  6
CONTINUOUS
 10
306.5253055038
 20
273.7378465921
 11
306.2029599718
 21
273.7602802128
  0
LINE
  8
0
 62
7
  6
CONTINUOUS
 10
306.8219612721
 20
273.7162661196
 11
306.5253055038
 21
273.7378465921
  0
LINE
  8
0
 62
7
  6
CONTINUOUS
 10
307.0948700341
 20
273.6955072919
 11
306.8219612721
 21
273.7162661196
  0
LINE
  8
0
 62
7
  6
CONTINUOUS
 10
307.3458371061
 20
273.6755394999
 11
307.0948700341
 21
273.6955072919
  0
LINE
  8
0
 62
7
  6
CONTINUOUS
 10
307.5766311601
 20
273.6563251619
 11
307.3458371061
 21
273.6755394999
  0
LINE
  8
0
 62
7
  6
CONTINUOUS
 10
307.7888862783
 20
273.637827333
 11
307.5766311601
 21
273.6563251619
  0
LINE
  8
0
 62
7
  6
CONTINUOUS
 10
307.9840215298
 20
273.6200180181
 11
307.7888862783
 21
273.637827333
  0
LINE
  8
0
 62
7
  6
CONTINUOUS
 10
308.1633645053
 20
273.6028688667
 11
307.9840215298
 21
273.6200180181
  0
LINE
  8
0
 62
7
  6
CONTINUOUS
 10
308.3281309176
 20
273.5863536688
 11
308.1633645053
 21
273.6028688667
  0
LINE
  8
0
 62
7
  6
CONTINUOUS
 10
308.4794150415
 20
273.5704504157
 11
308.3281309176
 21
273.5863536688
  0
LINE
  8
0
 62
7
  6
CONTINUOUS
 10
308.6183015789
 20
273.55513017
 11
308.4794150415
 21
273.5704504157
  0
LINE
  8
0
 62
7
  6
CONTINUOUS
 10
308.7458300434
 20
273.5403599579
 11
308.6183015789
 21
273.55513017
  0
LINE
  8
0
 62
7
  6
CONTINUOUS
 10
308.8628700055
 20
273.5261178521
 11
308.7458300434
 21
273.5403599579
  0
LINE
  8
0
 62
7
  6
CONTINUOUS
 10
308.9702414844
 20
273.5123806542
 11
308.8628700055
 21
273.5261178521
  0
LINE
  8
0
 62
7
  6
CONTINUOUS
 10
309.0686966284
 20
273.4991265086
 11
308.9702414844
 21
273.5123806542
  0
LINE
  8
0
 62
7
  6
CONTINUOUS
 10
309.1589297303
 20
273.4863342526
 11
309.0686966284
 21
273.4991265086
  0
LINE
  8
0
 62
7
  6
CONTINUOUS
 10
309.2415814229
 20
273.4739833897
 11
309.1589297303
 21
273.4863342526
  0
LINE
  8
BEZUGSACHSEN
 62
7
  6
CONTINUOUS
 10
450.4723700862
 20
204.8484587349
 11
450.4723700862
 21
206.7484587349
  0
LINE
  8
BEZUGSACHSEN
 62
7
  6
CONTINUOUS
 10
460.4723700862
 20
204.8484587349
 11
460.4723700862
 21
206.7484587349
  0
LINE
  8
0
 62
7
  6
CONTINUOUS
 10
477.2723700862
 20
277.5484587349
 11
477.2723700862
 21
260.5484587349
  0
LINE
  8
0
 62
7
  6
CONTINUOUS
 10
490.9723700862
 20
260.5484587349
 11
490.9723700862
 21
247.5484587349
  0
LINE
  8
KONSTRUKTIONSELEMENTE
 62
7
  6
CONTINUOUS
 10
501.4723700862
 20
227.7484587349
 11
501.4723700862
 21
277.7484587349
  0
LINE
  8
KONSTRUKTIONSELEMENTE
 62
9
  6
CONTINUOUS
 10
502.4723700862
 20
202.7484587349
 11
502.4723700862
 21
204.7484587349
  0
LINE
  8
KONSTRUKTIONSELEMENTE
 62
7
  6
CONTINUOUS
 10
503.2723700862
 20
277.7484587349
 11
503.2723700862
 21
278.5484587349
  0
LINE
  8
BEZUGSACHSEN
 62
7
  6
CONTINUOUS
 10
503.4723700862
 20
205.7484587349
 11
503.4723700862
 21
280.7484587349
  0
LINE
  8
BEZUGSACHSEN
 62
3
  6
CONTINUOUS
 10
505.4723700862
 20
205.7484587349
 11
505.4723700862
 21
280.7484587349
  0
ARC
  8
KONSTRUKTIONSELEMENTE
 62
3
  6
CONTINUOUS
 10
108.4723700862
 20
205.7484587349
 40
3.0
 50
180.0
 51
270.0
  0
ARC
  8
KONSTRUKTIONSELEMENTE
 62
3
  6
CONTINUOUS
 10
502.4723700862
 20
205.7484587349
 40
3.0
 50
270.0
 51
360.0
  0
ARC
  8
KONSTRUKTIONSELEMENTE
 62
7
  6
CONTINUOUS
 10
108.4723700862
 20
205.7484587349
 40
1.0
 50
180.0
 51
270.0
  0
ARC
  8
KONSTRUKTIONSELEMENTE
 62
7
  6
CONTINUOUS
 10
502.4723700862
 20
205.7484587349
 40
1.0
 50
270.0
 51
360.0
  0
ARC
  8
BEZUGSACHSEN
 62
7
  6
CONTINUOUS
 10
450.3723700862
 20
204.8484587349
 40
0.1
 50
270.0
 51
360.0
  0
ARC
  8
BEZUGSACHSEN
 62
7
  6
CONTINUOUS
 10
460.5723700862
 20
204.8484587349
 40
0.1
 50
180.0
 51
270.0
  0
ARC
  8
BEZUGSACHSEN
 62
7
  6
CONTINUOUS
 10
160.5723700862
 20
204.8484587349
 40
0.1
 50
180.0
 51
270.0
  0
ARC
  8
BEZUGSACHSEN
 62
7
  6
CONTINUOUS
 10
150.3723700862
 20
204.8484587349
 40
0.1
 50
270.0
 51
360.0
  0
ENDSEC
  0
EOF
