999
DXF file: bkg5006011.dxf
999
Pro/ENGINEER 2022024 by Parametric Technology Corporation
  0
SECTION
  2
HEADER
  9
$EXTMAX
 10
594.0
 20
420.0
 30
0.0
  9
$EXTMIN
 10
0.0
 20
0.0
 30
0.0
  9
$LIMMIN
 10
0.0
 20
0.0
  9
$LIMMAX
 10
594.0
 20
420.0
  9
$VIEWCTR
 10
297.0
 20
210.0
  9
$VIEWSIZE
 40
420.0
  9
$CLAYER
  8
0
  9
$LTSCALE
 40
32.67
  9
$CELTYPE
  6
BYLAYER
  9
$DIMSCALE
 40
1.0
  9
$DIMASZ
 40
3.5
  9
$DIMEXO
 40
0.0
  9
$DIMDLI
 40
22.572
  9
$DIMEXE
 40
1.5
  9
$DIMCEN
 40
5.346
  9
$DIMLFAC
 40
1.0
  9
$DIMBLK
  1
_FILLED
  9
$DIMALT
 70
0
  9
$DIMALTF
 40
0.0393700787
  9
$DIMTXT
 40
3.5
  9
$AUNITS
 70
0
  9
$PDMODE
 70
3
  9
$PDSIZE
 40
0.3125
  9
$TILEMODE
 70
1
  0
ENDSEC
  0
SECTION
  2
TABLES
  0
TABLE
  2
LTYPE
 70
6
  0
LTYPE
  2
BYBLOCK
 70
0
  3

 72
65
 73
0
 40
0.0
  0
LTYPE
  2
BYLAYER
 70
0
  3

 72
65
 73
0
 40
0.0
  0
LTYPE
  2
CONTINUOUS
 70
64
  3
Solid line
 72
65
 73
0
 40
0.0
  0
LTYPE
  2
CENTER
 70
64
  3
____ _ ____ _ ____ _ ____ _ ____ _ ____ _ ____
 72
65
 73
4
 40
0.6
 49
0.375
 49
-0.075
 49
0.075
 49
-0.075
  0
LTYPE
  2
HIDDEN
 70
64
  3
- - - - - - - - - - - - - - - - - - - -
 72
65
 73
2
 40
0.2
 49
0.1
 49
-0.1
  0
LTYPE
  2
PHANTOM
 70
64
  3
_____ _ _ _____ _ _ _____ _ _ _____
 72
65
 73
6
 40
0.8
 49
0.45
 49
-0.05
 49
0.1
 49
-0.05
 49
0.1
 49
-0.05
  0
LTYPE
  2
DOT
 70
64
  3
. . . . . . . . . . . . . . . . . . . .
 72
65
 73
2
 40
0.2
 49
0.1
 49
-0.1
  0
LTYPE
  2
DASHED
 70
64
  3
- - - - - - - - - - - - - - - - - - - -
 72
65
 73
2
 40
0.2
 49
0.1
 49
-0.1
  0
ENDTAB
  0
TABLE
  2
LAYER
 70
36
  0
LAYER
  2
0
 70
0
 62
7
  6
CONTINUOUS
  0
LAYER
  2
DEFAULT_1
 70
0
 62
7
  6
CENTER
  0
LAYER
  2
DEFAULT_2
 70
0
 62
8
  6
HIDDEN
  0
LAYER
  2
DEFAULT_3
 70
0
 62
7
  6
PHANTOM
  0
LAYER
  2
01_STARTBEZUEGE
 70
0
 62
7
  6
CONTINUOUS
  0
LAYER
  2
ASSEMBLY
 70
0
 62
7
  6
CONTINUOUS
  0
LAYER
  2
AUSFORMSCHRAEGEN
 70
0
 62
7
  6
CONTINUOUS
  0
LAYER
  2
AXIS
 70
0
 62
7
  6
CONTINUOUS
  0
LAYER
  2
BEZUGSACHSEN
 70
0
 62
7
  6
CONTINUOUS
  0
LAYER
  2
BEZUGSEBENEN
 70
0
 62
7
  6
CONTINUOUS
  0
LAYER
  2
BEZUGSPUNKTE
 70
0
 62
7
  6
CONTINUOUS
  0
LAYER
  2
BOHRUNGEN
 70
0
 62
7
  6
CONTINUOUS
  0
LAYER
  2
CSYS
 70
0
 62
7
  6
CONTINUOUS
  0
LAYER
  2
FASEN
 70
0
 62
7
  6
CONTINUOUS
  0
LAYER
  2
FLAECHEN
 70
0
 62
7
  6
CONTINUOUS
  0
LAYER
  2
GEWINDE
 70
0
 62
7
  6
CONTINUOUS
  0
LAYER
  2
GTOL
 70
0
 62
7
  6
CONTINUOUS
  0
LAYER
  2
KONSTRUKTIONSELEMENTE
 70
0
 62
7
  6
CONTINUOUS
  0
LAYER
  2
KOORDINATENSYSTEME
 70
0
 62
7
  6
CONTINUOUS
  0
LAYER
  2
KURVEN
 70
0
 62
7
  6
CONTINUOUS
  0
LAYER
  2
NOTIZ
 70
0
 62
7
  6
CONTINUOUS
  0
LAYER
  2
PLANES
 70
0
 62
7
  6
CONTINUOUS
  0
LAYER
  2
RUNDUNGEN
 70
0
 62
7
  6
CONTINUOUS
  0
LAYER
  2
SKELETON_MODELS
 70
0
 62
7
  6
CONTINUOUS
  0
LAYER
  2
STARTBEZUEGE
 70
0
 62
7
  6
CONTINUOUS
  0
LAYER
  2
SURFACES
 70
0
 62
7
  6
CONTINUOUS
  0
LAYER
  2
VOLUMEN
 70
0
 62
7
  6
CONTINUOUS
  0
LAYER
  2
XSEC_DATUMS
 70
0
 62
7
  6
CONTINUOUS
  0
ENDTAB
  0
TABLE
  2
STYLE
 70
1
  0
STYLE
  2
STANDARD
 70
0
 40
0.0
 41
0.7
 50
0.0
 71
0
 42
0.2
  3
txt
  4

  0
STYLE
  2
TEXTSTYLE_1
 70
0
 40
0.0
 41
0.8
 50
0.0
 71
0
 42
0.2
  3
gdt
  4

  0
ENDTAB
  0
ENDSEC
  0
SECTION
  2
BLOCKS
  0
BLOCK
  8
0
  2
_FILLED
 70
64
 10
0.0
 20
0.0
  0
SOLID
  8
0
  6
BYBLOCK
 62
0
 10
0.0
 20
0.0
 11
-1.0
 21
0.125
 12
-1.0
 22
-0.125
 13
-1.0
 23
-0.125
  0
ENDBLK
  8
0
  6
BYBLOCK
 62
0
  0
ENDSEC
  0
SECTION
  2
ENTITIES
  0
LINE
  8
FASEN
 62
3
  6
CONTINUOUS
 10
56.0238411747
 20
206.8758425737
 11
56.0238411747
 21
261.8758425737
  0
LINE
  8
FASEN
 62
7
  6
CONTINUOUS
 10
58.0238411747
 20
206.8758425737
 11
58.0238411747
 21
261.8758425737
  0
LINE
  8
KONSTRUKTIONSELEMENTE
 62
7
  6
CONTINUOUS
 10
58.2238411747
 20
258.8758425737
 11
58.2238411747
 21
259.6758425737
  0
LINE
  8
KONSTRUKTIONSELEMENTE
 62
9
  6
CONTINUOUS
 10
59.0238411747
 20
203.8758425737
 11
59.0238411747
 21
205.8758425737
  0
LINE
  8
KONSTRUKTIONSELEMENTE
 62
7
  6
CONTINUOUS
 10
60.0238411747
 20
258.8758425737
 11
60.0238411747
 21
208.8758425737
  0
LINE
  8
0
 62
7
  6
CONTINUOUS
 10
70.5238411747
 20
228.6758425737
 11
70.5238411747
 21
241.6758425737
  0
LINE
  8
0
 62
7
  6
CONTINUOUS
 10
84.2238411747
 20
241.6758425737
 11
84.2238411747
 21
258.6758425737
  0
LINE
  8
BEZUGSACHSEN
 62
7
  6
CONTINUOUS
 10
101.0238411747
 20
207.8758425737
 11
101.0238411747
 21
205.9758425737
  0
LINE
  8
BEZUGSACHSEN
 62
7
  6
CONTINUOUS
 10
111.0238411747
 20
207.8758425737
 11
111.0238411747
 21
205.9758425737
  0
LINE
  8
0
 62
7
  6
CONTINUOUS
 10
163.4238411747
 20
258.3758425737
 11
163.4238411747
 21
205.8758425737
  0
LINE
  8
0
 62
7
  6
CONTINUOUS
 10
188.0238411747
 20
258.3758425737
 11
188.0238411747
 21
205.8758425737
  0
POLYLINE
  8
0
 62
7
  6
CONTINUOUS
 66
1
 70
0
  0
VERTEX
  8
0
 62
7
  6
CONTINUOUS
 10
440.5056065154
 20
206.0477940889
  0
VERTEX
  8
0
 62
7
  6
CONTINUOUS
 10
440.5070378601
 20
206.0480209652
  0
VERTEX
  8
0
 62
7
  6
CONTINUOUS
 10
440.5084118325
 20
206.0482452761
  0
VERTEX
  8
0
 62
7
  6
CONTINUOUS
 10
440.5097306104
 20
206.0484672658
  0
VERTEX
  8
0
 62
7
  6
CONTINUOUS
 10
440.5109966407
 20
206.0486871726
  0
VERTEX
  8
0
 62
7
  6
CONTINUOUS
 10
440.5122115236
 20
206.0489051973
  0
VERTEX
  8
0
 62
7
  6
CONTINUOUS
 10
440.5133771337
 20
206.0491215314
  0
VERTEX
  8
0
 62
7
  6
CONTINUOUS
 10
440.5144950938
 20
206.049336441
  0
VERTEX
  8
0
 62
7
  6
CONTINUOUS
 10
440.5155671807
 20
206.0495501523
  0
VERTEX
  8
0
 62
7
  6
CONTINUOUS
 10
440.5165948064
 20
206.0497629755
  0
VERTEX
  8
0
 62
7
  6
CONTINUOUS
 10
440.5175795616
 20
206.0499751662
  0
VERTEX
  8
0
 62
7
  6
CONTINUOUS
 10
440.5185226873
 20
206.0501871138
  0
VERTEX
  8
0
 62
7
  6
CONTINUOUS
 10
440.5194256156
 20
206.0503991238
  0
VERTEX
  8
0
 62
7
  6
CONTINUOUS
 10
440.5202893649
 20
206.0506117044
  0
VERTEX
  8
0
 62
7
  6
CONTINUOUS
 10
440.5211151784
 20
206.0508252284
  0
VERTEX
  8
0
 62
7
  6
CONTINUOUS
 10
440.5219038145
 20
206.0510404072
  0
VERTEX
  8
0
 62
7
  6
CONTINUOUS
 10
440.5226563533
 20
206.05125773
  0
VERTEX
  8
0
 62
7
  6
CONTINUOUS
 10
440.5233730739
 20
206.0514782372
  0
VERTEX
  8
0
 62
7
  6
CONTINUOUS
 10
440.524054815
 20
206.0517025843
  0
VERTEX
  8
0
 62
7
  6
CONTINUOUS
 10
440.5247009776
 20
206.0519324153
  0
VERTEX
  8
0
 62
7
  6
CONTINUOUS
 10
440.5253117015
 20
206.0521684049
  0
VERTEX
  8
0
 62
7
  6
CONTINUOUS
 10
440.5258856091
 20
206.052414116
  0
VERTEX
  8
0
 62
7
  6
CONTINUOUS
 10
440.5264238522
 20
206.052670788
  0
VERTEX
  8
0
 62
7
  6
CONTINUOUS
 10
440.526918983
 20
206.0529460665
  0
VERTEX
  8
0
 62
7
  6
CONTINUOUS
 10
440.5273755774
 20
206.0532389704
  0
VERTEX
  8
0
 62
7
  6
CONTINUOUS
 10
440.5277587159
 20
206.053576619
  0
VERTEX
  8
0
 62
7
  6
CONTINUOUS
 10
440.5280308299
 20
206.0539891538
  0
VERTEX
  8
0
 62
7
  6
CONTINUOUS
 10
440.5282044424
 20
206.0544665276
  0
SEQEND
  0
LINE
  8
0
 62
7
  6
CONTINUOUS
 10
440.5025620803
 20
206.0473318642
 11
440.5056065154
 21
206.0477940889
  0
LINE
  8
0
 62
7
  6
CONTINUOUS
 10
440.4992602758
 20
206.0468572522
 11
440.5025620803
 21
206.0473318642
  0
LINE
  8
0
 62
7
  6
CONTINUOUS
 10
440.4956821492
 20
206.0463690716
 11
440.4992602758
 21
206.0468572522
  0
LINE
  8
0
 62
7
  6
CONTINUOUS
 10
440.4918063858
 20
206.045866052
 11
440.4956821492
 21
206.0463690716
  0
LINE
  8
0
 62
7
  6
CONTINUOUS
 10
440.4876099096
 20
206.0453469331
 11
440.4918063858
 21
206.045866052
  0
LINE
  8
0
 62
7
  6
CONTINUOUS
 10
440.4830677952
 20
206.0448104546
 11
440.4876099096
 21
206.0453469331
  0
LINE
  8
0
 62
7
  6
CONTINUOUS
 10
440.4781530958
 20
206.0442553405
 11
440.4830677952
 21
206.0448104546
  0
LINE
  8
0
 62
7
  6
CONTINUOUS
 10
440.4728366872
 20
206.0436802881
 11
440.4781530958
 21
206.0442553405
  0
LINE
  8
0
 62
7
  6
CONTINUOUS
 10
440.4640392915
 20
206.0427773874
 11
440.4728366872
 21
206.0436802881
  0
LINE
  8
0
 62
7
  6
CONTINUOUS
 10
440.45414976
 20
206.0418219085
 11
440.4640392915
 21
206.0427773874
  0
LINE
  8
0
 62
7
  6
CONTINUOUS
 10
440.4430365827
 20
206.0408088837
 11
440.45414976
 21
206.0418219085
  0
LINE
  8
0
 62
7
  6
CONTINUOUS
 10
440.4305510204
 20
206.039732879
 11
440.4430365827
 21
206.0408088837
  0
LINE
  8
0
 62
7
  6
CONTINUOUS
 10
440.4114596777
 20
206.038188829
 11
440.4305510204
 21
206.039732879
  0
LINE
  8
0
 62
7
  6
CONTINUOUS
 10
440.3891665591
 20
206.0365070785
 11
440.4114596777
 21
206.038188829
  0
LINE
  8
0
 62
7
  6
CONTINUOUS
 10
440.3631454928
 20
206.0346714017
 11
440.3891665591
 21
206.0365070785
  0
LINE
  8
0
 62
7
  6
CONTINUOUS
 10
440.3244277219
 20
206.0321322664
 11
440.3631454928
 21
206.0346714017
  0
LINE
  8
0
 62
7
  6
CONTINUOUS
 10
440.2774597362
 20
206.0292821455
 11
440.3244277219
 21
206.0321322664
  0
LINE
  8
0
 62
7
  6
CONTINUOUS
 10
440.207745237
 20
206.0253861342
 11
440.2774597362
 21
206.0292821455
  0
LINE
  8
0
 62
7
  6
CONTINUOUS
 10
440.1032703975
 20
206.0200663017
 11
440.207745237
 21
206.0253861342
  0
LINE
  8
0
 62
7
  6
CONTINUOUS
 10
439.9440034576
 20
206.0127434981
 11
440.1032703975
 21
206.0200663017
  0
LINE
  8
0
 62
7
  6
CONTINUOUS
 10
439.695832477
 20
206.0025164635
 11
439.9440034576
 21
206.0127434981
  0
LINE
  8
0
 62
7
  6
CONTINUOUS
 10
439.2501796265
 20
205.9862602848
 11
439.695832477
 21
206.0025164635
  0
POLYLINE
  8
0
 62
7
  6
CONTINUOUS
 66
1
 70
0
  0
VERTEX
  8
0
 62
7
  6
CONTINUOUS
 10
310.5056065154
 20
206.0477940889
  0
VERTEX
  8
0
 62
7
  6
CONTINUOUS
 10
310.5070378601
 20
206.0480209652
  0
VERTEX
  8
0
 62
7
  6
CONTINUOUS
 10
310.5084118325
 20
206.0482452761
  0
VERTEX
  8
0
 62
7
  6
CONTINUOUS
 10
310.5097306104
 20
206.0484672658
  0
VERTEX
  8
0
 62
7
  6
CONTINUOUS
 10
310.5109966407
 20
206.0486871726
  0
VERTEX
  8
0
 62
7
  6
CONTINUOUS
 10
310.5122115236
 20
206.0489051973
  0
VERTEX
  8
0
 62
7
  6
CONTINUOUS
 10
310.5133771337
 20
206.0491215314
  0
VERTEX
  8
0
 62
7
  6
CONTINUOUS
 10
310.5144950938
 20
206.049336441
  0
VERTEX
  8
0
 62
7
  6
CONTINUOUS
 10
310.5155671807
 20
206.0495501523
  0
VERTEX
  8
0
 62
7
  6
CONTINUOUS
 10
310.5165948064
 20
206.0497629755
  0
VERTEX
  8
0
 62
7
  6
CONTINUOUS
 10
310.5175795616
 20
206.0499751662
  0
VERTEX
  8
0
 62
7
  6
CONTINUOUS
 10
310.5185226873
 20
206.0501871138
  0
VERTEX
  8
0
 62
7
  6
CONTINUOUS
 10
310.5194256156
 20
206.0503991238
  0
VERTEX
  8
0
 62
7
  6
CONTINUOUS
 10
310.5202893649
 20
206.0506117044
  0
VERTEX
  8
0
 62
7
  6
CONTINUOUS
 10
310.5211151784
 20
206.0508252284
  0
VERTEX
  8
0
 62
7
  6
CONTINUOUS
 10
310.5219038145
 20
206.0510404072
  0
VERTEX
  8
0
 62
7
  6
CONTINUOUS
 10
310.5226563533
 20
206.05125773
  0
VERTEX
  8
0
 62
7
  6
CONTINUOUS
 10
310.5233730739
 20
206.0514782372
  0
VERTEX
  8
0
 62
7
  6
CONTINUOUS
 10
310.524054815
 20
206.0517025843
  0
VERTEX
  8
0
 62
7
  6
CONTINUOUS
 10
310.5247009776
 20
206.0519324153
  0
VERTEX
  8
0
 62
7
  6
CONTINUOUS
 10
310.5253117015
 20
206.0521684049
  0
VERTEX
  8
0
 62
7
  6
CONTINUOUS
 10
310.5258856091
 20
206.052414116
  0
VERTEX
  8
0
 62
7
  6
CONTINUOUS
 10
310.5264238522
 20
206.052670788
  0
VERTEX
  8
0
 62
7
  6
CONTINUOUS
 10
310.526918983
 20
206.0529460665
  0
VERTEX
  8
0
 62
7
  6
CONTINUOUS
 10
310.5273755774
 20
206.0532389704
  0
VERTEX
  8
0
 62
7
  6
CONTINUOUS
 10
310.5277587159
 20
206.053576619
  0
VERTEX
  8
0
 62
7
  6
CONTINUOUS
 10
310.5280308299
 20
206.0539891538
  0
VERTEX
  8
0
 62
7
  6
CONTINUOUS
 10
310.5282044424
 20
206.0544665276
  0
SEQEND
  0
LINE
  8
0
 62
7
  6
CONTINUOUS
 10
310.5025620803
 20
206.0473318642
 11
310.5056065154
 21
206.0477940889
  0
LINE
  8
0
 62
7
  6
CONTINUOUS
 10
310.4992602758
 20
206.0468572522
 11
310.5025620803
 21
206.0473318642
  0
LINE
  8
0
 62
7
  6
CONTINUOUS
 10
310.4956821492
 20
206.0463690716
 11
310.4992602758
 21
206.0468572522
  0
LINE
  8
0
 62
7
  6
CONTINUOUS
 10
310.4918063858
 20
206.045866052
 11
310.4956821492
 21
206.0463690716
  0
LINE
  8
0
 62
7
  6
CONTINUOUS
 10
310.4876099096
 20
206.0453469331
 11
310.4918063858
 21
206.045866052
  0
LINE
  8
0
 62
7
  6
CONTINUOUS
 10
310.4830677952
 20
206.0448104546
 11
310.4876099096
 21
206.0453469331
  0
LINE
  8
0
 62
7
  6
CONTINUOUS
 10
310.4781530958
 20
206.0442553405
 11
310.4830677952
 21
206.0448104546
  0
LINE
  8
0
 62
7
  6
CONTINUOUS
 10
310.4728366872
 20
206.0436802881
 11
310.4781530958
 21
206.0442553405
  0
LINE
  8
0
 62
7
  6
CONTINUOUS
 10
310.4640392915
 20
206.0427773874
 11
310.4728366872
 21
206.0436802881
  0
LINE
  8
0
 62
7
  6
CONTINUOUS
 10
310.45414976
 20
206.0418219085
 11
310.4640392915
 21
206.0427773874
  0
LINE
  8
0
 62
7
  6
CONTINUOUS
 10
310.4430365827
 20
206.0408088837
 11
310.45414976
 21
206.0418219085
  0
LINE
  8
0
 62
7
  6
CONTINUOUS
 10
310.4305510204
 20
206.039732879
 11
310.4430365827
 21
206.0408088837
  0
LINE
  8
0
 62
7
  6
CONTINUOUS
 10
310.4114596777
 20
206.038188829
 11
310.4305510204
 21
206.039732879
  0
LINE
  8
0
 62
7
  6
CONTINUOUS
 10
310.3891665591
 20
206.0365070785
 11
310.4114596777
 21
206.038188829
  0
LINE
  8
0
 62
7
  6
CONTINUOUS
 10
310.3631454928
 20
206.0346714017
 11
310.3891665591
 21
206.0365070785
  0
LINE
  8
0
 62
7
  6
CONTINUOUS
 10
310.3244277219
 20
206.0321322664
 11
310.3631454928
 21
206.0346714017
  0
LINE
  8
0
 62
7
  6
CONTINUOUS
 10
310.2774597362
 20
206.0292821455
 11
310.3244277219
 21
206.0321322664
  0
LINE
  8
0
 62
7
  6
CONTINUOUS
 10
310.207745237
 20
206.0253861342
 11
310.2774597362
 21
206.0292821455
  0
LINE
  8
0
 62
7
  6
CONTINUOUS
 10
310.1032703975
 20
206.0200663017
 11
310.207745237
 21
206.0253861342
  0
LINE
  8
0
 62
7
  6
CONTINUOUS
 10
309.9440034576
 20
206.0127434981
 11
310.1032703975
 21
206.0200663017
  0
LINE
  8
0
 62
7
  6
CONTINUOUS
 10
309.695832477
 20
206.0025164635
 11
309.9440034576
 21
206.0127434981
  0
LINE
  8
0
 62
7
  6
CONTINUOUS
 10
309.2501796265
 20
205.9862602848
 11
309.695832477
 21
206.0025164635
  0
LINE
  8
0
 62
7
  6
CONTINUOUS
 10
438.495478551
 20
205.9621191057
 11
439.2501796265
 21
205.9862602848
  0
LINE
  8
0
 62
7
  6
CONTINUOUS
 10
308.495478551
 20
205.9621191057
 11
309.2501796265
 21
205.9862602848
  0
LINE
  8
0
 62
7
  6
CONTINUOUS
 10
437.5405233177
 20
205.9349701423
 11
438.495478551
 21
205.9621191057
  0
LINE
  8
0
 62
7
  6
CONTINUOUS
 10
307.5405233177
 20
205.9349701423
 11
308.495478551
 21
205.9621191057
  0
LINE
  8
0
 62
7
  6
CONTINUOUS
 10
436.4640696288
 20
205.9071311656
 11
437.5405233177
 21
205.9349701423
  0
LINE
  8
0
 62
7
  6
CONTINUOUS
 10
306.4640696288
 20
205.9071311656
 11
307.5405233177
 21
205.9349701423
  0
LINE
  8
0
 62
7
  6
CONTINUOUS
 10
435.7879872784
 20
205.8907134218
 11
436.4640696288
 21
205.9071311656
  0
LINE
  8
0
 62
7
  6
CONTINUOUS
 10
305.7879872784
 20
205.8907134218
 11
306.4640696288
 21
205.9071311656
  0
LINE
  8
0
 62
9
  6
CONTINUOUS
 10
440.5282044424
 20
206.0544665276
 11
436.0238411747
 21
205.9758425743
  0
LINE
  8
0
 62
9
  6
CONTINUOUS
 10
310.5282044424
 20
206.0544665276
 11
306.0238411747
 21
205.9758425743
  0
LINE
  8
BEZUGSACHSEN
 62
3
  6
CONTINUOUS
 10
553.0238411747
 20
203.8758425737
 11
59.0238411747
 21
203.8758425737
  0
LINE
  8
BEZUGSACHSEN
 62
7
  6
CONTINUOUS
 10
59.0238411747
 20
205.8758425737
 11
553.0238411747
 21
205.8758425737
  0
LINE
  8
BEZUGSACHSEN
 62
9
  6
CONTINUOUS
 10
511.0238411747
 20
205.9758425737
 11
501.0238411747
 21
205.9758425737
  0
LINE
  8
BEZUGSACHSEN
 62
9
  6
CONTINUOUS
 10
101.0238411747
 20
205.9758425737
 11
111.0238411747
 21
205.9758425737
  0
LINE
  8
KONSTRUKTIONSELEMENTE
 62
9
  6
CONTINUOUS
 10
556.0238411747
 20
206.8758425737
 11
554.0238411747
 21
206.8758425737
  0
LINE
  8
KONSTRUKTIONSELEMENTE
 62
9
  6
CONTINUOUS
 10
56.0238411747
 20
206.8758425737
 11
58.0238411747
 21
206.8758425737
  0
LINE
  8
BEZUGSACHSEN
 62
7
  6
CONTINUOUS
 10
111.0238411747
 20
207.8758425737
 11
101.0238411747
 21
207.8758425737
  0
LINE
  8
BEZUGSACHSEN
 62
7
  6
CONTINUOUS
 10
501.0238411747
 20
207.8758425737
 11
511.0238411747
 21
207.8758425737
  0
LINE
  8
KONSTRUKTIONSELEMENTE
 62
7
  6
CONTINUOUS
 10
554.0238411747
 20
208.8758425737
 11
552.0238411747
 21
208.8758425737
  0
LINE
  8
KONSTRUKTIONSELEMENTE
 62
7
  6
CONTINUOUS
 10
60.0238411747
 20
208.8758425737
 11
58.0238411747
 21
208.8758425737
  0
LINE
  8
0
 62
9
  6
CONTINUOUS
 10
306.0238411747
 20
205.9758425743
 11
301.5194779069
 21
206.0544665276
  0
LINE
  8
0
 62
9
  6
CONTINUOUS
 10
436.0238411747
 20
205.9758425743
 11
431.5194779069
 21
206.0544665276
  0
LINE
  8
0
 62
7
  6
CONTINUOUS
 10
305.7879872784
 20
205.9020921429
 11
305.1830549565
 21
205.9172185703
  0
LINE
  8
0
 62
7
  6
CONTINUOUS
 10
435.7879872784
 20
205.9020921429
 11
435.1830549565
 21
205.9172185703
  0
LINE
  8
0
 62
7
  6
CONTINUOUS
 10
305.1830549565
 20
205.9172185703
 11
304.6638428504
 21
205.9307640782
  0
LINE
  8
0
 62
7
  6
CONTINUOUS
 10
435.1830549565
 20
205.9172185703
 11
434.6638428504
 21
205.9307640782
  0
LINE
  8
0
 62
7
  6
CONTINUOUS
 10
304.6638428504
 20
205.9307640782
 11
304.1169218275
 21
205.9457217421
  0
LINE
  8
0
 62
7
  6
CONTINUOUS
 10
434.6638428504
 20
205.9307640782
 11
434.1169218275
 21
205.9457217421
  0
LINE
  8
0
 62
7
  6
CONTINUOUS
 10
304.1169218275
 20
205.9457217421
 11
303.6646883377
 21
205.9587610789
  0
LINE
  8
0
 62
7
  6
CONTINUOUS
 10
434.1169218275
 20
205.9457217421
 11
433.6646883377
 21
205.9587610789
  0
LINE
  8
0
 62
7
  6
CONTINUOUS
 10
303.6646883377
 20
205.9587610789
 11
303.2905593443
 21
205.9701402817
  0
LINE
  8
0
 62
7
  6
CONTINUOUS
 10
433.6646883377
 20
205.9587610789
 11
433.2905593443
 21
205.9701402817
  0
LINE
  8
0
 62
7
  6
CONTINUOUS
 10
303.2905593443
 20
205.9701402817
 11
302.9259388255
 21
205.9819105034
  0
LINE
  8
0
 62
7
  6
CONTINUOUS
 10
433.2905593443
 20
205.9701402817
 11
432.9259388255
 21
205.9819105034
  0
LINE
  8
0
 62
7
  6
CONTINUOUS
 10
302.9259388255
 20
205.9819105034
 11
302.6353852011
 21
205.9919393615
  0
LINE
  8
0
 62
7
  6
CONTINUOUS
 10
432.9259388255
 20
205.9819105034
 11
432.6353852011
 21
205.9919393615
  0
LINE
  8
0
 62
7
  6
CONTINUOUS
 10
302.6353852011
 20
205.9919393615
 11
302.3701552168
 21
206.0018034144
  0
LINE
  8
0
 62
7
  6
CONTINUOUS
 10
432.6353852011
 20
205.9919393615
 11
432.3701552168
 21
206.0018034144
  0
LINE
  8
0
 62
7
  6
CONTINUOUS
 10
302.3701552168
 20
206.0018034144
 11
302.166842979
 21
206.0100273995
  0
LINE
  8
0
 62
7
  6
CONTINUOUS
 10
432.3701552168
 20
206.0018034144
 11
432.166842979
 21
206.0100273995
  0
LINE
  8
0
 62
7
  6
CONTINUOUS
 10
302.166842979
 20
206.0100273995
 11
301.9919192649
 21
206.017798757
  0
LINE
  8
0
 62
7
  6
CONTINUOUS
 10
432.166842979
 20
206.0100273995
 11
431.9919192649
 21
206.017798757
  0
LINE
  8
0
 62
7
  6
CONTINUOUS
 10
301.9919192649
 20
206.017798757
 11
301.8769139854
 21
206.0234429869
  0
LINE
  8
0
 62
7
  6
CONTINUOUS
 10
431.9919192649
 20
206.017798757
 11
431.8769139854
 21
206.0234429869
  0
LINE
  8
0
 62
7
  6
CONTINUOUS
 10
301.8769139854
 20
206.0234429869
 11
301.8000123187
 21
206.0275753166
  0
LINE
  8
0
 62
7
  6
CONTINUOUS
 10
431.8769139854
 20
206.0234429869
 11
431.8000123187
 21
206.0275753166
  0
LINE
  8
0
 62
7
  6
CONTINUOUS
 10
301.8000123187
 20
206.0275753166
 11
301.7388562903
 21
206.0311610771
  0
LINE
  8
0
 62
7
  6
CONTINUOUS
 10
431.8000123187
 20
206.0275753166
 11
431.7388562903
 21
206.0311610771
  0
LINE
  8
0
 62
7
  6
CONTINUOUS
 10
301.7388562903
 20
206.0311610771
 11
301.6976047479
 21
206.0337915575
  0
LINE
  8
0
 62
7
  6
CONTINUOUS
 10
431.7388562903
 20
206.0311610771
 11
431.6976047479
 21
206.0337915575
  0
LINE
  8
0
 62
7
  6
CONTINUOUS
 10
301.6976047479
 20
206.0337915575
 11
301.6698598769
 21
206.0356918716
  0
LINE
  8
0
 62
7
  6
CONTINUOUS
 10
431.6976047479
 20
206.0337915575
 11
431.6698598769
 21
206.0356918716
  0
LINE
  8
0
 62
7
  6
CONTINUOUS
 10
301.6698598769
 20
206.0356918716
 11
301.6460636503
 21
206.0374322269
  0
LINE
  8
0
 62
7
  6
CONTINUOUS
 10
431.6698598769
 20
206.0356918716
 11
431.6460636503
 21
206.0374322269
  0
LINE
  8
0
 62
7
  6
CONTINUOUS
 10
301.6460636503
 20
206.0374322269
 11
301.6256593538
 21
206.0390295609
  0
LINE
  8
0
 62
7
  6
CONTINUOUS
 10
431.6460636503
 20
206.0374322269
 11
431.6256593538
 21
206.0390295609
  0
LINE
  8
0
 62
7
  6
CONTINUOUS
 10
301.6256593538
 20
206.0390295609
 11
301.6122918226
 21
206.0401429594
  0
LINE
  8
0
 62
7
  6
CONTINUOUS
 10
431.6256593538
 20
206.0390295609
 11
431.6122918226
 21
206.0401429594
  0
LINE
  8
0
 62
7
  6
CONTINUOUS
 10
301.6122918226
 20
206.0401429594
 11
301.6003892343
 21
206.0411901079
  0
LINE
  8
0
 62
7
  6
CONTINUOUS
 10
431.6122918226
 20
206.0401429594
 11
431.6003892343
 21
206.0411901079
  0
LINE
  8
0
 62
7
  6
CONTINUOUS
 10
301.6003892343
 20
206.0411901079
 11
301.5897959998
 21
206.0421763305
  0
LINE
  8
0
 62
7
  6
CONTINUOUS
 10
431.6003892343
 20
206.0411901079
 11
431.5897959998
 21
206.0421763305
  0
LINE
  8
0
 62
7
  6
CONTINUOUS
 10
301.5897959998
 20
206.0421763305
 11
301.5803625215
 21
206.0431076289
  0
LINE
  8
0
 62
7
  6
CONTINUOUS
 10
301.5803625215
 20
206.0431076289
 11
301.5719654011
 21
206.0439887907
  0
LINE
  8
0
 62
7
  6
CONTINUOUS
 10
301.5719654011
 20
206.0439887907
 11
301.5668879994
 21
206.0445506365
  0
LINE
  8
0
 62
7
  6
CONTINUOUS
 10
301.5668879994
 20
206.0445506365
 11
301.5621922424
 21
206.0450935258
  0
LINE
  8
0
 62
7
  6
CONTINUOUS
 10
301.5621922424
 20
206.0450935258
 11
301.5578506575
 21
206.0456187316
  0
LINE
  8
0
 62
7
  6
CONTINUOUS
 10
301.5578506575
 20
206.0456187316
 11
301.5538378263
 21
206.0461275068
  0
LINE
  8
0
 62
7
  6
CONTINUOUS
 10
301.5538378263
 20
206.0461275068
 11
301.5501302286
 21
206.0466210964
  0
LINE
  8
0
 62
7
  6
CONTINUOUS
 10
301.5501302286
 20
206.0466210964
 11
301.5467061138
 21
206.0471007505
  0
POLYLINE
  8
0
 62
7
  6
CONTINUOUS
 66
1
 70
0
  0
VERTEX
  8
0
 62
7
  6
CONTINUOUS
 10
301.5467061138
 20
206.0471007505
  0
VERTEX
  8
0
 62
7
  6
CONTINUOUS
 10
301.543545355
 20
206.0475677447
  0
VERTEX
  8
0
 62
7
  6
CONTINUOUS
 10
301.5420578181
 20
206.0477969063
  0
VERTEX
  8
0
 62
7
  6
CONTINUOUS
 10
301.5406295646
 20
206.0480233663
  0
VERTEX
  8
0
 62
7
  6
CONTINUOUS
 10
301.5392588185
 20
206.0482472148
  0
VERTEX
  8
0
 62
7
  6
CONTINUOUS
 10
301.5379430731
 20
206.0484687476
  0
VERTEX
  8
0
 62
7
  6
CONTINUOUS
 10
301.5366798066
 20
206.0486882134
  0
VERTEX
  8
0
 62
7
  6
CONTINUOUS
 10
301.5354672887
 20
206.0489058428
  0
VERTEX
  8
0
 62
7
  6
CONTINUOUS
 10
301.5343034198
 20
206.0491218713
  0
VERTEX
  8
0
 62
7
  6
CONTINUOUS
 10
301.5331867855
 20
206.049336533
  0
VERTEX
  8
0
 62
7
  6
CONTINUOUS
 10
301.5321157574
 20
206.0495500325
  0
VERTEX
  8
0
 62
7
  6
CONTINUOUS
 10
301.5310888782
 20
206.0497626935
  0
VERTEX
  8
0
 62
7
  6
CONTINUOUS
 10
301.5301045467
 20
206.0499747792
  0
VERTEX
  8
0
 62
7
  6
CONTINUOUS
 10
301.5291615671
 20
206.0501866763
  0
VERTEX
  8
0
 62
7
  6
CONTINUOUS
 10
301.5282585446
 20
206.0503986884
  0
VERTEX
  8
0
 62
7
  6
CONTINUOUS
 10
301.5273944758
 20
206.0506113283
  0
VERTEX
  8
0
 62
7
  6
CONTINUOUS
 10
301.5265681379
 20
206.0508249711
  0
VERTEX
  8
0
 62
7
  6
CONTINUOUS
 10
301.5257787947
 20
206.0510403343
  0
VERTEX
  8
0
 62
7
  6
CONTINUOUS
 10
301.5250253866
 20
206.0512579102
  0
VERTEX
  8
0
 62
7
  6
CONTINUOUS
 10
301.52430766
 20
206.0514787508
  0
VERTEX
  8
0
 62
7
  6
CONTINUOUS
 10
301.5236248262
 20
206.0517035032
  0
VERTEX
  8
0
 62
7
  6
CONTINUOUS
 10
301.5229774312
 20
206.051933875
  0
VERTEX
  8
0
 62
7
  6
CONTINUOUS
 10
301.5223651798
 20
206.0521706259
  0
VERTEX
  8
0
 62
7
  6
CONTINUOUS
 10
301.5217898069
 20
206.0524172469
  0
VERTEX
  8
0
 62
7
  6
CONTINUOUS
 10
301.5212502303
 20
206.0526751022
  0
VERTEX
  8
0
 62
7
  6
CONTINUOUS
 10
301.5207546061
 20
206.0529513323
  0
VERTEX
  8
0
 62
7
  6
CONTINUOUS
 10
301.5202994463
 20
206.0532445958
  0
VERTEX
  8
0
 62
7
  6
CONTINUOUS
 10
301.5199185999
 20
206.0535817019
  0
VERTEX
  8
0
 62
7
  6
CONTINUOUS
 10
301.5196488393
 20
206.0539923077
  0
VERTEX
  8
0
 62
7
  6
CONTINUOUS
 10
301.5194779069
 20
206.0544665276
  0
SEQEND
  0
LINE
  8
0
 62
7
  6
CONTINUOUS
 10
294.0238411747
 20
205.8758425737
 11
294.0238411747
 21
258.3758425737
  0
LINE
  8
0
 62
7
  6
CONTINUOUS
 10
301.5194779069
 20
206.0544665276
 11
301.5194779069
 21
254.3758425737
  0
LINE
  8
0
 62
7
  6
CONTINUOUS
 10
305.7879872784
 20
205.9020921429
 11
305.7879872784
 21
205.8907134218
  0
LINE
  8
KONSTRUKTIONSELEMENTE
 62
7
  6
CONTINUOUS
 10
306.0238411747
 20
205.9758425743
 11
306.0238411747
 21
254.3758425737
  0
LINE
  8
0
 62
7
  6
CONTINUOUS
 10
306.0238411747
 20
254.3758425737
 11
306.0238411747
 21
254.9352410593
  0
POLYLINE
  8
0
 62
7
  6
CONTINUOUS
 66
1
 70
0
  0
VERTEX
  8
0
 62
7
  6
CONTINUOUS
 10
301.5194779069
 20
254.3758425737
  0
VERTEX
  8
0
 62
7
  6
CONTINUOUS
 10
301.5195944837
 20
254.3788321994
  0
VERTEX
  8
0
 62
7
  6
CONTINUOUS
 10
301.5200115186
 20
254.3819161214
  0
VERTEX
  8
0
 62
7
  6
CONTINUOUS
 10
301.5207172202
 20
254.3850968545
  0
VERTEX
  8
0
 62
7
  6
CONTINUOUS
 10
301.5217469626
 20
254.3883668544
  0
VERTEX
  8
0
 62
7
  6
CONTINUOUS
 10
301.5231235416
 20
254.3917183503
  0
VERTEX
  8
0
 62
7
  6
CONTINUOUS
 10
301.5248729004
 20
254.3951545372
  0
VERTEX
  8
0
 62
7
  6
CONTINUOUS
 10
301.5270276861
 20
254.3986843466
  0
VERTEX
  8
0
 62
7
  6
CONTINUOUS
 10
301.5295905831
 20
254.4022827988
  0
VERTEX
  8
0
 62
7
  6
CONTINUOUS
 10
301.5325742966
 20
254.4059299455
  0
VERTEX
  8
0
 62
7
  6
CONTINUOUS
 10
301.5359814116
 20
254.4096196237
  0
VERTEX
  8
0
 62
7
  6
CONTINUOUS
 10
301.5398173765
 20
254.4133396177
  0
VERTEX
  8
0
 62
7
  6
CONTINUOUS
 10
301.5440863058
 20
254.4170881374
  0
VERTEX
  8
0
 62
7
  6
CONTINUOUS
 10
301.5487927558
 20
254.4208597133
  0
VERTEX
  8
0
 62
7
  6
CONTINUOUS
 10
301.5539408485
 20
254.4246531679
  0
VERTEX
  8
0
 62
7
  6
CONTINUOUS
 10
301.5595334608
 20
254.4284650054
  0
VERTEX
  8
0
 62
7
  6
CONTINUOUS
 10
301.5655788842
 20
254.4322967107
  0
VERTEX
  8
0
 62
7
  6
CONTINUOUS
 10
301.5720829435
 20
254.4361480561
  0
VERTEX
  8
0
 62
7
  6
CONTINUOUS
 10
301.579055916
 20
254.4400206837
  0
VERTEX
  8
0
 62
7
  6
CONTINUOUS
 10
301.586503341
 20
254.4439144463
  0
VERTEX
  8
0
 62
7
  6
CONTINUOUS
 10
301.5944452585
 20
254.4478344837
  0
VERTEX
  8
0
 62
7
  6
CONTINUOUS
 10
301.6028985474
 20
254.4517855102
  0
VERTEX
  8
0
 62
7
  6
CONTINUOUS
 10
301.61187823
 20
254.4557686561
  0
VERTEX
  8
0
 62
7
  6
CONTINUOUS
 10
301.6213986844
 20
254.4597859217
  0
VERTEX
  8
0
 62
7
  6
CONTINUOUS
 10
301.6314787231
 20
254.4638394111
  0
VERTEX
  8
0
 62
7
  6
CONTINUOUS
 10
301.64213492
 20
254.4679311937
  0
VERTEX
  8
0
 62
7
  6
CONTINUOUS
 10
301.6533883684
 20
254.4720633738
  0
VERTEX
  8
0
 62
7
  6
CONTINUOUS
 10
301.6652566508
 20
254.4762376743
  0
VERTEX
  8
0
 62
7
  6
CONTINUOUS
 10
301.6777668723
 20
254.4804573094
  0
VERTEX
  8
0
 62
7
  6
CONTINUOUS
 10
301.6909420115
 20
254.4847250769
  0
VERTEX
  8
0
 62
7
  6
CONTINUOUS
 10
301.7048120297
 20
254.4890439492
  0
VERTEX
  8
0
 62
7
  6
CONTINUOUS
 10
301.7194055389
 20
254.4934174133
  0
VERTEX
  8
0
 62
7
  6
CONTINUOUS
 10
301.7347495645
 20
254.4978467222
  0
VERTEX
  8
0
 62
7
  6
CONTINUOUS
 10
301.7508697564
 20
254.50233355
  0
VERTEX
  8
0
 62
7
  6
CONTINUOUS
 10
301.7677988527
 20
254.5068801199
  0
VERTEX
  8
0
 62
7
  6
CONTINUOUS
 10
301.7855663037
 20
254.5114884975
  0
VERTEX
  8
0
 62
7
  6
CONTINUOUS
 10
301.8042076227
 20
254.5161608302
  0
VERTEX
  8
0
 62
7
  6
CONTINUOUS
 10
301.8237555657
 20
254.5208993064
  0
VERTEX
  8
0
 62
7
  6
CONTINUOUS
 10
301.8442478545
 20
254.5257058682
  0
VERTEX
  8
0
 62
7
  6
CONTINUOUS
 10
301.8657177902
 20
254.5305821847
  0
VERTEX
  8
0
 62
7
  6
CONTINUOUS
 10
301.8882113913
 20
254.5355312644
  0
VERTEX
  8
0
 62
7
  6
CONTINUOUS
 10
301.9117687006
 20
254.540555632
  0
VERTEX
  8
0
 62
7
  6
CONTINUOUS
 10
301.936440946
 20
254.5456584083
  0
VERTEX
  8
0
 62
7
  6
CONTINUOUS
 10
301.9622778908
 20
254.550843227
  0
VERTEX
  8
0
 62
7
  6
CONTINUOUS
 10
301.9893239715
 20
254.5561110741
  0
VERTEX
  8
0
 62
7
  6
CONTINUOUS
 10
302.017621179
 20
254.561463227
  0
VERTEX
  8
0
 62
7
  6
CONTINUOUS
 10
302.0472266127
 20
254.5669024455
  0
VERTEX
  8
0
 62
7
  6
CONTINUOUS
 10
302.0781918073
 20
254.5724311826
  0
VERTEX
  8
0
 62
7
  6
CONTINUOUS
 10
302.1105754475
 20
254.5780516359
  0
VERTEX
  8
0
 62
7
  6
CONTINUOUS
 10
302.1444296401
 20
254.5837656717
  0
SEQEND
  0
POLYLINE
  8
0
 62
7
  6
CONTINUOUS
 66
1
 70
0
  0
VERTEX
  8
0
 62
7
  6
CONTINUOUS
 10
306.0238411747
 20
205.9758425743
  0
VERTEX
  8
0
 62
7
  6
CONTINUOUS
 10
306.0237568981
 20
205.9740505324
  0
VERTEX
  8
0
 62
7
  6
CONTINUOUS
 10
306.0234665479
 20
205.9722110478
  0
VERTEX
  8
0
 62
7
  6
CONTINUOUS
 10
306.0229781872
 20
205.9703251253
  0
VERTEX
  8
0
 62
7
  6
CONTINUOUS
 10
306.0222676266
 20
205.9683897504
  0
VERTEX
  8
0
 62
7
  6
CONTINUOUS
 10
306.0213126903
 20
205.9663943152
  0
VERTEX
  8
0
 62
7
  6
CONTINUOUS
 10
306.0201154016
 20
205.9643626058
  0
VERTEX
  8
0
 62
7
  6
CONTINUOUS
 10
306.018668813
 20
205.9623130649
  0
VERTEX
  8
0
 62
7
  6
CONTINUOUS
 10
306.0169776614
 20
205.9602511142
  0
VERTEX
  8
0
 62
7
  6
CONTINUOUS
 10
306.0150433312
 20
205.9581878639
  0
VERTEX
  8
0
 62
7
  6
CONTINUOUS
 10
306.0128689318
 20
205.9561246902
  0
VERTEX
  8
0
 62
7
  6
CONTINUOUS
 10
306.0104580223
 20
205.9540668915
  0
VERTEX
  8
0
 62
7
  6
CONTINUOUS
 10
306.0078106382
 20
205.9520138108
  0
VERTEX
  8
0
 62
7
  6
CONTINUOUS
 10
306.0049288055
 20
205.9499669318
  0
VERTEX
  8
0
 62
7
  6
CONTINUOUS
 10
306.0018101125
 20
205.9479251304
  0
VERTEX
  8
0
 62
7
  6
CONTINUOUS
 10
305.9984543097
 20
205.9458881711
  0
VERTEX
  8
0
 62
7
  6
CONTINUOUS
 10
305.994856936
 20
205.9438548721
  0
VERTEX
  8
0
 62
7
  6
CONTINUOUS
 10
305.9910155056
 20
205.9418243207
  0
VERTEX
  8
0
 62
7
  6
CONTINUOUS
 10
305.9869238433
 20
205.9397954734
  0
VERTEX
  8
0
 62
7
  6
CONTINUOUS
 10
305.9825775088
 20
205.9377672603
  0
VERTEX
  8
0
 62
7
  6
CONTINUOUS
 10
305.9779688119
 20
205.9357388484
  0
VERTEX
  8
0
 62
7
  6
CONTINUOUS
 10
305.9730916142
 20
205.9337092455
  0
VERTEX
  8
0
 62
7
  6
CONTINUOUS
 10
305.9679368204
 20
205.9316778604
  0
VERTEX
  8
0
 62
7
  6
CONTINUOUS
 10
305.9624967752
 20
205.9296438825
  0
VERTEX
  8
0
 62
7
  6
CONTINUOUS
 10
305.9567610202
 20
205.9276069774
  0
VERTEX
  8
0
 62
7
  6
CONTINUOUS
 10
305.9507204874
 20
205.9255665618
  0
VERTEX
  8
0
 62
7
  6
CONTINUOUS
 10
305.9443633493
 20
205.9235225721
  0
VERTEX
  8
0
 62
7
  6
CONTINUOUS
 10
305.9376791664
 20
205.9214746744
  0
VERTEX
  8
0
 62
7
  6
CONTINUOUS
 10
305.9306547057
 20
205.9194230968
  0
VERTEX
  8
0
 62
7
  6
CONTINUOUS
 10
305.9232781591
 20
205.9173677745
  0
VERTEX
  8
0
 62
7
  6
CONTINUOUS
 10
305.915534812
 20
205.9153092531
  0
VERTEX
  8
0
 62
7
  6
CONTINUOUS
 10
305.9074114502
 20
205.9132477573
  0
VERTEX
  8
0
 62
7
  6
CONTINUOUS
 10
305.8988917651
 20
205.9111841859
  0
VERTEX
  8
0
 62
7
  6
CONTINUOUS
 10
305.8899610532
 20
205.9091190778
  0
VERTEX
  8
0
 62
7
  6
CONTINUOUS
 10
305.8806012848
 20
205.9070537374
  0
VERTEX
  8
0
 62
7
  6
CONTINUOUS
 10
305.8707961661
 20
205.9049890561
  0
VERTEX
  8
0
 62
7
  6
CONTINUOUS
 10
305.8605257862
 20
205.9029268122
  0
VERTEX
  8
0
 62
7
  6
CONTINUOUS
 10
305.8497721342
 20
205.9008683011
  0
VERTEX
  8
0
 62
7
  6
CONTINUOUS
 10
305.8385132154
 20
205.8988158624
  0
VERTEX
  8
0
 62
7
  6
CONTINUOUS
 10
305.8267291317
 20
205.896771261
  0
VERTEX
  8
0
 62
7
  6
CONTINUOUS
 10
305.8143955815
 20
205.8947375164
  0
VERTEX
  8
0
 62
7
  6
CONTINUOUS
 10
305.8014777636
 20
205.8927186877
  0
VERTEX
  8
0
 62
7
  6
CONTINUOUS
 10
305.7879872784
 20
205.8907134218
  0
SEQEND
  0
POLYLINE
  8
0
 62
7
  6
CONTINUOUS
 66
1
 70
0
  0
VERTEX
  8
0
 62
7
  6
CONTINUOUS
 10
432.1444296401
 20
254.5837656717
  0
VERTEX
  8
0
 62
7
  6
CONTINUOUS
 10
432.2168274545
 20
254.5954879372
  0
VERTEX
  8
0
 62
7
  6
CONTINUOUS
 10
432.2555090528
 20
254.601502157
  0
SEQEND
  0
LINE
  8
0
 62
7
  6
CONTINUOUS
 10
60.0238411747
 20
228.6758425737
 11
70.5238411747
 21
228.6758425737
  0
LINE
  8
0
 62
7
  6
CONTINUOUS
 10
541.5238411747
 20
228.6758425737
 11
552.0238411747
 21
228.6758425737
  0
LINE
  8
0
 62
7
  6
CONTINUOUS
 10
431.5897959998
 20
206.0421763305
 11
431.5803625215
 21
206.0431076289
  0
LINE
  8
0
 62
7
  6
CONTINUOUS
 10
431.5803625215
 20
206.0431076289
 11
431.5719654011
 21
206.0439887907
  0
LINE
  8
0
 62
7
  6
CONTINUOUS
 10
431.5719654011
 20
206.0439887907
 11
431.5668879994
 21
206.0445506365
  0
LINE
  8
0
 62
7
  6
CONTINUOUS
 10
431.5668879994
 20
206.0445506365
 11
431.5621922424
 21
206.0450935258
  0
LINE
  8
0
 62
7
  6
CONTINUOUS
 10
431.5621922424
 20
206.0450935258
 11
431.5578506575
 21
206.0456187316
  0
LINE
  8
0
 62
7
  6
CONTINUOUS
 10
431.5578506575
 20
206.0456187316
 11
431.5538378263
 21
206.0461275068
  0
LINE
  8
0
 62
7
  6
CONTINUOUS
 10
431.5538378263
 20
206.0461275068
 11
431.5501302286
 21
206.0466210964
  0
LINE
  8
0
 62
7
  6
CONTINUOUS
 10
431.5501302286
 20
206.0466210964
 11
431.5467061138
 21
206.0471007505
  0
POLYLINE
  8
0
 62
7
  6
CONTINUOUS
 66
1
 70
0
  0
VERTEX
  8
0
 62
7
  6
CONTINUOUS
 10
431.5467061138
 20
206.0471007505
  0
VERTEX
  8
0
 62
7
  6
CONTINUOUS
 10
431.543545355
 20
206.0475677447
  0
VERTEX
  8
0
 62
7
  6
CONTINUOUS
 10
431.5420578181
 20
206.0477969063
  0
VERTEX
  8
0
 62
7
  6
CONTINUOUS
 10
431.5406295646
 20
206.0480233663
  0
VERTEX
  8
0
 62
7
  6
CONTINUOUS
 10
431.5392588185
 20
206.0482472148
  0
VERTEX
  8
0
 62
7
  6
CONTINUOUS
 10
431.5379430731
 20
206.0484687476
  0
VERTEX
  8
0
 62
7
  6
CONTINUOUS
 10
431.5366798066
 20
206.0486882134
  0
VERTEX
  8
0
 62
7
  6
CONTINUOUS
 10
431.5354672887
 20
206.0489058428
  0
VERTEX
  8
0
 62
7
  6
CONTINUOUS
 10
431.5343034198
 20
206.0491218713
  0
VERTEX
  8
0
 62
7
  6
CONTINUOUS
 10
431.5331867855
 20
206.049336533
  0
VERTEX
  8
0
 62
7
  6
CONTINUOUS
 10
431.5321157574
 20
206.0495500325
  0
VERTEX
  8
0
 62
7
  6
CONTINUOUS
 10
431.5310888782
 20
206.0497626935
  0
VERTEX
  8
0
 62
7
  6
CONTINUOUS
 10
431.5301045467
 20
206.0499747792
  0
VERTEX
  8
0
 62
7
  6
CONTINUOUS
 10
431.5291615671
 20
206.0501866763
  0
VERTEX
  8
0
 62
7
  6
CONTINUOUS
 10
431.5282585446
 20
206.0503986884
  0
VERTEX
  8
0
 62
7
  6
CONTINUOUS
 10
431.5273944758
 20
206.0506113283
  0
VERTEX
  8
0
 62
7
  6
CONTINUOUS
 10
431.5265681379
 20
206.0508249711
  0
VERTEX
  8
0
 62
7
  6
CONTINUOUS
 10
431.5257787947
 20
206.0510403343
  0
VERTEX
  8
0
 62
7
  6
CONTINUOUS
 10
431.5250253866
 20
206.0512579102
  0
VERTEX
  8
0
 62
7
  6
CONTINUOUS
 10
431.52430766
 20
206.0514787508
  0
VERTEX
  8
0
 62
7
  6
CONTINUOUS
 10
431.5236248262
 20
206.0517035032
  0
VERTEX
  8
0
 62
7
  6
CONTINUOUS
 10
431.5229774312
 20
206.051933875
  0
VERTEX
  8
0
 62
7
  6
CONTINUOUS
 10
431.5223651798
 20
206.0521706259
  0
VERTEX
  8
0
 62
7
  6
CONTINUOUS
 10
431.5217898069
 20
206.0524172469
  0
VERTEX
  8
0
 62
7
  6
CONTINUOUS
 10
431.5212502303
 20
206.0526751022
  0
VERTEX
  8
0
 62
7
  6
CONTINUOUS
 10
431.5207546061
 20
206.0529513323
  0
VERTEX
  8
0
 62
7
  6
CONTINUOUS
 10
431.5202994463
 20
206.0532445958
  0
VERTEX
  8
0
 62
7
  6
CONTINUOUS
 10
431.5199185999
 20
206.0535817019
  0
VERTEX
  8
0
 62
7
  6
CONTINUOUS
 10
431.5196488393
 20
206.0539923077
  0
VERTEX
  8
0
 62
7
  6
CONTINUOUS
 10
431.5194779069
 20
206.0544665276
  0
SEQEND
  0
POLYLINE
  8
0
 62
7
  6
CONTINUOUS
 66
1
 70
0
  0
VERTEX
  8
0
 62
7
  6
CONTINUOUS
 10
310.5282044424
 20
254.3758425737
  0
VERTEX
  8
0
 62
7
  6
CONTINUOUS
 10
310.5280878657
 20
254.3788321994
  0
VERTEX
  8
0
 62
7
  6
CONTINUOUS
 10
310.5276708308
 20
254.3819161214
  0
VERTEX
  8
0
 62
7
  6
CONTINUOUS
 10
310.5269651292
 20
254.3850968545
  0
VERTEX
  8
0
 62
7
  6
CONTINUOUS
 10
310.5259353868
 20
254.3883668544
  0
VERTEX
  8
0
 62
7
  6
CONTINUOUS
 10
310.5245588078
 20
254.3917183503
  0
VERTEX
  8
0
 62
7
  6
CONTINUOUS
 10
310.5228094489
 20
254.3951545372
  0
VERTEX
  8
0
 62
7
  6
CONTINUOUS
 10
310.5206546632
 20
254.3986843466
  0
VERTEX
  8
0
 62
7
  6
CONTINUOUS
 10
310.5180917662
 20
254.4022827988
  0
VERTEX
  8
0
 62
7
  6
CONTINUOUS
 10
310.5151080527
 20
254.4059299455
  0
VERTEX
  8
0
 62
7
  6
CONTINUOUS
 10
310.5117009378
 20
254.4096196237
  0
VERTEX
  8
0
 62
7
  6
CONTINUOUS
 10
310.5078649728
 20
254.4133396177
  0
VERTEX
  8
0
 62
7
  6
CONTINUOUS
 10
310.5035960436
 20
254.4170881374
  0
VERTEX
  8
0
 62
7
  6
CONTINUOUS
 10
310.4988895936
 20
254.4208597133
  0
VERTEX
  8
0
 62
7
  6
CONTINUOUS
 10
310.4937415008
 20
254.4246531679
  0
VERTEX
  8
0
 62
7
  6
CONTINUOUS
 10
310.4881488885
 20
254.4284650054
  0
VERTEX
  8
0
 62
7
  6
CONTINUOUS
 10
310.4821034651
 20
254.4322967107
  0
VERTEX
  8
0
 62
7
  6
CONTINUOUS
 10
310.4755994059
 20
254.4361480561
  0
VERTEX
  8
0
 62
7
  6
CONTINUOUS
 10
310.4686264333
 20
254.4400206837
  0
VERTEX
  8
0
 62
7
  6
CONTINUOUS
 10
310.4611790083
 20
254.4439144463
  0
VERTEX
  8
0
 62
7
  6
CONTINUOUS
 10
310.4532370909
 20
254.4478344837
  0
VERTEX
  8
0
 62
7
  6
CONTINUOUS
 10
310.444783802
 20
254.4517855102
  0
VERTEX
  8
0
 62
7
  6
CONTINUOUS
 10
310.4358041193
 20
254.4557686561
  0
VERTEX
  8
0
 62
7
  6
CONTINUOUS
 10
310.4262836649
 20
254.4597859217
  0
VERTEX
  8
0
 62
7
  6
CONTINUOUS
 10
310.4162036263
 20
254.4638394111
  0
VERTEX
  8
0
 62
7
  6
CONTINUOUS
 10
310.4055474293
 20
254.4679311937
  0
VERTEX
  8
0
 62
7
  6
CONTINUOUS
 10
310.394293981
 20
254.4720633738
  0
VERTEX
  8
0
 62
7
  6
CONTINUOUS
 10
310.3824256985
 20
254.4762376743
  0
VERTEX
  8
0
 62
7
  6
CONTINUOUS
 10
310.3699154771
 20
254.4804573094
  0
VERTEX
  8
0
 62
7
  6
CONTINUOUS
 10
310.3567403378
 20
254.4847250769
  0
VERTEX
  8
0
 62
7
  6
CONTINUOUS
 10
310.3428703197
 20
254.4890439492
  0
VERTEX
  8
0
 62
7
  6
CONTINUOUS
 10
310.3282768105
 20
254.4934174133
  0
VERTEX
  8
0
 62
7
  6
CONTINUOUS
 10
310.3129327849
 20
254.4978467222
  0
VERTEX
  8
0
 62
7
  6
CONTINUOUS
 10
310.296812593
 20
254.50233355
  0
VERTEX
  8
0
 62
7
  6
CONTINUOUS
 10
310.2798834967
 20
254.5068801199
  0
VERTEX
  8
0
 62
7
  6
CONTINUOUS
 10
310.2621160456
 20
254.5114884975
  0
VERTEX
  8
0
 62
7
  6
CONTINUOUS
 10
310.2434747266
 20
254.5161608302
  0
VERTEX
  8
0
 62
7
  6
CONTINUOUS
 10
310.2239267836
 20
254.5208993064
  0
VERTEX
  8
0
 62
7
  6
CONTINUOUS
 10
310.2034344948
 20
254.5257058682
  0
VERTEX
  8
0
 62
7
  6
CONTINUOUS
 10
310.1819645591
 20
254.5305821847
  0
VERTEX
  8
0
 62
7
  6
CONTINUOUS
 10
310.1594709581
 20
254.5355312644
  0
VERTEX
  8
0
 62
7
  6
CONTINUOUS
 10
310.1359136488
 20
254.540555632
  0
VERTEX
  8
0
 62
7
  6
CONTINUOUS
 10
310.1112414034
 20
254.5456584083
  0
VERTEX
  8
0
 62
7
  6
CONTINUOUS
 10
310.0854044585
 20
254.550843227
  0
VERTEX
  8
0
 62
7
  6
CONTINUOUS
 10
310.0583583779
 20
254.5561110741
  0
VERTEX
  8
0
 62
7
  6
CONTINUOUS
 10
310.0300611703
 20
254.561463227
  0
VERTEX
  8
0
 62
7
  6
CONTINUOUS
 10
310.0004557366
 20
254.5669024455
  0
VERTEX
  8
0
 62
7
  6
CONTINUOUS
 10
309.969490542
 20
254.5724311826
  0
VERTEX
  8
0
 62
7
  6
CONTINUOUS
 10
309.9371069019
 20
254.5780516359
  0
VERTEX
  8
0
 62
7
  6
CONTINUOUS
 10
309.9032527093
 20
254.5837656717
  0
VERTEX
  8
0
 62
7
  6
CONTINUOUS
 10
309.867856696
 20
254.5895767363
  0
VERTEX
  8
0
 62
7
  6
CONTINUOUS
 10
309.7921732965
 20
254.601502157
  0
SEQEND
  0
LINE
  8
0
 62
7
  6
CONTINUOUS
 10
310.5282044424
 20
254.3758425737
 11
310.5282044424
 21
206.0544665276
  0
LINE
  8
0
 62
7
  6
CONTINUOUS
 10
318.6238411747
 20
205.8758425737
 11
318.6238411747
 21
258.3758425737
  0
POLYLINE
  8
0
 62
7
  6
CONTINUOUS
 66
1
 70
0
  0
VERTEX
  8
0
 62
7
  6
CONTINUOUS
 10
306.0234943298
 20
205.9725386457
  0
VERTEX
  8
0
 62
7
  6
CONTINUOUS
 10
306.0230448339
 20
205.970839753
  0
VERTEX
  8
0
 62
7
  6
CONTINUOUS
 10
306.0223923482
 20
205.9691058502
  0
VERTEX
  8
0
 62
7
  6
CONTINUOUS
 10
306.0215178289
 20
205.9673266522
  0
VERTEX
  8
0
 62
7
  6
CONTINUOUS
 10
306.0204215855
 20
205.9655218411
  0
VERTEX
  8
0
 62
7
  6
CONTINUOUS
 10
306.0190956009
 20
205.9637052681
  0
VERTEX
  8
0
 62
7
  6
CONTINUOUS
 10
306.0175458105
 20
205.9618841405
  0
VERTEX
  8
0
 62
7
  6
CONTINUOUS
 10
306.0157741132
 20
205.9600698455
  0
VERTEX
  8
0
 62
7
  6
CONTINUOUS
 10
306.013784601
 20
205.9582636946
  0
VERTEX
  8
0
 62
7
  6
CONTINUOUS
 10
306.0115815551
 20
205.9564709802
  0
VERTEX
  8
0
 62
7
  6
CONTINUOUS
 10
306.009166307
 20
205.9546911468
  0
VERTEX
  8
0
 62
7
  6
CONTINUOUS
 10
306.0065420676
 20
205.9529258164
  0
VERTEX
  8
0
 62
7
  6
CONTINUOUS
 10
306.0037074797
 20
205.9511737476
  0
VERTEX
  8
0
 62
7
  6
CONTINUOUS
 10
306.0006638987
 20
205.9494348869
  0
VERTEX
  8
0
 62
7
  6
CONTINUOUS
 10
305.9974063969
 20
205.9477072917
  0
VERTEX
  8
0
 62
7
  6
CONTINUOUS
 10
305.9939325279
 20
205.9459894132
  0
VERTEX
  8
0
 62
7
  6
CONTINUOUS
 10
305.9902362021
 20
205.9442800168
  0
VERTEX
  8
0
 62
7
  6
CONTINUOUS
 10
305.9863123685
 20
205.9425774308
  0
VERTEX
  8
0
 62
7
  6
CONTINUOUS
 10
305.9821554646
 20
205.9408814185
  0
VERTEX
  8
0
 62
7
  6
CONTINUOUS
 10
305.9777607371
 20
205.9391913318
  0
VERTEX
  8
0
 62
7
  6
CONTINUOUS
 10
305.9731207087
 20
205.9375067337
  0
VERTEX
  8
0
 62
7
  6
CONTINUOUS
 10
305.968229194
 20
205.9358270433
  0
VERTEX
  8
0
 62
7
  6
CONTINUOUS
 10
305.9630775635
 20
205.934152045
  0
VERTEX
  8
0
 62
7
  6
CONTINUOUS
 10
305.9576583599
 20
205.9324813203
  0
VERTEX
  8
0
 62
7
  6
CONTINUOUS
 10
305.9519618813
 20
205.9308148984
  0
VERTEX
  8
0
 62
7
  6
CONTINUOUS
 10
305.9459796301
 20
205.9291525989
  0
VERTEX
  8
0
 62
7
  6
CONTINUOUS
 10
305.9397005357
 20
205.9274946316
  0
VERTEX
  8
0
 62
7
  6
CONTINUOUS
 10
305.9331144969
 20
205.9258409265
  0
VERTEX
  8
0
 62
7
  6
CONTINUOUS
 10
305.9262101073
 20
205.924192142
  0
VERTEX
  8
0
 62
7
  6
CONTINUOUS
 10
305.9189781244
 20
205.9225488741
  0
VERTEX
  8
0
 62
7
  6
CONTINUOUS
 10
305.9114019547
 20
205.92091124
  0
VERTEX
  8
0
 62
7
  6
CONTINUOUS
 10
305.9034667246
 20
205.9192791243
  0
VERTEX
  8
0
 62
7
  6
CONTINUOUS
 10
305.8951580312
 20
205.9176538212
  0
VERTEX
  8
0
 62
7
  6
CONTINUOUS
 10
305.8864617707
 20
205.9160360589
  0
VERTEX
  8
0
 62
7
  6
CONTINUOUS
 10
305.877362173
 20
205.914427419
  0
VERTEX
  8
0
 62
7
  6
CONTINUOUS
 10
305.8678447899
 20
205.9128291182
  0
VERTEX
  8
0
 62
7
  6
CONTINUOUS
 10
305.857891551
 20
205.9112429784
  0
VERTEX
  8
0
 62
7
  6
CONTINUOUS
 10
305.8474861818
 20
205.9096704673
  0
VERTEX
  8
0
 62
7
  6
CONTINUOUS
 10
305.8366088458
 20
205.9081138635
  0
VERTEX
  8
0
 62
7
  6
CONTINUOUS
 10
305.8252414491
 20
205.9065749868
  0
VERTEX
  8
0
 62
7
  6
CONTINUOUS
 10
305.8133624892
 20
205.9050566821
  0
VERTEX
  8
0
 62
7
  6
CONTINUOUS
 10
305.8009409906
 20
205.9035628322
  0
VERTEX
  8
0
 62
7
  6
CONTINUOUS
 10
305.7879872784
 20
205.9020921429
  0
SEQEND
  0
LINE
  8
0
 62
7
  6
CONTINUOUS
 10
432.2555090528
 20
254.601502157
 11
432.3381976367
 21
254.6138514086
  0
LINE
  8
0
 62
7
  6
CONTINUOUS
 10
432.3381976367
 20
254.6138514086
 11
432.4284647874
 21
254.6266415916
  0
LINE
  8
0
 62
7
  6
CONTINUOUS
 10
432.4284647874
 20
254.6266415916
 11
432.5269505324
 21
254.6398931909
  0
LINE
  8
0
 62
7
  6
CONTINUOUS
 10
432.5269505324
 20
254.6398931909
 11
432.6343484593
 21
254.6536273523
  0
LINE
  8
0
 62
7
  6
CONTINUOUS
 10
432.6343484593
 20
254.6536273523
 11
432.7514098861
 21
254.6678659078
  0
LINE
  8
0
 62
7
  6
CONTINUOUS
 10
432.7514098861
 20
254.6678659078
 11
432.8789539683
 21
254.6826320383
  0
LINE
  8
0
 62
7
  6
CONTINUOUS
 10
432.8789539683
 20
254.6826320383
 11
433.0178490395
 21
254.6979476232
  0
LINE
  8
0
 62
7
  6
CONTINUOUS
 10
433.0178490395
 20
254.6979476232
 11
433.1691343144
 21
254.7138456964
  0
LINE
  8
0
 62
7
  6
CONTINUOUS
 10
433.1691343144
 20
254.7138456964
 11
433.3338922041
 21
254.7303550573
  0
LINE
  8
0
 62
7
  6
CONTINUOUS
 10
433.3338922041
 20
254.7303550573
 11
433.5132152933
 21
254.7474976669
  0
LINE
  8
0
 62
7
  6
CONTINUOUS
 10
433.5132152933
 20
254.7474976669
 11
433.708317957
 21
254.7652997335
  0
LINE
  8
0
 62
7
  6
CONTINUOUS
 10
433.708317957
 20
254.7652997335
 11
433.9205259352
 21
254.7837895709
  0
LINE
  8
0
 62
7
  6
CONTINUOUS
 10
433.9205259352
 20
254.7837895709
 11
434.1512561571
 21
254.8029951286
  0
LINE
  8
0
 62
7
  6
CONTINUOUS
 10
434.1512561571
 20
254.8029951286
 11
434.4021409465
 21
254.822953351
  0
LINE
  8
0
 62
7
  6
CONTINUOUS
 10
434.4021409465
 20
254.822953351
 11
434.6749457603
 21
254.8437017207
  0
LINE
  8
0
 62
7
  6
CONTINUOUS
 10
434.6749457603
 20
254.8437017207
 11
434.971472693
 21
254.8652707753
  0
LINE
  8
0
 62
7
  6
CONTINUOUS
 10
434.971472693
 20
254.8652707753
 11
435.2936617817
 21
254.8876920029
  0
LINE
  8
0
 62
7
  6
CONTINUOUS
 10
435.2936617817
 20
254.8876920029
 11
435.6436836763
 21
254.9110032956
  0
LINE
  8
0
 62
7
  6
CONTINUOUS
 10
435.6436836763
 20
254.9110032956
 11
436.0238411747
 21
254.9352410593
  0
LINE
  8
0
 62
7
  6
CONTINUOUS
 10
84.2238411747
 20
241.6758425737
 11
70.5238411747
 21
241.6758425737
  0
LINE
  8
0
 62
7
  6
CONTINUOUS
 10
527.8238411747
 20
241.6758425737
 11
541.5238411747
 21
241.6758425737
  0
LINE
  8
0
 62
7
  6
CONTINUOUS
 10
302.1444296401
 20
254.5837656717
 11
302.2168274545
 21
254.5954879372
  0
LINE
  8
0
 62
7
  6
CONTINUOUS
 10
302.2168274545
 20
254.5954879372
 11
302.2959418603
 21
254.6076227351
  0
LINE
  8
0
 62
7
  6
CONTINUOUS
 10
302.2959418603
 20
254.6076227351
 11
302.3823438894
 21
254.6201901034
  0
LINE
  8
0
 62
7
  6
CONTINUOUS
 10
302.3823438894
 20
254.6201901034
 11
302.4766369864
 21
254.6332083927
  0
LINE
  8
0
 62
7
  6
CONTINUOUS
 10
302.4766369864
 20
254.6332083927
 11
302.5794885157
 21
254.6466985868
  0
LINE
  8
0
 62
7
  6
CONTINUOUS
 10
302.5794885157
 20
254.6466985868
 11
302.691620038
 21
254.6606821319
  0
LINE
  8
0
 62
7
  6
CONTINUOUS
 10
302.691620038
 20
254.6606821319
 11
302.8138173244
 21
254.6751816587
  0
LINE
  8
0
 62
7
  6
CONTINUOUS
 10
302.8138173244
 20
254.6751816587
 11
302.9469176793
 21
254.6902190843
  0
LINE
  8
0
 62
7
  6
CONTINUOUS
 10
302.9469176793
 20
254.6902190843
 11
303.0918752508
 21
254.7058220488
  0
LINE
  8
0
 62
7
  6
CONTINUOUS
 10
303.0918752508
 20
254.7058220488
 11
303.2497608959
 21
254.7220225933
  0
LINE
  8
0
 62
7
  6
CONTINUOUS
 10
303.2497608959
 20
254.7220225933
 11
303.4216572003
 21
254.738845568
  0
LINE
  8
0
 62
7
  6
CONTINUOUS
 10
303.4216572003
 20
254.738845568
 11
303.6087113196
 21
254.7563144984
  0
LINE
  8
0
 62
7
  6
CONTINUOUS
 10
303.6087113196
 20
254.7563144984
 11
303.8121952237
 21
254.774456934
  0
LINE
  8
0
 62
7
  6
CONTINUOUS
 10
303.8121952237
 20
254.774456934
 11
304.0334737454
 21
254.7933005757
  0
LINE
  8
0
 62
7
  6
CONTINUOUS
 10
304.0334737454
 20
254.7933005757
 11
304.2740688898
 21
254.812877814
  0
LINE
  8
0
 62
7
  6
CONTINUOUS
 10
304.2740688898
 20
254.812877814
 11
304.5356907195
 21
254.8332268588
  0
LINE
  8
0
 62
7
  6
CONTINUOUS
 10
304.5356907195
 20
254.8332268588
 11
304.8201227095
 21
254.8543816944
  0
LINE
  8
0
 62
7
  6
CONTINUOUS
 10
304.8201227095
 20
254.8543816944
 11
305.1292238023
 21
254.8763724992
  0
LINE
  8
0
 62
7
  6
CONTINUOUS
 10
305.1292238023
 20
254.8763724992
 11
305.4650497034
 21
254.8992341157
  0
POLYLINE
  8
0
 62
7
  6
CONTINUOUS
 66
1
 70
0
  0
VERTEX
  8
0
 62
7
  6
CONTINUOUS
 10
305.4650497034
 20
254.8992341157
  0
VERTEX
  8
0
 62
7
  6
CONTINUOUS
 10
305.829995475
 20
254.9230063685
  0
VERTEX
  8
0
 62
7
  6
CONTINUOUS
 10
306.0238411747
 20
254.9352410593
  0
SEQEND
  0
LINE
  8
0
 62
9
  6
CONTINUOUS
 10
301.5194779069
 20
254.3758425737
 11
310.5282044424
 21
254.3758425737
  0
LINE
  8
0
 62
9
  6
CONTINUOUS
 10
431.5194779069
 20
254.3758425737
 11
440.5282044424
 21
254.3758425737
  0
LINE
  8
0
 62
7
  6
CONTINUOUS
 10
448.6238411747
 20
258.3758425737
 11
424.0238411747
 21
258.3758425737
  0
LINE
  8
0
 62
7
  6
CONTINUOUS
 10
318.6238411747
 20
258.3758425737
 11
294.0238411747
 21
258.3758425737
  0
LINE
  8
0
 62
7
  6
CONTINUOUS
 10
163.4238411747
 20
258.3758425737
 11
188.0238411747
 21
258.3758425737
  0
LINE
  8
0
 62
7
  6
CONTINUOUS
 10
552.0238411747
 20
258.6758425737
 11
527.8238411747
 21
258.6758425737
  0
LINE
  8
0
 62
7
  6
CONTINUOUS
 10
84.2238411747
 20
258.6758425737
 11
60.0238411747
 21
258.6758425737
  0
LINE
  8
KONSTRUKTIONSELEMENTE
 62
3
  6
CONTINUOUS
 10
84.2238411747
 20
258.6758425737
 11
527.8238411747
 21
258.6758425737
  0
LINE
  8
KONSTRUKTIONSELEMENTE
 62
7
  6
CONTINUOUS
 10
58.0238411747
 20
258.8758425737
 11
60.0238411747
 21
258.8758425737
  0
LINE
  8
KONSTRUKTIONSELEMENTE
 62
7
  6
CONTINUOUS
 10
552.0238411747
 20
258.8758425737
 11
554.0238411747
 21
258.8758425737
  0
LINE
  8
KONSTRUKTIONSELEMENTE
 62
7
  6
CONTINUOUS
 10
58.2238411747
 20
259.6758425737
 11
553.8238411747
 21
259.6758425737
  0
LINE
  8
FASEN
 62
7
  6
CONTINUOUS
 10
58.0238411747
 20
259.8758425737
 11
56.0238411747
 21
259.8758425737
  0
LINE
  8
BEZUGSACHSEN
 62
7
  6
CONTINUOUS
 10
554.0238411747
 20
259.8758425737
 11
556.0238411747
 21
259.8758425737
  0
LINE
  8
FASEN
 62
7
  6
CONTINUOUS
 10
58.0238411747
 20
261.8758425737
 11
56.0238411747
 21
261.8758425737
  0
LINE
  8
BEZUGSACHSEN
 62
7
  6
CONTINUOUS
 10
554.0238411747
 20
261.8758425737
 11
556.0238411747
 21
261.8758425737
  0
LINE
  8
0
 62
7
  6
CONTINUOUS
 10
306.4039986731
 20
254.9110032956
 11
306.0238411747
 21
254.9352410593
  0
LINE
  8
0
 62
7
  6
CONTINUOUS
 10
436.4039986731
 20
254.9110032956
 11
436.0238411747
 21
254.9352410593
  0
LINE
  8
0
 62
7
  6
CONTINUOUS
 10
306.7540205676
 20
254.8876920029
 11
306.4039986731
 21
254.9110032956
  0
LINE
  8
0
 62
7
  6
CONTINUOUS
 10
436.7540205676
 20
254.8876920029
 11
436.4039986731
 21
254.9110032956
  0
LINE
  8
0
 62
7
  6
CONTINUOUS
 10
307.0762096563
 20
254.8652707753
 11
306.7540205676
 21
254.8876920029
  0
LINE
  8
0
 62
7
  6
CONTINUOUS
 10
437.0762096563
 20
254.8652707753
 11
436.7540205676
 21
254.8876920029
  0
LINE
  8
0
 62
7
  6
CONTINUOUS
 10
307.3727365891
 20
254.8437017207
 11
307.0762096563
 21
254.8652707753
  0
LINE
  8
0
 62
7
  6
CONTINUOUS
 10
437.3727365891
 20
254.8437017207
 11
437.0762096563
 21
254.8652707753
  0
LINE
  8
0
 62
7
  6
CONTINUOUS
 10
307.6455414028
 20
254.822953351
 11
307.3727365891
 21
254.8437017207
  0
LINE
  8
0
 62
7
  6
CONTINUOUS
 10
437.6455414028
 20
254.822953351
 11
437.3727365891
 21
254.8437017207
  0
LINE
  8
0
 62
7
  6
CONTINUOUS
 10
307.8964261923
 20
254.8029951286
 11
307.6455414028
 21
254.822953351
  0
LINE
  8
0
 62
7
  6
CONTINUOUS
 10
437.8964261923
 20
254.8029951286
 11
437.6455414028
 21
254.822953351
  0
LINE
  8
0
 62
7
  6
CONTINUOUS
 10
308.1271564142
 20
254.7837895709
 11
307.8964261923
 21
254.8029951286
  0
LINE
  8
0
 62
7
  6
CONTINUOUS
 10
438.1271564142
 20
254.7837895709
 11
437.8964261923
 21
254.8029951286
  0
LINE
  8
0
 62
7
  6
CONTINUOUS
 10
308.3393643924
 20
254.7652997335
 11
308.1271564142
 21
254.7837895709
  0
LINE
  8
0
 62
7
  6
CONTINUOUS
 10
438.3393643924
 20
254.7652997335
 11
438.1271564142
 21
254.7837895709
  0
LINE
  8
0
 62
7
  6
CONTINUOUS
 10
308.534467056
 20
254.7474976669
 11
308.3393643924
 21
254.7652997335
  0
LINE
  8
0
 62
7
  6
CONTINUOUS
 10
438.534467056
 20
254.7474976669
 11
438.3393643924
 21
254.7652997335
  0
LINE
  8
0
 62
7
  6
CONTINUOUS
 10
308.7137901453
 20
254.7303550573
 11
308.534467056
 21
254.7474976669
  0
LINE
  8
0
 62
7
  6
CONTINUOUS
 10
438.7137901453
 20
254.7303550573
 11
438.534467056
 21
254.7474976669
  0
LINE
  8
0
 62
7
  6
CONTINUOUS
 10
308.8785480349
 20
254.7138456964
 11
308.7137901453
 21
254.7303550573
  0
POLYLINE
  8
0
 62
7
  6
CONTINUOUS
 66
1
 70
0
  0
VERTEX
  8
0
 62
7
  6
CONTINUOUS
 10
438.9558070985
 20
254.7058220488
  0
VERTEX
  8
0
 62
7
  6
CONTINUOUS
 10
438.8785480349
 20
254.7138456964
  0
VERTEX
  8
0
 62
7
  6
CONTINUOUS
 10
438.7137901453
 20
254.7303550573
  0
SEQEND
  0
LINE
  8
0
 62
7
  6
CONTINUOUS
 10
309.0298333098
 20
254.6979476232
 11
308.8785480349
 21
254.7138456964
  0
LINE
  8
0
 62
7
  6
CONTINUOUS
 10
309.1687283811
 20
254.6826320383
 11
309.0298333098
 21
254.6979476232
  0
LINE
  8
0
 62
7
  6
CONTINUOUS
 10
309.2962724633
 20
254.6678659078
 11
309.1687283811
 21
254.6826320383
  0
LINE
  8
0
 62
7
  6
CONTINUOUS
 10
309.4133338901
 20
254.6536273523
 11
309.2962724633
 21
254.6678659078
  0
LINE
  8
0
 62
7
  6
CONTINUOUS
 10
309.520731817
 20
254.6398931909
 11
309.4133338901
 21
254.6536273523
  0
LINE
  8
0
 62
7
  6
CONTINUOUS
 10
309.619217562
 20
254.6266415916
 11
309.520731817
 21
254.6398931909
  0
LINE
  8
0
 62
7
  6
CONTINUOUS
 10
309.7094847127
 20
254.6138514086
 11
309.619217562
 21
254.6266415916
  0
LINE
  8
0
 62
7
  6
CONTINUOUS
 10
309.7921732965
 20
254.601502157
 11
309.7094847127
 21
254.6138514086
  0
LINE
  8
0
 62
7
  6
CONTINUOUS
 10
439.10076467
 20
254.6902190843
 11
438.9558070985
 21
254.7058220488
  0
LINE
  8
0
 62
7
  6
CONTINUOUS
 10
439.233865025
 20
254.6751816587
 11
439.10076467
 21
254.6902190843
  0
LINE
  8
0
 62
7
  6
CONTINUOUS
 10
439.3560623114
 20
254.6606821319
 11
439.233865025
 21
254.6751816587
  0
LINE
  8
0
 62
7
  6
CONTINUOUS
 10
439.4681938336
 20
254.6466985868
 11
439.3560623114
 21
254.6606821319
  0
LINE
  8
0
 62
7
  6
CONTINUOUS
 10
439.571045363
 20
254.6332083927
 11
439.4681938336
 21
254.6466985868
  0
LINE
  8
0
 62
7
  6
CONTINUOUS
 10
439.6653384599
 20
254.6201901034
 11
439.571045363
 21
254.6332083927
  0
LINE
  8
0
 62
7
  6
CONTINUOUS
 10
439.7517404891
 20
254.6076227351
 11
439.6653384599
 21
254.6201901034
  0
LINE
  8
0
 62
7
  6
CONTINUOUS
 10
439.8308548949
 20
254.5954879372
 11
439.7517404891
 21
254.6076227351
  0
LINE
  8
0
 62
7
  6
CONTINUOUS
 10
424.0238411747
 20
205.8758425737
 11
424.0238411747
 21
258.3758425737
  0
POLYLINE
  8
0
 62
7
  6
CONTINUOUS
 66
1
 70
0
  0
VERTEX
  8
0
 62
7
  6
CONTINUOUS
 10
440.5282044424
 20
254.3758425737
  0
VERTEX
  8
0
 62
7
  6
CONTINUOUS
 10
440.5280878657
 20
254.3788321994
  0
VERTEX
  8
0
 62
7
  6
CONTINUOUS
 10
440.5276708308
 20
254.3819161214
  0
VERTEX
  8
0
 62
7
  6
CONTINUOUS
 10
440.5269651292
 20
254.3850968545
  0
VERTEX
  8
0
 62
7
  6
CONTINUOUS
 10
440.5259353868
 20
254.3883668544
  0
VERTEX
  8
0
 62
7
  6
CONTINUOUS
 10
440.5245588078
 20
254.3917183503
  0
VERTEX
  8
0
 62
7
  6
CONTINUOUS
 10
440.5228094489
 20
254.3951545372
  0
VERTEX
  8
0
 62
7
  6
CONTINUOUS
 10
440.5206546632
 20
254.3986843466
  0
VERTEX
  8
0
 62
7
  6
CONTINUOUS
 10
440.5180917662
 20
254.4022827988
  0
VERTEX
  8
0
 62
7
  6
CONTINUOUS
 10
440.5151080527
 20
254.4059299455
  0
VERTEX
  8
0
 62
7
  6
CONTINUOUS
 10
440.5117009378
 20
254.4096196237
  0
VERTEX
  8
0
 62
7
  6
CONTINUOUS
 10
440.5078649728
 20
254.4133396177
  0
VERTEX
  8
0
 62
7
  6
CONTINUOUS
 10
440.5035960436
 20
254.4170881374
  0
VERTEX
  8
0
 62
7
  6
CONTINUOUS
 10
440.4988895936
 20
254.4208597133
  0
VERTEX
  8
0
 62
7
  6
CONTINUOUS
 10
440.4937415008
 20
254.4246531679
  0
VERTEX
  8
0
 62
7
  6
CONTINUOUS
 10
440.4881488885
 20
254.4284650054
  0
VERTEX
  8
0
 62
7
  6
CONTINUOUS
 10
440.4821034651
 20
254.4322967107
  0
VERTEX
  8
0
 62
7
  6
CONTINUOUS
 10
440.4755994059
 20
254.4361480561
  0
VERTEX
  8
0
 62
7
  6
CONTINUOUS
 10
440.4686264333
 20
254.4400206837
  0
VERTEX
  8
0
 62
7
  6
CONTINUOUS
 10
440.4611790083
 20
254.4439144463
  0
VERTEX
  8
0
 62
7
  6
CONTINUOUS
 10
440.4532370909
 20
254.4478344837
  0
VERTEX
  8
0
 62
7
  6
CONTINUOUS
 10
440.444783802
 20
254.4517855102
  0
VERTEX
  8
0
 62
7
  6
CONTINUOUS
 10
440.4358041193
 20
254.4557686561
  0
VERTEX
  8
0
 62
7
  6
CONTINUOUS
 10
440.4262836649
 20
254.4597859217
  0
VERTEX
  8
0
 62
7
  6
CONTINUOUS
 10
440.4162036263
 20
254.4638394111
  0
VERTEX
  8
0
 62
7
  6
CONTINUOUS
 10
440.4055474293
 20
254.4679311937
  0
VERTEX
  8
0
 62
7
  6
CONTINUOUS
 10
440.394293981
 20
254.4720633738
  0
VERTEX
  8
0
 62
7
  6
CONTINUOUS
 10
440.3824256985
 20
254.4762376743
  0
VERTEX
  8
0
 62
7
  6
CONTINUOUS
 10
440.3699154771
 20
254.4804573094
  0
VERTEX
  8
0
 62
7
  6
CONTINUOUS
 10
440.3567403378
 20
254.4847250769
  0
VERTEX
  8
0
 62
7
  6
CONTINUOUS
 10
440.3428703197
 20
254.4890439492
  0
VERTEX
  8
0
 62
7
  6
CONTINUOUS
 10
440.3282768105
 20
254.4934174133
  0
VERTEX
  8
0
 62
7
  6
CONTINUOUS
 10
440.3129327849
 20
254.4978467222
  0
VERTEX
  8
0
 62
7
  6
CONTINUOUS
 10
440.296812593
 20
254.50233355
  0
VERTEX
  8
0
 62
7
  6
CONTINUOUS
 10
440.2798834967
 20
254.5068801199
  0
VERTEX
  8
0
 62
7
  6
CONTINUOUS
 10
440.2621160456
 20
254.5114884975
  0
VERTEX
  8
0
 62
7
  6
CONTINUOUS
 10
440.2434747266
 20
254.5161608302
  0
VERTEX
  8
0
 62
7
  6
CONTINUOUS
 10
440.2239267836
 20
254.5208993064
  0
VERTEX
  8
0
 62
7
  6
CONTINUOUS
 10
440.2034344948
 20
254.5257058682
  0
VERTEX
  8
0
 62
7
  6
CONTINUOUS
 10
440.1819645591
 20
254.5305821847
  0
VERTEX
  8
0
 62
7
  6
CONTINUOUS
 10
440.1594709581
 20
254.5355312644
  0
VERTEX
  8
0
 62
7
  6
CONTINUOUS
 10
440.1359136488
 20
254.540555632
  0
VERTEX
  8
0
 62
7
  6
CONTINUOUS
 10
440.1112414034
 20
254.5456584083
  0
VERTEX
  8
0
 62
7
  6
CONTINUOUS
 10
440.0854044585
 20
254.550843227
  0
VERTEX
  8
0
 62
7
  6
CONTINUOUS
 10
440.0583583779
 20
254.5561110741
  0
VERTEX
  8
0
 62
7
  6
CONTINUOUS
 10
440.0300611703
 20
254.561463227
  0
VERTEX
  8
0
 62
7
  6
CONTINUOUS
 10
440.0004557366
 20
254.5669024455
  0
VERTEX
  8
0
 62
7
  6
CONTINUOUS
 10
439.969490542
 20
254.5724311826
  0
VERTEX
  8
0
 62
7
  6
CONTINUOUS
 10
439.9371069019
 20
254.5780516359
  0
VERTEX
  8
0
 62
7
  6
CONTINUOUS
 10
439.9032527093
 20
254.5837656717
  0
VERTEX
  8
0
 62
7
  6
CONTINUOUS
 10
439.8308548949
 20
254.5954879372
  0
SEQEND
  0
LINE
  8
0
 62
7
  6
CONTINUOUS
 10
431.5194779069
 20
206.0544665276
 11
431.5194779069
 21
254.3758425737
  0
LINE
  8
0
 62
7
  6
CONTINUOUS
 10
435.7879872784
 20
205.9020921429
 11
435.7879872784
 21
205.8907134218
  0
LINE
  8
KONSTRUKTIONSELEMENTE
 62
7
  6
CONTINUOUS
 10
436.0238411747
 20
205.9758425743
 11
436.0238411747
 21
254.3758425737
  0
LINE
  8
0
 62
7
  6
CONTINUOUS
 10
436.0238411747
 20
254.3758425737
 11
436.0238411747
 21
254.9352410593
  0
LINE
  8
0
 62
7
  6
CONTINUOUS
 10
440.5282044424
 20
254.3758425737
 11
440.5282044424
 21
206.0544665276
  0
POLYLINE
  8
0
 62
7
  6
CONTINUOUS
 66
1
 70
0
  0
VERTEX
  8
0
 62
7
  6
CONTINUOUS
 10
431.5194779069
 20
254.3758425737
  0
VERTEX
  8
0
 62
7
  6
CONTINUOUS
 10
431.5195944837
 20
254.3788321994
  0
VERTEX
  8
0
 62
7
  6
CONTINUOUS
 10
431.5200115186
 20
254.3819161214
  0
VERTEX
  8
0
 62
7
  6
CONTINUOUS
 10
431.5207172202
 20
254.3850968545
  0
VERTEX
  8
0
 62
7
  6
CONTINUOUS
 10
431.5217469626
 20
254.3883668544
  0
VERTEX
  8
0
 62
7
  6
CONTINUOUS
 10
431.5231235416
 20
254.3917183503
  0
VERTEX
  8
0
 62
7
  6
CONTINUOUS
 10
431.5248729004
 20
254.3951545372
  0
VERTEX
  8
0
 62
7
  6
CONTINUOUS
 10
431.5270276861
 20
254.3986843466
  0
VERTEX
  8
0
 62
7
  6
CONTINUOUS
 10
431.5295905831
 20
254.4022827988
  0
VERTEX
  8
0
 62
7
  6
CONTINUOUS
 10
431.5325742966
 20
254.4059299455
  0
VERTEX
  8
0
 62
7
  6
CONTINUOUS
 10
431.5359814116
 20
254.4096196237
  0
VERTEX
  8
0
 62
7
  6
CONTINUOUS
 10
431.5398173765
 20
254.4133396177
  0
VERTEX
  8
0
 62
7
  6
CONTINUOUS
 10
431.5440863058
 20
254.4170881374
  0
VERTEX
  8
0
 62
7
  6
CONTINUOUS
 10
431.5487927558
 20
254.4208597133
  0
VERTEX
  8
0
 62
7
  6
CONTINUOUS
 10
431.5539408485
 20
254.4246531679
  0
VERTEX
  8
0
 62
7
  6
CONTINUOUS
 10
431.5595334608
 20
254.4284650054
  0
VERTEX
  8
0
 62
7
  6
CONTINUOUS
 10
431.5655788842
 20
254.4322967107
  0
VERTEX
  8
0
 62
7
  6
CONTINUOUS
 10
431.5720829435
 20
254.4361480561
  0
VERTEX
  8
0
 62
7
  6
CONTINUOUS
 10
431.579055916
 20
254.4400206837
  0
VERTEX
  8
0
 62
7
  6
CONTINUOUS
 10
431.586503341
 20
254.4439144463
  0
VERTEX
  8
0
 62
7
  6
CONTINUOUS
 10
431.5944452585
 20
254.4478344837
  0
VERTEX
  8
0
 62
7
  6
CONTINUOUS
 10
431.6028985474
 20
254.4517855102
  0
VERTEX
  8
0
 62
7
  6
CONTINUOUS
 10
431.61187823
 20
254.4557686561
  0
VERTEX
  8
0
 62
7
  6
CONTINUOUS
 10
431.6213986844
 20
254.4597859217
  0
VERTEX
  8
0
 62
7
  6
CONTINUOUS
 10
431.6314787231
 20
254.4638394111
  0
VERTEX
  8
0
 62
7
  6
CONTINUOUS
 10
431.64213492
 20
254.4679311937
  0
VERTEX
  8
0
 62
7
  6
CONTINUOUS
 10
431.6533883684
 20
254.4720633738
  0
VERTEX
  8
0
 62
7
  6
CONTINUOUS
 10
431.6652566508
 20
254.4762376743
  0
VERTEX
  8
0
 62
7
  6
CONTINUOUS
 10
431.6777668723
 20
254.4804573094
  0
VERTEX
  8
0
 62
7
  6
CONTINUOUS
 10
431.6909420115
 20
254.4847250769
  0
VERTEX
  8
0
 62
7
  6
CONTINUOUS
 10
431.7048120297
 20
254.4890439492
  0
VERTEX
  8
0
 62
7
  6
CONTINUOUS
 10
431.7194055389
 20
254.4934174133
  0
VERTEX
  8
0
 62
7
  6
CONTINUOUS
 10
431.7347495645
 20
254.4978467222
  0
VERTEX
  8
0
 62
7
  6
CONTINUOUS
 10
431.7508697564
 20
254.50233355
  0
VERTEX
  8
0
 62
7
  6
CONTINUOUS
 10
431.7677988527
 20
254.5068801199
  0
VERTEX
  8
0
 62
7
  6
CONTINUOUS
 10
431.7855663037
 20
254.5114884975
  0
VERTEX
  8
0
 62
7
  6
CONTINUOUS
 10
431.8042076227
 20
254.5161608302
  0
VERTEX
  8
0
 62
7
  6
CONTINUOUS
 10
431.8237555657
 20
254.5208993064
  0
VERTEX
  8
0
 62
7
  6
CONTINUOUS
 10
431.8442478545
 20
254.5257058682
  0
VERTEX
  8
0
 62
7
  6
CONTINUOUS
 10
431.8657177902
 20
254.5305821847
  0
VERTEX
  8
0
 62
7
  6
CONTINUOUS
 10
431.8882113913
 20
254.5355312644
  0
VERTEX
  8
0
 62
7
  6
CONTINUOUS
 10
431.9117687006
 20
254.540555632
  0
VERTEX
  8
0
 62
7
  6
CONTINUOUS
 10
431.936440946
 20
254.5456584083
  0
VERTEX
  8
0
 62
7
  6
CONTINUOUS
 10
431.9622778908
 20
254.550843227
  0
VERTEX
  8
0
 62
7
  6
CONTINUOUS
 10
431.9893239715
 20
254.5561110741
  0
VERTEX
  8
0
 62
7
  6
CONTINUOUS
 10
432.017621179
 20
254.561463227
  0
VERTEX
  8
0
 62
7
  6
CONTINUOUS
 10
432.0472266127
 20
254.5669024455
  0
VERTEX
  8
0
 62
7
  6
CONTINUOUS
 10
432.0781918073
 20
254.5724311826
  0
VERTEX
  8
0
 62
7
  6
CONTINUOUS
 10
432.1105754475
 20
254.5780516359
  0
VERTEX
  8
0
 62
7
  6
CONTINUOUS
 10
432.1444296401
 20
254.5837656717
  0
SEQEND
  0
POLYLINE
  8
0
 62
7
  6
CONTINUOUS
 66
1
 70
0
  0
VERTEX
  8
0
 62
7
  6
CONTINUOUS
 10
436.0238411747
 20
205.9758425743
  0
VERTEX
  8
0
 62
7
  6
CONTINUOUS
 10
436.0237568981
 20
205.9740505324
  0
VERTEX
  8
0
 62
7
  6
CONTINUOUS
 10
436.0234665479
 20
205.9722110478
  0
VERTEX
  8
0
 62
7
  6
CONTINUOUS
 10
436.0229781872
 20
205.9703251253
  0
VERTEX
  8
0
 62
7
  6
CONTINUOUS
 10
436.0222676266
 20
205.9683897504
  0
VERTEX
  8
0
 62
7
  6
CONTINUOUS
 10
436.0213126903
 20
205.9663943152
  0
VERTEX
  8
0
 62
7
  6
CONTINUOUS
 10
436.0201154016
 20
205.9643626058
  0
VERTEX
  8
0
 62
7
  6
CONTINUOUS
 10
436.018668813
 20
205.9623130649
  0
VERTEX
  8
0
 62
7
  6
CONTINUOUS
 10
436.0169776614
 20
205.9602511142
  0
VERTEX
  8
0
 62
7
  6
CONTINUOUS
 10
436.0150433312
 20
205.9581878639
  0
VERTEX
  8
0
 62
7
  6
CONTINUOUS
 10
436.0128689318
 20
205.9561246902
  0
VERTEX
  8
0
 62
7
  6
CONTINUOUS
 10
436.0104580223
 20
205.9540668915
  0
VERTEX
  8
0
 62
7
  6
CONTINUOUS
 10
436.0078106382
 20
205.9520138108
  0
VERTEX
  8
0
 62
7
  6
CONTINUOUS
 10
436.0049288055
 20
205.9499669318
  0
VERTEX
  8
0
 62
7
  6
CONTINUOUS
 10
436.0018101125
 20
205.9479251304
  0
VERTEX
  8
0
 62
7
  6
CONTINUOUS
 10
435.9984543097
 20
205.9458881711
  0
VERTEX
  8
0
 62
7
  6
CONTINUOUS
 10
435.994856936
 20
205.9438548721
  0
VERTEX
  8
0
 62
7
  6
CONTINUOUS
 10
435.9910155056
 20
205.9418243207
  0
VERTEX
  8
0
 62
7
  6
CONTINUOUS
 10
435.9869238433
 20
205.9397954734
  0
VERTEX
  8
0
 62
7
  6
CONTINUOUS
 10
435.9825775088
 20
205.9377672603
  0
VERTEX
  8
0
 62
7
  6
CONTINUOUS
 10
435.9779688119
 20
205.9357388484
  0
VERTEX
  8
0
 62
7
  6
CONTINUOUS
 10
435.9730916142
 20
205.9337092455
  0
VERTEX
  8
0
 62
7
  6
CONTINUOUS
 10
435.9679368204
 20
205.9316778604
  0
VERTEX
  8
0
 62
7
  6
CONTINUOUS
 10
435.9624967752
 20
205.9296438825
  0
VERTEX
  8
0
 62
7
  6
CONTINUOUS
 10
435.9567610202
 20
205.9276069774
  0
VERTEX
  8
0
 62
7
  6
CONTINUOUS
 10
435.9507204874
 20
205.9255665618
  0
VERTEX
  8
0
 62
7
  6
CONTINUOUS
 10
435.9443633493
 20
205.9235225721
  0
VERTEX
  8
0
 62
7
  6
CONTINUOUS
 10
435.9376791664
 20
205.9214746744
  0
VERTEX
  8
0
 62
7
  6
CONTINUOUS
 10
435.9306547057
 20
205.9194230968
  0
VERTEX
  8
0
 62
7
  6
CONTINUOUS
 10
435.9232781591
 20
205.9173677745
  0
VERTEX
  8
0
 62
7
  6
CONTINUOUS
 10
435.915534812
 20
205.9153092531
  0
VERTEX
  8
0
 62
7
  6
CONTINUOUS
 10
435.9074114502
 20
205.9132477573
  0
VERTEX
  8
0
 62
7
  6
CONTINUOUS
 10
435.8988917651
 20
205.9111841859
  0
VERTEX
  8
0
 62
7
  6
CONTINUOUS
 10
435.8899610532
 20
205.9091190778
  0
VERTEX
  8
0
 62
7
  6
CONTINUOUS
 10
435.8806012848
 20
205.9070537374
  0
VERTEX
  8
0
 62
7
  6
CONTINUOUS
 10
435.8707961661
 20
205.9049890561
  0
VERTEX
  8
0
 62
7
  6
CONTINUOUS
 10
435.8605257862
 20
205.9029268122
  0
VERTEX
  8
0
 62
7
  6
CONTINUOUS
 10
435.8497721342
 20
205.9008683011
  0
VERTEX
  8
0
 62
7
  6
CONTINUOUS
 10
435.8385132154
 20
205.8988158624
  0
VERTEX
  8
0
 62
7
  6
CONTINUOUS
 10
435.8267291317
 20
205.896771261
  0
VERTEX
  8
0
 62
7
  6
CONTINUOUS
 10
435.8143955815
 20
205.8947375164
  0
VERTEX
  8
0
 62
7
  6
CONTINUOUS
 10
435.8014777636
 20
205.8927186877
  0
VERTEX
  8
0
 62
7
  6
CONTINUOUS
 10
435.7879872784
 20
205.8907134218
  0
SEQEND
  0
POLYLINE
  8
0
 62
7
  6
CONTINUOUS
 66
1
 70
0
  0
VERTEX
  8
0
 62
7
  6
CONTINUOUS
 10
436.0234943298
 20
205.9725386457
  0
VERTEX
  8
0
 62
7
  6
CONTINUOUS
 10
436.0230448339
 20
205.970839753
  0
VERTEX
  8
0
 62
7
  6
CONTINUOUS
 10
436.0223923482
 20
205.9691058502
  0
VERTEX
  8
0
 62
7
  6
CONTINUOUS
 10
436.0215178289
 20
205.9673266522
  0
VERTEX
  8
0
 62
7
  6
CONTINUOUS
 10
436.0204215855
 20
205.9655218411
  0
VERTEX
  8
0
 62
7
  6
CONTINUOUS
 10
436.0190956009
 20
205.9637052681
  0
VERTEX
  8
0
 62
7
  6
CONTINUOUS
 10
436.0175458105
 20
205.9618841405
  0
VERTEX
  8
0
 62
7
  6
CONTINUOUS
 10
436.0157741132
 20
205.9600698455
  0
VERTEX
  8
0
 62
7
  6
CONTINUOUS
 10
436.013784601
 20
205.9582636946
  0
VERTEX
  8
0
 62
7
  6
CONTINUOUS
 10
436.0115815551
 20
205.9564709802
  0
VERTEX
  8
0
 62
7
  6
CONTINUOUS
 10
436.009166307
 20
205.9546911468
  0
VERTEX
  8
0
 62
7
  6
CONTINUOUS
 10
436.0065420676
 20
205.9529258164
  0
VERTEX
  8
0
 62
7
  6
CONTINUOUS
 10
436.0037074797
 20
205.9511737476
  0
VERTEX
  8
0
 62
7
  6
CONTINUOUS
 10
436.0006638987
 20
205.9494348869
  0
VERTEX
  8
0
 62
7
  6
CONTINUOUS
 10
435.9974063969
 20
205.9477072917
  0
VERTEX
  8
0
 62
7
  6
CONTINUOUS
 10
435.9939325279
 20
205.9459894132
  0
VERTEX
  8
0
 62
7
  6
CONTINUOUS
 10
435.9902362021
 20
205.9442800168
  0
VERTEX
  8
0
 62
7
  6
CONTINUOUS
 10
435.9863123685
 20
205.9425774308
  0
VERTEX
  8
0
 62
7
  6
CONTINUOUS
 10
435.9821554646
 20
205.9408814185
  0
VERTEX
  8
0
 62
7
  6
CONTINUOUS
 10
435.9777607371
 20
205.9391913318
  0
VERTEX
  8
0
 62
7
  6
CONTINUOUS
 10
435.9731207087
 20
205.9375067337
  0
VERTEX
  8
0
 62
7
  6
CONTINUOUS
 10
435.968229194
 20
205.9358270433
  0
VERTEX
  8
0
 62
7
  6
CONTINUOUS
 10
435.9630775635
 20
205.934152045
  0
VERTEX
  8
0
 62
7
  6
CONTINUOUS
 10
435.9576583599
 20
205.9324813203
  0
VERTEX
  8
0
 62
7
  6
CONTINUOUS
 10
435.9519618813
 20
205.9308148984
  0
VERTEX
  8
0
 62
7
  6
CONTINUOUS
 10
435.9459796301
 20
205.9291525989
  0
VERTEX
  8
0
 62
7
  6
CONTINUOUS
 10
435.9397005357
 20
205.9274946316
  0
VERTEX
  8
0
 62
7
  6
CONTINUOUS
 10
435.9331144969
 20
205.9258409265
  0
VERTEX
  8
0
 62
7
  6
CONTINUOUS
 10
435.9262101073
 20
205.924192142
  0
VERTEX
  8
0
 62
7
  6
CONTINUOUS
 10
435.9189781244
 20
205.9225488741
  0
VERTEX
  8
0
 62
7
  6
CONTINUOUS
 10
435.9114019547
 20
205.92091124
  0
VERTEX
  8
0
 62
7
  6
CONTINUOUS
 10
435.9034667246
 20
205.9192791243
  0
VERTEX
  8
0
 62
7
  6
CONTINUOUS
 10
435.8951580312
 20
205.9176538212
  0
VERTEX
  8
0
 62
7
  6
CONTINUOUS
 10
435.8864617707
 20
205.9160360589
  0
VERTEX
  8
0
 62
7
  6
CONTINUOUS
 10
435.877362173
 20
205.914427419
  0
VERTEX
  8
0
 62
7
  6
CONTINUOUS
 10
435.8678447899
 20
205.9128291182
  0
VERTEX
  8
0
 62
7
  6
CONTINUOUS
 10
435.857891551
 20
205.9112429784
  0
VERTEX
  8
0
 62
7
  6
CONTINUOUS
 10
435.8474861818
 20
205.9096704673
  0
VERTEX
  8
0
 62
7
  6
CONTINUOUS
 10
435.8366088458
 20
205.9081138635
  0
VERTEX
  8
0
 62
7
  6
CONTINUOUS
 10
435.8252414491
 20
205.9065749868
  0
VERTEX
  8
0
 62
7
  6
CONTINUOUS
 10
435.8133624892
 20
205.9050566821
  0
VERTEX
  8
0
 62
7
  6
CONTINUOUS
 10
435.8009409906
 20
205.9035628322
  0
VERTEX
  8
0
 62
7
  6
CONTINUOUS
 10
435.7879872784
 20
205.9020921429
  0
SEQEND
  0
LINE
  8
0
 62
7
  6
CONTINUOUS
 10
448.6238411747
 20
205.8758425737
 11
448.6238411747
 21
258.3758425737
  0
LINE
  8
BEZUGSACHSEN
 62
7
  6
CONTINUOUS
 10
501.0238411747
 20
205.9758425737
 11
501.0238411747
 21
207.8758425737
  0
LINE
  8
BEZUGSACHSEN
 62
7
  6
CONTINUOUS
 10
511.0238411747
 20
205.9758425737
 11
511.0238411747
 21
207.8758425737
  0
LINE
  8
0
 62
7
  6
CONTINUOUS
 10
527.8238411747
 20
258.6758425737
 11
527.8238411747
 21
241.6758425737
  0
LINE
  8
0
 62
7
  6
CONTINUOUS
 10
541.5238411747
 20
241.6758425737
 11
541.5238411747
 21
228.6758425737
  0
LINE
  8
KONSTRUKTIONSELEMENTE
 62
7
  6
CONTINUOUS
 10
552.0238411747
 20
208.8758425737
 11
552.0238411747
 21
258.8758425737
  0
LINE
  8
KONSTRUKTIONSELEMENTE
 62
9
  6
CONTINUOUS
 10
553.0238411747
 20
203.8758425737
 11
553.0238411747
 21
205.8758425737
  0
LINE
  8
KONSTRUKTIONSELEMENTE
 62
7
  6
CONTINUOUS
 10
553.8238411747
 20
258.8758425737
 11
553.8238411747
 21
259.6758425737
  0
LINE
  8
BEZUGSACHSEN
 62
7
  6
CONTINUOUS
 10
554.0238411747
 20
206.8758425737
 11
554.0238411747
 21
261.8758425737
  0
LINE
  8
BEZUGSACHSEN
 62
3
  6
CONTINUOUS
 10
556.0238411747
 20
206.8758425737
 11
556.0238411747
 21
261.8758425737
  0
ARC
  8
KONSTRUKTIONSELEMENTE
 62
3
  6
CONTINUOUS
 10
59.0238411747
 20
206.8758425737
 40
3.0
 50
180.0
 51
270.0
  0
ARC
  8
KONSTRUKTIONSELEMENTE
 62
3
  6
CONTINUOUS
 10
553.0238411747
 20
206.8758425737
 40
3.0
 50
270.0
 51
360.0
  0
ARC
  8
KONSTRUKTIONSELEMENTE
 62
7
  6
CONTINUOUS
 10
59.0238411747
 20
206.8758425737
 40
1.0
 50
180.0
 51
270.0
  0
ARC
  8
KONSTRUKTIONSELEMENTE
 62
7
  6
CONTINUOUS
 10
553.0238411747
 20
206.8758425737
 40
1.0
 50
270.0
 51
360.0
  0
ARC
  8
BEZUGSACHSEN
 62
7
  6
CONTINUOUS
 10
500.9238411747
 20
205.9758425737
 40
0.1
 50
270.0
 51
360.0
  0
ARC
  8
BEZUGSACHSEN
 62
7
  6
CONTINUOUS
 10
511.1238411747
 20
205.9758425737
 40
0.1
 50
180.0
 51
270.0
  0
ARC
  8
BEZUGSACHSEN
 62
7
  6
CONTINUOUS
 10
111.1238411747
 20
205.9758425737
 40
0.1
 50
180.0
 51
270.0
  0
ARC
  8
BEZUGSACHSEN
 62
7
  6
CONTINUOUS
 10
100.9238411747
 20
205.9758425737
 40
0.1
 50
270.0
 51
360.0
  0
ENDSEC
  0
EOF
