999
DXF file: bkg5008011.dxf
999
Pro/ENGINEER 2022024 by Parametric Technology Corporation
  0
SECTION
  2
HEADER
  9
$EXTMAX
 10
594.0
 20
420.0
 30
0.0
  9
$EXTMIN
 10
0.0
 20
0.0
 30
0.0
  9
$LIMMIN
 10
0.0
 20
0.0
  9
$LIMMAX
 10
594.0
 20
420.0
  9
$VIEWCTR
 10
297.0
 20
210.0
  9
$VIEWSIZE
 40
420.0
  9
$CLAYER
  8
0
  9
$LTSCALE
 40
32.67
  9
$CELTYPE
  6
BYLAYER
  9
$DIMSCALE
 40
1.0
  9
$DIMASZ
 40
3.5
  9
$DIMEXO
 40
0.0
  9
$DIMDLI
 40
22.572
  9
$DIMEXE
 40
1.5
  9
$DIMCEN
 40
5.346
  9
$DIMLFAC
 40
1.0
  9
$DIMBLK
  1
_FILLED
  9
$DIMALT
 70
0
  9
$DIMALTF
 40
0.0393700787
  9
$DIMTXT
 40
3.5
  9
$AUNITS
 70
0
  9
$PDMODE
 70
3
  9
$PDSIZE
 40
0.3125
  9
$TILEMODE
 70
1
  0
ENDSEC
  0
SECTION
  2
TABLES
  0
TABLE
  2
LTYPE
 70
6
  0
LTYPE
  2
BYBLOCK
 70
0
  3

 72
65
 73
0
 40
0.0
  0
LTYPE
  2
BYLAYER
 70
0
  3

 72
65
 73
0
 40
0.0
  0
LTYPE
  2
CONTINUOUS
 70
64
  3
Solid line
 72
65
 73
0
 40
0.0
  0
LTYPE
  2
CENTER
 70
64
  3
____ _ ____ _ ____ _ ____ _ ____ _ ____ _ ____
 72
65
 73
4
 40
0.6
 49
0.375
 49
-0.075
 49
0.075
 49
-0.075
  0
LTYPE
  2
HIDDEN
 70
64
  3
- - - - - - - - - - - - - - - - - - - -
 72
65
 73
2
 40
0.2
 49
0.1
 49
-0.1
  0
LTYPE
  2
PHANTOM
 70
64
  3
_____ _ _ _____ _ _ _____ _ _ _____
 72
65
 73
6
 40
0.8
 49
0.45
 49
-0.05
 49
0.1
 49
-0.05
 49
0.1
 49
-0.05
  0
LTYPE
  2
DOT
 70
64
  3
. . . . . . . . . . . . . . . . . . . .
 72
65
 73
2
 40
0.2
 49
0.1
 49
-0.1
  0
LTYPE
  2
DASHED
 70
64
  3
- - - - - - - - - - - - - - - - - - - -
 72
65
 73
2
 40
0.2
 49
0.1
 49
-0.1
  0
ENDTAB
  0
TABLE
  2
LAYER
 70
36
  0
LAYER
  2
0
 70
0
 62
7
  6
CONTINUOUS
  0
LAYER
  2
DEFAULT_1
 70
0
 62
7
  6
CENTER
  0
LAYER
  2
DEFAULT_2
 70
0
 62
8
  6
HIDDEN
  0
LAYER
  2
DEFAULT_3
 70
0
 62
7
  6
PHANTOM
  0
LAYER
  2
01_STARTBEZUEGE
 70
0
 62
7
  6
CONTINUOUS
  0
LAYER
  2
ASSEMBLY
 70
0
 62
7
  6
CONTINUOUS
  0
LAYER
  2
AUSFORMSCHRAEGEN
 70
0
 62
7
  6
CONTINUOUS
  0
LAYER
  2
AXIS
 70
0
 62
7
  6
CONTINUOUS
  0
LAYER
  2
BEZUGSACHSEN
 70
0
 62
7
  6
CONTINUOUS
  0
LAYER
  2
BEZUGSEBENEN
 70
0
 62
7
  6
CONTINUOUS
  0
LAYER
  2
BEZUGSPUNKTE
 70
0
 62
7
  6
CONTINUOUS
  0
LAYER
  2
BOHRUNGEN
 70
0
 62
7
  6
CONTINUOUS
  0
LAYER
  2
CSYS
 70
0
 62
7
  6
CONTINUOUS
  0
LAYER
  2
FASEN
 70
0
 62
7
  6
CONTINUOUS
  0
LAYER
  2
FLAECHEN
 70
0
 62
7
  6
CONTINUOUS
  0
LAYER
  2
GEWINDE
 70
0
 62
7
  6
CONTINUOUS
  0
LAYER
  2
GTOL
 70
0
 62
7
  6
CONTINUOUS
  0
LAYER
  2
KONSTRUKTIONSELEMENTE
 70
0
 62
7
  6
CONTINUOUS
  0
LAYER
  2
KOORDINATENSYSTEME
 70
0
 62
7
  6
CONTINUOUS
  0
LAYER
  2
KURVEN
 70
0
 62
7
  6
CONTINUOUS
  0
LAYER
  2
NOTIZ
 70
0
 62
7
  6
CONTINUOUS
  0
LAYER
  2
PLANES
 70
0
 62
7
  6
CONTINUOUS
  0
LAYER
  2
RUNDUNGEN
 70
0
 62
7
  6
CONTINUOUS
  0
LAYER
  2
SKELETON_MODELS
 70
0
 62
7
  6
CONTINUOUS
  0
LAYER
  2
STARTBEZUEGE
 70
0
 62
7
  6
CONTINUOUS
  0
LAYER
  2
SURFACES
 70
0
 62
7
  6
CONTINUOUS
  0
LAYER
  2
VOLUMEN
 70
0
 62
7
  6
CONTINUOUS
  0
LAYER
  2
XSEC_DATUMS
 70
0
 62
7
  6
CONTINUOUS
  0
ENDTAB
  0
TABLE
  2
STYLE
 70
1
  0
STYLE
  2
STANDARD
 70
0
 40
0.0
 41
0.7
 50
0.0
 71
0
 42
0.2
  3
txt
  4

  0
STYLE
  2
TEXTSTYLE_1
 70
0
 40
0.0
 41
0.8
 50
0.0
 71
0
 42
0.2
  3
gdt
  4

  0
ENDTAB
  0
ENDSEC
  0
SECTION
  2
BLOCKS
  0
BLOCK
  8
0
  2
_FILLED
 70
64
 10
0.0
 20
0.0
  0
SOLID
  8
0
  6
BYBLOCK
 62
0
 10
0.0
 20
0.0
 11
-1.0
 21
0.125
 12
-1.0
 22
-0.125
 13
-1.0
 23
-0.125
  0
ENDBLK
  8
0
  6
BYBLOCK
 62
0
  0
ENDSEC
  0
SECTION
  2
ENTITIES
  0
LINE
  8
FASEN
 62
3
  6
CONTINUOUS
 10
64.5097266334
 20
152.7394895644
 11
64.5097266334
 21
227.7394895644
  0
LINE
  8
FASEN
 62
7
  6
CONTINUOUS
 10
66.5097266334
 20
152.7394895644
 11
66.5097266334
 21
227.7394895644
  0
LINE
  8
KONSTRUKTIONSELEMENTE
 62
7
  6
CONTINUOUS
 10
66.7097266334
 20
224.7394895644
 11
66.7097266334
 21
225.5394895644
  0
LINE
  8
KONSTRUKTIONSELEMENTE
 62
9
  6
CONTINUOUS
 10
67.5097266334
 20
149.7394895644
 11
67.5097266334
 21
151.7394895644
  0
LINE
  8
KONSTRUKTIONSELEMENTE
 62
7
  6
CONTINUOUS
 10
68.5097266334
 20
224.7394895644
 11
68.5097266334
 21
174.7394895644
  0
LINE
  8
0
 62
7
  6
CONTINUOUS
 10
79.0097266334
 20
194.5394895644
 11
79.0097266334
 21
207.5394895644
  0
LINE
  8
0
 62
7
  6
CONTINUOUS
 10
92.7097266334
 20
207.5394895644
 11
92.7097266334
 21
224.5394895644
  0
LINE
  8
BEZUGSACHSEN
 62
7
  6
CONTINUOUS
 10
109.5097266334
 20
153.7394895644
 11
109.5097266334
 21
151.8394895644
  0
LINE
  8
BEZUGSACHSEN
 62
7
  6
CONTINUOUS
 10
119.5097266334
 20
153.7394895644
 11
119.5097266334
 21
151.8394895644
  0
LINE
  8
0
 62
7
  6
CONTINUOUS
 10
171.9097266334
 20
224.2394895644
 11
171.9097266334
 21
151.7394895644
  0
LINE
  8
0
 62
7
  6
CONTINUOUS
 10
196.5097266334
 20
224.2394895644
 11
196.5097266334
 21
151.7394895644
  0
POLYLINE
  8
0
 62
7
  6
CONTINUOUS
 66
1
 70
0
  0
VERTEX
  8
0
 62
7
  6
CONTINUOUS
 10
448.9914904199
 20
152.0161712263
  0
VERTEX
  8
0
 62
7
  6
CONTINUOUS
 10
448.9929219637
 20
152.0163981275
  0
VERTEX
  8
0
 62
7
  6
CONTINUOUS
 10
448.9942961227
 20
152.0166224627
  0
VERTEX
  8
0
 62
7
  6
CONTINUOUS
 10
448.9956150755
 20
152.0168444762
  0
VERTEX
  8
0
 62
7
  6
CONTINUOUS
 10
448.9968812696
 20
152.0170644064
  0
VERTEX
  8
0
 62
7
  6
CONTINUOUS
 10
448.9980963051
 20
152.017282454
  0
VERTEX
  8
0
 62
7
  6
CONTINUOUS
 10
448.9992620574
 20
152.0174988107
  0
VERTEX
  8
0
 62
7
  6
CONTINUOUS
 10
449.000380149
 20
152.0177137423
  0
VERTEX
  8
0
 62
7
  6
CONTINUOUS
 10
449.001452357
 20
152.0179274752
  0
VERTEX
  8
0
 62
7
  6
CONTINUOUS
 10
449.0024800933
 20
152.0181403195
  0
VERTEX
  8
0
 62
7
  6
CONTINUOUS
 10
449.0034649488
 20
152.0183525307
  0
VERTEX
  8
0
 62
7
  6
CONTINUOUS
 10
449.0044081647
 20
152.0185644983
  0
VERTEX
  8
0
 62
7
  6
CONTINUOUS
 10
449.0053111728
 20
152.0187765277
  0
VERTEX
  8
0
 62
7
  6
CONTINUOUS
 10
449.0061749916
 20
152.018989127
  0
VERTEX
  8
0
 62
7
  6
CONTINUOUS
 10
449.0070008642
 20
152.0192026689
  0
VERTEX
  8
0
 62
7
  6
CONTINUOUS
 10
449.0077895488
 20
152.0194178648
  0
VERTEX
  8
0
 62
7
  6
CONTINUOUS
 10
449.0085421253
 20
152.0196352036
  0
VERTEX
  8
0
 62
7
  6
CONTINUOUS
 10
449.0092588724
 20
152.0198557255
  0
VERTEX
  8
0
 62
7
  6
CONTINUOUS
 10
449.0099406286
 20
152.0200800859
  0
VERTEX
  8
0
 62
7
  6
CONTINUOUS
 10
449.0105867938
 20
152.0203099279
  0
VERTEX
  8
0
 62
7
  6
CONTINUOUS
 10
449.0111975065
 20
152.0205459258
  0
VERTEX
  8
0
 62
7
  6
CONTINUOUS
 10
449.0117713899
 20
152.0207916416
  0
VERTEX
  8
0
 62
7
  6
CONTINUOUS
 10
449.012309596
 20
152.021048315
  0
VERTEX
  8
0
 62
7
  6
CONTINUOUS
 10
449.0128046772
 20
152.0213235881
  0
VERTEX
  8
0
 62
7
  6
CONTINUOUS
 10
449.0132612045
 20
152.0216164775
  0
VERTEX
  8
0
 62
7
  6
CONTINUOUS
 10
449.0136442742
 20
152.0219540995
  0
VERTEX
  8
0
 62
7
  6
CONTINUOUS
 10
449.0139163339
 20
152.0223665916
  0
VERTEX
  8
0
 62
7
  6
CONTINUOUS
 10
449.0140899011
 20
152.0228439079
  0
SEQEND
  0
LINE
  8
0
 62
7
  6
CONTINUOUS
 10
448.9884455498
 20
152.0157089507
 11
448.9914904199
 21
152.0161712263
  0
LINE
  8
0
 62
7
  6
CONTINUOUS
 10
448.9851432588
 20
152.0152342859
 11
448.9884455498
 21
152.0157089507
  0
LINE
  8
0
 62
7
  6
CONTINUOUS
 10
448.9815645905
 20
152.0147460504
 11
448.9851432588
 21
152.0152342859
  0
LINE
  8
0
 62
7
  6
CONTINUOUS
 10
448.9776882282
 20
152.0142429741
 11
448.9815645905
 21
152.0147460504
  0
LINE
  8
0
 62
7
  6
CONTINUOUS
 10
448.9734910931
 20
152.0137237966
 11
448.9776882282
 21
152.0142429741
  0
LINE
  8
0
 62
7
  6
CONTINUOUS
 10
448.9689482572
 20
152.0131872578
 11
448.9734910931
 21
152.0137237966
  0
LINE
  8
0
 62
7
  6
CONTINUOUS
 10
448.9640327708
 20
152.0126320815
 11
448.9689482572
 21
152.0131872578
  0
LINE
  8
0
 62
7
  6
CONTINUOUS
 10
448.958715507
 20
152.0120569652
 11
448.9640327708
 21
152.0126320815
  0
LINE
  8
0
 62
7
  6
CONTINUOUS
 10
448.9499166935
 20
152.0111539653
 11
448.958715507
 21
152.0120569652
  0
LINE
  8
0
 62
7
  6
CONTINUOUS
 10
448.9400255718
 20
152.0101983834
 11
448.9499166935
 21
152.0111539653
  0
LINE
  8
0
 62
7
  6
CONTINUOUS
 10
448.9289106234
 20
152.0091852518
 11
448.9400255718
 21
152.0101983834
  0
POLYLINE
  8
0
 62
7
  6
CONTINUOUS
 66
1
 70
0
  0
VERTEX
  8
0
 62
7
  6
CONTINUOUS
 10
318.9914904088
 20
151.911440835
  0
VERTEX
  8
0
 62
7
  6
CONTINUOUS
 10
318.992921954
 20
151.9116677364
  0
VERTEX
  8
0
 62
7
  6
CONTINUOUS
 10
318.9942961144
 20
151.9118920718
  0
VERTEX
  8
0
 62
7
  6
CONTINUOUS
 10
318.9956150684
 20
151.9121140854
  0
VERTEX
  8
0
 62
7
  6
CONTINUOUS
 10
318.9968812636
 20
151.9123340157
  0
VERTEX
  8
0
 62
7
  6
CONTINUOUS
 10
318.9980963003
 20
151.9125520635
  0
VERTEX
  8
0
 62
7
  6
CONTINUOUS
 10
318.9992620536
 20
151.9127684204
  0
VERTEX
  8
0
 62
7
  6
CONTINUOUS
 10
319.0003801461
 20
151.9129833521
  0
VERTEX
  8
0
 62
7
  6
CONTINUOUS
 10
319.0014523549
 20
151.9131970852
  0
VERTEX
  8
0
 62
7
  6
CONTINUOUS
 10
319.0024800921
 20
151.9134099297
  0
VERTEX
  8
0
 62
7
  6
CONTINUOUS
 10
319.0034649483
 20
151.913622141
  0
VERTEX
  8
0
 62
7
  6
CONTINUOUS
 10
319.0044081648
 20
151.9138341088
  0
VERTEX
  8
0
 62
7
  6
CONTINUOUS
 10
319.0053111735
 20
151.9140461383
  0
VERTEX
  8
0
 62
7
  6
CONTINUOUS
 10
319.0061749928
 20
151.9142587377
  0
VERTEX
  8
0
 62
7
  6
CONTINUOUS
 10
319.0070008658
 20
151.9144722798
  0
VERTEX
  8
0
 62
7
  6
CONTINUOUS
 10
319.0077895508
 20
151.9146874758
  0
VERTEX
  8
0
 62
7
  6
CONTINUOUS
 10
319.0085421276
 20
151.9149048147
  0
VERTEX
  8
0
 62
7
  6
CONTINUOUS
 10
319.0092588748
 20
151.9151253367
  0
VERTEX
  8
0
 62
7
  6
CONTINUOUS
 10
319.0099406311
 20
151.9153496972
  0
VERTEX
  8
0
 62
7
  6
CONTINUOUS
 10
319.0105867964
 20
151.9155795393
  0
VERTEX
  8
0
 62
7
  6
CONTINUOUS
 10
319.011197509
 20
151.9158155372
  0
VERTEX
  8
0
 62
7
  6
CONTINUOUS
 10
319.0117713922
 20
151.9160612531
  0
VERTEX
  8
0
 62
7
  6
CONTINUOUS
 10
319.012309598
 20
151.9163179265
  0
VERTEX
  8
0
 62
7
  6
CONTINUOUS
 10
319.0128046789
 20
151.9165931995
  0
VERTEX
  8
0
 62
7
  6
CONTINUOUS
 10
319.0132612057
 20
151.9168860888
  0
VERTEX
  8
0
 62
7
  6
CONTINUOUS
 10
319.0136442749
 20
151.9172237107
  0
VERTEX
  8
0
 62
7
  6
CONTINUOUS
 10
319.0139163342
 20
151.9176362024
  0
VERTEX
  8
0
 62
7
  6
CONTINUOUS
 10
319.0140899011
 20
151.9181135183
  0
SEQEND
  0
LINE
  8
0
 62
7
  6
CONTINUOUS
 10
318.9884455356
 20
151.910978559
 11
318.9914904088
 21
151.911440835
  0
LINE
  8
0
 62
7
  6
CONTINUOUS
 10
318.9851432411
 20
151.9105038938
 11
318.9884455356
 21
151.910978559
  0
LINE
  8
0
 62
7
  6
CONTINUOUS
 10
318.981564569
 20
151.910015658
 11
318.9851432411
 21
151.9105038938
  0
LINE
  8
0
 62
7
  6
CONTINUOUS
 10
318.9776882024
 20
151.9095125812
 11
318.981564569
 21
151.910015658
  0
LINE
  8
0
 62
7
  6
CONTINUOUS
 10
318.9734910626
 20
151.9089934033
 11
318.9776882024
 21
151.9095125812
  0
LINE
  8
0
 62
7
  6
CONTINUOUS
 10
318.9689482215
 20
151.9084568641
 11
318.9734910626
 21
151.9089934033
  0
LINE
  8
0
 62
7
  6
CONTINUOUS
 10
318.9640327296
 20
151.9079016874
 11
318.9689482215
 21
151.9084568641
  0
LINE
  8
0
 62
7
  6
CONTINUOUS
 10
318.9587154597
 20
151.9073265706
 11
318.9640327296
 21
151.9079016874
  0
LINE
  8
0
 62
7
  6
CONTINUOUS
 10
318.949916636
 20
151.90642357
 11
318.9587154597
 21
151.9073265706
  0
LINE
  8
0
 62
7
  6
CONTINUOUS
 10
318.940025503
 20
151.9054679874
 11
318.949916636
 21
151.90642357
  0
LINE
  8
0
 62
7
  6
CONTINUOUS
 10
318.928910542
 20
151.9044548551
 11
318.940025503
 21
151.9054679874
  0
LINE
  8
0
 62
7
  6
CONTINUOUS
 10
448.9164230771
 20
152.0081091352
 11
448.9289106234
 21
152.0091852518
  0
LINE
  8
0
 62
7
  6
CONTINUOUS
 10
318.9164229816
 20
151.9033787376
 11
318.928910542
 21
151.9044548551
  0
LINE
  8
0
 62
7
  6
CONTINUOUS
 10
448.8973287559
 20
152.0065649295
 11
448.9164230771
 21
152.0081091352
  0
LINE
  8
0
 62
7
  6
CONTINUOUS
 10
318.8973286391
 20
151.9018345308
 11
318.9164229816
 21
151.9033787376
  0
LINE
  8
0
 62
7
  6
CONTINUOUS
 10
448.8750322421
 20
152.0048830158
 11
448.8973287559
 21
152.0065649295
  0
LINE
  8
0
 62
7
  6
CONTINUOUS
 10
318.8750321011
 20
151.9001526159
 11
318.8973286391
 21
151.9018345308
  0
LINE
  8
0
 62
7
  6
CONTINUOUS
 10
448.8490073171
 20
152.0030471673
 11
448.8750322421
 21
152.0048830158
  0
LINE
  8
0
 62
7
  6
CONTINUOUS
 10
318.8490071486
 20
151.8983167662
 11
318.8750321011
 21
151.9001526159
  0
LINE
  8
0
 62
7
  6
CONTINUOUS
 10
448.8102840098
 20
152.0005078056
 11
448.8490073171
 21
152.0030471673
  0
LINE
  8
0
 62
7
  6
CONTINUOUS
 10
318.8102838018
 20
151.8957774029
 11
318.8490071486
 21
151.8983167662
  0
LINE
  8
0
 62
7
  6
CONTINUOUS
 10
448.7633095869
 20
151.9976574432
 11
448.8102840098
 21
152.0005078056
  0
LINE
  8
0
 62
7
  6
CONTINUOUS
 10
318.763309333
 20
151.8929270388
 11
318.8102838018
 21
151.8957774029
  0
LINE
  8
0
 62
7
  6
CONTINUOUS
 10
448.6935860993
 20
151.993761125
 11
448.7633095869
 21
151.9976574432
  0
LINE
  8
0
 62
7
  6
CONTINUOUS
 10
318.6935857813
 20
151.8890307184
 11
318.763309333
 21
151.8929270388
  0
LINE
  8
0
 62
7
  6
CONTINUOUS
 10
448.5890988716
 20
151.9884409123
 11
448.6935860993
 21
151.993761125
  0
LINE
  8
0
 62
7
  6
CONTINUOUS
 10
318.5890984652
 20
151.883710503
 11
318.6935857813
 21
151.8890307184
  0
LINE
  8
0
 62
7
  6
CONTINUOUS
 10
448.4298151919
 20
151.9811176544
 11
448.5890988716
 21
151.9884409123
  0
LINE
  8
0
 62
7
  6
CONTINUOUS
 10
318.4298146661
 20
151.8763872419
 11
318.5890984652
 21
151.883710503
  0
LINE
  8
0
 62
7
  6
CONTINUOUS
 10
448.1816222959
 20
151.9708901057
 11
448.4298151919
 21
151.9811176544
  0
LINE
  8
0
 62
7
  6
CONTINUOUS
 10
318.1816216139
 20
151.8661596895
 11
318.4298146661
 21
151.8763872419
  0
LINE
  8
0
 62
7
  6
CONTINUOUS
 10
447.7359394703
 20
151.9546333502
 11
448.1816222959
 21
151.9708901057
  0
LINE
  8
0
 62
7
  6
CONTINUOUS
 10
317.7359385746
 20
151.8499029298
 11
318.1816216139
 21
151.8661596895
  0
LINE
  8
0
 62
7
  6
CONTINUOUS
 10
446.9812114931
 20
151.9304918982
 11
447.7359394703
 21
151.9546333502
  0
LINE
  8
0
 62
7
  6
CONTINUOUS
 10
316.9812104056
 20
151.8257614759
 11
317.7359385746
 21
151.8499029298
  0
LINE
  8
0
 62
7
  6
CONTINUOUS
 10
446.0262736739
 20
151.90334387
 11
446.9812114931
 21
151.9304918982
  0
LINE
  8
0
 62
7
  6
CONTINUOUS
 10
316.0262727106
 20
151.7986134544
 11
316.9812104056
 21
151.8257614759
  0
LINE
  8
0
 62
7
  6
CONTINUOUS
 10
444.9498900259
 20
151.8755069306
 11
446.0262736739
 21
151.90334387
  0
LINE
  8
0
 62
7
  6
CONTINUOUS
 10
314.949889562
 20
151.7707765295
 11
316.0262727106
 21
151.7986134544
  0
LINE
  8
0
 62
7
  6
CONTINUOUS
 10
444.2738727371
 20
151.8590908021
 11
444.9498900259
 21
151.8755069306
  0
LINE
  8
0
 62
7
  6
CONTINUOUS
 10
314.2738727371
 20
151.7543604125
 11
314.949889562
 21
151.7707765295
  0
LINE
  8
0
 62
9
  6
CONTINUOUS
 10
449.0140899011
 20
152.0228439079
 11
444.5097266334
 21
151.9442199546
  0
LINE
  8
0
 62
9
  6
CONTINUOUS
 10
319.0140899011
 20
151.9181135183
 11
314.5097266334
 21
151.839489565
  0
LINE
  8
BEZUGSACHSEN
 62
3
  6
CONTINUOUS
 10
561.5097266334
 20
149.7394895644
 11
67.5097266334
 21
149.7394895644
  0
LINE
  8
BEZUGSACHSEN
 62
7
  6
CONTINUOUS
 10
67.5097266334
 20
151.7394895644
 11
561.5097266334
 21
151.7394895644
  0
LINE
  8
BEZUGSACHSEN
 62
9
  6
CONTINUOUS
 10
519.5097266334
 20
151.8394895644
 11
509.5097266334
 21
151.8394895644
  0
LINE
  8
BEZUGSACHSEN
 62
9
  6
CONTINUOUS
 10
109.5097266334
 20
151.8394895644
 11
119.5097266334
 21
151.8394895644
  0
LINE
  8
0
 62
7
  6
CONTINUOUS
 10
457.1097266334
 20
151.8395047972
 11
432.5097266334
 21
151.8395047972
  0
LINE
  8
KONSTRUKTIONSELEMENTE
 62
9
  6
CONTINUOUS
 10
564.5097266334
 20
152.7394895644
 11
562.5097266334
 21
152.7394895644
  0
LINE
  8
KONSTRUKTIONSELEMENTE
 62
9
  6
CONTINUOUS
 10
64.5097266334
 20
152.7394895644
 11
66.5097266334
 21
152.7394895644
  0
LINE
  8
BEZUGSACHSEN
 62
7
  6
CONTINUOUS
 10
119.5097266334
 20
153.7394895644
 11
109.5097266334
 21
153.7394895644
  0
LINE
  8
BEZUGSACHSEN
 62
7
  6
CONTINUOUS
 10
509.5097266334
 20
153.7394895644
 11
519.5097266334
 21
153.7394895644
  0
LINE
  8
0
 62
9
  6
CONTINUOUS
 10
314.5097266334
 20
151.839489565
 11
310.0053633656
 21
151.9181135183
  0
LINE
  8
0
 62
9
  6
CONTINUOUS
 10
444.5097266334
 20
151.9442199546
 11
440.0053633656
 21
152.0228439079
  0
LINE
  8
0
 62
7
  6
CONTINUOUS
 10
314.2738727371
 20
151.7657391336
 11
313.6690008239
 21
151.7808640172
  0
LINE
  8
0
 62
7
  6
CONTINUOUS
 10
444.2738727371
 20
151.8704695232
 11
443.6690003962
 21
151.8855944177
  0
LINE
  8
0
 62
7
  6
CONTINUOUS
 10
313.6690008239
 20
151.7808640172
 11
313.1498290038
 21
151.7944083847
  0
LINE
  8
0
 62
7
  6
CONTINUOUS
 10
443.6690003962
 20
151.8855944177
 11
443.1498282908
 21
151.8991387933
  0
LINE
  8
0
 62
7
  6
CONTINUOUS
 10
313.1498290038
 20
151.7944083847
 11
312.6029368442
 21
151.8093650923
  0
LINE
  8
0
 62
7
  6
CONTINUOUS
 10
443.1498282908
 20
151.8991387933
 11
442.6029359269
 21
151.9140955077
  0
LINE
  8
0
 62
7
  6
CONTINUOUS
 10
312.6029368442
 20
151.8093650923
 11
312.1507148302
 21
151.8224038906
  0
LINE
  8
0
 62
7
  6
CONTINUOUS
 10
442.6029359269
 20
151.9140955077
 11
442.1507138317
 21
151.9271343098
  0
LINE
  8
0
 62
7
  6
CONTINUOUS
 10
312.1507148302
 20
151.8224038906
 11
311.7765850708
 21
151.8337828862
  0
LINE
  8
0
 62
7
  6
CONTINUOUS
 10
442.1507138317
 20
151.9271343098
 11
441.7765840777
 21
151.9385133069
  0
LINE
  8
0
 62
7
  6
CONTINUOUS
 10
311.7765850708
 20
151.8337828862
 11
311.41195332
 21
151.8455531837
  0
LINE
  8
0
 62
7
  6
CONTINUOUS
 10
441.7765840777
 20
151.9385133069
 11
441.4119524063
 21
151.9502836038
  0
LINE
  8
0
 62
7
  6
CONTINUOUS
 10
311.41195332
 20
151.8455531837
 11
311.1213854069
 21
151.8555822494
  0
LINE
  8
0
 62
7
  6
CONTINUOUS
 10
441.4119524063
 20
151.9502836038
 11
441.1213845944
 21
151.960312668
  0
LINE
  8
0
 62
7
  6
CONTINUOUS
 10
311.1213854069
 20
151.8555822494
 11
310.8561382841
 21
151.8654466156
  0
LINE
  8
0
 62
7
  6
CONTINUOUS
 10
441.1213845944
 20
151.960312668
 11
440.8561375929
 21
151.970177032
  0
LINE
  8
0
 62
7
  6
CONTINUOUS
 10
440.8561375929
 20
151.970177032
 11
440.7333608764
 21
151.9750577981
  0
LINE
  8
0
 62
7
  6
CONTINUOUS
 10
310.8561382841
 20
151.8654466156
 11
310.6528095663
 21
151.873670958
  0
LINE
  8
0
 62
7
  6
CONTINUOUS
 10
310.6528095663
 20
151.873670958
 11
310.4778688125
 21
151.881442742
  0
LINE
  8
0
 62
7
  6
CONTINUOUS
 10
310.4778688125
 20
151.881442742
 11
310.3628505045
 21
151.8870873442
  0
LINE
  8
0
 62
7
  6
CONTINUOUS
 10
310.3628505045
 20
151.8870873442
 11
310.2859391601
 21
151.8912199829
  0
LINE
  8
0
 62
7
  6
CONTINUOUS
 10
310.2859391601
 20
151.8912199829
 11
310.2247748026
 21
151.8948060379
  0
LINE
  8
0
 62
7
  6
CONTINUOUS
 10
310.2247748026
 20
151.8948060379
 11
310.1835172779
 21
151.8974367513
  0
LINE
  8
0
 62
7
  6
CONTINUOUS
 10
310.1835172779
 20
151.8974367513
 11
310.1557682165
 21
151.8993372424
  0
LINE
  8
0
 62
7
  6
CONTINUOUS
 10
310.1557682165
 20
151.8993372424
 11
310.1319682719
 21
151.9010777673
  0
LINE
  8
0
 62
7
  6
CONTINUOUS
 10
310.1319682719
 20
151.9010777673
 11
310.1115606943
 21
151.9026752632
  0
LINE
  8
0
 62
7
  6
CONTINUOUS
 10
310.1115606943
 20
151.9026752632
 11
310.0981909679
 21
151.9037887784
  0
LINE
  8
0
 62
7
  6
CONTINUOUS
 10
310.0981909679
 20
151.9037887784
 11
310.0862863868
 21
151.9048360402
  0
LINE
  8
0
 62
7
  6
CONTINUOUS
 10
310.0862863868
 20
151.9048360402
 11
310.0756913652
 21
151.9058223714
  0
LINE
  8
0
 62
7
  6
CONTINUOUS
 10
310.0756913652
 20
151.9058223714
 11
310.0662562821
 21
151.9067537746
  0
LINE
  8
0
 62
7
  6
CONTINUOUS
 10
310.0662562821
 20
151.9067537746
 11
310.0578577254
 21
151.9076350377
  0
LINE
  8
0
 62
7
  6
CONTINUOUS
 10
310.0578577254
 20
151.9076350377
 11
310.0527794548
 21
151.9081969489
  0
LINE
  8
0
 62
7
  6
CONTINUOUS
 10
310.0527794548
 20
151.9081969489
 11
310.0480828967
 21
151.9087399021
  0
LINE
  8
0
 62
7
  6
CONTINUOUS
 10
310.0480828967
 20
151.9087399021
 11
310.0437405753
 21
151.9092651701
  0
LINE
  8
0
 62
7
  6
CONTINUOUS
 10
310.0437405753
 20
151.9092651701
 11
310.0397270698
 21
151.9097740059
  0
LINE
  8
0
 62
7
  6
CONTINUOUS
 10
310.0397270698
 20
151.9097740059
 11
310.0360188575
 21
151.9102676542
  0
LINE
  8
0
 62
7
  6
CONTINUOUS
 10
310.0360188575
 20
151.9102676542
 11
310.0325941853
 21
151.9107473654
  0
POLYLINE
  8
0
 62
7
  6
CONTINUOUS
 66
1
 70
0
  0
VERTEX
  8
0
 62
7
  6
CONTINUOUS
 10
310.0325941853
 20
151.9107473654
  0
VERTEX
  8
0
 62
7
  6
CONTINUOUS
 10
310.0294329243
 20
151.9112144148
  0
VERTEX
  8
0
 62
7
  6
CONTINUOUS
 10
310.0279451562
 20
151.9114436033
  0
VERTEX
  8
0
 62
7
  6
CONTINUOUS
 10
310.0265166843
 20
151.9116700897
  0
VERTEX
  8
0
 62
7
  6
CONTINUOUS
 10
310.0251457325
 20
151.9118939642
  0
VERTEX
  8
0
 62
7
  6
CONTINUOUS
 10
310.0238297935
 20
151.9121155225
  0
VERTEX
  8
0
 62
7
  6
CONTINUOUS
 10
310.0225663453
 20
151.9123350134
  0
VERTEX
  8
0
 62
7
  6
CONTINUOUS
 10
310.0213536569
 20
151.9125526675
  0
VERTEX
  8
0
 62
7
  6
CONTINUOUS
 10
310.0201896285
 20
151.9127687203
  0
VERTEX
  8
0
 62
7
  6
CONTINUOUS
 10
310.0190728457
 20
151.9129834059
  0
VERTEX
  8
0
 62
7
  6
CONTINUOUS
 10
310.0180016799
 20
151.9131969289
  0
VERTEX
  8
0
 62
7
  6
CONTINUOUS
 10
310.016974674
 20
151.913409613
  0
VERTEX
  8
0
 62
7
  6
CONTINUOUS
 10
310.0159902263
 20
151.9136217213
  0
VERTEX
  8
0
 62
7
  6
CONTINUOUS
 10
310.0150471414
 20
151.9138336405
  0
VERTEX
  8
0
 62
7
  6
CONTINUOUS
 10
310.0141440242
 20
151.914045674
  0
VERTEX
  8
0
 62
7
  6
CONTINUOUS
 10
310.0132798716
 20
151.9142583349
  0
VERTEX
  8
0
 62
7
  6
CONTINUOUS
 10
310.0124534607
 20
151.9144719978
  0
VERTEX
  8
0
 62
7
  6
CONTINUOUS
 10
310.0116640555
 20
151.9146873805
  0
VERTEX
  8
0
 62
7
  6
CONTINUOUS
 10
310.0109105968
 20
151.9149049749
  0
VERTEX
  8
0
 62
7
  6
CONTINUOUS
 10
310.0101928314
 20
151.9151258329
  0
VERTEX
  8
0
 62
7
  6
CONTINUOUS
 10
310.0095099707
 20
151.9153506013
  0
VERTEX
  8
0
 62
7
  6
CONTINUOUS
 10
310.0088625618
 20
151.9155809873
  0
VERTEX
  8
0
 62
7
  6
CONTINUOUS
 10
310.0082503106
 20
151.9158177498
  0
VERTEX
  8
0
 62
7
  6
CONTINUOUS
 10
310.0076749521
 20
151.9160643792
  0
VERTEX
  8
0
 62
7
  6
CONTINUOUS
 10
310.0071354043
 20
151.91632224
  0
VERTEX
  8
0
 62
7
  6
CONTINUOUS
 10
310.006639824
 20
151.9165984679
  0
VERTEX
  8
0
 62
7
  6
CONTINUOUS
 10
310.0061847307
 20
151.9168917183
  0
VERTEX
  8
0
 62
7
  6
CONTINUOUS
 10
310.0058039548
 20
151.9172287976
  0
VERTEX
  8
0
 62
7
  6
CONTINUOUS
 10
310.0055342502
 20
151.9176393591
  0
VERTEX
  8
0
 62
7
  6
CONTINUOUS
 10
310.0053633656
 20
151.9181135183
  0
SEQEND
  0
LINE
  8
0
 62
7
  6
CONTINUOUS
 10
440.7333608764
 20
151.9750577981
 11
440.5587119292
 21
151.9824819414
  0
LINE
  8
0
 62
7
  6
CONTINUOUS
 10
440.5587119292
 20
151.9824819414
 11
440.4084226915
 21
151.9895163962
  0
LINE
  8
0
 62
7
  6
CONTINUOUS
 10
440.4084226915
 20
151.9895163962
 11
440.3096473317
 21
151.9946380874
  0
LINE
  8
0
 62
7
  6
CONTINUOUS
 10
440.3096473317
 20
151.9946380874
 11
440.2436245114
 21
151.9983964182
  0
LINE
  8
0
 62
7
  6
CONTINUOUS
 10
440.2436245114
 20
151.9983964182
 11
440.1990748365
 21
152.0011508783
  0
LINE
  8
0
 62
7
  6
CONTINUOUS
 10
440.1990748365
 20
152.0011508783
 11
440.1623116172
 21
152.0036082133
  0
LINE
  8
0
 62
7
  6
CONTINUOUS
 10
440.1623116172
 20
152.0036082133
 11
440.1375798732
 21
152.0053870752
  0
LINE
  8
0
 62
7
  6
CONTINUOUS
 10
440.1375798732
 20
152.0053870752
 11
440.1163719452
 21
152.0070188313
  0
LINE
  8
0
 62
7
  6
CONTINUOUS
 10
440.1163719452
 20
152.0070188313
 11
440.102476604
 21
152.0081556212
  0
LINE
  8
0
 62
7
  6
CONTINUOUS
 10
440.102476604
 20
152.0081556212
 11
440.0901011708
 21
152.0092244236
  0
LINE
  8
0
 62
7
  6
CONTINUOUS
 10
440.0901011708
 20
152.0092244236
 11
440.0790870398
 21
152.010230382
  0
LINE
  8
0
 62
7
  6
CONTINUOUS
 10
440.0790870398
 20
152.010230382
 11
440.0692803415
 21
152.0111795013
  0
LINE
  8
0
 62
7
  6
CONTINUOUS
 10
440.0692803415
 20
152.0111795013
 11
440.0605490506
 21
152.0120769662
  0
LINE
  8
0
 62
7
  6
CONTINUOUS
 10
440.0605490506
 20
152.0120769662
 11
440.0552689792
 21
152.0126488387
  0
LINE
  8
0
 62
7
  6
CONTINUOUS
 10
440.0552689792
 20
152.0126488387
 11
440.0503851394
 21
152.0132011098
  0
LINE
  8
0
 62
7
  6
CONTINUOUS
 10
440.0503851394
 20
152.0132011098
 11
440.0458690111
 21
152.0137350622
  0
LINE
  8
0
 62
7
  6
CONTINUOUS
 10
440.0458690111
 20
152.0137350622
 11
440.0416941616
 21
152.0142519575
  0
LINE
  8
0
 62
7
  6
CONTINUOUS
 10
440.0416941616
 20
152.0142519575
 11
440.037836137
 21
152.0147530432
  0
LINE
  8
0
 62
7
  6
CONTINUOUS
 10
440.037836137
 20
152.0147530432
 11
440.0342723165
 21
152.0152395647
  0
LINE
  8
0
 62
7
  6
CONTINUOUS
 10
440.0342723165
 20
152.0152395647
 11
440.0309817611
 21
152.0157127844
  0
POLYLINE
  8
0
 62
7
  6
CONTINUOUS
 66
1
 70
0
  0
VERTEX
  8
0
 62
7
  6
CONTINUOUS
 10
440.0309817611
 20
152.0157127844
  0
VERTEX
  8
0
 62
7
  6
CONTINUOUS
 10
440.0279451429
 20
152.016173995
  0
VERTEX
  8
0
 62
7
  6
CONTINUOUS
 10
440.0265166726
 20
152.0164004812
  0
VERTEX
  8
0
 62
7
  6
CONTINUOUS
 10
440.0251457222
 20
152.0166243555
  0
VERTEX
  8
0
 62
7
  6
CONTINUOUS
 10
440.0238297846
 20
152.0168459136
  0
VERTEX
  8
0
 62
7
  6
CONTINUOUS
 10
440.0225663376
 20
152.0170654043
  0
VERTEX
  8
0
 62
7
  6
CONTINUOUS
 10
440.0213536505
 20
152.0172830582
  0
VERTEX
  8
0
 62
7
  6
CONTINUOUS
 10
440.0201896232
 20
152.0174991109
  0
VERTEX
  8
0
 62
7
  6
CONTINUOUS
 10
440.0190728414
 20
152.0177137963
  0
VERTEX
  8
0
 62
7
  6
CONTINUOUS
 10
440.0180016766
 20
152.0179273192
  0
VERTEX
  8
0
 62
7
  6
CONTINUOUS
 10
440.0169746716
 20
152.0181400031
  0
VERTEX
  8
0
 62
7
  6
CONTINUOUS
 10
440.0159902248
 20
152.0183521112
  0
VERTEX
  8
0
 62
7
  6
CONTINUOUS
 10
440.0150471406
 20
152.0185640302
  0
VERTEX
  8
0
 62
7
  6
CONTINUOUS
 10
440.0141440241
 20
152.0187760636
  0
VERTEX
  8
0
 62
7
  6
CONTINUOUS
 10
440.013279872
 20
152.0189887243
  0
VERTEX
  8
0
 62
7
  6
CONTINUOUS
 10
440.0124534617
 20
152.0192023872
  0
VERTEX
  8
0
 62
7
  6
CONTINUOUS
 10
440.0116640569
 20
152.0194177697
  0
VERTEX
  8
0
 62
7
  6
CONTINUOUS
 10
440.0109105986
 20
152.019635364
  0
VERTEX
  8
0
 62
7
  6
CONTINUOUS
 10
440.0101928334
 20
152.0198562218
  0
VERTEX
  8
0
 62
7
  6
CONTINUOUS
 10
440.0095099729
 20
152.0200809902
  0
VERTEX
  8
0
 62
7
  6
CONTINUOUS
 10
440.0088625641
 20
152.020311376
  0
VERTEX
  8
0
 62
7
  6
CONTINUOUS
 10
440.0082503129
 20
152.0205481385
  0
VERTEX
  8
0
 62
7
  6
CONTINUOUS
 10
440.0076749543
 20
152.0207947678
  0
VERTEX
  8
0
 62
7
  6
CONTINUOUS
 10
440.0071354063
 20
152.0210526285
  0
VERTEX
  8
0
 62
7
  6
CONTINUOUS
 10
440.0066398257
 20
152.0213288565
  0
VERTEX
  8
0
 62
7
  6
CONTINUOUS
 10
440.006184732
 20
152.0216221069
  0
VERTEX
  8
0
 62
7
  6
CONTINUOUS
 10
440.0058039556
 20
152.0219591865
  0
VERTEX
  8
0
 62
7
  6
CONTINUOUS
 10
440.0055342506
 20
152.0223697482
  0
VERTEX
  8
0
 62
7
  6
CONTINUOUS
 10
440.0053633656
 20
152.0228439079
  0
SEQEND
  0
LINE
  8
0
 62
7
  6
CONTINUOUS
 10
302.5097266334
 20
151.7394895644
 11
302.5097266334
 21
224.2394895644
  0
LINE
  8
0
 62
7
  6
CONTINUOUS
 10
310.0053633656
 20
151.9181135183
 11
310.0053633656
 21
220.2394895644
  0
LINE
  8
0
 62
7
  6
CONTINUOUS
 10
314.2738727371
 20
151.7657391336
 11
314.2738727371
 21
151.7543604125
  0
LINE
  8
KONSTRUKTIONSELEMENTE
 62
7
  6
CONTINUOUS
 10
314.5097266334
 20
151.839489565
 11
314.5097266334
 21
220.2394895644
  0
LINE
  8
0
 62
7
  6
CONTINUOUS
 10
314.5097266334
 20
220.2394895644
 11
314.5097266334
 21
220.79888805
  0
POLYLINE
  8
0
 62
7
  6
CONTINUOUS
 66
1
 70
0
  0
VERTEX
  8
0
 62
7
  6
CONTINUOUS
 10
310.0053633656
 20
220.2394895644
  0
VERTEX
  8
0
 62
7
  6
CONTINUOUS
 10
310.005479481
 20
220.2424726023
  0
VERTEX
  8
0
 62
7
  6
CONTINUOUS
 10
310.0058945631
 20
220.2455493576
  0
VERTEX
  8
0
 62
7
  6
CONTINUOUS
 10
310.0065968694
 20
220.2487222349
  0
VERTEX
  8
0
 62
7
  6
CONTINUOUS
 10
310.0076216273
 20
220.2519840202
  0
VERTEX
  8
0
 62
7
  6
CONTINUOUS
 10
310.0089914218
 20
220.2553271215
  0
VERTEX
  8
0
 62
7
  6
CONTINUOUS
 10
310.0107324378
 20
220.2587550777
  0
VERTEX
  8
0
 62
7
  6
CONTINUOUS
 10
310.0128774194
 20
220.2622772397
  0
VERTEX
  8
0
 62
7
  6
CONTINUOUS
 10
310.0154292741
 20
220.2658685793
  0
VERTEX
  8
0
 62
7
  6
CONTINUOUS
 10
310.018400933
 20
220.2695092779
  0
VERTEX
  8
0
 62
7
  6
CONTINUOUS
 10
310.0217950699
 20
220.2731930575
  0
VERTEX
  8
0
 62
7
  6
CONTINUOUS
 10
310.0256172533
 20
220.2769076317
  0
VERTEX
  8
0
 62
7
  6
CONTINUOUS
 10
310.0298717295
 20
220.2806512074
  0
VERTEX
  8
0
 62
7
  6
CONTINUOUS
 10
310.0345632153
 20
220.2844183091
  0
VERTEX
  8
0
 62
7
  6
CONTINUOUS
 10
310.039695869
 20
220.2882076963
  0
VERTEX
  8
0
 62
7
  6
CONTINUOUS
 10
310.0452726521
 20
220.2920158213
  0
VERTEX
  8
0
 62
7
  6
CONTINUOUS
 10
310.0513018726
 20
220.2958441299
  0
VERTEX
  8
0
 62
7
  6
CONTINUOUS
 10
310.0577893903
 20
220.2996923435
  0
VERTEX
  8
0
 62
7
  6
CONTINUOUS
 10
310.0647455115
 20
220.3035620876
  0
VERTEX
  8
0
 62
7
  6
CONTINUOUS
 10
310.0721758454
 20
220.3074532004
  0
VERTEX
  8
0
 62
7
  6
CONTINUOUS
 10
310.0801003424
 20
220.3113707645
  0
VERTEX
  8
0
 62
7
  6
CONTINUOUS
 10
310.0885357728
 20
220.315319417
  0
VERTEX
  8
0
 62
7
  6
CONTINUOUS
 10
310.0974972863
 20
220.3193003331
  0
VERTEX
  8
0
 62
7
  6
CONTINUOUS
 10
310.1069993654
 20
220.3233155431
  0
VERTEX
  8
0
 62
7
  6
CONTINUOUS
 10
310.1170607816
 20
220.3273671185
  0
VERTEX
  8
0
 62
7
  6
CONTINUOUS
 10
310.1276980929
 20
220.3314571055
  0
VERTEX
  8
0
 62
7
  6
CONTINUOUS
 10
310.1389324214
 20
220.3355876104
  0
VERTEX
  8
0
 62
7
  6
CONTINUOUS
 10
310.1507813936
 20
220.3397603583
  0
VERTEX
  8
0
 62
7
  6
CONTINUOUS
 10
310.1632720547
 20
220.3439785384
  0
VERTEX
  8
0
 62
7
  6
CONTINUOUS
 10
310.176427319
 20
220.3482449189
  0
VERTEX
  8
0
 62
7
  6
CONTINUOUS
 10
310.1902772058
 20
220.3525624874
  0
VERTEX
  8
0
 62
7
  6
CONTINUOUS
 10
310.2048503453
 20
220.3569347338
  0
VERTEX
  8
0
 62
7
  6
CONTINUOUS
 10
310.2201738186
 20
220.3613629192
  0
VERTEX
  8
0
 62
7
  6
CONTINUOUS
 10
310.2362733438
 20
220.3658487304
  0
VERTEX
  8
0
 62
7
  6
CONTINUOUS
 10
310.2531816401
 20
220.3703943788
  0
VERTEX
  8
0
 62
7
  6
CONTINUOUS
 10
310.2709281502
 20
220.3750019209
  0
VERTEX
  8
0
 62
7
  6
CONTINUOUS
 10
310.2895484227
 20
220.3796735074
  0
VERTEX
  8
0
 62
7
  6
CONTINUOUS
 10
310.3090752603
 20
220.3844113321
  0
VERTEX
  8
0
 62
7
  6
CONTINUOUS
 10
310.3295463447
 20
220.3892173226
  0
VERTEX
  8
0
 62
7
  6
CONTINUOUS
 10
310.3509949568
 20
220.3940931366
  0
VERTEX
  8
0
 62
7
  6
CONTINUOUS
 10
310.3734671008
 20
220.3990417776
  0
VERTEX
  8
0
 62
7
  6
CONTINUOUS
 10
310.3970027206
 20
220.404065747
  0
VERTEX
  8
0
 62
7
  6
CONTINUOUS
 10
310.4216532777
 20
220.4091682091
  0
VERTEX
  8
0
 62
7
  6
CONTINUOUS
 10
310.4474687695
 20
220.4143528429
  0
VERTEX
  8
0
 62
7
  6
CONTINUOUS
 10
310.4744935326
 20
220.4196206052
  0
VERTEX
  8
0
 62
7
  6
CONTINUOUS
 10
310.5027695137
 20
220.4249727565
  0
VERTEX
  8
0
 62
7
  6
CONTINUOUS
 10
310.532353881
 20
220.430412064
  0
VERTEX
  8
0
 62
7
  6
CONTINUOUS
 10
310.5632981999
 20
220.4359409809
  0
VERTEX
  8
0
 62
7
  6
CONTINUOUS
 10
310.5956612263
 20
220.4415617098
  0
VERTEX
  8
0
 62
7
  6
CONTINUOUS
 10
310.629495185
 20
220.4472761299
  0
SEQEND
  0
POLYLINE
  8
0
 62
7
  6
CONTINUOUS
 66
1
 70
0
  0
VERTEX
  8
0
 62
7
  6
CONTINUOUS
 10
314.5097266334
 20
151.839489565
  0
VERTEX
  8
0
 62
7
  6
CONTINUOUS
 10
314.5096426882
 20
151.8377008439
  0
VERTEX
  8
0
 62
7
  6
CONTINUOUS
 10
314.5093533673
 20
151.835864649
  0
VERTEX
  8
0
 62
7
  6
CONTINUOUS
 10
314.5088667669
 20
151.8339820495
  0
VERTEX
  8
0
 62
7
  6
CONTINUOUS
 10
314.5081585982
 20
151.8320498382
  0
VERTEX
  8
0
 62
7
  6
CONTINUOUS
 10
314.5072066447
 20
151.830057229
  0
VERTEX
  8
0
 62
7
  6
CONTINUOUS
 10
314.5060127857
 20
151.8280280277
  0
VERTEX
  8
0
 62
7
  6
CONTINUOUS
 10
314.5045699462
 20
151.8259806228
  0
VERTEX
  8
0
 62
7
  6
CONTINUOUS
 10
314.5028827726
 20
151.8239204798
  0
VERTEX
  8
0
 62
7
  6
CONTINUOUS
 10
314.5009525321
 20
151.8218587226
  0
VERTEX
  8
0
 62
7
  6
CONTINUOUS
 10
314.4987822874
 20
151.8197967652
  0
VERTEX
  8
0
 62
7
  6
CONTINUOUS
 10
314.4963755207
 20
151.8177399407
  0
VERTEX
  8
0
 62
7
  6
CONTINUOUS
 10
314.4937322408
 20
151.8156876165
  0
VERTEX
  8
0
 62
7
  6
CONTINUOUS
 10
314.4908544277
 20
151.8136413074
  0
VERTEX
  8
0
 62
7
  6
CONTINUOUS
 10
314.487739649
 20
151.8115999043
  0
VERTEX
  8
0
 62
7
  6
CONTINUOUS
 10
314.4843876256
 20
151.8095631939
  0
VERTEX
  8
0
 62
7
  6
CONTINUOUS
 10
314.4807938771
 20
151.8075300039
  0
VERTEX
  8
0
 62
7
  6
CONTINUOUS
 10
314.4769558951
 20
151.8054994366
  0
VERTEX
  8
0
 62
7
  6
CONTINUOUS
 10
314.4728674842
 20
151.8034704548
  0
VERTEX
  8
0
 62
7
  6
CONTINUOUS
 10
314.4685241836
 20
151.8014419982
  0
VERTEX
  8
0
 62
7
  6
CONTINUOUS
 10
314.4639182806
 20
151.7994132381
  0
VERTEX
  8
0
 62
7
  6
CONTINUOUS
 10
314.4590436158
 20
151.7973831887
  0
VERTEX
  8
0
 62
7
  6
CONTINUOUS
 10
314.4538910688
 20
151.7953512618
  0
VERTEX
  8
0
 62
7
  6
CONTINUOUS
 10
314.4484529615
 20
151.7933166511
  0
VERTEX
  8
0
 62
7
  6
CONTINUOUS
 10
314.4427188064
 20
151.7912790246
  0
VERTEX
  8
0
 62
7
  6
CONTINUOUS
 10
314.4366795105
 20
151.7892378019
  0
VERTEX
  8
0
 62
7
  6
CONTINUOUS
 10
314.4303232131
 20
151.7871929217
  0
VERTEX
  8
0
 62
7
  6
CONTINUOUS
 10
314.4236394461
 20
151.7851440523
  0
VERTEX
  8
0
 62
7
  6
CONTINUOUS
 10
314.416614939
 20
151.783091424
  0
VERTEX
  8
0
 62
7
  6
CONTINUOUS
 10
314.4092378507
 20
151.7810349737
  0
VERTEX
  8
0
 62
7
  6
CONTINUOUS
 10
314.4014934242
 20
151.7789752499
  0
VERTEX
  8
0
 62
7
  6
CONTINUOUS
 10
314.3933684077
 20
151.776912479
  0
VERTEX
  8
0
 62
7
  6
CONTINUOUS
 10
314.3848464439
 20
151.774847563
  0
VERTEX
  8
0
 62
7
  6
CONTINUOUS
 10
314.3759127865
 20
151.772781043
  0
VERTEX
  8
0
 62
7
  6
CONTINUOUS
 10
314.3665493504
 20
151.7707142275
  0
VERTEX
  8
0
 62
7
  6
CONTINUOUS
 10
314.3567397929
 20
151.7686480108
  0
VERTEX
  8
0
 62
7
  6
CONTINUOUS
 10
314.3464641392
 20
151.7665841763
  0
VERTEX
  8
0
 62
7
  6
CONTINUOUS
 10
314.3357043232
 20
151.7645240234
  0
VERTEX
  8
0
 62
7
  6
CONTINUOUS
 10
314.3244382766
 20
151.7624698986
  0
VERTEX
  8
0
 62
7
  6
CONTINUOUS
 10
314.3126460378
 20
151.7604235719
  0
VERTEX
  8
0
 62
7
  6
CONTINUOUS
 10
314.3003032213
 20
151.7583880725
  0
VERTEX
  8
0
 62
7
  6
CONTINUOUS
 10
314.2873749078
 20
151.7563674717
  0
VERTEX
  8
0
 62
7
  6
CONTINUOUS
 10
314.2738727371
 20
151.7543604125
  0
SEQEND
  0
LINE
  8
KONSTRUKTIONSELEMENTE
 62
7
  6
CONTINUOUS
 10
562.5097266334
 20
174.7394895644
 11
560.5097266334
 21
174.7394895644
  0
LINE
  8
KONSTRUKTIONSELEMENTE
 62
7
  6
CONTINUOUS
 10
68.5097266334
 20
174.7394895644
 11
66.5097266334
 21
174.7394895644
  0
POLYLINE
  8
0
 62
7
  6
CONTINUOUS
 66
1
 70
0
  0
VERTEX
  8
0
 62
7
  6
CONTINUOUS
 10
319.0140899011
 20
220.2394895644
  0
VERTEX
  8
0
 62
7
  6
CONTINUOUS
 10
319.0139737857
 20
220.2424726023
  0
VERTEX
  8
0
 62
7
  6
CONTINUOUS
 10
319.0135587037
 20
220.2455493576
  0
VERTEX
  8
0
 62
7
  6
CONTINUOUS
 10
319.0128563974
 20
220.2487222349
  0
VERTEX
  8
0
 62
7
  6
CONTINUOUS
 10
319.0118316395
 20
220.2519840202
  0
VERTEX
  8
0
 62
7
  6
CONTINUOUS
 10
319.010461845
 20
220.2553271215
  0
VERTEX
  8
0
 62
7
  6
CONTINUOUS
 10
319.008720829
 20
220.2587550777
  0
VERTEX
  8
0
 62
7
  6
CONTINUOUS
 10
319.0065758474
 20
220.2622772397
  0
VERTEX
  8
0
 62
7
  6
CONTINUOUS
 10
319.0040239927
 20
220.2658685793
  0
VERTEX
  8
0
 62
7
  6
CONTINUOUS
 10
319.0010523338
 20
220.2695092779
  0
VERTEX
  8
0
 62
7
  6
CONTINUOUS
 10
318.9976581969
 20
220.2731930575
  0
VERTEX
  8
0
 62
7
  6
CONTINUOUS
 10
318.9938360135
 20
220.2769076317
  0
VERTEX
  8
0
 62
7
  6
CONTINUOUS
 10
318.9895815373
 20
220.2806512074
  0
VERTEX
  8
0
 62
7
  6
CONTINUOUS
 10
318.9848900515
 20
220.2844183091
  0
VERTEX
  8
0
 62
7
  6
CONTINUOUS
 10
318.9797573978
 20
220.2882076963
  0
VERTEX
  8
0
 62
7
  6
CONTINUOUS
 10
318.9741806147
 20
220.2920158213
  0
VERTEX
  8
0
 62
7
  6
CONTINUOUS
 10
318.9681513942
 20
220.2958441299
  0
VERTEX
  8
0
 62
7
  6
CONTINUOUS
 10
318.9616638765
 20
220.2996923435
  0
VERTEX
  8
0
 62
7
  6
CONTINUOUS
 10
318.9547077553
 20
220.3035620876
  0
VERTEX
  8
0
 62
7
  6
CONTINUOUS
 10
318.9472774214
 20
220.3074532004
  0
VERTEX
  8
0
 62
7
  6
CONTINUOUS
 10
318.9393529244
 20
220.3113707645
  0
VERTEX
  8
0
 62
7
  6
CONTINUOUS
 10
318.930917494
 20
220.315319417
  0
VERTEX
  8
0
 62
7
  6
CONTINUOUS
 10
318.9219559806
 20
220.3193003331
  0
VERTEX
  8
0
 62
7
  6
CONTINUOUS
 10
318.9124539014
 20
220.3233155431
  0
VERTEX
  8
0
 62
7
  6
CONTINUOUS
 10
318.9023924852
 20
220.3273671185
  0
VERTEX
  8
0
 62
7
  6
CONTINUOUS
 10
318.8917551739
 20
220.3314571055
  0
VERTEX
  8
0
 62
7
  6
CONTINUOUS
 10
318.8805208454
 20
220.3355876104
  0
VERTEX
  8
0
 62
7
  6
CONTINUOUS
 10
318.8686718732
 20
220.3397603583
  0
VERTEX
  8
0
 62
7
  6
CONTINUOUS
 10
318.8561812121
 20
220.3439785384
  0
VERTEX
  8
0
 62
7
  6
CONTINUOUS
 10
318.8430259478
 20
220.3482449189
  0
VERTEX
  8
0
 62
7
  6
CONTINUOUS
 10
318.829176061
 20
220.3525624873
  0
VERTEX
  8
0
 62
7
  6
CONTINUOUS
 10
318.8146029215
 20
220.3569347338
  0
VERTEX
  8
0
 62
7
  6
CONTINUOUS
 10
318.7992794482
 20
220.3613629191
  0
VERTEX
  8
0
 62
7
  6
CONTINUOUS
 10
318.7831799231
 20
220.3658487304
  0
VERTEX
  8
0
 62
7
  6
CONTINUOUS
 10
318.7662716267
 20
220.3703943788
  0
VERTEX
  8
0
 62
7
  6
CONTINUOUS
 10
318.7485251167
 20
220.3750019209
  0
VERTEX
  8
0
 62
7
  6
CONTINUOUS
 10
318.7299048441
 20
220.3796735074
  0
VERTEX
  8
0
 62
7
  6
CONTINUOUS
 10
318.7103780065
 20
220.3844113321
  0
VERTEX
  8
0
 62
7
  6
CONTINUOUS
 10
318.6899069222
 20
220.3892173226
  0
VERTEX
  8
0
 62
7
  6
CONTINUOUS
 10
318.66845831
 20
220.3940931366
  0
VERTEX
  8
0
 62
7
  6
CONTINUOUS
 10
318.645986166
 20
220.3990417776
  0
VERTEX
  8
0
 62
7
  6
CONTINUOUS
 10
318.6224505463
 20
220.404065747
  0
VERTEX
  8
0
 62
7
  6
CONTINUOUS
 10
318.5977999891
 20
220.4091682091
  0
VERTEX
  8
0
 62
7
  6
CONTINUOUS
 10
318.5719844974
 20
220.4143528429
  0
VERTEX
  8
0
 62
7
  6
CONTINUOUS
 10
318.5449597342
 20
220.4196206051
  0
VERTEX
  8
0
 62
7
  6
CONTINUOUS
 10
318.5166837532
 20
220.4249727565
  0
VERTEX
  8
0
 62
7
  6
CONTINUOUS
 10
318.4870993859
 20
220.430412064
  0
VERTEX
  8
0
 62
7
  6
CONTINUOUS
 10
318.456155067
 20
220.4359409809
  0
VERTEX
  8
0
 62
7
  6
CONTINUOUS
 10
318.4237920406
 20
220.4415617097
  0
VERTEX
  8
0
 62
7
  6
CONTINUOUS
 10
318.3899580819
 20
220.4472761298
  0
VERTEX
  8
0
 62
7
  6
CONTINUOUS
 10
318.3545820334
 20
220.4530876637
  0
VERTEX
  8
0
 62
7
  6
CONTINUOUS
 10
318.2789379701
 20
220.4650142192
  0
SEQEND
  0
LINE
  8
0
 62
7
  6
CONTINUOUS
 10
319.0140899011
 20
220.2394895644
 11
319.0140899011
 21
151.9181135183
  0
LINE
  8
0
 62
7
  6
CONTINUOUS
 10
327.1097266334
 20
151.7394895644
 11
327.1097266334
 21
224.2394895644
  0
POLYLINE
  8
0
 62
7
  6
CONTINUOUS
 66
1
 70
0
  0
VERTEX
  8
0
 62
7
  6
CONTINUOUS
 10
314.5093810681
 20
151.8361917237
  0
VERTEX
  8
0
 62
7
  6
CONTINUOUS
 10
314.5089332234
 20
151.8344958645
  0
VERTEX
  8
0
 62
7
  6
CONTINUOUS
 10
314.5082829911
 20
151.8327648453
  0
VERTEX
  8
0
 62
7
  6
CONTINUOUS
 10
314.5074113041
 20
151.830988241
  0
VERTEX
  8
0
 62
7
  6
CONTINUOUS
 10
314.5063183247
 20
151.829185724
  0
VERTEX
  8
0
 62
7
  6
CONTINUOUS
 10
314.5049959091
 20
151.8273710699
  0
VERTEX
  8
0
 62
7
  6
CONTINUOUS
 10
314.5034499079
 20
151.8255515432
  0
VERTEX
  8
0
 62
7
  6
CONTINUOUS
 10
314.5016821088
 20
151.823738551
  0
VERTEX
  8
0
 62
7
  6
CONTINUOUS
 10
314.4996965571
 20
151.8219334408
  0
VERTEX
  8
0
 62
7
  6
CONTINUOUS
 10
314.4974974591
 20
151.8201415398
  0
VERTEX
  8
0
 62
7
  6
CONTINUOUS
 10
314.4950861202
 20
151.8183623167
  0
VERTEX
  8
0
 62
7
  6
CONTINUOUS
 10
314.4924657014
 20
151.8165974218
  0
VERTEX
  8
0
 62
7
  6
CONTINUOUS
 10
314.4896348427
 20
151.8148456371
  0
VERTEX
  8
0
 62
7
  6
CONTINUOUS
 10
314.4865948802
 20
151.8131069374
  0
VERTEX
  8
0
 62
7
  6
CONTINUOUS
 10
314.4833408871
 20
151.8113793941
  0
VERTEX
  8
0
 62
7
  6
CONTINUOUS
 10
314.4798704318
 20
151.8096614865
  0
VERTEX
  8
0
 62
7
  6
CONTINUOUS
 10
314.4761773649
 20
151.8079519652
  0
VERTEX
  8
0
 62
7
  6
CONTINUOUS
 10
314.4722565805
 20
151.8062491476
  0
VERTEX
  8
0
 62
7
  6
CONTINUOUS
 10
314.4681025168
 20
151.8045528126
  0
VERTEX
  8
0
 62
7
  6
CONTINUOUS
 10
314.4637104102
 20
151.8028623227
  0
VERTEX
  8
0
 62
7
  6
CONTINUOUS
 10
314.4590727603
 20
151.8011772436
  0
VERTEX
  8
0
 62
7
  6
CONTINUOUS
 10
314.4541833623
 20
151.7994969988
  0
VERTEX
  8
0
 62
7
  6
CONTINUOUS
 10
314.4490335651
 20
151.7978213765
  0
VERTEX
  8
0
 62
7
  6
CONTINUOUS
 10
314.443615892
 20
151.7961499619
  0
VERTEX
  8
0
 62
7
  6
CONTINUOUS
 10
314.4379206154
 20
151.7944827869
  0
VERTEX
  8
0
 62
7
  6
CONTINUOUS
 10
314.431939215
 20
151.7928196743
  0
VERTEX
  8
0
 62
7
  6
CONTINUOUS
 10
314.4256605926
 20
151.7911608366
  0
VERTEX
  8
0
 62
7
  6
CONTINUOUS
 10
314.419074625
 20
151.7895062071
  0
VERTEX
  8
0
 62
7
  6
CONTINUOUS
 10
314.4121698672
 20
151.7878564458
  0
VERTEX
  8
0
 62
7
  6
CONTINUOUS
 10
314.4049370428
 20
151.78621215
  0
VERTEX
  8
0
 62
7
  6
CONTINUOUS
 10
314.3973595229
 20
151.7845734405
  0
VERTEX
  8
0
 62
7
  6
CONTINUOUS
 10
314.3894224018
 20
151.7829402044
  0
VERTEX
  8
0
 62
7
  6
CONTINUOUS
 10
314.3811112348
 20
151.7813137396
  0
VERTEX
  8
0
 62
7
  6
CONTINUOUS
 10
314.3724118847
 20
151.7796947784
  0
VERTEX
  8
0
 62
7
  6
CONTINUOUS
 10
314.3633085227
 20
151.7780849051
  0
VERTEX
  8
0
 62
7
  6
CONTINUOUS
 10
314.3537866478
 20
151.7764853384
  0
VERTEX
  8
0
 62
7
  6
CONTINUOUS
 10
314.3438281398
 20
151.7748979069
  0
VERTEX
  8
0
 62
7
  6
CONTINUOUS
 10
314.3334166786
 20
151.7733240834
  0
VERTEX
  8
0
 62
7
  6
CONTINUOUS
 10
314.3225323629
 20
151.7717661536
  0
VERTEX
  8
0
 62
7
  6
CONTINUOUS
 10
314.311157043
 20
151.7702259427
  0
VERTEX
  8
0
 62
7
  6
CONTINUOUS
 10
314.2992691444
 20
151.7687063045
  0
VERTEX
  8
0
 62
7
  6
CONTINUOUS
 10
314.2868375893
 20
151.7672111343
  0
VERTEX
  8
0
 62
7
  6
CONTINUOUS
 10
314.2738727371
 20
151.7657391336
  0
SEQEND
  0
LINE
  8
0
 62
7
  6
CONTINUOUS
 10
440.6295009788
 20
220.5520074845
 11
440.7018592352
 21
220.5637307323
  0
LINE
  8
0
 62
7
  6
CONTINUOUS
 10
440.7018592352
 20
220.5637307323
 11
440.7809356739
 21
220.5758668824
  0
LINE
  8
0
 62
7
  6
CONTINUOUS
 10
440.7809356739
 20
220.5758668824
 11
440.8673024216
 21
220.58843608
  0
LINE
  8
0
 62
7
  6
CONTINUOUS
 10
440.8673024216
 20
220.58843608
 11
440.9615633407
 21
220.6014566608
  0
LINE
  8
0
 62
7
  6
CONTINUOUS
 10
440.9615633407
 20
220.6014566608
 11
441.064386452
 21
220.6149496242
  0
LINE
  8
0
 62
7
  6
CONTINUOUS
 10
441.064386452
 20
220.6149496242
 11
441.1764940822
 21
220.6289364369
  0
LINE
  8
0
 62
7
  6
CONTINUOUS
 10
441.1764940822
 20
220.6289364369
 11
441.2986728282
 21
220.6434397485
  0
LINE
  8
0
 62
7
  6
CONTINUOUS
 10
441.2986728282
 20
220.6434397485
 11
441.4317610974
 21
220.6584815151
  0
LINE
  8
0
 62
7
  6
CONTINUOUS
 10
441.4317610974
 20
220.6584815151
 11
441.5767137001
 21
220.6740893604
  0
LINE
  8
0
 62
7
  6
CONTINUOUS
 10
441.5767137001
 20
220.6740893604
 11
441.7346027579
 21
220.6902953629
  0
LINE
  8
0
 62
7
  6
CONTINUOUS
 10
68.5097266334
 20
194.5394895644
 11
79.0097266334
 21
194.5394895644
  0
LINE
  8
0
 62
7
  6
CONTINUOUS
 10
550.0097266334
 20
194.5394895644
 11
560.5097266334
 21
194.5394895644
  0
LINE
  8
0
 62
7
  6
CONTINUOUS
 10
92.7097266334
 20
207.5394895644
 11
79.0097266334
 21
207.5394895644
  0
LINE
  8
0
 62
7
  6
CONTINUOUS
 10
536.3097266334
 20
207.5394895644
 11
550.0097266334
 21
207.5394895644
  0
LINE
  8
0
 62
7
  6
CONTINUOUS
 10
310.629495185
 20
220.4472761299
 11
310.7018531598
 21
220.4589993846
  0
LINE
  8
0
 62
7
  6
CONTINUOUS
 10
310.7018531598
 20
220.4589993846
 11
310.7809293282
 21
220.4711355444
  0
LINE
  8
0
 62
7
  6
CONTINUOUS
 10
310.7809293282
 20
220.4711355444
 11
310.8672958247
 21
220.483704755
  0
LINE
  8
0
 62
7
  6
CONTINUOUS
 10
310.8672958247
 20
220.483704755
 11
310.9615565147
 21
220.4967253521
  0
LINE
  8
0
 62
7
  6
CONTINUOUS
 10
310.9615565147
 20
220.4967253521
 11
311.0643794236
 21
220.5102183352
  0
LINE
  8
0
 62
7
  6
CONTINUOUS
 10
311.0643794236
 20
220.5102183352
 11
311.1764868837
 21
220.5242051712
  0
LINE
  8
0
 62
7
  6
CONTINUOUS
 10
311.1764868837
 20
220.5242051712
 11
311.2986654977
 21
220.5387085097
  0
LINE
  8
0
 62
7
  6
CONTINUOUS
 10
311.2986654977
 20
220.5387085097
 11
311.4317536808
 21
220.5537503073
  0
LINE
  8
0
 62
7
  6
CONTINUOUS
 10
311.4317536808
 20
220.5537503073
 11
311.576706248
 21
220.5693581873
  0
LINE
  8
0
 62
7
  6
CONTINUOUS
 10
311.576706248
 20
220.5693581873
 11
311.7345953301
 21
220.5855642286
  0
LINE
  8
0
 62
7
  6
CONTINUOUS
 10
441.7346027579
 20
220.6902953629
 11
441.9065129786
 21
220.7071244801
  0
LINE
  8
0
 62
7
  6
CONTINUOUS
 10
311.7345953301
 20
220.5855642286
 11
311.9065056497
 21
220.6023933896
  0
LINE
  8
0
 62
7
  6
CONTINUOUS
 10
441.9065129786
 20
220.7071244801
 11
442.0935929517
 21
220.7246002545
  0
LINE
  8
0
 62
7
  6
CONTINUOUS
 10
311.9065056497
 20
220.6023933896
 11
312.0935858068
 21
220.6198692127
  0
LINE
  8
0
 62
7
  6
CONTINUOUS
 10
442.0935929517
 20
220.7246002545
 11
442.2971161904
 21
220.7427502509
  0
LINE
  8
0
 62
7
  6
CONTINUOUS
 10
312.0935858068
 20
220.6198692127
 11
312.2971093254
 21
220.638019263
  0
LINE
  8
0
 62
7
  6
CONTINUOUS
 10
442.2971161904
 20
220.7427502509
 11
442.5184495642
 21
220.7616022164
  0
LINE
  8
0
 62
7
  6
CONTINUOUS
 10
312.2971093254
 20
220.638019263
 11
312.5184430895
 21
220.6568712877
  0
LINE
  8
0
 62
7
  6
CONTINUOUS
 10
442.5184495642
 20
220.7616022164
 11
442.7591169409
 21
220.7811885587
  0
LINE
  8
0
 62
7
  6
CONTINUOUS
 10
312.5184430895
 20
220.6568712877
 11
312.7591109803
 21
220.6764576948
  0
LINE
  8
0
 62
7
  6
CONTINUOUS
 10
442.7591169409
 20
220.7811885587
 11
443.0208308284
 21
220.8015475359
  0
LINE
  8
0
 62
7
  6
CONTINUOUS
 10
312.7591109803
 20
220.6764576948
 11
313.020825523
 21
220.6968167427
  0
LINE
  8
0
 62
7
  6
CONTINUOUS
 10
443.0208308284
 20
220.8015475359
 11
443.305378019
 21
220.8227132267
  0
LINE
  8
0
 62
7
  6
CONTINUOUS
 10
313.020825523
 20
220.6968167427
 11
313.3053735336
 21
220.7179825108
  0
LINE
  8
0
 62
7
  6
CONTINUOUS
 10
443.305378019
 20
220.8227132267
 11
443.6146203474
 21
220.8447158481
  0
LINE
  8
0
 62
7
  6
CONTINUOUS
 10
313.3053735336
 20
220.7179825108
 11
313.6146168673
 21
220.7399852163
  0
LINE
  8
0
 62
7
  6
CONTINUOUS
 10
443.6146203474
 20
220.8447158481
 11
443.9506166439
 21
220.8675902784
  0
LINE
  8
0
 62
7
  6
CONTINUOUS
 10
313.6146168673
 20
220.7399852163
 11
313.9506143766
 21
220.7628597378
  0
POLYLINE
  8
0
 62
7
  6
CONTINUOUS
 66
1
 70
0
  0
VERTEX
  8
0
 62
7
  6
CONTINUOUS
 10
443.9506166439
 20
220.8675902784
  0
VERTEX
  8
0
 62
7
  6
CONTINUOUS
 10
444.3157659744
 20
220.891376405
  0
VERTEX
  8
0
 62
7
  6
CONTINUOUS
 10
444.5097266334
 20
220.9036184395
  0
SEQEND
  0
POLYLINE
  8
0
 62
7
  6
CONTINUOUS
 66
1
 70
0
  0
VERTEX
  8
0
 62
7
  6
CONTINUOUS
 10
313.9506143766
 20
220.7628597378
  0
VERTEX
  8
0
 62
7
  6
CONTINUOUS
 10
314.3157651561
 20
220.7866459631
  0
VERTEX
  8
0
 62
7
  6
CONTINUOUS
 10
314.5097266334
 20
220.79888805
  0
SEQEND
  0
LINE
  8
0
 62
9
  6
CONTINUOUS
 10
310.0053633656
 20
220.2394895644
 11
319.0140899011
 21
220.2394895644
  0
LINE
  8
0
 62
9
  6
CONTINUOUS
 10
440.0053633656
 20
220.344219954
 11
449.0140899011
 21
220.344219954
  0
LINE
  8
0
 62
7
  6
CONTINUOUS
 10
327.1097266334
 20
224.2394895644
 11
302.5097266334
 21
224.2394895644
  0
LINE
  8
0
 62
7
  6
CONTINUOUS
 10
171.9097266334
 20
224.2394895644
 11
196.5097266334
 21
224.2394895644
  0
LINE
  8
0
 62
7
  6
CONTINUOUS
 10
457.1097266334
 20
224.344219954
 11
432.5097266334
 21
224.344219954
  0
LINE
  8
0
 62
7
  6
CONTINUOUS
 10
560.5097266334
 20
224.5394895644
 11
536.3097266334
 21
224.5394895644
  0
LINE
  8
0
 62
7
  6
CONTINUOUS
 10
92.7097266334
 20
224.5394895644
 11
68.5097266334
 21
224.5394895644
  0
LINE
  8
KONSTRUKTIONSELEMENTE
 62
3
  6
CONTINUOUS
 10
92.7097266334
 20
224.5394895644
 11
536.3097266334
 21
224.5394895644
  0
LINE
  8
0
 62
7
  6
CONTINUOUS
 10
314.8901069174
 20
220.7746357662
 11
314.5097266334
 21
220.79888805
  0
LINE
  8
0
 62
7
  6
CONTINUOUS
 10
315.240316519
 20
220.7513110423
 11
314.8901069174
 21
220.7746357662
  0
LINE
  8
0
 62
7
  6
CONTINUOUS
 10
315.562662051
 20
220.7288774216
 11
315.240316519
 21
220.7513110423
  0
LINE
  8
0
 62
7
  6
CONTINUOUS
 10
315.8593178193
 20
220.7072969491
 11
315.562662051
 21
220.7288774216
  0
LINE
  8
0
 62
7
  6
CONTINUOUS
 10
316.1322265814
 20
220.6865381214
 11
315.8593178193
 21
220.7072969491
  0
LINE
  8
0
 62
7
  6
CONTINUOUS
 10
316.3831936533
 20
220.6665703294
 11
316.1322265814
 21
220.6865381214
  0
LINE
  8
0
 62
7
  6
CONTINUOUS
 10
316.6139877073
 20
220.6473559914
 11
316.3831936533
 21
220.6665703294
  0
LINE
  8
0
 62
7
  6
CONTINUOUS
 10
316.8262428255
 20
220.6288581625
 11
316.6139877073
 21
220.6473559914
  0
LINE
  8
0
 62
7
  6
CONTINUOUS
 10
317.021378077
 20
220.6110488476
 11
316.8262428255
 21
220.6288581625
  0
LINE
  8
0
 62
7
  6
CONTINUOUS
 10
317.2007210525
 20
220.5938996962
 11
317.021378077
 21
220.6110488476
  0
LINE
  8
0
 62
7
  6
CONTINUOUS
 10
317.3654874648
 20
220.5773844983
 11
317.2007210525
 21
220.5938996962
  0
LINE
  8
0
 62
7
  6
CONTINUOUS
 10
317.5167715887
 20
220.5614812452
 11
317.3654874648
 21
220.5773844983
  0
LINE
  8
0
 62
7
  6
CONTINUOUS
 10
317.6556581261
 20
220.5461609995
 11
317.5167715887
 21
220.5614812452
  0
LINE
  8
0
 62
7
  6
CONTINUOUS
 10
317.7831865906
 20
220.5313907874
 11
317.6556581261
 21
220.5461609995
  0
LINE
  8
0
 62
7
  6
CONTINUOUS
 10
317.9002265527
 20
220.5171486816
 11
317.7831865906
 21
220.5313907874
  0
LINE
  8
0
 62
7
  6
CONTINUOUS
 10
318.0075980316
 20
220.5034114837
 11
317.9002265527
 21
220.5171486816
  0
LINE
  8
0
 62
7
  6
CONTINUOUS
 10
318.1060531756
 20
220.4901573381
 11
318.0075980316
 21
220.5034114837
  0
LINE
  8
0
 62
7
  6
CONTINUOUS
 10
318.1962862775
 20
220.4773650821
 11
318.1060531756
 21
220.4901573381
  0
LINE
  8
0
 62
7
  6
CONTINUOUS
 10
318.2789379701
 20
220.4650142192
 11
318.1962862775
 21
220.4773650821
  0
LINE
  8
KONSTRUKTIONSELEMENTE
 62
7
  6
CONTINUOUS
 10
66.5097266334
 20
224.7394895644
 11
68.5097266334
 21
224.7394895644
  0
LINE
  8
KONSTRUKTIONSELEMENTE
 62
7
  6
CONTINUOUS
 10
560.5097266334
 20
224.7394895644
 11
562.5097266334
 21
224.7394895644
  0
LINE
  8
KONSTRUKTIONSELEMENTE
 62
7
  6
CONTINUOUS
 10
66.7097266334
 20
225.5394895644
 11
562.3097266334
 21
225.5394895644
  0
LINE
  8
FASEN
 62
7
  6
CONTINUOUS
 10
66.5097266334
 20
225.7394895644
 11
64.5097266334
 21
225.7394895644
  0
LINE
  8
BEZUGSACHSEN
 62
7
  6
CONTINUOUS
 10
562.5097266334
 20
225.7394895644
 11
564.5097266334
 21
225.7394895644
  0
LINE
  8
FASEN
 62
7
  6
CONTINUOUS
 10
66.5097266334
 20
227.7394895644
 11
64.5097266334
 21
227.7394895644
  0
LINE
  8
BEZUGSACHSEN
 62
7
  6
CONTINUOUS
 10
562.5097266334
 20
227.7394895644
 11
564.5097266334
 21
227.7394895644
  0
LINE
  8
0
 62
7
  6
CONTINUOUS
 10
444.8901053427
 20
220.8793662584
 11
444.5097266334
 21
220.9036184395
  0
LINE
  8
0
 62
7
  6
CONTINUOUS
 10
445.2403136176
 20
220.8560416295
 11
444.8901053427
 21
220.8793662584
  0
LINE
  8
0
 62
7
  6
CONTINUOUS
 10
445.5626580439
 20
220.8336080963
 11
445.2403136176
 21
220.8560416295
  0
LINE
  8
0
 62
7
  6
CONTINUOUS
 10
445.8593129017
 20
220.8120277045
 11
445.5626580439
 21
220.8336080963
  0
LINE
  8
0
 62
7
  6
CONTINUOUS
 10
446.1322209291
 20
220.7912689508
 11
445.8593129017
 21
220.8120277045
  0
LINE
  8
0
 62
7
  6
CONTINUOUS
 10
446.3831874196
 20
220.7713012264
 11
446.1322209291
 21
220.7912689508
  0
LINE
  8
0
 62
7
  6
CONTINUOUS
 10
446.6139810225
 20
220.7520869504
 11
446.3831874196
 21
220.7713012264
  0
LINE
  8
0
 62
7
  6
CONTINUOUS
 10
446.8262358076
 20
220.733589178
 11
446.6139810225
 21
220.7520869504
  0
LINE
  8
0
 62
7
  6
CONTINUOUS
 10
447.0213708289
 20
220.7157799144
 11
446.8262358076
 21
220.733589178
  0
LINE
  8
0
 62
7
  6
CONTINUOUS
 10
447.2007136638
 20
220.6986308092
 11
447.0213708289
 21
220.7157799144
  0
LINE
  8
0
 62
7
  6
CONTINUOUS
 10
447.365480016
 20
220.6821156526
 11
447.2007136638
 21
220.6986308092
  0
LINE
  8
0
 62
7
  6
CONTINUOUS
 10
447.5167641482
 20
220.6662124361
 11
447.365480016
 21
220.6821156526
  0
LINE
  8
0
 62
7
  6
CONTINUOUS
 10
447.6556507459
 20
220.6508922233
 11
447.5167641482
 21
220.6662124361
  0
LINE
  8
0
 62
7
  6
CONTINUOUS
 10
447.7831793208
 20
220.6361220402
 11
447.6556507459
 21
220.6508922233
  0
LINE
  8
0
 62
7
  6
CONTINUOUS
 10
447.9002194347
 20
220.6218799594
 11
447.7831793208
 21
220.6361220402
  0
LINE
  8
0
 62
7
  6
CONTINUOUS
 10
448.0075911007
 20
220.608142783
 11
447.9002194347
 21
220.6218799594
  0
LINE
  8
0
 62
7
  6
CONTINUOUS
 10
448.106046461
 20
220.5948886554
 11
448.0075911007
 21
220.608142783
  0
LINE
  8
0
 62
7
  6
CONTINUOUS
 10
448.1962798036
 20
220.5820964141
 11
448.106046461
 21
220.5948886554
  0
LINE
  8
0
 62
7
  6
CONTINUOUS
 10
448.278931757
 20
220.5697455625
 11
448.1962798036
 21
220.5820964141
  0
LINE
  8
0
 62
7
  6
CONTINUOUS
 10
432.5097266334
 20
151.8395047972
 11
432.5097266334
 21
224.344219954
  0
POLYLINE
  8
0
 62
7
  6
CONTINUOUS
 66
1
 70
0
  0
VERTEX
  8
0
 62
7
  6
CONTINUOUS
 10
449.0140899011
 20
220.344219954
  0
VERTEX
  8
0
 62
7
  6
CONTINUOUS
 10
449.0139737825
 20
220.3472030385
  0
VERTEX
  8
0
 62
7
  6
CONTINUOUS
 10
449.0135586866
 20
220.3502798444
  0
VERTEX
  8
0
 62
7
  6
CONTINUOUS
 10
449.0128563564
 20
220.3534527772
  0
VERTEX
  8
0
 62
7
  6
CONTINUOUS
 10
449.0118315633
 20
220.3567146205
  0
VERTEX
  8
0
 62
7
  6
CONTINUOUS
 10
449.010461721
 20
220.3600577811
  0
VERTEX
  8
0
 62
7
  6
CONTINUOUS
 10
449.0087206461
 20
220.3634857954
  0
VERTEX
  8
0
 62
7
  6
CONTINUOUS
 10
449.0065755953
 20
220.3670080115
  0
VERTEX
  8
0
 62
7
  6
CONTINUOUS
 10
449.0040236626
 20
220.3705994014
  0
VERTEX
  8
0
 62
7
  6
CONTINUOUS
 10
449.0010519186
 20
220.3742401456
  0
VERTEX
  8
0
 62
7
  6
CONTINUOUS
 10
448.99765769
 20
220.3779239669
  0
VERTEX
  8
0
 62
7
  6
CONTINUOUS
 10
448.9938354093
 20
220.3816385795
  0
VERTEX
  8
0
 62
7
  6
CONTINUOUS
 10
448.989580831
 20
220.38538219
  0
VERTEX
  8
0
 62
7
  6
CONTINUOUS
 10
448.9848892395
 20
220.3891493234
  0
VERTEX
  8
0
 62
7
  6
CONTINUOUS
 10
448.9797564767
 20
220.3929387394
  0
VERTEX
  8
0
 62
7
  6
CONTINUOUS
 10
448.9741795818
 20
220.3967468907
  0
VERTEX
  8
0
 62
7
  6
CONTINUOUS
 10
448.9681502468
 20
220.4005752233
  0
VERTEX
  8
0
 62
7
  6
CONTINUOUS
 10
448.9616626122
 20
220.4044234591
  0
VERTEX
  8
0
 62
7
  6
CONTINUOUS
 10
448.9547063719
 20
220.4082932235
  0
VERTEX
  8
0
 62
7
  6
CONTINUOUS
 10
448.9472759173
 20
220.412184355
  0
VERTEX
  8
0
 62
7
  6
CONTINUOUS
 10
448.9393512972
 20
220.4161019367
  0
VERTEX
  8
0
 62
7
  6
CONTINUOUS
 10
448.9309157406
 20
220.420050606
  0
VERTEX
  8
0
 62
7
  6
CONTINUOUS
 10
448.9219540987
 20
220.4240315379
  0
VERTEX
  8
0
 62
7
  6
CONTINUOUS
 10
448.9124518897
 20
220.4280467623
  0
VERTEX
  8
0
 62
7
  6
CONTINUOUS
 10
448.9023903419
 20
220.4320983513
  0
VERTEX
  8
0
 62
7
  6
CONTINUOUS
 10
448.8917528971
 20
220.436188351
  0
VERTEX
  8
0
 62
7
  6
CONTINUOUS
 10
448.8805184335
 20
220.4403188677
  0
VERTEX
  8
0
 62
7
  6
CONTINUOUS
 10
448.8686693249
 20
220.4444916266
  0
VERTEX
  8
0
 62
7
  6
CONTINUOUS
 10
448.8561785255
 20
220.448709817
  0
VERTEX
  8
0
 62
7
  6
CONTINUOUS
 10
448.8430231207
 20
220.4529762073
  0
VERTEX
  8
0
 62
7
  6
CONTINUOUS
 10
448.8291730917
 20
220.4572937849
  0
VERTEX
  8
0
 62
7
  6
CONTINUOUS
 10
448.8145998082
 20
220.46166604
  0
VERTEX
  8
0
 62
7
  6
CONTINUOUS
 10
448.7992761897
 20
220.4660942333
  0
VERTEX
  8
0
 62
7
  6
CONTINUOUS
 10
448.7831765185
 20
220.4705800518
  0
VERTEX
  8
0
 62
7
  6
CONTINUOUS
 10
448.7662680751
 20
220.4751257066
  0
VERTEX
  8
0
 62
7
  6
CONTINUOUS
 10
448.7485214171
 20
220.4797332546
  0
VERTEX
  8
0
 62
7
  6
CONTINUOUS
 10
448.7299009958
 20
220.4844048464
  0
VERTEX
  8
0
 62
7
  6
CONTINUOUS
 10
448.710374009
 20
220.4891426757
  0
VERTEX
  8
0
 62
7
  6
CONTINUOUS
 10
448.6899027748
 20
220.4939486702
  0
VERTEX
  8
0
 62
7
  6
CONTINUOUS
 10
448.6684540119
 20
220.4988244878
  0
VERTEX
  8
0
 62
7
  6
CONTINUOUS
 10
448.6459817163
 20
220.5037731319
  0
VERTEX
  8
0
 62
7
  6
CONTINUOUS
 10
448.6224459432
 20
220.5087971042
  0
VERTEX
  8
0
 62
7
  6
CONTINUOUS
 10
448.5977952328
 20
220.5138995684
  0
VERTEX
  8
0
 62
7
  6
CONTINUOUS
 10
448.5719795894
 20
220.5190842036
  0
VERTEX
  8
0
 62
7
  6
CONTINUOUS
 10
448.5449546756
 20
220.5243519664
  0
VERTEX
  8
0
 62
7
  6
CONTINUOUS
 10
448.5166785445
 20
220.5297041177
  0
VERTEX
  8
0
 62
7
  6
CONTINUOUS
 10
448.4870940283
 20
220.5351434246
  0
VERTEX
  8
0
 62
7
  6
CONTINUOUS
 10
448.4561495618
 20
220.5406723403
  0
VERTEX
  8
0
 62
7
  6
CONTINUOUS
 10
448.4237863897
 20
220.5462930671
  0
VERTEX
  8
0
 62
7
  6
CONTINUOUS
 10
448.389952288
 20
220.5520074845
  0
VERTEX
  8
0
 62
7
  6
CONTINUOUS
 10
448.3545760983
 20
220.557819015
  0
VERTEX
  8
0
 62
7
  6
CONTINUOUS
 10
448.278931757
 20
220.5697455625
  0
SEQEND
  0
LINE
  8
0
 62
7
  6
CONTINUOUS
 10
440.0053633656
 20
152.0228439079
 11
440.0053633656
 21
220.344219954
  0
LINE
  8
0
 62
7
  6
CONTINUOUS
 10
444.2738727371
 20
151.8704695232
 11
444.2738727371
 21
151.8590908021
  0
LINE
  8
KONSTRUKTIONSELEMENTE
 62
7
  6
CONTINUOUS
 10
444.5097266334
 20
151.9442199546
 11
444.5097266334
 21
220.344219954
  0
LINE
  8
0
 62
7
  6
CONTINUOUS
 10
444.5097266334
 20
220.344219954
 11
444.5097266334
 21
220.9036184395
  0
LINE
  8
0
 62
7
  6
CONTINUOUS
 10
449.0140899011
 20
220.344219954
 11
449.0140899011
 21
152.0228439079
  0
POLYLINE
  8
0
 62
7
  6
CONTINUOUS
 66
1
 70
0
  0
VERTEX
  8
0
 62
7
  6
CONTINUOUS
 10
440.0053633656
 20
220.344219954
  0
VERTEX
  8
0
 62
7
  6
CONTINUOUS
 10
440.0054794843
 20
220.3472030385
  0
VERTEX
  8
0
 62
7
  6
CONTINUOUS
 10
440.0058945801
 20
220.3502798444
  0
VERTEX
  8
0
 62
7
  6
CONTINUOUS
 10
440.0065969104
 20
220.3534527772
  0
VERTEX
  8
0
 62
7
  6
CONTINUOUS
 10
440.0076217034
 20
220.3567146205
  0
VERTEX
  8
0
 62
7
  6
CONTINUOUS
 10
440.0089915458
 20
220.3600577811
  0
VERTEX
  8
0
 62
7
  6
CONTINUOUS
 10
440.0107326207
 20
220.3634857954
  0
VERTEX
  8
0
 62
7
  6
CONTINUOUS
 10
440.0128776715
 20
220.3670080115
  0
VERTEX
  8
0
 62
7
  6
CONTINUOUS
 10
440.0154296041
 20
220.3705994014
  0
VERTEX
  8
0
 62
7
  6
CONTINUOUS
 10
440.0184013482
 20
220.3742401456
  0
VERTEX
  8
0
 62
7
  6
CONTINUOUS
 10
440.0217955768
 20
220.3779239669
  0
VERTEX
  8
0
 62
7
  6
CONTINUOUS
 10
440.0256178575
 20
220.3816385795
  0
VERTEX
  8
0
 62
7
  6
CONTINUOUS
 10
440.0298724358
 20
220.38538219
  0
VERTEX
  8
0
 62
7
  6
CONTINUOUS
 10
440.0345640273
 20
220.3891493234
  0
VERTEX
  8
0
 62
7
  6
CONTINUOUS
 10
440.0396967901
 20
220.3929387394
  0
VERTEX
  8
0
 62
7
  6
CONTINUOUS
 10
440.045273685
 20
220.3967468907
  0
VERTEX
  8
0
 62
7
  6
CONTINUOUS
 10
440.05130302
 20
220.4005752233
  0
VERTEX
  8
0
 62
7
  6
CONTINUOUS
 10
440.0577906546
 20
220.4044234591
  0
VERTEX
  8
0
 62
7
  6
CONTINUOUS
 10
440.0647468948
 20
220.4082932235
  0
VERTEX
  8
0
 62
7
  6
CONTINUOUS
 10
440.0721773495
 20
220.412184355
  0
VERTEX
  8
0
 62
7
  6
CONTINUOUS
 10
440.0801019696
 20
220.4161019367
  0
VERTEX
  8
0
 62
7
  6
CONTINUOUS
 10
440.0885375262
 20
220.420050606
  0
VERTEX
  8
0
 62
7
  6
CONTINUOUS
 10
440.0974991681
 20
220.4240315379
  0
VERTEX
  8
0
 62
7
  6
CONTINUOUS
 10
440.1070013771
 20
220.4280467623
  0
VERTEX
  8
0
 62
7
  6
CONTINUOUS
 10
440.1170629249
 20
220.4320983513
  0
VERTEX
  8
0
 62
7
  6
CONTINUOUS
 10
440.1277003697
 20
220.436188351
  0
VERTEX
  8
0
 62
7
  6
CONTINUOUS
 10
440.1389348333
 20
220.4403188677
  0
VERTEX
  8
0
 62
7
  6
CONTINUOUS
 10
440.1507839419
 20
220.4444916266
  0
VERTEX
  8
0
 62
7
  6
CONTINUOUS
 10
440.1632747412
 20
220.448709817
  0
VERTEX
  8
0
 62
7
  6
CONTINUOUS
 10
440.176430146
 20
220.4529762073
  0
VERTEX
  8
0
 62
7
  6
CONTINUOUS
 10
440.1902801751
 20
220.4572937849
  0
VERTEX
  8
0
 62
7
  6
CONTINUOUS
 10
440.2048534586
 20
220.46166604
  0
VERTEX
  8
0
 62
7
  6
CONTINUOUS
 10
440.2201770771
 20
220.4660942333
  0
VERTEX
  8
0
 62
7
  6
CONTINUOUS
 10
440.2362767483
 20
220.4705800518
  0
VERTEX
  8
0
 62
7
  6
CONTINUOUS
 10
440.2531851917
 20
220.4751257066
  0
VERTEX
  8
0
 62
7
  6
CONTINUOUS
 10
440.2709318497
 20
220.4797332546
  0
VERTEX
  8
0
 62
7
  6
CONTINUOUS
 10
440.289552271
 20
220.4844048464
  0
VERTEX
  8
0
 62
7
  6
CONTINUOUS
 10
440.3090792578
 20
220.4891426757
  0
VERTEX
  8
0
 62
7
  6
CONTINUOUS
 10
440.329550492
 20
220.4939486702
  0
VERTEX
  8
0
 62
7
  6
CONTINUOUS
 10
440.3509992549
 20
220.4988244878
  0
VERTEX
  8
0
 62
7
  6
CONTINUOUS
 10
440.3734715505
 20
220.5037731319
  0
VERTEX
  8
0
 62
7
  6
CONTINUOUS
 10
440.3970073236
 20
220.5087971042
  0
VERTEX
  8
0
 62
7
  6
CONTINUOUS
 10
440.421658034
 20
220.5138995684
  0
VERTEX
  8
0
 62
7
  6
CONTINUOUS
 10
440.4474736774
 20
220.5190842036
  0
VERTEX
  8
0
 62
7
  6
CONTINUOUS
 10
440.4744985912
 20
220.5243519664
  0
VERTEX
  8
0
 62
7
  6
CONTINUOUS
 10
440.5027747223
 20
220.5297041177
  0
VERTEX
  8
0
 62
7
  6
CONTINUOUS
 10
440.5323592385
 20
220.5351434246
  0
VERTEX
  8
0
 62
7
  6
CONTINUOUS
 10
440.563303705
 20
220.5406723403
  0
VERTEX
  8
0
 62
7
  6
CONTINUOUS
 10
440.595666877
 20
220.5462930671
  0
VERTEX
  8
0
 62
7
  6
CONTINUOUS
 10
440.6295009788
 20
220.5520074845
  0
SEQEND
  0
POLYLINE
  8
0
 62
7
  6
CONTINUOUS
 66
1
 70
0
  0
VERTEX
  8
0
 62
7
  6
CONTINUOUS
 10
444.5097266334
 20
151.9442199545
  0
VERTEX
  8
0
 62
7
  6
CONTINUOUS
 10
444.5096426859
 20
151.94243121
  0
VERTEX
  8
0
 62
7
  6
CONTINUOUS
 10
444.5093533577
 20
151.9405949919
  0
VERTEX
  8
0
 62
7
  6
CONTINUOUS
 10
444.5088667449
 20
151.9387123689
  0
VERTEX
  8
0
 62
7
  6
CONTINUOUS
 10
444.5081585593
 20
151.9367801352
  0
VERTEX
  8
0
 62
7
  6
CONTINUOUS
 10
444.5072065847
 20
151.934787506
  0
VERTEX
  8
0
 62
7
  6
CONTINUOUS
 10
444.5060127015
 20
151.9327582869
  0
VERTEX
  8
0
 62
7
  6
CONTINUOUS
 10
444.5045698355
 20
151.9307108669
  0
VERTEX
  8
0
 62
7
  6
CONTINUOUS
 10
444.5028826338
 20
151.9286507112
  0
VERTEX
  8
0
 62
7
  6
CONTINUOUS
 10
444.5009523643
 20
151.9265889433
  0
VERTEX
  8
0
 62
7
  6
CONTINUOUS
 10
444.4987820902
 20
151.9245269774
  0
VERTEX
  8
0
 62
7
  6
CONTINUOUS
 10
444.4963752943
 20
151.922470146
  0
VERTEX
  8
0
 62
7
  6
CONTINUOUS
 10
444.4937319853
 20
151.9204178164
  0
VERTEX
  8
0
 62
7
  6
CONTINUOUS
 10
444.4908541438
 20
151.9183715033
  0
VERTEX
  8
0
 62
7
  6
CONTINUOUS
 10
444.4877393374
 20
151.9163300974
  0
VERTEX
  8
0
 62
7
  6
CONTINUOUS
 10
444.4843872873
 20
151.9142933852
  0
VERTEX
  8
0
 62
7
  6
CONTINUOUS
 10
444.4807935131
 20
151.9122601944
  0
VERTEX
  8
0
 62
7
  6
CONTINUOUS
 10
444.4769555068
 20
151.9102296272
  0
VERTEX
  8
0
 62
7
  6
CONTINUOUS
 10
444.4728670728
 20
151.9082006464
  0
VERTEX
  8
0
 62
7
  6
CONTINUOUS
 10
444.4685237507
 20
151.9061721915
  0
VERTEX
  8
0
 62
7
  6
CONTINUOUS
 10
444.4639178279
 20
151.9041434339
  0
VERTEX
  8
0
 62
7
  6
CONTINUOUS
 10
444.4590431453
 20
151.9021133876
  0
VERTEX
  8
0
 62
7
  6
CONTINUOUS
 10
444.4538905824
 20
151.9000814645
  0
VERTEX
  8
0
 62
7
  6
CONTINUOUS
 10
444.4484524613
 20
151.8980468583
  0
VERTEX
  8
0
 62
7
  6
CONTINUOUS
 10
444.4427182949
 20
151.8960092369
  0
VERTEX
  8
0
 62
7
  6
CONTINUOUS
 10
444.4366789902
 20
151.89396802
  0
VERTEX
  8
0
 62
7
  6
CONTINUOUS
 10
444.4303226869
 20
151.891923146
  0
VERTEX
  8
0
 62
7
  6
CONTINUOUS
 10
444.423638917
 20
151.8898742835
  0
VERTEX
  8
0
 62
7
  6
CONTINUOUS
 10
444.4166144102
 20
151.8878216626
  0
VERTEX
  8
0
 62
7
  6
CONTINUOUS
 10
444.4092373257
 20
151.8857652203
  0
VERTEX
  8
0
 62
7
  6
CONTINUOUS
 10
444.4014929068
 20
151.883705505
  0
VERTEX
  8
0
 62
7
  6
CONTINUOUS
 10
444.393367902
 20
151.8816427432
  0
VERTEX
  8
0
 62
7
  6
CONTINUOUS
 10
444.3848459543
 20
151.8795778366
  0
VERTEX
  8
0
 62
7
  6
CONTINUOUS
 10
444.3759123178
 20
151.8775113267
  0
VERTEX
  8
0
 62
7
  6
CONTINUOUS
 10
444.3665489075
 20
151.8754445216
  0
VERTEX
  8
0
 62
7
  6
CONTINUOUS
 10
444.3567393814
 20
151.8733783157
  0
VERTEX
  8
0
 62
7
  6
CONTINUOUS
 10
444.3464637651
 20
151.8713144925
  0
VERTEX
  8
0
 62
7
  6
CONTINUOUS
 10
444.3357039926
 20
151.8692543512
  0
VERTEX
  8
0
 62
7
  6
CONTINUOUS
 10
444.3244379965
 20
151.8672002383
  0
VERTEX
  8
0
 62
7
  6
CONTINUOUS
 10
444.3126458154
 20
151.8651539239
  0
VERTEX
  8
0
 62
7
  6
CONTINUOUS
 10
444.3003030644
 20
151.8631184368
  0
VERTEX
  8
0
 62
7
  6
CONTINUOUS
 10
444.2873748252
 20
151.8610978486
  0
VERTEX
  8
0
 62
7
  6
CONTINUOUS
 10
444.2738727371
 20
151.8590908021
  0
SEQEND
  0
POLYLINE
  8
0
 62
7
  6
CONTINUOUS
 66
1
 70
0
  0
VERTEX
  8
0
 62
7
  6
CONTINUOUS
 10
444.5093810591
 20
151.9409220703
  0
VERTEX
  8
0
 62
7
  6
CONTINUOUS
 10
444.5089332027
 20
151.9392261896
  0
VERTEX
  8
0
 62
7
  6
CONTINUOUS
 10
444.5082829545
 20
151.93749515
  0
VERTEX
  8
0
 62
7
  6
CONTINUOUS
 10
444.5074112475
 20
151.9357185274
  0
VERTEX
  8
0
 62
7
  6
CONTINUOUS
 10
444.506318245
 20
151.9339159941
  0
VERTEX
  8
0
 62
7
  6
CONTINUOUS
 10
444.5049958042
 20
151.9321013265
  0
VERTEX
  8
0
 62
7
  6
CONTINUOUS
 10
444.5034497762
 20
151.9302817885
  0
VERTEX
  8
0
 62
7
  6
CONTINUOUS
 10
444.5016819495
 20
151.928468787
  0
VERTEX
  8
0
 62
7
  6
CONTINUOUS
 10
444.4996963699
 20
151.9266636695
  0
VERTEX
  8
0
 62
7
  6
CONTINUOUS
 10
444.4974972439
 20
151.9248717627
  0
VERTEX
  8
0
 62
7
  6
CONTINUOUS
 10
444.4950858774
 20
151.9230925352
  0
VERTEX
  8
0
 62
7
  6
CONTINUOUS
 10
444.4924654315
 20
151.9213276373
  0
VERTEX
  8
0
 62
7
  6
CONTINUOUS
 10
444.4896345465
 20
151.9195758505
  0
VERTEX
  8
0
 62
7
  6
CONTINUOUS
 10
444.4865945584
 20
151.9178371498
  0
VERTEX
  8
0
 62
7
  6
CONTINUOUS
 10
444.4833405405
 20
151.9161096061
  0
VERTEX
  8
0
 62
7
  6
CONTINUOUS
 10
444.479870061
 20
151.9143916987
  0
VERTEX
  8
0
 62
7
  6
CONTINUOUS
 10
444.476176971
 20
151.9126821782
  0
VERTEX
  8
0
 62
7
  6
CONTINUOUS
 10
444.4722561651
 20
151.9109793623
  0
VERTEX
  8
0
 62
7
  6
CONTINUOUS
 10
444.4681020813
 20
151.9092830295
  0
VERTEX
  8
0
 62
7
  6
CONTINUOUS
 10
444.4637099562
 20
151.9075925425
  0
VERTEX
  8
0
 62
7
  6
CONTINUOUS
 10
444.4590722894
 20
151.9059074668
  0
VERTEX
  8
0
 62
7
  6
CONTINUOUS
 10
444.4541828764
 20
151.9042272259
  0
VERTEX
  8
0
 62
7
  6
CONTINUOUS
 10
444.4490330663
 20
151.902551608
  0
VERTEX
  8
0
 62
7
  6
CONTINUOUS
 10
444.4436153823
 20
151.9008801983
  0
VERTEX
  8
0
 62
7
  6
CONTINUOUS
 10
444.4379200972
 20
151.8992130286
  0
VERTEX
  8
0
 62
7
  6
CONTINUOUS
 10
444.4319386908
 20
151.8975499218
  0
VERTEX
  8
0
 62
7
  6
CONTINUOUS
 10
444.425660065
 20
151.8958910902
  0
VERTEX
  8
0
 62
7
  6
CONTINUOUS
 10
444.4190740969
 20
151.8942364673
  0
VERTEX
  8
0
 62
7
  6
CONTINUOUS
 10
444.4121693417
 20
151.8925867129
  0
VERTEX
  8
0
 62
7
  6
CONTINUOUS
 10
444.4049365232
 20
151.8909424244
  0
VERTEX
  8
0
 62
7
  6
CONTINUOUS
 10
444.3973590129
 20
151.8893037225
  0
VERTEX
  8
0
 62
7
  6
CONTINUOUS
 10
444.3894219052
 20
151.8876704942
  0
VERTEX
  8
0
 62
7
  6
CONTINUOUS
 10
444.3811107556
 20
151.8860440377
  0
VERTEX
  8
0
 62
7
  6
CONTINUOUS
 10
444.3724114273
 20
151.884425085
  0
VERTEX
  8
0
 62
7
  6
CONTINUOUS
 10
444.363308092
 20
151.8828152204
  0
VERTEX
  8
0
 62
7
  6
CONTINUOUS
 10
444.3537862489
 20
151.8812156627
  0
VERTEX
  8
0
 62
7
  6
CONTINUOUS
 10
444.3438277781
 20
151.8796282403
  0
VERTEX
  8
0
 62
7
  6
CONTINUOUS
 10
444.33341636
 20
151.8780544261
  0
VERTEX
  8
0
 62
7
  6
CONTINUOUS
 10
444.3225320937
 20
151.8764965057
  0
VERTEX
  8
0
 62
7
  6
CONTINUOUS
 10
444.3111568299
 20
151.8749563042
  0
VERTEX
  8
0
 62
7
  6
CONTINUOUS
 10
444.2992689944
 20
151.8734366754
  0
VERTEX
  8
0
 62
7
  6
CONTINUOUS
 10
444.2868375105
 20
151.8719415146
  0
VERTEX
  8
0
 62
7
  6
CONTINUOUS
 10
444.2738727371
 20
151.8704695232
  0
SEQEND
  0
LINE
  8
0
 62
7
  6
CONTINUOUS
 10
457.1097266334
 20
151.8395047972
 11
457.1097266334
 21
224.344219954
  0
LINE
  8
BEZUGSACHSEN
 62
7
  6
CONTINUOUS
 10
509.5097266334
 20
151.8394895644
 11
509.5097266334
 21
153.7394895644
  0
LINE
  8
BEZUGSACHSEN
 62
7
  6
CONTINUOUS
 10
519.5097266334
 20
151.8394895644
 11
519.5097266334
 21
153.7394895644
  0
LINE
  8
0
 62
7
  6
CONTINUOUS
 10
536.3097266334
 20
224.5394895644
 11
536.3097266334
 21
207.5394895644
  0
LINE
  8
0
 62
7
  6
CONTINUOUS
 10
550.0097266334
 20
207.5394895644
 11
550.0097266334
 21
194.5394895644
  0
LINE
  8
KONSTRUKTIONSELEMENTE
 62
7
  6
CONTINUOUS
 10
560.5097266334
 20
174.7394895644
 11
560.5097266334
 21
224.7394895644
  0
LINE
  8
KONSTRUKTIONSELEMENTE
 62
9
  6
CONTINUOUS
 10
561.5097266334
 20
149.7394895644
 11
561.5097266334
 21
151.7394895644
  0
LINE
  8
KONSTRUKTIONSELEMENTE
 62
7
  6
CONTINUOUS
 10
562.3097266334
 20
224.7394895644
 11
562.3097266334
 21
225.5394895644
  0
LINE
  8
BEZUGSACHSEN
 62
7
  6
CONTINUOUS
 10
562.5097266334
 20
152.7394895644
 11
562.5097266334
 21
227.7394895644
  0
LINE
  8
BEZUGSACHSEN
 62
3
  6
CONTINUOUS
 10
564.5097266334
 20
152.7394895644
 11
564.5097266334
 21
227.7394895644
  0
ARC
  8
KONSTRUKTIONSELEMENTE
 62
3
  6
CONTINUOUS
 10
67.5097266334
 20
152.7394895644
 40
3.0
 50
180.0
 51
270.0
  0
ARC
  8
KONSTRUKTIONSELEMENTE
 62
3
  6
CONTINUOUS
 10
561.5097266334
 20
152.7394895644
 40
3.0
 50
270.0
 51
360.0
  0
ARC
  8
KONSTRUKTIONSELEMENTE
 62
7
  6
CONTINUOUS
 10
67.5097266334
 20
152.7394895644
 40
1.0
 50
180.0
 51
270.0
  0
ARC
  8
KONSTRUKTIONSELEMENTE
 62
7
  6
CONTINUOUS
 10
561.5097266334
 20
152.7394895644
 40
1.0
 50
270.0
 51
360.0
  0
ARC
  8
BEZUGSACHSEN
 62
7
  6
CONTINUOUS
 10
509.4097266334
 20
151.8394895644
 40
0.1
 50
270.0
 51
360.0
  0
ARC
  8
BEZUGSACHSEN
 62
7
  6
CONTINUOUS
 10
519.6097266334
 20
151.8394895644
 40
0.1
 50
180.0
 51
270.0
  0
ARC
  8
BEZUGSACHSEN
 62
7
  6
CONTINUOUS
 10
119.6097266334
 20
151.8394895644
 40
0.1
 50
180.0
 51
270.0
  0
ARC
  8
BEZUGSACHSEN
 62
7
  6
CONTINUOUS
 10
109.4097266334
 20
151.8394895644
 40
0.1
 50
270.0
 51
360.0
  0
ENDSEC
  0
EOF
