999
DXF file: bkg20060511.dxf
999
Pro/ENGINEER 2022024 by Parametric Technology Corporation
  0
SECTION
  2
HEADER
  9
$EXTMAX
 10
594.0
 20
420.0
 30
0.0
  9
$EXTMIN
 10
0.0
 20
0.0
 30
0.0
  9
$LIMMIN
 10
0.0
 20
0.0
  9
$LIMMAX
 10
594.0
 20
420.0
  9
$VIEWCTR
 10
297.0
 20
210.0
  9
$VIEWSIZE
 40
420.0
  9
$CLAYER
  8
0
  9
$LTSCALE
 40
32.67
  9
$CELTYPE
  6
BYLAYER
  9
$DIMSCALE
 40
1.0
  9
$DIMASZ
 40
3.5
  9
$DIMEXO
 40
0.0
  9
$DIMDLI
 40
22.572
  9
$DIMEXE
 40
1.5
  9
$DIMCEN
 40
5.346
  9
$DIMLFAC
 40
1.0
  9
$DIMBLK
  1
_FILLED
  9
$DIMALT
 70
0
  9
$DIMALTF
 40
0.0393700787
  9
$DIMTXT
 40
3.5
  9
$AUNITS
 70
0
  9
$PDMODE
 70
3
  9
$PDSIZE
 40
0.3125
  9
$TILEMODE
 70
1
  0
ENDSEC
  0
SECTION
  2
TABLES
  0
TABLE
  2
LTYPE
 70
6
  0
LTYPE
  2
BYBLOCK
 70
0
  3

 72
65
 73
0
 40
0.0
  0
LTYPE
  2
BYLAYER
 70
0
  3

 72
65
 73
0
 40
0.0
  0
LTYPE
  2
CONTINUOUS
 70
64
  3
Solid line
 72
65
 73
0
 40
0.0
  0
LTYPE
  2
CENTER
 70
64
  3
____ _ ____ _ ____ _ ____ _ ____ _ ____ _ ____
 72
65
 73
4
 40
0.6
 49
0.375
 49
-0.075
 49
0.075
 49
-0.075
  0
LTYPE
  2
HIDDEN
 70
64
  3
- - - - - - - - - - - - - - - - - - - -
 72
65
 73
2
 40
0.2
 49
0.1
 49
-0.1
  0
LTYPE
  2
PHANTOM
 70
64
  3
_____ _ _ _____ _ _ _____ _ _ _____
 72
65
 73
6
 40
0.8
 49
0.45
 49
-0.05
 49
0.1
 49
-0.05
 49
0.1
 49
-0.05
  0
LTYPE
  2
DOT
 70
64
  3
. . . . . . . . . . . . . . . . . . . .
 72
65
 73
2
 40
0.2
 49
0.1
 49
-0.1
  0
LTYPE
  2
DASHED
 70
64
  3
- - - - - - - - - - - - - - - - - - - -
 72
65
 73
2
 40
0.2
 49
0.1
 49
-0.1
  0
ENDTAB
  0
TABLE
  2
LAYER
 70
36
  0
LAYER
  2
0
 70
0
 62
7
  6
CONTINUOUS
  0
LAYER
  2
DEFAULT_1
 70
0
 62
7
  6
CENTER
  0
LAYER
  2
DEFAULT_2
 70
0
 62
8
  6
HIDDEN
  0
LAYER
  2
DEFAULT_3
 70
0
 62
7
  6
PHANTOM
  0
LAYER
  2
01_STARTBEZUEGE
 70
0
 62
7
  6
CONTINUOUS
  0
LAYER
  2
AUSFORMSCHRAEGEN
 70
0
 62
7
  6
CONTINUOUS
  0
LAYER
  2
BEZUGSACHSEN
 70
0
 62
7
  6
CONTINUOUS
  0
LAYER
  2
BEZUGSEBENEN
 70
0
 62
7
  6
CONTINUOUS
  0
LAYER
  2
BEZUGSPUNKTE
 70
0
 62
7
  6
CONTINUOUS
  0
LAYER
  2
BOHRUNGEN
 70
0
 62
7
  6
CONTINUOUS
  0
LAYER
  2
FASEN
 70
0
 62
7
  6
CONTINUOUS
  0
LAYER
  2
FLAECHEN
 70
0
 62
7
  6
CONTINUOUS
  0
LAYER
  2
GEWINDE
 70
0
 62
7
  6
CONTINUOUS
  0
LAYER
  2
GTOL
 70
0
 62
7
  6
CONTINUOUS
  0
LAYER
  2
KONSTRUKTIONSELEMENTE
 70
0
 62
7
  6
CONTINUOUS
  0
LAYER
  2
KOORDINATENSYSTEME
 70
0
 62
7
  6
CONTINUOUS
  0
LAYER
  2
KURVEN
 70
0
 62
7
  6
CONTINUOUS
  0
LAYER
  2
NOTIZ
 70
0
 62
7
  6
CONTINUOUS
  0
LAYER
  2
RUNDUNGEN
 70
0
 62
7
  6
CONTINUOUS
  0
LAYER
  2
SURFACES
 70
0
 62
7
  6
CONTINUOUS
  0
LAYER
  2
VOLUMEN
 70
0
 62
7
  6
CONTINUOUS
  0
LAYER
  2
XSEC_DATUMS
 70
0
 62
7
  6
CONTINUOUS
  0
ENDTAB
  0
TABLE
  2
STYLE
 70
1
  0
STYLE
  2
STANDARD
 70
0
 40
0.0
 41
0.7
 50
0.0
 71
0
 42
0.2
  3
txt
  4

  0
STYLE
  2
TEXTSTYLE_1
 70
0
 40
0.0
 41
0.8
 50
0.0
 71
0
 42
0.2
  3
gdt
  4

  0
ENDTAB
  0
ENDSEC
  0
SECTION
  2
BLOCKS
  0
BLOCK
  8
0
  2
_FILLED
 70
64
 10
0.0
 20
0.0
  0
SOLID
  8
0
  6
BYBLOCK
 62
0
 10
0.0
 20
0.0
 11
-1.0
 21
0.125
 12
-1.0
 22
-0.125
 13
-1.0
 23
-0.125
  0
ENDBLK
  8
0
  6
BYBLOCK
 62
0
  0
ENDSEC
  0
SECTION
  2
ENTITIES
  0
LINE
  8
KONSTRUKTIONSELEMENTE
 62
3
  6
CONTINUOUS
 10
94.5484400663
 20
466.5297454471
 11
94.5484400663
 21
469.5297454471
  0
LINE
  8
BEZUGSACHSEN
 62
3
  6
CONTINUOUS
 10
94.5484400663
 20
469.5297454471
 11
94.5484400663
 21
522.5297454471
  0
LINE
  8
BEZUGSACHSEN
 62
3
  6
CONTINUOUS
 10
94.5484400663
 20
522.5297454471
 11
96.5484400663
 21
524.5297454471
  0
LINE
  8
KONSTRUKTIONSELEMENTE
 62
3
  6
CONTINUOUS
 10
244.5484400663
 20
466.5297454471
 11
244.5484400663
 21
469.5297454471
  0
LINE
  8
FASEN
 62
3
  6
CONTINUOUS
 10
244.5484400663
 20
469.5297454471
 11
244.5484400663
 21
524.5297454471
  0
LINE
  8
FASEN
 62
7
  6
CONTINUOUS
 10
246.5484400663
 20
469.5297454471
 11
246.5484400663
 21
524.5297454471
  0
LINE
  8
KONSTRUKTIONSELEMENTE
 62
7
  6
CONTINUOUS
 10
246.7484400663
 20
521.3297454471
 11
246.7484400663
 21
522.3297454471
  0
LINE
  8
BEZUGSACHSEN
 62
7
  6
CONTINUOUS
 10
247.1220331951
 20
470.5297454471
 11
247.1220331951
 21
468.6297454471
  0
LINE
  8
KONSTRUKTIONSELEMENTE
 62
9
  6
CONTINUOUS
 10
247.5484400663
 20
466.5297454471
 11
247.5484400663
 21
468.5297454471
  0
LINE
  8
KONSTRUKTIONSELEMENTE
 62
7
  6
CONTINUOUS
 10
248.5484400663
 20
521.8297454471
 11
248.5484400663
 21
471.8297454471
  0
LINE
  8
BEZUGSACHSEN
 62
3
  6
CONTINUOUS
 10
441.5484400663
 20
466.5297454471
 11
247.5484400663
 21
466.5297454471
  0
LINE
  8
KONSTRUKTIONSELEMENTE
 62
3
  6
CONTINUOUS
 10
94.5484400663
 20
466.5297454471
 11
247.5484400663
 21
466.5297454471
  0
LINE
  8
KONSTRUKTIONSELEMENTE
 62
7
  6
CONTINUOUS
 10
244.5484400663
 20
468.5297454471
 11
244.7203008043
 21
468.5297454471
  0
LINE
  8
BEZUGSACHSEN
 62
7
  6
CONTINUOUS
 10
247.5484400663
 20
468.5297454471
 11
441.5484400663
 21
468.5297454471
  0
LINE
  8
BEZUGSACHSEN
 62
9
  6
CONTINUOUS
 10
247.1220331951
 20
468.6297454471
 11
257.1220331951
 21
468.6297454471
  0
LINE
  8
BEZUGSACHSEN
 62
9
  6
CONTINUOUS
 10
289.5484400663
 20
468.6297454471
 11
299.5484400663
 21
468.6297454471
  0
LINE
  8
BEZUGSACHSEN
 62
9
  6
CONTINUOUS
 10
361.2641688188
 20
468.6297454471
 11
371.2641688188
 21
468.6297454471
  0
LINE
  8
BEZUGSACHSEN
 62
9
  6
CONTINUOUS
 10
389.5484400663
 20
468.6297454471
 11
399.5484400663
 21
468.6297454471
  0
LINE
  8
KONSTRUKTIONSELEMENTE
 62
9
  6
CONTINUOUS
 10
444.5484400663
 20
469.5297454471
 11
442.5484400663
 21
469.5297454471
  0
LINE
  8
KONSTRUKTIONSELEMENTE
 62
9
  6
CONTINUOUS
 10
94.5484400663
 20
469.5297454471
 11
246.5484400663
 21
469.5297454471
  0
LINE
  8
KONSTRUKTIONSELEMENTE
 62
9
  6
CONTINUOUS
 10
281.6484400663
 20
469.5297454471
 11
289.5484400663
 21
469.5297454471
  0
LINE
  8
KONSTRUKTIONSELEMENTE
 62
9
  6
CONTINUOUS
 10
299.5484400663
 20
469.5297454471
 11
332.5484400663
 21
469.5297454471
  0
LINE
  8
KONSTRUKTIONSELEMENTE
 62
9
  6
CONTINUOUS
 10
357.1484400663
 20
469.5297454471
 11
361.2641688188
 21
469.5297454471
  0
LINE
  8
KONSTRUKTIONSELEMENTE
 62
9
  6
CONTINUOUS
 10
371.2641688188
 20
469.5297454471
 11
389.5484400663
 21
469.5297454471
  0
LINE
  8
KONSTRUKTIONSELEMENTE
 62
9
  6
CONTINUOUS
 10
399.5484400663
 20
469.5297454471
 11
441.5484400663
 21
469.5297454471
  0
LINE
  8
KONSTRUKTIONSELEMENTE
 62
7
  6
CONTINUOUS
 10
441.5484400663
 20
469.5297454471
 11
442.5484400663
 21
469.5297454471
  0
LINE
  8
BEZUGSACHSEN
 62
7
  6
CONTINUOUS
 10
399.5484400663
 20
470.5297454471
 11
389.5484400663
 21
470.5297454471
  0
LINE
  8
BEZUGSACHSEN
 62
7
  6
CONTINUOUS
 10
371.2641688188
 20
470.5297454471
 11
361.2641688188
 21
470.5297454471
  0
LINE
  8
BEZUGSACHSEN
 62
7
  6
CONTINUOUS
 10
299.5484400663
 20
470.5297454471
 11
289.5484400663
 21
470.5297454471
  0
LINE
  8
BEZUGSACHSEN
 62
7
  6
CONTINUOUS
 10
257.1220331951
 20
470.5297454471
 11
247.1220331951
 21
470.5297454471
  0
LINE
  8
KONSTRUKTIONSELEMENTE
 62
7
  6
CONTINUOUS
 10
442.5484400663
 20
471.5297454471
 11
440.5484400663
 21
471.5297454471
  0
LINE
  8
KONSTRUKTIONSELEMENTE
 62
7
  6
CONTINUOUS
 10
281.6484400663
 20
471.5297454471
 11
332.5484400663
 21
471.5297454471
  0
LINE
  8
KONSTRUKTIONSELEMENTE
 62
7
  6
CONTINUOUS
 10
357.1484400663
 20
471.5297454471
 11
440.0484400663
 21
471.5297454471
  0
LINE
  8
KONSTRUKTIONSELEMENTE
 62
7
  6
CONTINUOUS
 10
248.5484400663
 20
471.8297454471
 11
246.5484400663
 21
471.8297454471
  0
LINE
  8
BEZUGSACHSEN
 62
7
  6
CONTINUOUS
 10
257.1220331951
 20
470.5297454471
 11
257.1220331951
 21
468.6297454471
  0
LINE
  8
0
 62
7
  6
CONTINUOUS
 10
259.0484400663
 20
491.3297454471
 11
259.0484400663
 21
504.3297454471
  0
LINE
  8
0
 62
7
  6
CONTINUOUS
 10
272.7484400663
 20
504.3297454471
 11
272.7484400663
 21
521.3297454471
  0
LINE
  8
0
 62
7
  6
CONTINUOUS
 10
415.0484400663
 20
491.3297454471
 11
357.1484400663
 21
491.3297454471
  0
LINE
  8
0
 62
7
  6
CONTINUOUS
 10
332.5484400663
 20
491.3297454471
 11
281.6484400663
 21
491.3297454471
  0
LINE
  8
0
 62
7
  6
CONTINUOUS
 10
248.5484400663
 20
491.3297454471
 11
259.0484400663
 21
491.3297454471
  0
LINE
  8
0
 62
7
  6
CONTINUOUS
 10
430.0484400663
 20
491.3297454471
 11
440.5484400663
 21
491.3297454471
  0
LINE
  8
0
 62
7
  6
CONTINUOUS
 10
281.6484400663
 20
468.5297454471
 11
281.6484400663
 21
521.0297454471
  0
LINE
  8
0
 62
7
  6
CONTINUOUS
 10
415.0484400663
 20
504.3297454471
 11
357.1484400663
 21
504.3297454471
  0
LINE
  8
0
 62
7
  6
CONTINUOUS
 10
332.5484400663
 20
504.3297454471
 11
281.6484400663
 21
504.3297454471
  0
LINE
  8
0
 62
7
  6
CONTINUOUS
 10
272.7484400663
 20
504.3297454471
 11
259.0484400663
 21
504.3297454471
  0
LINE
  8
0
 62
7
  6
CONTINUOUS
 10
416.3484400663
 20
504.3297454471
 11
430.0484400663
 21
504.3297454471
  0
LINE
  8
BEZUGSACHSEN
 62
7
  6
CONTINUOUS
 10
289.5484400663
 20
470.5297454471
 11
289.5484400663
 21
468.6297454471
  0
LINE
  8
BEZUGSACHSEN
 62
7
  6
CONTINUOUS
 10
299.5484400663
 20
470.5297454471
 11
299.5484400663
 21
468.6297454471
  0
LINE
  8
0
 62
7
  6
CONTINUOUS
 10
357.1484400663
 20
521.0297454471
 11
332.5484400663
 21
521.0297454471
  0
LINE
  8
0
 62
7
  6
CONTINUOUS
 10
281.6484400663
 20
521.0297454471
 11
272.7484400663
 21
521.0297454471
  0
LINE
  8
0
 62
7
  6
CONTINUOUS
 10
440.5484400663
 20
521.3297454471
 11
416.3484400663
 21
521.3297454471
  0
LINE
  8
0
 62
7
  6
CONTINUOUS
 10
272.7484400663
 20
521.3297454471
 11
248.5484400663
 21
521.3297454471
  0
LINE
  8
KONSTRUKTIONSELEMENTE
 62
3
  6
CONTINUOUS
 10
246.7484400663
 20
521.3297454471
 11
442.3484400663
 21
521.3297454471
  0
LINE
  8
KONSTRUKTIONSELEMENTE
 62
7
  6
CONTINUOUS
 10
440.5484400663
 20
521.5297454471
 11
442.5484400663
 21
521.5297454471
  0
LINE
  8
KONSTRUKTIONSELEMENTE
 62
7
  6
CONTINUOUS
 10
246.5484400663
 20
521.8297454471
 11
248.5484400663
 21
521.8297454471
  0
LINE
  8
KONSTRUKTIONSELEMENTE
 62
7
  6
CONTINUOUS
 10
246.5484400663
 20
522.3297454471
 11
442.3484400663
 21
522.3297454471
  0
LINE
  8
FASEN
 62
7
  6
CONTINUOUS
 10
246.5484400663
 20
522.5297454471
 11
244.5484400663
 21
522.5297454471
  0
LINE
  8
BEZUGSACHSEN
 62
7
  6
CONTINUOUS
 10
442.5484400663
 20
522.5297454471
 11
444.5484400663
 21
522.5297454471
  0
LINE
  8
KONSTRUKTIONSELEMENTE
 62
7
  6
CONTINUOUS
 10
442.5484400663
 20
524.5297454471
 11
246.5484400663
 21
524.5297454471
  0
LINE
  8
FASEN
 62
7
  6
CONTINUOUS
 10
246.5484400663
 20
524.5297454471
 11
244.5484400663
 21
524.5297454471
  0
LINE
  8
KONSTRUKTIONSELEMENTE
 62
3
  6
CONTINUOUS
 10
244.5484400663
 20
524.5297454471
 11
96.5484400663
 21
524.5297454471
  0
LINE
  8
BEZUGSACHSEN
 62
7
  6
CONTINUOUS
 10
442.5484400663
 20
524.5297454471
 11
444.5484400663
 21
524.5297454471
  0
LINE
  8
0
 62
7
  6
CONTINUOUS
 10
332.5484400663
 20
468.5297454471
 11
332.5484400663
 21
521.0297454471
  0
LINE
  8
0
 62
7
  6
CONTINUOUS
 10
357.1484400663
 20
468.5297454471
 11
357.1484400663
 21
521.0297454471
  0
LINE
  8
BEZUGSACHSEN
 62
7
  6
CONTINUOUS
 10
361.2641688188
 20
470.5297454471
 11
361.2641688188
 21
468.6297454471
  0
LINE
  8
BEZUGSACHSEN
 62
7
  6
CONTINUOUS
 10
371.2641688188
 20
470.5297454471
 11
371.2641688188
 21
468.6297454471
  0
LINE
  8
BEZUGSACHSEN
 62
7
  6
CONTINUOUS
 10
389.5484400663
 20
468.6297454471
 11
389.5484400663
 21
470.5297454471
  0
LINE
  8
BEZUGSACHSEN
 62
7
  6
CONTINUOUS
 10
399.5484400663
 20
468.6297454471
 11
399.5484400663
 21
470.5297454471
  0
LINE
  8
0
 62
7
  6
CONTINUOUS
 10
415.0484400663
 20
521.3297454471
 11
415.0484400663
 21
491.3297454471
  0
LINE
  8
0
 62
7
  6
CONTINUOUS
 10
416.3484400663
 20
521.3297454471
 11
416.3484400663
 21
504.3297454471
  0
LINE
  8
0
 62
7
  6
CONTINUOUS
 10
430.0484400663
 20
504.3297454471
 11
430.0484400663
 21
491.3297454471
  0
LINE
  8
KONSTRUKTIONSELEMENTE
 62
7
  6
CONTINUOUS
 10
440.0484400663
 20
491.3297454471
 11
440.0484400663
 21
471.5297454471
  0
LINE
  8
KONSTRUKTIONSELEMENTE
 62
7
  6
CONTINUOUS
 10
440.5484400663
 20
471.5297454471
 11
440.5484400663
 21
521.5297454471
  0
LINE
  8
KONSTRUKTIONSELEMENTE
 62
9
  6
CONTINUOUS
 10
441.5484400663
 20
466.5297454471
 11
441.5484400663
 21
468.5297454471
  0
LINE
  8
KONSTRUKTIONSELEMENTE
 62
7
  6
CONTINUOUS
 10
441.5484400663
 20
468.5297454471
 11
441.5484400663
 21
469.5297454471
  0
LINE
  8
KONSTRUKTIONSELEMENTE
 62
7
  6
CONTINUOUS
 10
442.3484400663
 20
521.3297454471
 11
442.3484400663
 21
522.3297454471
  0
LINE
  8
BEZUGSACHSEN
 62
7
  6
CONTINUOUS
 10
442.5484400663
 20
469.5297454471
 11
442.5484400663
 21
524.5297454471
  0
LINE
  8
BEZUGSACHSEN
 62
3
  6
CONTINUOUS
 10
444.5484400663
 20
469.5297454471
 11
444.5484400663
 21
524.5297454471
  0
LINE
  8
BEZUGSACHSEN
 62
7
  6
CONTINUOUS
 10
94.5484400663
 20
390.8712091281
 11
94.5484400663
 21
196.8712091281
  0
LINE
  8
KONSTRUKTIONSELEMENTE
 62
7
  6
CONTINUOUS
 10
94.5484400663
 20
196.8712091281
 11
94.5484400663
 21
195.8712091281
  0
LINE
  8
BEZUGSACHSEN
 62
7
  6
CONTINUOUS
 10
94.5484400663
 20
195.8712091281
 11
94.5484400663
 21
193.8712091281
  0
LINE
  8
KONSTRUKTIONSELEMENTE
 62
7
  6
CONTINUOUS
 10
94.5484400663
 20
390.8712091281
 11
94.5484400663
 21
391.8712091281
  0
LINE
  8
FASEN
 62
7
  6
CONTINUOUS
 10
94.5484400663
 20
391.8712091281
 11
94.5484400663
 21
393.8712091281
  0
LINE
  8
KONSTRUKTIONSELEMENTE
 62
7
  6
CONTINUOUS
 10
95.0484400663
 20
391.8712091281
 11
95.0484400663
 21
195.8712091281
  0
LINE
  8
BEZUGSACHSEN
 62
7
  6
CONTINUOUS
 10
96.5484400663
 20
195.8712091281
 11
96.5484400663
 21
193.8712091281
  0
LINE
  8
FASEN
 62
7
  6
CONTINUOUS
 10
96.5484400663
 20
391.8712091281
 11
96.5484400663
 21
393.8712091281
  0
LINE
  8
KONSTRUKTIONSELEMENTE
 62
7
  6
CONTINUOUS
 10
247.5484400663
 20
43.8712091281
 11
246.5484400663
 21
43.8712091281
  0
LINE
  8
FASEN
 62
7
  6
CONTINUOUS
 10
246.5484400663
 20
43.8712091281
 11
244.5484400663
 21
43.8712091281
  0
LINE
  8
BEZUGSACHSEN
 62
7
  6
CONTINUOUS
 10
247.5484400663
 20
43.8712091281
 11
441.5484400663
 21
43.8712091281
  0
LINE
  8
KONSTRUKTIONSELEMENTE
 62
7
  6
CONTINUOUS
 10
441.5484400663
 20
43.8712091281
 11
442.5484400663
 21
43.8712091281
  0
LINE
  8
BEZUGSACHSEN
 62
7
  6
CONTINUOUS
 10
442.5484400663
 20
43.8712091281
 11
444.5484400663
 21
43.8712091281
  0
LINE
  8
KONSTRUKTIONSELEMENTE
 62
7
  6
CONTINUOUS
 10
246.5484400663
 20
44.3712091281
 11
442.5484400663
 21
44.3712091281
  0
LINE
  8
FASEN
 62
7
  6
CONTINUOUS
 10
246.5484400663
 20
45.8712091281
 11
244.5484400663
 21
45.8712091281
  0
LINE
  8
BEZUGSACHSEN
 62
7
  6
CONTINUOUS
 10
442.5484400663
 20
45.8712091281
 11
444.5484400663
 21
45.8712091281
  0
LINE
  8
FASEN
 62
3
  6
CONTINUOUS
 10
244.5484400663
 20
43.8712091281
 11
244.5484400663
 21
45.8712091281
  0
LINE
  8
KONSTRUKTIONSELEMENTE
 62
3
  6
CONTINUOUS
 10
244.5484400663
 20
45.8712091281
 11
244.5484400663
 21
193.8712091281
  0
LINE
  8
KONSTRUKTIONSELEMENTE
 62
7
  6
CONTINUOUS
 10
246.0484400663
 20
196.0712091281
 11
246.0484400663
 21
195.8712091281
  0
LINE
  8
KONSTRUKTIONSELEMENTE
 62
7
  6
CONTINUOUS
 10
246.3484400663
 20
193.8712091281
 11
246.3484400663
 21
195.8712091281
  0
LINE
  8
FASEN
 62
7
  6
CONTINUOUS
 10
246.5484400663
 20
45.8712091281
 11
246.5484400663
 21
43.8712091281
  0
LINE
  8
KONSTRUKTIONSELEMENTE
 62
7
  6
CONTINUOUS
 10
246.5484400663
 20
45.8712091281
 11
246.5484400663
 21
196.0712091281
  0
LINE
  8
KONSTRUKTIONSELEMENTE
 62
7
  6
CONTINUOUS
 10
246.7484400663
 20
196.0712091281
 11
246.7484400663
 21
44.3712091281
  0
LINE
  8
KONSTRUKTIONSELEMENTE
 62
9
  6
CONTINUOUS
 10
247.5484400663
 20
43.8712091281
 11
247.5484400663
 21
44.3712091281
  0
LINE
  8
KONSTRUKTIONSELEMENTE
 62
3
  6
CONTINUOUS
 10
246.3484400663
 20
193.8712091281
 11
96.5484400663
 21
193.8712091281
  0
LINE
  8
BEZUGSACHSEN
 62
3
  6
CONTINUOUS
 10
94.5484400663
 20
193.8712091281
 11
96.5484400663
 21
193.8712091281
  0
LINE
  8
KONSTRUKTIONSELEMENTE
 62
7
  6
CONTINUOUS
 10
246.3484400663
 20
193.8712091281
 11
246.5484400663
 21
193.8712091281
  0
LINE
  8
BEZUGSACHSEN
 62
7
  6
CONTINUOUS
 10
96.5484400663
 20
195.8712091281
 11
94.5484400663
 21
195.8712091281
  0
LINE
  8
KONSTRUKTIONSELEMENTE
 62
7
  6
CONTINUOUS
 10
96.5484400663
 20
195.8712091281
 11
246.3484400663
 21
195.8712091281
  0
LINE
  8
KONSTRUKTIONSELEMENTE
 62
7
  6
CONTINUOUS
 10
95.0484400663
 20
196.0712091281
 11
246.7484400663
 21
196.0712091281
  0
LINE
  8
KONSTRUKTIONSELEMENTE
 62
9
  6
CONTINUOUS
 10
94.5484400663
 20
196.8712091281
 11
95.0484400663
 21
196.8712091281
  0
LINE
  8
KONSTRUKTIONSELEMENTE
 62
7
  6
CONTINUOUS
 10
440.0484400663
 20
391.8712091281
 11
440.0484400663
 21
391.6712091281
  0
LINE
  8
KONSTRUKTIONSELEMENTE
 62
9
  6
CONTINUOUS
 10
441.5484400663
 20
43.8712091281
 11
441.5484400663
 21
44.3712091281
  0
LINE
  8
KONSTRUKTIONSELEMENTE
 62
7
  6
CONTINUOUS
 10
441.5484400663
 20
391.6712091281
 11
441.5484400663
 21
391.8712091281
  0
LINE
  8
KONSTRUKTIONSELEMENTE
 62
7
  6
CONTINUOUS
 10
442.3484400663
 20
44.3712091281
 11
442.3484400663
 21
391.6712091281
  0
LINE
  8
BEZUGSACHSEN
 62
7
  6
CONTINUOUS
 10
442.5484400663
 20
45.8712091281
 11
442.5484400663
 21
43.8712091281
  0
LINE
  8
KONSTRUKTIONSELEMENTE
 62
7
  6
CONTINUOUS
 10
442.5484400663
 20
45.8712091281
 11
442.5484400663
 21
391.8712091281
  0
LINE
  8
KONSTRUKTIONSELEMENTE
 62
7
  6
CONTINUOUS
 10
444.3484400663
 20
393.8712091281
 11
444.3484400663
 21
391.8712091281
  0
LINE
  8
BEZUGSACHSEN
 62
3
  6
CONTINUOUS
 10
444.5484400663
 20
43.8712091281
 11
444.5484400663
 21
45.8712091281
  0
LINE
  8
KONSTRUKTIONSELEMENTE
 62
3
  6
CONTINUOUS
 10
444.5484400663
 20
45.8712091281
 11
444.5484400663
 21
391.8712091281
  0
LINE
  8
KONSTRUKTIONSELEMENTE
 62
9
  6
CONTINUOUS
 10
94.5484400663
 20
390.8712091281
 11
95.0484400663
 21
390.8712091281
  0
LINE
  8
KONSTRUKTIONSELEMENTE
 62
7
  6
CONTINUOUS
 10
442.3484400663
 20
391.3712091281
 11
442.5484400663
 21
391.3712091281
  0
LINE
  8
KONSTRUKTIONSELEMENTE
 62
7
  6
CONTINUOUS
 10
442.3484400663
 20
391.6712091281
 11
95.0484400663
 21
391.6712091281
  0
LINE
  8
KONSTRUKTIONSELEMENTE
 62
7
  6
CONTINUOUS
 10
444.5484400663
 20
391.8712091281
 11
96.5484400663
 21
391.8712091281
  0
LINE
  8
FASEN
 62
7
  6
CONTINUOUS
 10
96.5484400663
 20
391.8712091281
 11
94.5484400663
 21
391.8712091281
  0
LINE
  8
FASEN
 62
3
  6
CONTINUOUS
 10
94.5484400663
 20
393.8712091281
 11
96.5484400663
 21
393.8712091281
  0
LINE
  8
KONSTRUKTIONSELEMENTE
 62
3
  6
CONTINUOUS
 10
96.5484400663
 20
393.8712091281
 11
444.3484400663
 21
393.8712091281
  0
ARC
  8
KONSTRUKTIONSELEMENTE
 62
3
  6
CONTINUOUS
 10
247.5484400663
 20
469.5297454471
 40
3.0
 50
180.0
 51
270.0
  0
ARC
  8
KONSTRUKTIONSELEMENTE
 62
3
  6
CONTINUOUS
 10
441.5484400663
 20
469.5297454471
 40
3.0
 50
270.0
 51
360.0
  0
ARC
  8
KONSTRUKTIONSELEMENTE
 62
7
  6
CONTINUOUS
 10
247.5484400663
 20
469.5297454471
 40
1.0
 50
180.0
 51
270.0
  0
ARC
  8
KONSTRUKTIONSELEMENTE
 62
7
  6
CONTINUOUS
 10
441.5484400663
 20
469.5297454471
 40
1.0
 50
270.0
 51
360.0
  0
ARC
  8
BEZUGSACHSEN
 62
7
  6
CONTINUOUS
 10
299.6484400663
 20
468.6297454471
 40
0.1
 50
180.0
 51
270.0
  0
ARC
  8
BEZUGSACHSEN
 62
7
  6
CONTINUOUS
 10
289.4484400663
 20
468.6297454471
 40
0.1
 50
270.0
 51
360.0
  0
ARC
  8
BEZUGSACHSEN
 62
7
  6
CONTINUOUS
 10
399.6484400663
 20
468.6297454471
 40
0.1
 50
180.0
 51
270.0
  0
ARC
  8
BEZUGSACHSEN
 62
7
  6
CONTINUOUS
 10
389.4484400663
 20
468.6297454471
 40
0.1
 50
270.0
 51
360.0
  0
ARC
  8
BEZUGSACHSEN
 62
7
  6
CONTINUOUS
 10
247.0220331951
 20
468.6297454471
 40
0.1
 50
357.5313565218
 51
360.0
  0
ARC
  8
BEZUGSACHSEN
 62
7
  6
CONTINUOUS
 10
257.2220331951
 20
468.6297454471
 40
0.1
 50
180.0
 51
270.0
  0
ARC
  8
BEZUGSACHSEN
 62
7
  6
CONTINUOUS
 10
371.3641688188
 20
468.6297454471
 40
0.1
 50
180.0
 51
270.0
  0
ARC
  8
BEZUGSACHSEN
 62
7
  6
CONTINUOUS
 10
361.1641688188
 20
468.6297454471
 40
0.1
 50
270.0
 51
360.0
  0
ENDSEC
  0
EOF
