999
DXF file: bkg30080511.dxf
999
Pro/ENGINEER 2022024 by Parametric Technology Corporation
  0
SECTION
  2
HEADER
  9
$EXTMAX
 10
594.0
 20
420.0
 30
0.0
  9
$EXTMIN
 10
0.0
 20
0.0
 30
0.0
  9
$LIMMIN
 10
0.0
 20
0.0
  9
$LIMMAX
 10
594.0
 20
420.0
  9
$VIEWCTR
 10
297.0
 20
210.0
  9
$VIEWSIZE
 40
420.0
  9
$CLAYER
  8
0
  9
$LTSCALE
 40
32.67
  9
$CELTYPE
  6
BYLAYER
  9
$DIMSCALE
 40
1.0
  9
$DIMASZ
 40
3.5
  9
$DIMEXO
 40
0.0
  9
$DIMDLI
 40
22.572
  9
$DIMEXE
 40
1.5
  9
$DIMCEN
 40
5.346
  9
$DIMLFAC
 40
1.0
  9
$DIMBLK
  1
_FILLED
  9
$DIMALT
 70
0
  9
$DIMALTF
 40
0.0393700787
  9
$DIMTXT
 40
3.5
  9
$AUNITS
 70
0
  9
$PDMODE
 70
3
  9
$PDSIZE
 40
0.3125
  9
$TILEMODE
 70
1
  0
ENDSEC
  0
SECTION
  2
TABLES
  0
TABLE
  2
LTYPE
 70
6
  0
LTYPE
  2
BYBLOCK
 70
0
  3

 72
65
 73
0
 40
0.0
  0
LTYPE
  2
BYLAYER
 70
0
  3

 72
65
 73
0
 40
0.0
  0
LTYPE
  2
CONTINUOUS
 70
64
  3
Solid line
 72
65
 73
0
 40
0.0
  0
LTYPE
  2
CENTER
 70
64
  3
____ _ ____ _ ____ _ ____ _ ____ _ ____ _ ____
 72
65
 73
4
 40
0.6
 49
0.375
 49
-0.075
 49
0.075
 49
-0.075
  0
LTYPE
  2
HIDDEN
 70
64
  3
- - - - - - - - - - - - - - - - - - - -
 72
65
 73
2
 40
0.2
 49
0.1
 49
-0.1
  0
LTYPE
  2
PHANTOM
 70
64
  3
_____ _ _ _____ _ _ _____ _ _ _____
 72
65
 73
6
 40
0.8
 49
0.45
 49
-0.05
 49
0.1
 49
-0.05
 49
0.1
 49
-0.05
  0
LTYPE
  2
DOT
 70
64
  3
. . . . . . . . . . . . . . . . . . . .
 72
65
 73
2
 40
0.2
 49
0.1
 49
-0.1
  0
LTYPE
  2
DASHED
 70
64
  3
- - - - - - - - - - - - - - - - - - - -
 72
65
 73
2
 40
0.2
 49
0.1
 49
-0.1
  0
ENDTAB
  0
TABLE
  2
LAYER
 70
36
  0
LAYER
  2
0
 70
0
 62
7
  6
CONTINUOUS
  0
LAYER
  2
DEFAULT_1
 70
0
 62
7
  6
CENTER
  0
LAYER
  2
DEFAULT_2
 70
0
 62
8
  6
HIDDEN
  0
LAYER
  2
DEFAULT_3
 70
0
 62
7
  6
PHANTOM
  0
LAYER
  2
01_STARTBEZUEGE
 70
0
 62
7
  6
CONTINUOUS
  0
LAYER
  2
AUSFORMSCHRAEGEN
 70
0
 62
7
  6
CONTINUOUS
  0
LAYER
  2
BEZUGSACHSEN
 70
0
 62
7
  6
CONTINUOUS
  0
LAYER
  2
BEZUGSEBENEN
 70
0
 62
7
  6
CONTINUOUS
  0
LAYER
  2
BEZUGSPUNKTE
 70
0
 62
7
  6
CONTINUOUS
  0
LAYER
  2
BOHRUNGEN
 70
0
 62
7
  6
CONTINUOUS
  0
LAYER
  2
FASEN
 70
0
 62
7
  6
CONTINUOUS
  0
LAYER
  2
FLAECHEN
 70
0
 62
7
  6
CONTINUOUS
  0
LAYER
  2
GEWINDE
 70
0
 62
7
  6
CONTINUOUS
  0
LAYER
  2
GTOL
 70
0
 62
7
  6
CONTINUOUS
  0
LAYER
  2
KONSTRUKTIONSELEMENTE
 70
0
 62
7
  6
CONTINUOUS
  0
LAYER
  2
KOORDINATENSYSTEME
 70
0
 62
7
  6
CONTINUOUS
  0
LAYER
  2
KURVEN
 70
0
 62
7
  6
CONTINUOUS
  0
LAYER
  2
NOTIZ
 70
0
 62
7
  6
CONTINUOUS
  0
LAYER
  2
RUNDUNGEN
 70
0
 62
7
  6
CONTINUOUS
  0
LAYER
  2
SURFACES
 70
0
 62
7
  6
CONTINUOUS
  0
LAYER
  2
VOLUMEN
 70
0
 62
7
  6
CONTINUOUS
  0
LAYER
  2
XSEC_DATUMS
 70
0
 62
7
  6
CONTINUOUS
  0
ENDTAB
  0
TABLE
  2
STYLE
 70
1
  0
STYLE
  2
STANDARD
 70
0
 40
0.0
 41
0.7
 50
0.0
 71
0
 42
0.2
  3
txt
  4

  0
STYLE
  2
TEXTSTYLE_1
 70
0
 40
0.0
 41
0.8
 50
0.0
 71
0
 42
0.2
  3
gdt
  4

  0
ENDTAB
  0
ENDSEC
  0
SECTION
  2
BLOCKS
  0
BLOCK
  8
0
  2
_FILLED
 70
64
 10
0.0
 20
0.0
  0
SOLID
  8
0
  6
BYBLOCK
 62
0
 10
0.0
 20
0.0
 11
-1.0
 21
0.125
 12
-1.0
 22
-0.125
 13
-1.0
 23
-0.125
  0
ENDBLK
  8
0
  6
BYBLOCK
 62
0
  0
ENDSEC
  0
SECTION
  2
ENTITIES
  0
LINE
  8
KONSTRUKTIONSELEMENTE
 62
3
  6
CONTINUOUS
 10
141.2013037376
 20
236.4378031335
 11
141.2013037376
 21
239.4378031335
  0
LINE
  8
BEZUGSACHSEN
 62
3
  6
CONTINUOUS
 10
141.2013037376
 20
239.4378031335
 11
141.2013037376
 21
312.4378031335
  0
LINE
  8
BEZUGSACHSEN
 62
3
  6
CONTINUOUS
 10
141.2013037376
 20
312.4378031335
 11
143.2013037376
 21
314.4378031335
  0
LINE
  8
BEZUGSACHSEN
 62
3
  6
CONTINUOUS
 10
588.2013037376
 20
236.4378031335
 11
294.2013037376
 21
236.4378031335
  0
LINE
  8
KONSTRUKTIONSELEMENTE
 62
3
  6
CONTINUOUS
 10
141.2013037376
 20
236.4378031335
 11
294.2013037376
 21
236.4378031335
  0
LINE
  8
KONSTRUKTIONSELEMENTE
 62
7
  6
CONTINUOUS
 10
291.2013037376
 20
238.4378031335
 11
291.3731238243
 21
238.4378031335
  0
LINE
  8
BEZUGSACHSEN
 62
7
  6
CONTINUOUS
 10
294.2013037376
 20
238.4378031335
 11
588.2013037376
 21
238.4378031335
  0
LINE
  8
BEZUGSACHSEN
 62
9
  6
CONTINUOUS
 10
293.7748968664
 20
238.5378031335
 11
303.7748968664
 21
238.5378031335
  0
LINE
  8
BEZUGSACHSEN
 62
9
  6
CONTINUOUS
 10
336.2013037376
 20
238.5378031335
 11
346.2013037376
 21
238.5378031335
  0
LINE
  8
BEZUGSACHSEN
 62
9
  6
CONTINUOUS
 10
426.2013037376
 20
238.5378031335
 11
436.2013037376
 21
238.5378031335
  0
LINE
  8
BEZUGSACHSEN
 62
9
  6
CONTINUOUS
 10
443.2013037376
 20
238.5378031335
 11
453.2013037376
 21
238.5378031335
  0
LINE
  8
BEZUGSACHSEN
 62
9
  6
CONTINUOUS
 10
507.9170324901
 20
238.5378031335
 11
517.9170324901
 21
238.5378031335
  0
LINE
  8
BEZUGSACHSEN
 62
9
  6
CONTINUOUS
 10
536.2013037376
 20
238.5378031335
 11
546.2013037376
 21
238.5378031335
  0
LINE
  8
KONSTRUKTIONSELEMENTE
 62
9
  6
CONTINUOUS
 10
591.2013037376
 20
239.4378031335
 11
589.2013037376
 21
239.4378031335
  0
LINE
  8
KONSTRUKTIONSELEMENTE
 62
9
  6
CONTINUOUS
 10
141.2013037376
 20
239.4378031335
 11
293.2013037376
 21
239.4378031335
  0
LINE
  8
KONSTRUKTIONSELEMENTE
 62
9
  6
CONTINUOUS
 10
346.2013037376
 20
239.4378031335
 11
361.7373264813
 21
239.4378031335
  0
LINE
  8
KONSTRUKTIONSELEMENTE
 62
9
  6
CONTINUOUS
 10
506.1285311996
 20
239.4378031335
 11
507.9170324901
 21
239.4378031335
  0
LINE
  8
KONSTRUKTIONSELEMENTE
 62
9
  6
CONTINUOUS
 10
517.9170324901
 20
239.4378031335
 11
536.2013037376
 21
239.4378031335
  0
LINE
  8
KONSTRUKTIONSELEMENTE
 62
9
  6
CONTINUOUS
 10
546.2013037376
 20
239.4378031335
 11
588.2013037376
 21
239.4378031335
  0
LINE
  8
KONSTRUKTIONSELEMENTE
 62
7
  6
CONTINUOUS
 10
588.2013037376
 20
239.4378031335
 11
589.2013037376
 21
239.4378031335
  0
LINE
  8
BEZUGSACHSEN
 62
7
  6
CONTINUOUS
 10
546.2013037376
 20
240.4378031335
 11
536.2013037376
 21
240.4378031335
  0
LINE
  8
BEZUGSACHSEN
 62
7
  6
CONTINUOUS
 10
517.9170324901
 20
240.4378031335
 11
507.9170324901
 21
240.4378031335
  0
LINE
  8
BEZUGSACHSEN
 62
7
  6
CONTINUOUS
 10
453.2013037376
 20
240.4378031335
 11
443.2013037376
 21
240.4378031335
  0
LINE
  8
BEZUGSACHSEN
 62
7
  6
CONTINUOUS
 10
436.2013037376
 20
240.4378031335
 11
426.2013037376
 21
240.4378031335
  0
LINE
  8
BEZUGSACHSEN
 62
7
  6
CONTINUOUS
 10
346.2013037376
 20
240.4378031335
 11
336.2013037376
 21
240.4378031335
  0
LINE
  8
BEZUGSACHSEN
 62
7
  6
CONTINUOUS
 10
303.7748968664
 20
240.4378031335
 11
293.7748968664
 21
240.4378031335
  0
LINE
  8
KONSTRUKTIONSELEMENTE
 62
3
  6
CONTINUOUS
 10
291.2013037376
 20
236.4378031335
 11
291.2013037376
 21
239.4378031335
  0
LINE
  8
FASEN
 62
3
  6
CONTINUOUS
 10
291.2013037376
 20
239.4378031335
 11
291.2013037376
 21
314.4378031335
  0
LINE
  8
FASEN
 62
7
  6
CONTINUOUS
 10
293.2013037376
 20
239.4378031335
 11
293.2013037376
 21
314.4378031335
  0
LINE
  8
KONSTRUKTIONSELEMENTE
 62
7
  6
CONTINUOUS
 10
293.4013037376
 20
311.2378031335
 11
293.4013037376
 21
312.2378031335
  0
LINE
  8
BEZUGSACHSEN
 62
7
  6
CONTINUOUS
 10
293.7748968664
 20
240.4378031335
 11
293.7748968664
 21
238.5378031335
  0
LINE
  8
KONSTRUKTIONSELEMENTE
 62
9
  6
CONTINUOUS
 10
294.2013037376
 20
236.4378031335
 11
294.2013037376
 21
238.4378031335
  0
LINE
  8
KONSTRUKTIONSELEMENTE
 62
7
  6
CONTINUOUS
 10
295.2013037376
 20
311.7378031335
 11
295.2013037376
 21
261.7378031335
  0
LINE
  8
KONSTRUKTIONSELEMENTE
 62
7
  6
CONTINUOUS
 10
589.2013037376
 20
261.4378031335
 11
587.2013037376
 21
261.4378031335
  0
LINE
  8
KONSTRUKTIONSELEMENTE
 62
7
  6
CONTINUOUS
 10
339.3013037376
 20
261.4378031335
 11
361.7373264813
 21
261.4378031335
  0
LINE
  8
KONSTRUKTIONSELEMENTE
 62
7
  6
CONTINUOUS
 10
506.1285311996
 20
261.4378031335
 11
586.7013037376
 21
261.4378031335
  0
LINE
  8
KONSTRUKTIONSELEMENTE
 62
7
  6
CONTINUOUS
 10
295.2013037376
 20
261.7378031335
 11
293.2013037376
 21
261.7378031335
  0
LINE
  8
0
 62
7
  6
CONTINUOUS
 10
403.2013037376
 20
264.1378031335
 11
462.0404233926
 21
264.1378031335
  0
LINE
  8
BEZUGSACHSEN
 62
7
  6
CONTINUOUS
 10
303.7748968664
 20
240.4378031335
 11
303.7748968664
 21
238.5378031335
  0
LINE
  8
0
 62
7
  6
CONTINUOUS
 10
305.7013037376
 20
281.2378031335
 11
305.7013037376
 21
294.2378031335
  0
LINE
  8
0
 62
7
  6
CONTINUOUS
 10
319.4013037376
 20
294.2378031335
 11
319.4013037376
 21
311.2378031335
  0
LINE
  8
0
 62
7
  6
CONTINUOUS
 10
561.7013037376
 20
281.2378031335
 11
506.1285311996
 21
281.2378031335
  0
LINE
  8
0
 62
7
  6
CONTINUOUS
 10
462.0404233926
 20
281.2378031335
 11
417.9169602466
 21
281.2378031335
  0
LINE
  8
0
 62
7
  6
CONTINUOUS
 10
361.7373264813
 20
281.2378031335
 11
339.3013037376
 21
281.2378031335
  0
LINE
  8
0
 62
7
  6
CONTINUOUS
 10
295.2013037376
 20
281.2378031335
 11
305.7013037376
 21
281.2378031335
  0
LINE
  8
0
 62
7
  6
CONTINUOUS
 10
576.7013037376
 20
281.2378031335
 11
587.2013037376
 21
281.2378031335
  0
LINE
  8
0
 62
7
  6
CONTINUOUS
 10
561.7013037376
 20
294.2378031335
 11
506.1285311996
 21
294.2378031335
  0
LINE
  8
0
 62
7
  6
CONTINUOUS
 10
462.0404233926
 20
294.2378031335
 11
417.9169602466
 21
294.2378031335
  0
LINE
  8
0
 62
7
  6
CONTINUOUS
 10
361.7373264813
 20
294.2378031335
 11
339.3013037376
 21
294.2378031335
  0
LINE
  8
0
 62
7
  6
CONTINUOUS
 10
319.4013037376
 20
294.2378031335
 11
305.7013037376
 21
294.2378031335
  0
LINE
  8
0
 62
7
  6
CONTINUOUS
 10
563.0013037376
 20
294.2378031335
 11
576.7013037376
 21
294.2378031335
  0
LINE
  8
0
 62
7
  6
CONTINUOUS
 10
329.0347037376
 20
310.9378031335
 11
329.0347037376
 21
238.4378031335
  0
LINE
  8
BEZUGSACHSEN
 62
7
  6
CONTINUOUS
 10
336.2013037376
 20
240.4378031335
 11
336.2013037376
 21
238.5378031335
  0
LINE
  8
0
 62
7
  6
CONTINUOUS
 10
339.3013037376
 20
240.4378031335
 11
339.3013037376
 21
310.9378031335
  0
LINE
  8
0
 62
7
  6
CONTINUOUS
 10
462.0404233926
 20
304.6378031335
 11
403.2013037376
 21
304.6378031335
  0
LINE
  8
0
 62
7
  6
CONTINUOUS
 10
319.4013037376
 20
310.9378031335
 11
339.3013037376
 21
310.9378031335
  0
LINE
  8
0
 62
7
  6
CONTINUOUS
 10
361.7373264813
 20
310.9378031335
 11
506.1285311996
 21
310.9378031335
  0
LINE
  8
0
 62
7
  6
CONTINUOUS
 10
587.2013037376
 20
311.2378031335
 11
563.0013037376
 21
311.2378031335
  0
LINE
  8
0
 62
7
  6
CONTINUOUS
 10
319.4013037376
 20
311.2378031335
 11
295.2013037376
 21
311.2378031335
  0
LINE
  8
KONSTRUKTIONSELEMENTE
 62
3
  6
CONTINUOUS
 10
293.4013037376
 20
311.2378031335
 11
589.0013037376
 21
311.2378031335
  0
LINE
  8
KONSTRUKTIONSELEMENTE
 62
7
  6
CONTINUOUS
 10
587.2013037376
 20
311.4378031335
 11
589.2013037376
 21
311.4378031335
  0
LINE
  8
KONSTRUKTIONSELEMENTE
 62
7
  6
CONTINUOUS
 10
293.2013037376
 20
311.7378031335
 11
295.2013037376
 21
311.7378031335
  0
LINE
  8
KONSTRUKTIONSELEMENTE
 62
7
  6
CONTINUOUS
 10
293.2013037376
 20
312.2378031335
 11
589.0013037376
 21
312.2378031335
  0
LINE
  8
FASEN
 62
7
  6
CONTINUOUS
 10
293.2013037376
 20
312.4378031335
 11
291.2013037376
 21
312.4378031335
  0
LINE
  8
BEZUGSACHSEN
 62
7
  6
CONTINUOUS
 10
589.2013037376
 20
312.4378031335
 11
591.2013037376
 21
312.4378031335
  0
LINE
  8
KONSTRUKTIONSELEMENTE
 62
7
  6
CONTINUOUS
 10
589.2013037376
 20
314.4378031335
 11
293.2013037376
 21
314.4378031335
  0
LINE
  8
FASEN
 62
7
  6
CONTINUOUS
 10
293.2013037376
 20
314.4378031335
 11
291.2013037376
 21
314.4378031335
  0
LINE
  8
KONSTRUKTIONSELEMENTE
 62
3
  6
CONTINUOUS
 10
291.2013037376
 20
314.4378031335
 11
143.2013037376
 21
314.4378031335
  0
LINE
  8
BEZUGSACHSEN
 62
7
  6
CONTINUOUS
 10
589.2013037376
 20
314.4378031335
 11
591.2013037376
 21
314.4378031335
  0
LINE
  8
BEZUGSACHSEN
 62
7
  6
CONTINUOUS
 10
346.2013037376
 20
240.4378031335
 11
346.2013037376
 21
238.5378031335
  0
LINE
  8
0
 62
7
  6
CONTINUOUS
 10
361.7373264813
 20
310.9378031335
 11
361.7373264813
 21
238.4378031335
  0
LINE
  8
0
 62
7
  6
CONTINUOUS
 10
378.6013037376
 20
310.9378031335
 11
378.6013037376
 21
238.4378031335
  0
LINE
  8
0
 62
7
  6
CONTINUOUS
 10
403.2013037376
 20
310.9378031335
 11
403.2013037376
 21
238.4378031335
  0
LINE
  8
0
 62
7
  6
CONTINUOUS
 10
417.9169602466
 20
304.6378031335
 11
417.9169602466
 21
264.1378031335
  0
LINE
  8
BEZUGSACHSEN
 62
7
  6
CONTINUOUS
 10
426.2013037376
 20
238.5378031335
 11
426.2013037376
 21
240.4378031335
  0
LINE
  8
BEZUGSACHSEN
 62
7
  6
CONTINUOUS
 10
436.2013037376
 20
238.5378031335
 11
436.2013037376
 21
240.4378031335
  0
LINE
  8
BEZUGSACHSEN
 62
7
  6
CONTINUOUS
 10
443.2013037376
 20
240.4378031335
 11
443.2013037376
 21
238.5378031335
  0
LINE
  8
BEZUGSACHSEN
 62
7
  6
CONTINUOUS
 10
453.2013037376
 20
240.4378031335
 11
453.2013037376
 21
238.5378031335
  0
LINE
  8
0
 62
7
  6
CONTINUOUS
 10
462.0404233926
 20
264.1378031335
 11
462.0404233926
 21
304.6378031335
  0
LINE
  8
0
 62
7
  6
CONTINUOUS
 10
479.2013037376
 20
238.4378031335
 11
479.2013037376
 21
310.9378031335
  0
LINE
  8
0
 62
7
  6
CONTINUOUS
 10
503.8013037376
 20
238.4378031335
 11
503.8013037376
 21
310.9378031335
  0
LINE
  8
0
 62
7
  6
CONTINUOUS
 10
506.1285311996
 20
238.4378031335
 11
506.1285311996
 21
310.9378031335
  0
LINE
  8
BEZUGSACHSEN
 62
7
  6
CONTINUOUS
 10
507.9170324901
 20
240.4378031335
 11
507.9170324901
 21
238.5378031335
  0
LINE
  8
BEZUGSACHSEN
 62
7
  6
CONTINUOUS
 10
517.9170324901
 20
240.4378031335
 11
517.9170324901
 21
238.5378031335
  0
LINE
  8
BEZUGSACHSEN
 62
7
  6
CONTINUOUS
 10
536.2013037376
 20
238.5378031335
 11
536.2013037376
 21
240.4378031335
  0
LINE
  8
BEZUGSACHSEN
 62
7
  6
CONTINUOUS
 10
546.2013037376
 20
238.5378031335
 11
546.2013037376
 21
240.4378031335
  0
LINE
  8
0
 62
7
  6
CONTINUOUS
 10
561.7013037376
 20
311.2378031335
 11
561.7013037376
 21
281.2378031335
  0
LINE
  8
0
 62
7
  6
CONTINUOUS
 10
563.0013037376
 20
311.2378031335
 11
563.0013037376
 21
294.2378031335
  0
LINE
  8
0
 62
7
  6
CONTINUOUS
 10
576.7013037376
 20
294.2378031335
 11
576.7013037376
 21
281.2378031335
  0
LINE
  8
KONSTRUKTIONSELEMENTE
 62
7
  6
CONTINUOUS
 10
586.7013037376
 20
281.2378031335
 11
586.7013037376
 21
261.4378031335
  0
LINE
  8
KONSTRUKTIONSELEMENTE
 62
7
  6
CONTINUOUS
 10
587.2013037376
 20
261.4378031335
 11
587.2013037376
 21
311.4378031335
  0
LINE
  8
KONSTRUKTIONSELEMENTE
 62
9
  6
CONTINUOUS
 10
588.2013037376
 20
236.4378031335
 11
588.2013037376
 21
238.4378031335
  0
LINE
  8
KONSTRUKTIONSELEMENTE
 62
7
  6
CONTINUOUS
 10
588.2013037376
 20
238.4378031335
 11
588.2013037376
 21
239.4378031335
  0
LINE
  8
KONSTRUKTIONSELEMENTE
 62
7
  6
CONTINUOUS
 10
589.0013037376
 20
311.2378031335
 11
589.0013037376
 21
312.2378031335
  0
LINE
  8
BEZUGSACHSEN
 62
7
  6
CONTINUOUS
 10
589.2013037376
 20
239.4378031335
 11
589.2013037376
 21
314.4378031335
  0
LINE
  8
BEZUGSACHSEN
 62
3
  6
CONTINUOUS
 10
591.2013037376
 20
239.4378031335
 11
591.2013037376
 21
314.4378031335
  0
LINE
  8
BEZUGSACHSEN
 62
7
  6
CONTINUOUS
 10
141.2013037376
 20
171.1707988483
 11
141.2013037376
 21
-122.8292011517
  0
LINE
  8
KONSTRUKTIONSELEMENTE
 62
7
  6
CONTINUOUS
 10
141.2013037376
 20
-122.8292011517
 11
141.2013037376
 21
-123.8292011517
  0
LINE
  8
BEZUGSACHSEN
 62
7
  6
CONTINUOUS
 10
141.2013037376
 20
-123.8292011517
 11
141.2013037376
 21
-125.8292011517
  0
LINE
  8
KONSTRUKTIONSELEMENTE
 62
7
  6
CONTINUOUS
 10
141.2013037376
 20
171.1707988483
 11
141.2013037376
 21
172.1707988483
  0
LINE
  8
FASEN
 62
7
  6
CONTINUOUS
 10
141.2013037376
 20
172.1707988483
 11
141.2013037376
 21
174.1707988483
  0
LINE
  8
KONSTRUKTIONSELEMENTE
 62
7
  6
CONTINUOUS
 10
141.7013037376
 20
172.1707988483
 11
141.7013037376
 21
-123.8292011517
  0
LINE
  8
BEZUGSACHSEN
 62
7
  6
CONTINUOUS
 10
143.2013037376
 20
-123.8292011517
 11
143.2013037376
 21
-125.8292011517
  0
LINE
  8
FASEN
 62
7
  6
CONTINUOUS
 10
143.2013037376
 20
172.1707988483
 11
143.2013037376
 21
174.1707988483
  0
LINE
  8
KONSTRUKTIONSELEMENTE
 62
7
  6
CONTINUOUS
 10
294.2013037376
 20
-275.8292011517
 11
293.2013037376
 21
-275.8292011517
  0
LINE
  8
FASEN
 62
7
  6
CONTINUOUS
 10
293.2013037376
 20
-275.8292011517
 11
291.2013037376
 21
-275.8292011517
  0
LINE
  8
BEZUGSACHSEN
 62
7
  6
CONTINUOUS
 10
294.2013037376
 20
-275.8292011517
 11
588.2013037376
 21
-275.8292011517
  0
LINE
  8
KONSTRUKTIONSELEMENTE
 62
7
  6
CONTINUOUS
 10
588.2013037376
 20
-275.8292011517
 11
589.2013037376
 21
-275.8292011517
  0
LINE
  8
BEZUGSACHSEN
 62
7
  6
CONTINUOUS
 10
589.2013037376
 20
-275.8292011517
 11
591.2013037376
 21
-275.8292011517
  0
LINE
  8
KONSTRUKTIONSELEMENTE
 62
7
  6
CONTINUOUS
 10
293.2013037376
 20
-275.3292011517
 11
589.2013037376
 21
-275.3292011517
  0
LINE
  8
FASEN
 62
7
  6
CONTINUOUS
 10
293.2013037376
 20
-273.8292011517
 11
291.2013037376
 21
-273.8292011517
  0
LINE
  8
BEZUGSACHSEN
 62
7
  6
CONTINUOUS
 10
589.2013037376
 20
-273.8292011517
 11
591.2013037376
 21
-273.8292011517
  0
LINE
  8
FASEN
 62
3
  6
CONTINUOUS
 10
291.2013037376
 20
-275.8292011517
 11
291.2013037376
 21
-273.8292011517
  0
LINE
  8
KONSTRUKTIONSELEMENTE
 62
3
  6
CONTINUOUS
 10
291.2013037376
 20
-273.8292011517
 11
291.2013037376
 21
-125.8292011517
  0
LINE
  8
KONSTRUKTIONSELEMENTE
 62
7
  6
CONTINUOUS
 10
292.7013037376
 20
-123.6292011517
 11
292.7013037376
 21
-123.8292011517
  0
LINE
  8
KONSTRUKTIONSELEMENTE
 62
7
  6
CONTINUOUS
 10
293.0013037376
 20
-125.8292011517
 11
293.0013037376
 21
-123.8292011517
  0
LINE
  8
KONSTRUKTIONSELEMENTE
 62
7
  6
CONTINUOUS
 10
293.2013037376
 20
-273.8292011517
 11
293.2013037376
 21
-123.6292011517
  0
LINE
  8
FASEN
 62
7
  6
CONTINUOUS
 10
293.2013037376
 20
-273.8292011517
 11
293.2013037376
 21
-275.8292011517
  0
LINE
  8
KONSTRUKTIONSELEMENTE
 62
7
  6
CONTINUOUS
 10
293.4013037376
 20
-123.6292011517
 11
293.4013037376
 21
-275.3292011517
  0
LINE
  8
KONSTRUKTIONSELEMENTE
 62
9
  6
CONTINUOUS
 10
294.2013037376
 20
-275.8292011517
 11
294.2013037376
 21
-275.3292011517
  0
LINE
  8
KONSTRUKTIONSELEMENTE
 62
3
  6
CONTINUOUS
 10
293.0013037376
 20
-125.8292011517
 11
143.2013037376
 21
-125.8292011517
  0
LINE
  8
BEZUGSACHSEN
 62
3
  6
CONTINUOUS
 10
141.2013037376
 20
-125.8292011517
 11
143.2013037376
 21
-125.8292011517
  0
LINE
  8
KONSTRUKTIONSELEMENTE
 62
7
  6
CONTINUOUS
 10
293.0013037376
 20
-125.8292011517
 11
293.2013037376
 21
-125.8292011517
  0
LINE
  8
BEZUGSACHSEN
 62
7
  6
CONTINUOUS
 10
143.2013037376
 20
-123.8292011517
 11
141.2013037376
 21
-123.8292011517
  0
LINE
  8
KONSTRUKTIONSELEMENTE
 62
7
  6
CONTINUOUS
 10
143.2013037376
 20
-123.8292011517
 11
293.0013037376
 21
-123.8292011517
  0
LINE
  8
KONSTRUKTIONSELEMENTE
 62
7
  6
CONTINUOUS
 10
141.7013037376
 20
-123.6292011517
 11
293.4013037376
 21
-123.6292011517
  0
LINE
  8
KONSTRUKTIONSELEMENTE
 62
9
  6
CONTINUOUS
 10
141.2013037376
 20
-122.8292011517
 11
141.7013037376
 21
-122.8292011517
  0
LINE
  8
KONSTRUKTIONSELEMENTE
 62
7
  6
CONTINUOUS
 10
586.7013037376
 20
172.1707988483
 11
586.7013037376
 21
171.9707988483
  0
LINE
  8
KONSTRUKTIONSELEMENTE
 62
9
  6
CONTINUOUS
 10
588.2013037376
 20
-275.8292011517
 11
588.2013037376
 21
-275.3292011517
  0
LINE
  8
KONSTRUKTIONSELEMENTE
 62
7
  6
CONTINUOUS
 10
588.2013037376
 20
171.9707988483
 11
588.2013037376
 21
172.1707988483
  0
LINE
  8
KONSTRUKTIONSELEMENTE
 62
7
  6
CONTINUOUS
 10
589.0013037376
 20
-275.3292011517
 11
589.0013037376
 21
171.9707988483
  0
LINE
  8
KONSTRUKTIONSELEMENTE
 62
7
  6
CONTINUOUS
 10
589.2013037376
 20
-273.8292011517
 11
589.2013037376
 21
172.1707988483
  0
LINE
  8
BEZUGSACHSEN
 62
7
  6
CONTINUOUS
 10
589.2013037376
 20
-273.8292011517
 11
589.2013037376
 21
-275.8292011517
  0
LINE
  8
KONSTRUKTIONSELEMENTE
 62
7
  6
CONTINUOUS
 10
591.0013037376
 20
174.1707988483
 11
591.0013037376
 21
172.1707988483
  0
LINE
  8
BEZUGSACHSEN
 62
3
  6
CONTINUOUS
 10
591.2013037376
 20
-275.8292011517
 11
591.2013037376
 21
-273.8292011517
  0
LINE
  8
KONSTRUKTIONSELEMENTE
 62
3
  6
CONTINUOUS
 10
591.2013037376
 20
-273.8292011517
 11
591.2013037376
 21
172.1707988483
  0
LINE
  8
KONSTRUKTIONSELEMENTE
 62
9
  6
CONTINUOUS
 10
141.2013037376
 20
171.1707988483
 11
141.7013037376
 21
171.1707988483
  0
LINE
  8
KONSTRUKTIONSELEMENTE
 62
7
  6
CONTINUOUS
 10
589.0013037376
 20
171.6707988483
 11
589.2013037376
 21
171.6707988483
  0
LINE
  8
KONSTRUKTIONSELEMENTE
 62
7
  6
CONTINUOUS
 10
589.0013037376
 20
171.9707988483
 11
141.7013037376
 21
171.9707988483
  0
LINE
  8
KONSTRUKTIONSELEMENTE
 62
7
  6
CONTINUOUS
 10
591.2013037376
 20
172.1707988483
 11
143.2013037376
 21
172.1707988483
  0
LINE
  8
FASEN
 62
7
  6
CONTINUOUS
 10
143.2013037376
 20
172.1707988483
 11
141.2013037376
 21
172.1707988483
  0
LINE
  8
FASEN
 62
3
  6
CONTINUOUS
 10
141.2013037376
 20
174.1707988483
 11
143.2013037376
 21
174.1707988483
  0
LINE
  8
KONSTRUKTIONSELEMENTE
 62
3
  6
CONTINUOUS
 10
143.2013037376
 20
174.1707988483
 11
591.0013037376
 21
174.1707988483
  0
ARC
  8
KONSTRUKTIONSELEMENTE
 62
3
  6
CONTINUOUS
 10
294.2013037376
 20
239.4378031335
 40
3.0
 50
180.0
 51
270.0
  0
ARC
  8
KONSTRUKTIONSELEMENTE
 62
3
  6
CONTINUOUS
 10
588.2013037376
 20
239.4378031335
 40
3.0
 50
270.0
 51
360.0
  0
ARC
  8
KONSTRUKTIONSELEMENTE
 62
7
  6
CONTINUOUS
 10
294.2013037376
 20
239.4378031335
 40
1.0
 50
180.0
 51
270.0
  0
ARC
  8
KONSTRUKTIONSELEMENTE
 62
7
  6
CONTINUOUS
 10
588.2013037376
 20
239.4378031335
 40
1.0
 50
270.0
 51
360.0
  0
ARC
  8
BEZUGSACHSEN
 62
7
  6
CONTINUOUS
 10
346.3013037376
 20
238.5378031335
 40
0.1
 50
180.0
 51
270.0
  0
ARC
  8
BEZUGSACHSEN
 62
7
  6
CONTINUOUS
 10
336.1013037376
 20
238.5378031335
 40
0.1
 50
270.0
 51
360.0
  0
ARC
  8
BEZUGSACHSEN
 62
7
  6
CONTINUOUS
 10
443.1013037376
 20
238.5378031335
 40
0.1
 50
270.0
 51
360.0
  0
ARC
  8
BEZUGSACHSEN
 62
7
  6
CONTINUOUS
 10
453.3013037376
 20
238.5378031335
 40
0.1
 50
180.0
 51
270.0
  0
ARC
  8
BEZUGSACHSEN
 62
7
  6
CONTINUOUS
 10
546.3013037376
 20
238.5378031335
 40
0.1
 50
180.0
 51
270.0
  0
ARC
  8
BEZUGSACHSEN
 62
7
  6
CONTINUOUS
 10
536.1013037376
 20
238.5378031335
 40
0.1
 50
270.0
 51
360.0
  0
ARC
  8
BEZUGSACHSEN
 62
7
  6
CONTINUOUS
 10
436.3013037376
 20
238.5378031335
 40
0.1
 50
180.0
 51
270.0
  0
ARC
  8
BEZUGSACHSEN
 62
7
  6
CONTINUOUS
 10
426.1013037376
 20
238.5378031335
 40
0.1
 50
270.0
 51
360.0
  0
ARC
  8
BEZUGSACHSEN
 62
7
  6
CONTINUOUS
 10
293.6748968664
 20
238.5378031335
 40
0.1
 50
357.522407257
 51
360.0
  0
ARC
  8
BEZUGSACHSEN
 62
7
  6
CONTINUOUS
 10
303.8748968664
 20
238.5378031335
 40
0.1
 50
180.0
 51
270.0
  0
ARC
  8
BEZUGSACHSEN
 62
7
  6
CONTINUOUS
 10
518.0170324901
 20
238.5378031335
 40
0.1
 50
180.0
 51
270.0
  0
ARC
  8
BEZUGSACHSEN
 62
7
  6
CONTINUOUS
 10
507.8170324901
 20
238.5378031335
 40
0.1
 50
270.0
 51
360.0
  0
ENDSEC
  0
EOF
