999
DXF file: bkg40060511.dxf
999
Pro/ENGINEER 2022024 by Parametric Technology Corporation
  0
SECTION
  2
HEADER
  9
$EXTMAX
 10
594.0
 20
420.0
 30
0.0
  9
$EXTMIN
 10
0.0
 20
0.0
 30
0.0
  9
$LIMMIN
 10
0.0
 20
0.0
  9
$LIMMAX
 10
594.0
 20
420.0
  9
$VIEWCTR
 10
297.0
 20
210.0
  9
$VIEWSIZE
 40
420.0
  9
$CLAYER
  8
0
  9
$LTSCALE
 40
32.67
  9
$CELTYPE
  6
BYLAYER
  9
$DIMSCALE
 40
1.0
  9
$DIMASZ
 40
3.5
  9
$DIMEXO
 40
0.0
  9
$DIMDLI
 40
22.572
  9
$DIMEXE
 40
1.5
  9
$DIMCEN
 40
5.346
  9
$DIMLFAC
 40
1.0
  9
$DIMBLK
  1
_FILLED
  9
$DIMALT
 70
0
  9
$DIMALTF
 40
0.0393700787
  9
$DIMTXT
 40
3.5
  9
$AUNITS
 70
0
  9
$PDMODE
 70
3
  9
$PDSIZE
 40
0.3125
  9
$TILEMODE
 70
1
  0
ENDSEC
  0
SECTION
  2
TABLES
  0
TABLE
  2
LTYPE
 70
6
  0
LTYPE
  2
BYBLOCK
 70
0
  3

 72
65
 73
0
 40
0.0
  0
LTYPE
  2
BYLAYER
 70
0
  3

 72
65
 73
0
 40
0.0
  0
LTYPE
  2
CONTINUOUS
 70
64
  3
Solid line
 72
65
 73
0
 40
0.0
  0
LTYPE
  2
CENTER
 70
64
  3
____ _ ____ _ ____ _ ____ _ ____ _ ____ _ ____
 72
65
 73
4
 40
0.6
 49
0.375
 49
-0.075
 49
0.075
 49
-0.075
  0
LTYPE
  2
HIDDEN
 70
64
  3
- - - - - - - - - - - - - - - - - - - -
 72
65
 73
2
 40
0.2
 49
0.1
 49
-0.1
  0
LTYPE
  2
PHANTOM
 70
64
  3
_____ _ _ _____ _ _ _____ _ _ _____
 72
65
 73
6
 40
0.8
 49
0.45
 49
-0.05
 49
0.1
 49
-0.05
 49
0.1
 49
-0.05
  0
LTYPE
  2
DOT
 70
64
  3
. . . . . . . . . . . . . . . . . . . .
 72
65
 73
2
 40
0.2
 49
0.1
 49
-0.1
  0
LTYPE
  2
DASHED
 70
64
  3
- - - - - - - - - - - - - - - - - - - -
 72
65
 73
2
 40
0.2
 49
0.1
 49
-0.1
  0
ENDTAB
  0
TABLE
  2
LAYER
 70
36
  0
LAYER
  2
0
 70
0
 62
7
  6
CONTINUOUS
  0
LAYER
  2
DEFAULT_1
 70
0
 62
7
  6
CENTER
  0
LAYER
  2
DEFAULT_2
 70
0
 62
8
  6
HIDDEN
  0
LAYER
  2
DEFAULT_3
 70
0
 62
7
  6
PHANTOM
  0
LAYER
  2
01_STARTBEZUEGE
 70
0
 62
7
  6
CONTINUOUS
  0
LAYER
  2
AUSFORMSCHRAEGEN
 70
0
 62
7
  6
CONTINUOUS
  0
LAYER
  2
BEZUGSACHSEN
 70
0
 62
7
  6
CONTINUOUS
  0
LAYER
  2
BEZUGSEBENEN
 70
0
 62
7
  6
CONTINUOUS
  0
LAYER
  2
BEZUGSPUNKTE
 70
0
 62
7
  6
CONTINUOUS
  0
LAYER
  2
BOHRUNGEN
 70
0
 62
7
  6
CONTINUOUS
  0
LAYER
  2
FASEN
 70
0
 62
7
  6
CONTINUOUS
  0
LAYER
  2
FLAECHEN
 70
0
 62
7
  6
CONTINUOUS
  0
LAYER
  2
GEWINDE
 70
0
 62
7
  6
CONTINUOUS
  0
LAYER
  2
GTOL
 70
0
 62
7
  6
CONTINUOUS
  0
LAYER
  2
KONSTRUKTIONSELEMENTE
 70
0
 62
7
  6
CONTINUOUS
  0
LAYER
  2
KOORDINATENSYSTEME
 70
0
 62
7
  6
CONTINUOUS
  0
LAYER
  2
KURVEN
 70
0
 62
7
  6
CONTINUOUS
  0
LAYER
  2
NOTIZ
 70
0
 62
7
  6
CONTINUOUS
  0
LAYER
  2
RUNDUNGEN
 70
0
 62
7
  6
CONTINUOUS
  0
LAYER
  2
SURFACES
 70
0
 62
7
  6
CONTINUOUS
  0
LAYER
  2
VOLUMEN
 70
0
 62
7
  6
CONTINUOUS
  0
LAYER
  2
XSEC_DATUMS
 70
0
 62
7
  6
CONTINUOUS
  0
ENDTAB
  0
TABLE
  2
STYLE
 70
1
  0
STYLE
  2
STANDARD
 70
0
 40
0.0
 41
0.7
 50
0.0
 71
0
 42
0.2
  3
txt
  4

  0
STYLE
  2
TEXTSTYLE_1
 70
0
 40
0.0
 41
0.8
 50
0.0
 71
0
 42
0.2
  3
gdt
  4

  0
ENDTAB
  0
ENDSEC
  0
SECTION
  2
BLOCKS
  0
BLOCK
  8
0
  2
_FILLED
 70
64
 10
0.0
 20
0.0
  0
SOLID
  8
0
  6
BYBLOCK
 62
0
 10
0.0
 20
0.0
 11
-1.0
 21
0.125
 12
-1.0
 22
-0.125
 13
-1.0
 23
-0.125
  0
ENDBLK
  8
0
  6
BYBLOCK
 62
0
  0
ENDSEC
  0
SECTION
  2
ENTITIES
  0
LINE
  8
KONSTRUKTIONSELEMENTE
 62
3
  6
CONTINUOUS
 10
16.0811452657
 20
313.1831411785
 11
16.0811452657
 21
316.1831411785
  0
LINE
  8
BEZUGSACHSEN
 62
3
  6
CONTINUOUS
 10
16.0811452657
 20
316.1831411785
 11
16.0811452657
 21
369.1831411785
  0
LINE
  8
BEZUGSACHSEN
 62
3
  6
CONTINUOUS
 10
16.0811452657
 20
369.1831411785
 11
18.0811452657
 21
371.1831411785
  0
POLYLINE
  8
0
 62
7
  6
CONTINUOUS
 66
1
 70
0
  0
VERTEX
  8
0
 62
7
  6
CONTINUOUS
 10
470.5629106064
 20
315.3550926936
  0
VERTEX
  8
0
 62
7
  6
CONTINUOUS
 10
470.5643419511
 20
315.35531957
  0
VERTEX
  8
0
 62
7
  6
CONTINUOUS
 10
470.5657159234
 20
315.3555438809
  0
VERTEX
  8
0
 62
7
  6
CONTINUOUS
 10
470.5670347013
 20
315.3557658705
  0
VERTEX
  8
0
 62
7
  6
CONTINUOUS
 10
470.5683007317
 20
315.3559857773
  0
VERTEX
  8
0
 62
7
  6
CONTINUOUS
 10
470.5695156146
 20
315.356203802
  0
VERTEX
  8
0
 62
7
  6
CONTINUOUS
 10
470.5706812247
 20
315.3564201362
  0
VERTEX
  8
0
 62
7
  6
CONTINUOUS
 10
470.5717991848
 20
315.3566350457
  0
VERTEX
  8
0
 62
7
  6
CONTINUOUS
 10
470.5728712717
 20
315.3568487571
  0
VERTEX
  8
0
 62
7
  6
CONTINUOUS
 10
470.5738988974
 20
315.3570615803
  0
VERTEX
  8
0
 62
7
  6
CONTINUOUS
 10
470.5748836526
 20
315.3572737709
  0
VERTEX
  8
0
 62
7
  6
CONTINUOUS
 10
470.5758267783
 20
315.3574857185
  0
VERTEX
  8
0
 62
7
  6
CONTINUOUS
 10
470.5767297066
 20
315.3576977285
  0
VERTEX
  8
0
 62
7
  6
CONTINUOUS
 10
470.5775934559
 20
315.3579103091
  0
VERTEX
  8
0
 62
7
  6
CONTINUOUS
 10
470.5784192694
 20
315.3581238331
  0
VERTEX
  8
0
 62
7
  6
CONTINUOUS
 10
470.5792079055
 20
315.358339012
  0
VERTEX
  8
0
 62
7
  6
CONTINUOUS
 10
470.5799604443
 20
315.3585563348
  0
VERTEX
  8
0
 62
7
  6
CONTINUOUS
 10
470.5806771649
 20
315.3587768419
  0
VERTEX
  8
0
 62
7
  6
CONTINUOUS
 10
470.581358906
 20
315.3590011891
  0
VERTEX
  8
0
 62
7
  6
CONTINUOUS
 10
470.5820050686
 20
315.35923102
  0
VERTEX
  8
0
 62
7
  6
CONTINUOUS
 10
470.5826157925
 20
315.3594670096
  0
VERTEX
  8
0
 62
7
  6
CONTINUOUS
 10
470.5831897001
 20
315.3597127208
  0
VERTEX
  8
0
 62
7
  6
CONTINUOUS
 10
470.5837279432
 20
315.3599693928
  0
VERTEX
  8
0
 62
7
  6
CONTINUOUS
 10
470.584223074
 20
315.3602446712
  0
VERTEX
  8
0
 62
7
  6
CONTINUOUS
 10
470.5846796684
 20
315.3605375751
  0
VERTEX
  8
0
 62
7
  6
CONTINUOUS
 10
470.5850628069
 20
315.3608752238
  0
VERTEX
  8
0
 62
7
  6
CONTINUOUS
 10
470.5853349209
 20
315.3612877585
  0
VERTEX
  8
0
 62
7
  6
CONTINUOUS
 10
470.5855085334
 20
315.3617651324
  0
SEQEND
  0
LINE
  8
0
 62
7
  6
CONTINUOUS
 10
470.5598661713
 20
315.3546304689
 11
470.5629106064
 21
315.3550926936
  0
LINE
  8
0
 62
7
  6
CONTINUOUS
 10
470.5565643668
 20
315.354155857
 11
470.5598661713
 21
315.3546304689
  0
LINE
  8
0
 62
7
  6
CONTINUOUS
 10
470.5529862401
 20
315.3536676763
 11
470.5565643668
 21
315.354155857
  0
LINE
  8
0
 62
7
  6
CONTINUOUS
 10
470.5491104768
 20
315.3531646567
 11
470.5529862401
 21
315.3536676763
  0
LINE
  8
0
 62
7
  6
CONTINUOUS
 10
470.5449140006
 20
315.3526455378
 11
470.5491104768
 21
315.3531646567
  0
LINE
  8
0
 62
7
  6
CONTINUOUS
 10
470.5403718862
 20
315.3521090594
 11
470.5449140006
 21
315.3526455378
  0
LINE
  8
0
 62
7
  6
CONTINUOUS
 10
470.5354571867
 20
315.3515539452
 11
470.5403718862
 21
315.3521090594
  0
LINE
  8
0
 62
7
  6
CONTINUOUS
 10
470.5301407782
 20
315.3509788928
 11
470.5354571867
 21
315.3515539452
  0
LINE
  8
0
 62
7
  6
CONTINUOUS
 10
470.5213433825
 20
315.3500759921
 11
470.5301407782
 21
315.3509788928
  0
LINE
  8
0
 62
7
  6
CONTINUOUS
 10
470.511453851
 20
315.3491205132
 11
470.5213433825
 21
315.3500759921
  0
LINE
  8
0
 62
7
  6
CONTINUOUS
 10
470.5003406737
 20
315.3481074884
 11
470.511453851
 21
315.3491205132
  0
LINE
  8
0
 62
7
  6
CONTINUOUS
 10
470.4878551114
 20
315.3470314838
 11
470.5003406737
 21
315.3481074884
  0
LINE
  8
0
 62
7
  6
CONTINUOUS
 10
470.4687637687
 20
315.3454874337
 11
470.4878551114
 21
315.3470314838
  0
LINE
  8
0
 62
7
  6
CONTINUOUS
 10
470.4464706501
 20
315.3438056832
 11
470.4687637687
 21
315.3454874337
  0
LINE
  8
0
 62
7
  6
CONTINUOUS
 10
470.4204495837
 20
315.3419700064
 11
470.4464706501
 21
315.3438056832
  0
LINE
  8
KONSTRUKTIONSELEMENTE
 62
3
  6
CONTINUOUS
 10
166.0811452657
 20
313.1831411785
 11
166.0811452657
 21
316.1831411785
  0
LINE
  8
FASEN
 62
3
  6
CONTINUOUS
 10
166.0811452657
 20
316.1831411785
 11
166.0811452657
 21
371.1831411785
  0
LINE
  8
FASEN
 62
7
  6
CONTINUOUS
 10
168.0811452657
 20
316.1831411785
 11
168.0811452657
 21
371.1831411785
  0
LINE
  8
KONSTRUKTIONSELEMENTE
 62
7
  6
CONTINUOUS
 10
168.2811452657
 20
367.9831411785
 11
168.2811452657
 21
368.9831411785
  0
LINE
  8
BEZUGSACHSEN
 62
7
  6
CONTINUOUS
 10
168.6547383945
 20
317.1831411785
 11
168.6547383945
 21
315.2831411785
  0
LINE
  8
KONSTRUKTIONSELEMENTE
 62
9
  6
CONTINUOUS
 10
169.0811452657
 20
313.1831411785
 11
169.0811452657
 21
315.1831411785
  0
LINE
  8
KONSTRUKTIONSELEMENTE
 62
7
  6
CONTINUOUS
 10
170.0811452657
 20
368.4831411785
 11
170.0811452657
 21
318.4831411785
  0
LINE
  8
BEZUGSACHSEN
 62
7
  6
CONTINUOUS
 10
178.6547383945
 20
317.1831411785
 11
178.6547383945
 21
315.2831411785
  0
LINE
  8
0
 62
7
  6
CONTINUOUS
 10
180.5811452657
 20
337.9831411785
 11
180.5811452657
 21
350.9831411785
  0
LINE
  8
0
 62
7
  6
CONTINUOUS
 10
470.3817318129
 20
315.3394308711
 11
470.4204495837
 21
315.3419700064
  0
LINE
  8
0
 62
7
  6
CONTINUOUS
 10
470.3347638272
 20
315.3365807502
 11
470.3817318129
 21
315.3394308711
  0
LINE
  8
0
 62
7
  6
CONTINUOUS
 10
470.2650493279
 20
315.3326847389
 11
470.3347638272
 21
315.3365807502
  0
LINE
  8
0
 62
7
  6
CONTINUOUS
 10
470.1605744885
 20
315.3273649064
 11
470.2650493279
 21
315.3326847389
  0
LINE
  8
0
 62
7
  6
CONTINUOUS
 10
470.0013075486
 20
315.3200421029
 11
470.1605744885
 21
315.3273649064
  0
LINE
  8
0
 62
7
  6
CONTINUOUS
 10
469.753136568
 20
315.3098150682
 11
470.0013075486
 21
315.3200421029
  0
LINE
  8
0
 62
7
  6
CONTINUOUS
 10
469.3074837174
 20
315.2935588895
 11
469.753136568
 21
315.3098150682
  0
LINE
  8
0
 62
7
  6
CONTINUOUS
 10
468.552782642
 20
315.2694177104
 11
469.3074837174
 21
315.2935588895
  0
LINE
  8
0
 62
7
  6
CONTINUOUS
 10
467.5978274087
 20
315.242268747
 11
468.552782642
 21
315.2694177104
  0
LINE
  8
0
 62
7
  6
CONTINUOUS
 10
466.5213737198
 20
315.2144297703
 11
467.5978274087
 21
315.242268747
  0
LINE
  8
0
 62
7
  6
CONTINUOUS
 10
465.8452913694
 20
315.1980120266
 11
466.5213737198
 21
315.2144297703
  0
LINE
  8
0
 62
9
  6
CONTINUOUS
 10
470.5855085334
 20
315.3617651324
 11
466.0811452657
 21
315.2831411791
  0
LINE
  8
BEZUGSACHSEN
 62
3
  6
CONTINUOUS
 10
563.0811452657
 20
313.1831411785
 11
169.0811452657
 21
313.1831411785
  0
LINE
  8
KONSTRUKTIONSELEMENTE
 62
3
  6
CONTINUOUS
 10
16.0811452657
 20
313.1831411785
 11
169.0811452657
 21
313.1831411785
  0
LINE
  8
KONSTRUKTIONSELEMENTE
 62
7
  6
CONTINUOUS
 10
166.0811452657
 20
315.1831411785
 11
166.2528989961
 21
315.1831411785
  0
LINE
  8
BEZUGSACHSEN
 62
7
  6
CONTINUOUS
 10
169.0811452657
 20
315.1831411785
 11
563.0811452657
 21
315.1831411785
  0
LINE
  8
BEZUGSACHSEN
 62
9
  6
CONTINUOUS
 10
168.6547383945
 20
315.2831411785
 11
178.6547383945
 21
315.2831411785
  0
LINE
  8
BEZUGSACHSEN
 62
9
  6
CONTINUOUS
 10
211.0811452657
 20
315.2831411785
 11
221.0811452657
 21
315.2831411785
  0
LINE
  8
BEZUGSACHSEN
 62
9
  6
CONTINUOUS
 10
313.6547383945
 20
315.2831411785
 11
323.6547383945
 21
315.2831411785
  0
LINE
  8
BEZUGSACHSEN
 62
9
  6
CONTINUOUS
 10
351.0811452657
 20
315.2831411785
 11
354.0811452657
 21
315.2831411785
  0
LINE
  8
BEZUGSACHSEN
 62
9
  6
CONTINUOUS
 10
368.0811452657
 20
315.2831411785
 11
378.0811452657
 21
315.2831411785
  0
LINE
  8
BEZUGSACHSEN
 62
9
  6
CONTINUOUS
 10
482.7968740182
 20
315.2831411785
 11
492.7968740182
 21
315.2831411785
  0
LINE
  8
BEZUGSACHSEN
 62
9
  6
CONTINUOUS
 10
511.0811452657
 20
315.2831411785
 11
521.0811452657
 21
315.2831411785
  0
LINE
  8
KONSTRUKTIONSELEMENTE
 62
9
  6
CONTINUOUS
 10
566.0811452657
 20
316.1831411785
 11
564.0811452657
 21
316.1831411785
  0
LINE
  8
KONSTRUKTIONSELEMENTE
 62
9
  6
CONTINUOUS
 10
16.0811452657
 20
316.1831411785
 11
168.0811452657
 21
316.1831411785
  0
LINE
  8
KONSTRUKTIONSELEMENTE
 62
9
  6
CONTINUOUS
 10
444.6479830345
 20
316.1831411785
 11
454.0811452657
 21
316.1831411785
  0
LINE
  8
KONSTRUKTIONSELEMENTE
 62
9
  6
CONTINUOUS
 10
478.6811452657
 20
316.1831411785
 11
482.7968740182
 21
316.1831411785
  0
LINE
  8
KONSTRUKTIONSELEMENTE
 62
9
  6
CONTINUOUS
 10
492.7968740182
 20
316.1831411785
 11
511.0811452657
 21
316.1831411785
  0
LINE
  8
KONSTRUKTIONSELEMENTE
 62
9
  6
CONTINUOUS
 10
521.0811452657
 20
316.1831411785
 11
563.0811452657
 21
316.1831411785
  0
LINE
  8
KONSTRUKTIONSELEMENTE
 62
7
  6
CONTINUOUS
 10
563.0811452657
 20
316.1831411785
 11
564.0811452657
 21
316.1831411785
  0
LINE
  8
BEZUGSACHSEN
 62
7
  6
CONTINUOUS
 10
521.0811452657
 20
317.1831411785
 11
511.0811452657
 21
317.1831411785
  0
LINE
  8
BEZUGSACHSEN
 62
7
  6
CONTINUOUS
 10
492.7968740182
 20
317.1831411785
 11
482.7968740182
 21
317.1831411785
  0
LINE
  8
BEZUGSACHSEN
 62
7
  6
CONTINUOUS
 10
378.0811452657
 20
317.1831411785
 11
368.0811452657
 21
317.1831411785
  0
LINE
  8
BEZUGSACHSEN
 62
7
  6
CONTINUOUS
 10
354.0811452657
 20
317.1831411785
 11
351.0811452657
 21
317.1831411785
  0
LINE
  8
BEZUGSACHSEN
 62
7
  6
CONTINUOUS
 10
323.6547383945
 20
317.1831411785
 11
313.6547383945
 21
317.1831411785
  0
LINE
  8
BEZUGSACHSEN
 62
7
  6
CONTINUOUS
 10
221.0811452657
 20
317.1831411785
 11
211.0811452657
 21
317.1831411785
  0
LINE
  8
BEZUGSACHSEN
 62
7
  6
CONTINUOUS
 10
178.6547383945
 20
317.1831411785
 11
168.6547383945
 21
317.1831411785
  0
LINE
  8
KONSTRUKTIONSELEMENTE
 62
7
  6
CONTINUOUS
 10
564.0811452657
 20
318.1831411785
 11
562.0811452657
 21
318.1831411785
  0
LINE
  8
KONSTRUKTIONSELEMENTE
 62
7
  6
CONTINUOUS
 10
444.6479830345
 20
318.1831411785
 11
454.0811452657
 21
318.1831411785
  0
LINE
  8
KONSTRUKTIONSELEMENTE
 62
7
  6
CONTINUOUS
 10
478.6811452657
 20
318.1831411785
 11
561.5811452657
 21
318.1831411785
  0
LINE
  8
KONSTRUKTIONSELEMENTE
 62
7
  6
CONTINUOUS
 10
170.0811452657
 20
318.4831411785
 11
168.0811452657
 21
318.4831411785
  0
LINE
  8
0
 62
7
  6
CONTINUOUS
 10
251.9311452657
 20
320.8831411785
 11
253.4811452657
 21
320.8831411785
  0
LINE
  8
0
 62
7
  6
CONTINUOUS
 10
278.0811452657
 20
320.8831411785
 11
300.2567783162
 21
320.8831411785
  0
LINE
  8
0
 62
7
  6
CONTINUOUS
 10
339.0415852642
 20
320.8831411785
 11
354.0811452657
 21
320.8831411785
  0
LINE
  8
0
 62
7
  6
CONTINUOUS
 10
378.6811452657
 20
320.8831411785
 11
400.5598752275
 21
320.8831411785
  0
LINE
  8
0
 62
9
  6
CONTINUOUS
 10
466.0811452657
 20
315.2831411791
 11
461.5767819979
 21
315.3617651324
  0
LINE
  8
0
 62
7
  6
CONTINUOUS
 10
194.2811452657
 20
350.9831411785
 11
194.2811452657
 21
367.9831411785
  0
LINE
  8
0
 62
7
  6
CONTINUOUS
 10
203.9211452657
 20
367.6831411785
 11
203.9211452657
 21
315.1831411785
  0
LINE
  8
BEZUGSACHSEN
 62
7
  6
CONTINUOUS
 10
211.0811452657
 20
317.1831411785
 11
211.0811452657
 21
315.2831411785
  0
LINE
  8
0
 62
7
  6
CONTINUOUS
 10
462.2017337311
 20
363.8910642765
 11
462.2741315454
 21
363.902786542
  0
LINE
  8
0
 62
7
  6
CONTINUOUS
 10
462.2741315454
 20
363.902786542
 11
462.3532459513
 21
363.9149213399
  0
LINE
  8
0
 62
7
  6
CONTINUOUS
 10
462.3532459513
 20
363.9149213399
 11
462.4396479804
 21
363.9274887081
  0
LINE
  8
0
 62
7
  6
CONTINUOUS
 10
462.4396479804
 20
363.9274887081
 11
462.5339410773
 21
363.9405069974
  0
LINE
  8
0
 62
7
  6
CONTINUOUS
 10
462.5339410773
 20
363.9405069974
 11
462.6367926067
 21
363.9539971916
  0
LINE
  8
0
 62
7
  6
CONTINUOUS
 10
462.6367926067
 20
363.9539971916
 11
462.748924129
 21
363.9679807367
  0
LINE
  8
0
 62
7
  6
CONTINUOUS
 10
462.748924129
 20
363.9679807367
 11
462.8711214154
 21
363.9824802634
  0
LINE
  8
0
 62
7
  6
CONTINUOUS
 10
462.8711214154
 20
363.9824802634
 11
463.0042217703
 21
363.9975176891
  0
LINE
  8
0
 62
7
  6
CONTINUOUS
 10
463.0042217703
 20
363.9975176891
 11
463.1491793418
 21
364.0131206536
  0
LINE
  8
0
 62
7
  6
CONTINUOUS
 10
463.1491793418
 20
364.0131206536
 11
463.3070649868
 21
364.029321198
  0
LINE
  8
0
 62
7
  6
CONTINUOUS
 10
463.3070649868
 20
364.029321198
 11
463.4789612913
 21
364.0461441727
  0
LINE
  8
0
 62
7
  6
CONTINUOUS
 10
463.4789612913
 20
364.0461441727
 11
463.6660154106
 21
364.0636131032
  0
LINE
  8
0
 62
7
  6
CONTINUOUS
 10
463.6660154106
 20
364.0636131032
 11
463.8694993147
 21
364.0817555388
  0
LINE
  8
0
 62
7
  6
CONTINUOUS
 10
463.8694993147
 20
364.0817555388
 11
464.0907778364
 21
364.1005991804
  0
LINE
  8
0
 62
7
  6
CONTINUOUS
 10
464.0907778364
 20
364.1005991804
 11
464.3313729808
 21
364.1201764188
  0
POLYLINE
  8
0
 62
7
  6
CONTINUOUS
 66
1
 70
0
  0
VERTEX
  8
0
 62
7
  6
CONTINUOUS
 10
464.3313729808
 20
364.1201764188
  0
VERTEX
  8
0
 62
7
  6
CONTINUOUS
 10
464.5929948105
 20
364.1405254636
  0
VERTEX
  8
0
 62
7
  6
CONTINUOUS
 10
464.7322498513
 20
364.1510003254
  0
SEQEND
  0
LINE
  8
0
 62
7
  6
CONTINUOUS
 10
536.5811452657
 20
337.9831411785
 11
478.6811452657
 21
337.9831411785
  0
LINE
  8
0
 62
7
  6
CONTINUOUS
 10
454.0811452657
 20
337.9831411785
 11
444.6479830345
 21
337.9831411785
  0
LINE
  8
0
 62
7
  6
CONTINUOUS
 10
400.5598752275
 20
337.9831411785
 11
386.1811452657
 21
337.9831411785
  0
LINE
  8
0
 62
7
  6
CONTINUOUS
 10
300.2567783162
 20
337.9831411785
 11
278.0811452657
 21
337.9831411785
  0
LINE
  8
0
 62
7
  6
CONTINUOUS
 10
253.4811452657
 20
337.9831411785
 11
251.9311452657
 21
337.9831411785
  0
LINE
  8
0
 62
7
  6
CONTINUOUS
 10
170.0811452657
 20
337.9831411785
 11
180.5811452657
 21
337.9831411785
  0
LINE
  8
0
 62
7
  6
CONTINUOUS
 10
551.5811452657
 20
337.9831411785
 11
562.0811452657
 21
337.9831411785
  0
LINE
  8
0
 62
7
  6
CONTINUOUS
 10
465.8452913694
 20
315.2093907477
 11
465.2403590475
 21
315.224517175
  0
LINE
  8
0
 62
7
  6
CONTINUOUS
 10
465.2403590475
 20
315.224517175
 11
464.7211469414
 21
315.238062683
  0
LINE
  8
0
 62
7
  6
CONTINUOUS
 10
464.7211469414
 20
315.238062683
 11
464.1742259185
 21
315.2530203469
  0
LINE
  8
0
 62
7
  6
CONTINUOUS
 10
464.1742259185
 20
315.2530203469
 11
463.7219924287
 21
315.2660596837
  0
LINE
  8
0
 62
7
  6
CONTINUOUS
 10
463.7219924287
 20
315.2660596837
 11
463.3478634353
 21
315.2774388864
  0
LINE
  8
0
 62
7
  6
CONTINUOUS
 10
463.3478634353
 20
315.2774388864
 11
462.9832429165
 21
315.2892091081
  0
LINE
  8
0
 62
7
  6
CONTINUOUS
 10
462.9832429165
 20
315.2892091081
 11
462.6926892921
 21
315.2992379663
  0
LINE
  8
0
 62
7
  6
CONTINUOUS
 10
462.6926892921
 20
315.2992379663
 11
462.4274593078
 21
315.3091020191
  0
LINE
  8
0
 62
7
  6
CONTINUOUS
 10
462.4274593078
 20
315.3091020191
 11
462.22414707
 21
315.3173260042
  0
LINE
  8
0
 62
7
  6
CONTINUOUS
 10
462.22414707
 20
315.3173260042
 11
462.0492233559
 21
315.3250973617
  0
LINE
  8
0
 62
7
  6
CONTINUOUS
 10
462.0492233559
 20
315.3250973617
 11
461.9342180764
 21
315.3307415917
  0
LINE
  8
0
 62
7
  6
CONTINUOUS
 10
461.9342180764
 20
315.3307415917
 11
461.8573164097
 21
315.3348739213
  0
LINE
  8
0
 62
7
  6
CONTINUOUS
 10
461.8573164097
 20
315.3348739213
 11
461.7961603813
 21
315.3384596818
  0
LINE
  8
0
 62
7
  6
CONTINUOUS
 10
461.7961603813
 20
315.3384596818
 11
461.7549088389
 21
315.3410901622
  0
LINE
  8
0
 62
7
  6
CONTINUOUS
 10
461.7549088389
 20
315.3410901622
 11
461.7271639679
 21
315.3429904763
  0
LINE
  8
0
 62
7
  6
CONTINUOUS
 10
461.7271639679
 20
315.3429904763
 11
461.7033677413
 21
315.3447308316
  0
LINE
  8
0
 62
7
  6
CONTINUOUS
 10
461.7033677413
 20
315.3447308316
 11
461.6829634448
 21
315.3463281656
  0
LINE
  8
0
 62
7
  6
CONTINUOUS
 10
461.6829634448
 20
315.3463281656
 11
461.6695959136
 21
315.3474415641
  0
LINE
  8
0
 62
7
  6
CONTINUOUS
 10
461.6695959136
 20
315.3474415641
 11
461.6576933253
 21
315.3484887126
  0
LINE
  8
0
 62
7
  6
CONTINUOUS
 10
461.6576933253
 20
315.3484887126
 11
461.6471000908
 21
315.3494749353
  0
LINE
  8
0
 62
7
  6
CONTINUOUS
 10
461.6471000908
 20
315.3494749353
 11
461.6376666125
 21
315.3504062336
  0
LINE
  8
0
 62
7
  6
CONTINUOUS
 10
461.6376666125
 20
315.3504062336
 11
461.6292694921
 21
315.3512873955
  0
LINE
  8
0
 62
7
  6
CONTINUOUS
 10
461.6292694921
 20
315.3512873955
 11
461.6241920904
 21
315.3518492412
  0
LINE
  8
0
 62
7
  6
CONTINUOUS
 10
461.6241920904
 20
315.3518492412
 11
461.6194963334
 21
315.3523921305
  0
LINE
  8
BEZUGSACHSEN
 62
7
  6
CONTINUOUS
 10
221.0811452657
 20
317.1831411785
 11
221.0811452657
 21
315.2831411785
  0
LINE
  8
0
 62
7
  6
CONTINUOUS
 10
229.1811452657
 20
315.1831411785
 11
229.1811452657
 21
367.6831411785
  0
LINE
  8
0
 62
7
  6
CONTINUOUS
 10
464.7322498513
 20
364.1510003254
 11
465.028776784
 21
364.17256938
  0
LINE
  8
0
 62
7
  6
CONTINUOUS
 10
465.028776784
 20
364.17256938
 11
465.3509658727
 21
364.1949906076
  0
LINE
  8
0
 62
7
  6
CONTINUOUS
 10
465.3509658727
 20
364.1949906076
 11
465.7009877673
 21
364.2183019003
  0
LINE
  8
0
 62
7
  6
CONTINUOUS
 10
465.7009877673
 20
364.2183019003
 11
466.0811452657
 21
364.242539664
  0
LINE
  8
0
 62
7
  6
CONTINUOUS
 10
536.5811452657
 20
350.9831411785
 11
478.6811452657
 21
350.9831411785
  0
LINE
  8
0
 62
7
  6
CONTINUOUS
 10
454.0811452657
 20
350.9831411785
 11
444.6479830345
 21
350.9831411785
  0
LINE
  8
0
 62
7
  6
CONTINUOUS
 10
400.5598752275
 20
350.9831411785
 11
386.1811452657
 21
350.9831411785
  0
LINE
  8
0
 62
7
  6
CONTINUOUS
 10
300.2567783162
 20
350.9831411785
 11
278.0811452657
 21
350.9831411785
  0
LINE
  8
0
 62
7
  6
CONTINUOUS
 10
253.4811452657
 20
350.9831411785
 11
251.9311452657
 21
350.9831411785
  0
LINE
  8
0
 62
7
  6
CONTINUOUS
 10
194.2811452657
 20
350.9831411785
 11
180.5811452657
 21
350.9831411785
  0
LINE
  8
0
 62
7
  6
CONTINUOUS
 10
537.8811452657
 20
350.9831411785
 11
551.5811452657
 21
350.9831411785
  0
LINE
  8
0
 62
7
  6
CONTINUOUS
 10
400.5598752275
 20
361.3831411785
 11
378.6811452657
 21
361.3831411785
  0
LINE
  8
0
 62
7
  6
CONTINUOUS
 10
354.0811452657
 20
361.3831411785
 11
339.0415852642
 21
361.3831411785
  0
LINE
  8
0
 62
7
  6
CONTINUOUS
 10
300.2567783162
 20
361.3831411785
 11
278.0811452657
 21
361.3831411785
  0
LINE
  8
0
 62
7
  6
CONTINUOUS
 10
253.4811452657
 20
361.3831411785
 11
251.9311452657
 21
361.3831411785
  0
LINE
  8
0
 62
9
  6
CONTINUOUS
 10
461.5767819979
 20
363.6831411785
 11
470.5855085334
 21
363.6831411785
  0
LINE
  8
0
 62
7
  6
CONTINUOUS
 10
478.6811452657
 20
367.6831411785
 11
454.0811452657
 21
367.6831411785
  0
LINE
  8
0
 62
7
  6
CONTINUOUS
 10
194.2811452657
 20
367.6831411785
 11
444.6479830345
 21
367.6831411785
  0
LINE
  8
0
 62
7
  6
CONTINUOUS
 10
562.0811452657
 20
367.9831411785
 11
537.8811452657
 21
367.9831411785
  0
LINE
  8
0
 62
7
  6
CONTINUOUS
 10
194.2811452657
 20
367.9831411785
 11
170.0811452657
 21
367.9831411785
  0
LINE
  8
KONSTRUKTIONSELEMENTE
 62
3
  6
CONTINUOUS
 10
168.2811452657
 20
367.9831411785
 11
563.8811452657
 21
367.9831411785
  0
LINE
  8
KONSTRUKTIONSELEMENTE
 62
7
  6
CONTINUOUS
 10
562.0811452657
 20
368.1831411785
 11
564.0811452657
 21
368.1831411785
  0
LINE
  8
KONSTRUKTIONSELEMENTE
 62
7
  6
CONTINUOUS
 10
168.0811452657
 20
368.4831411785
 11
170.0811452657
 21
368.4831411785
  0
LINE
  8
KONSTRUKTIONSELEMENTE
 62
7
  6
CONTINUOUS
 10
168.0811452657
 20
368.9831411785
 11
563.8811452657
 21
368.9831411785
  0
LINE
  8
0
 62
7
  6
CONTINUOUS
 10
461.6194963334
 20
315.3523921305
 11
461.6151547485
 21
315.3529173364
  0
LINE
  8
0
 62
7
  6
CONTINUOUS
 10
461.6151547485
 20
315.3529173364
 11
461.6111419173
 21
315.3534261116
  0
LINE
  8
0
 62
7
  6
CONTINUOUS
 10
461.6111419173
 20
315.3534261116
 11
461.6074343196
 21
315.3539197011
  0
LINE
  8
0
 62
7
  6
CONTINUOUS
 10
461.6074343196
 20
315.3539197011
 11
461.6040102048
 21
315.3543993552
  0
POLYLINE
  8
0
 62
7
  6
CONTINUOUS
 66
1
 70
0
  0
VERTEX
  8
0
 62
7
  6
CONTINUOUS
 10
461.6040102048
 20
315.3543993552
  0
VERTEX
  8
0
 62
7
  6
CONTINUOUS
 10
461.600849446
 20
315.3548663495
  0
VERTEX
  8
0
 62
7
  6
CONTINUOUS
 10
461.5993619091
 20
315.3550955111
  0
VERTEX
  8
0
 62
7
  6
CONTINUOUS
 10
461.5979336556
 20
315.355321971
  0
VERTEX
  8
0
 62
7
  6
CONTINUOUS
 10
461.5965629095
 20
315.3555458196
  0
VERTEX
  8
0
 62
7
  6
CONTINUOUS
 10
461.5952471641
 20
315.3557673523
  0
VERTEX
  8
0
 62
7
  6
CONTINUOUS
 10
461.5939838976
 20
315.3559868181
  0
VERTEX
  8
0
 62
7
  6
CONTINUOUS
 10
461.5927713797
 20
315.3562044475
  0
VERTEX
  8
0
 62
7
  6
CONTINUOUS
 10
461.5916075108
 20
315.356420476
  0
VERTEX
  8
0
 62
7
  6
CONTINUOUS
 10
461.5904908765
 20
315.3566351377
  0
VERTEX
  8
0
 62
7
  6
CONTINUOUS
 10
461.5894198484
 20
315.3568486372
  0
VERTEX
  8
0
 62
7
  6
CONTINUOUS
 10
461.5883929692
 20
315.3570612983
  0
VERTEX
  8
0
 62
7
  6
CONTINUOUS
 10
461.5874086376
 20
315.3572733839
  0
VERTEX
  8
0
 62
7
  6
CONTINUOUS
 10
461.5864656581
 20
315.357485281
  0
VERTEX
  8
0
 62
7
  6
CONTINUOUS
 10
461.5855626356
 20
315.3576972931
  0
VERTEX
  8
0
 62
7
  6
CONTINUOUS
 10
461.5846985668
 20
315.3579099331
  0
VERTEX
  8
0
 62
7
  6
CONTINUOUS
 10
461.5838722289
 20
315.3581235758
  0
VERTEX
  8
0
 62
7
  6
CONTINUOUS
 10
461.5830828857
 20
315.3583389391
  0
VERTEX
  8
0
 62
7
  6
CONTINUOUS
 10
461.5823294776
 20
315.3585565149
  0
VERTEX
  8
0
 62
7
  6
CONTINUOUS
 10
461.581611751
 20
315.3587773556
  0
VERTEX
  8
0
 62
7
  6
CONTINUOUS
 10
461.5809289172
 20
315.3590021079
  0
VERTEX
  8
0
 62
7
  6
CONTINUOUS
 10
461.5802815222
 20
315.3592324797
  0
VERTEX
  8
0
 62
7
  6
CONTINUOUS
 10
461.5796692708
 20
315.3594692306
  0
VERTEX
  8
0
 62
7
  6
CONTINUOUS
 10
461.5790938979
 20
315.3597158516
  0
VERTEX
  8
0
 62
7
  6
CONTINUOUS
 10
461.5785543213
 20
315.359973707
  0
VERTEX
  8
0
 62
7
  6
CONTINUOUS
 10
461.5780586971
 20
315.360249937
  0
VERTEX
  8
0
 62
7
  6
CONTINUOUS
 10
461.5776035372
 20
315.3605432005
  0
VERTEX
  8
0
 62
7
  6
CONTINUOUS
 10
461.5772226909
 20
315.3608803066
  0
VERTEX
  8
0
 62
7
  6
CONTINUOUS
 10
461.5769529302
 20
315.3612909124
  0
VERTEX
  8
0
 62
7
  6
CONTINUOUS
 10
461.5767819979
 20
315.3617651324
  0
SEQEND
  0
LINE
  8
0
 62
7
  6
CONTINUOUS
 10
251.9311452657
 20
361.3831411785
 11
251.9311452657
 21
320.8831411785
  0
LINE
  8
0
 62
7
  6
CONTINUOUS
 10
253.4811452657
 20
367.6831411785
 11
253.4811452657
 21
315.1831411785
  0
LINE
  8
FASEN
 62
7
  6
CONTINUOUS
 10
168.0811452657
 20
369.1831411785
 11
166.0811452657
 21
369.1831411785
  0
LINE
  8
BEZUGSACHSEN
 62
7
  6
CONTINUOUS
 10
564.0811452657
 20
369.1831411785
 11
566.0811452657
 21
369.1831411785
  0
LINE
  8
KONSTRUKTIONSELEMENTE
 62
7
  6
CONTINUOUS
 10
564.0811452657
 20
371.1831411785
 11
168.0811452657
 21
371.1831411785
  0
LINE
  8
FASEN
 62
7
  6
CONTINUOUS
 10
168.0811452657
 20
371.1831411785
 11
166.0811452657
 21
371.1831411785
  0
LINE
  8
KONSTRUKTIONSELEMENTE
 62
3
  6
CONTINUOUS
 10
166.0811452657
 20
371.1831411785
 11
18.0811452657
 21
371.1831411785
  0
LINE
  8
BEZUGSACHSEN
 62
7
  6
CONTINUOUS
 10
564.0811452657
 20
371.1831411785
 11
566.0811452657
 21
371.1831411785
  0
LINE
  8
0
 62
7
  6
CONTINUOUS
 10
466.4613027641
 20
364.2183019003
 11
466.0811452657
 21
364.242539664
  0
LINE
  8
0
 62
7
  6
CONTINUOUS
 10
466.8113246586
 20
364.1949906076
 11
466.4613027641
 21
364.2183019003
  0
LINE
  8
0
 62
7
  6
CONTINUOUS
 10
467.1335137473
 20
364.17256938
 11
466.8113246586
 21
364.1949906076
  0
LINE
  8
0
 62
7
  6
CONTINUOUS
 10
467.43004068
 20
364.1510003254
 11
467.1335137473
 21
364.17256938
  0
LINE
  8
0
 62
7
  6
CONTINUOUS
 10
467.7028454938
 20
364.1302519557
 11
467.43004068
 21
364.1510003254
  0
LINE
  8
0
 62
7
  6
CONTINUOUS
 10
467.9537302833
 20
364.1102937333
 11
467.7028454938
 21
364.1302519557
  0
LINE
  8
0
 62
7
  6
CONTINUOUS
 10
468.1844605052
 20
364.0910881757
 11
467.9537302833
 21
364.1102937333
  0
LINE
  8
0
 62
7
  6
CONTINUOUS
 10
468.3966684834
 20
364.0725983382
 11
468.1844605052
 21
364.0910881757
  0
LINE
  8
0
 62
7
  6
CONTINUOUS
 10
468.591771147
 20
364.0547962716
 11
468.3966684834
 21
364.0725983382
  0
LINE
  8
0
 62
7
  6
CONTINUOUS
 10
468.7710942363
 20
364.037653662
 11
468.591771147
 21
364.0547962716
  0
LINE
  8
0
 62
7
  6
CONTINUOUS
 10
468.9358521259
 20
364.0211443011
 11
468.7710942363
 21
364.037653662
  0
LINE
  8
0
 62
7
  6
CONTINUOUS
 10
469.0871374008
 20
364.005246228
 11
468.9358521259
 21
364.0211443011
  0
LINE
  8
0
 62
7
  6
CONTINUOUS
 10
469.2260324721
 20
363.989930643
 11
469.0871374008
 21
364.005246228
  0
LINE
  8
0
 62
7
  6
CONTINUOUS
 10
278.0811452657
 20
367.6831411785
 11
278.0811452657
 21
315.1831411785
  0
LINE
  8
0
 62
7
  6
CONTINUOUS
 10
469.3535765542
 20
363.9751645125
 11
469.2260324721
 21
363.989930643
  0
LINE
  8
0
 62
7
  6
CONTINUOUS
 10
469.470637981
 20
363.960925957
 11
469.3535765542
 21
363.9751645125
  0
LINE
  8
0
 62
7
  6
CONTINUOUS
 10
469.578035908
 20
363.9471917957
 11
469.470637981
 21
363.960925957
  0
LINE
  8
0
 62
7
  6
CONTINUOUS
 10
469.676521653
 20
363.9339401964
 11
469.578035908
 21
363.9471917957
  0
LINE
  8
0
 62
7
  6
CONTINUOUS
 10
469.7667888037
 20
363.9211500133
 11
469.676521653
 21
363.9339401964
  0
LINE
  8
0
 62
7
  6
CONTINUOUS
 10
469.8494773875
 20
363.9088007618
 11
469.7667888037
 21
363.9211500133
  0
LINE
  8
0
 62
7
  6
CONTINUOUS
 10
300.2567783162
 20
367.6831411785
 11
300.2567783162
 21
315.1831411785
  0
LINE
  8
BEZUGSACHSEN
 62
7
  6
CONTINUOUS
 10
313.6547383945
 20
317.1831411785
 11
313.6547383945
 21
315.2831411785
  0
LINE
  8
BEZUGSACHSEN
 62
7
  6
CONTINUOUS
 10
323.6547383945
 20
317.1831411785
 11
323.6547383945
 21
315.2831411785
  0
LINE
  8
0
 62
7
  6
CONTINUOUS
 10
339.0415852642
 20
361.3831411785
 11
339.0415852642
 21
320.8831411785
  0
LINE
  8
BEZUGSACHSEN
 62
7
  6
CONTINUOUS
 10
351.0811452657
 20
315.2831411785
 11
351.0811452657
 21
317.1831411785
  0
LINE
  8
0
 62
7
  6
CONTINUOUS
 10
354.0811452657
 20
315.1831411785
 11
354.0811452657
 21
367.6831411785
  0
LINE
  8
BEZUGSACHSEN
 62
7
  6
CONTINUOUS
 10
368.0811452657
 20
317.1831411785
 11
368.0811452657
 21
315.2831411785
  0
LINE
  8
BEZUGSACHSEN
 62
7
  6
CONTINUOUS
 10
378.0811452657
 20
317.1831411785
 11
378.0811452657
 21
315.2831411785
  0
LINE
  8
0
 62
7
  6
CONTINUOUS
 10
378.6811452657
 20
315.1831411785
 11
378.6811452657
 21
367.6831411785
  0
LINE
  8
0
 62
7
  6
CONTINUOUS
 10
386.1418362829
 20
320.8831411785
 11
386.1418362829
 21
361.3831411785
  0
LINE
  8
KONSTRUKTIONSELEMENTE
 62
7
  6
CONTINUOUS
 10
386.1811452657
 20
320.8831411785
 11
386.1811452657
 21
361.3831411785
  0
LINE
  8
0
 62
7
  6
CONTINUOUS
 10
400.5598752275
 20
320.8831411785
 11
400.5598752275
 21
361.3831411785
  0
LINE
  8
0
 62
7
  6
CONTINUOUS
 10
427.2531562173
 20
315.1831411785
 11
427.2531562173
 21
367.6831411785
  0
LINE
  8
0
 62
7
  6
CONTINUOUS
 10
444.6479830345
 20
315.1831411785
 11
444.6479830345
 21
367.6831411785
  0
POLYLINE
  8
0
 62
7
  6
CONTINUOUS
 66
1
 70
0
  0
VERTEX
  8
0
 62
7
  6
CONTINUOUS
 10
470.5855085334
 20
363.6831411785
  0
VERTEX
  8
0
 62
7
  6
CONTINUOUS
 10
470.5853919567
 20
363.6861308042
  0
VERTEX
  8
0
 62
7
  6
CONTINUOUS
 10
470.5849749218
 20
363.6892147262
  0
VERTEX
  8
0
 62
7
  6
CONTINUOUS
 10
470.5842692202
 20
363.6923954592
  0
VERTEX
  8
0
 62
7
  6
CONTINUOUS
 10
470.5832394778
 20
363.6956654592
  0
VERTEX
  8
0
 62
7
  6
CONTINUOUS
 10
470.5818628988
 20
363.699016955
  0
VERTEX
  8
0
 62
7
  6
CONTINUOUS
 10
470.5801135399
 20
363.702453142
  0
VERTEX
  8
0
 62
7
  6
CONTINUOUS
 10
470.5779587542
 20
363.7059829514
  0
VERTEX
  8
0
 62
7
  6
CONTINUOUS
 10
470.5753958572
 20
363.7095814036
  0
VERTEX
  8
0
 62
7
  6
CONTINUOUS
 10
470.5724121437
 20
363.7132285502
  0
VERTEX
  8
0
 62
7
  6
CONTINUOUS
 10
470.5690050288
 20
363.7169182284
  0
VERTEX
  8
0
 62
7
  6
CONTINUOUS
 10
470.5651690638
 20
363.7206382224
  0
VERTEX
  8
0
 62
7
  6
CONTINUOUS
 10
470.5609001346
 20
363.7243867422
  0
VERTEX
  8
0
 62
7
  6
CONTINUOUS
 10
470.5561936846
 20
363.7281583181
  0
VERTEX
  8
0
 62
7
  6
CONTINUOUS
 10
470.5510455918
 20
363.7319517726
  0
VERTEX
  8
0
 62
7
  6
CONTINUOUS
 10
470.5454529795
 20
363.7357636101
  0
VERTEX
  8
0
 62
7
  6
CONTINUOUS
 10
470.5394075561
 20
363.7395953154
  0
VERTEX
  8
0
 62
7
  6
CONTINUOUS
 10
470.5329034969
 20
363.7434466609
  0
VERTEX
  8
0
 62
7
  6
CONTINUOUS
 10
470.5259305243
 20
363.7473192885
  0
VERTEX
  8
0
 62
7
  6
CONTINUOUS
 10
470.5184830993
 20
363.751213051
  0
VERTEX
  8
0
 62
7
  6
CONTINUOUS
 10
470.5105411818
 20
363.7551330884
  0
VERTEX
  8
0
 62
7
  6
CONTINUOUS
 10
470.502087893
 20
363.759084115
  0
VERTEX
  8
0
 62
7
  6
CONTINUOUS
 10
470.4931082103
 20
363.7630672609
  0
VERTEX
  8
0
 62
7
  6
CONTINUOUS
 10
470.4835877559
 20
363.7670845264
  0
VERTEX
  8
0
 62
7
  6
CONTINUOUS
 10
470.4735077173
 20
363.7711380158
  0
VERTEX
  8
0
 62
7
  6
CONTINUOUS
 10
470.4628515203
 20
363.7752297984
  0
VERTEX
  8
0
 62
7
  6
CONTINUOUS
 10
470.451598072
 20
363.7793619786
  0
VERTEX
  8
0
 62
7
  6
CONTINUOUS
 10
470.4397297895
 20
363.783536279
  0
VERTEX
  8
0
 62
7
  6
CONTINUOUS
 10
470.4272195681
 20
363.7877559141
  0
VERTEX
  8
0
 62
7
  6
CONTINUOUS
 10
470.4140444288
 20
363.7920236817
  0
VERTEX
  8
0
 62
7
  6
CONTINUOUS
 10
470.4001744107
 20
363.7963425539
  0
VERTEX
  8
0
 62
7
  6
CONTINUOUS
 10
470.3855809015
 20
363.8007160181
  0
VERTEX
  8
0
 62
7
  6
CONTINUOUS
 10
470.3702368759
 20
363.8051453269
  0
VERTEX
  8
0
 62
7
  6
CONTINUOUS
 10
470.354116684
 20
363.8096321547
  0
VERTEX
  8
0
 62
7
  6
CONTINUOUS
 10
470.3371875877
 20
363.8141787246
  0
VERTEX
  8
0
 62
7
  6
CONTINUOUS
 10
470.3194201366
 20
363.8187871023
  0
VERTEX
  8
0
 62
7
  6
CONTINUOUS
 10
470.3007788176
 20
363.823459435
  0
VERTEX
  8
0
 62
7
  6
CONTINUOUS
 10
470.2812308746
 20
363.8281979111
  0
VERTEX
  8
0
 62
7
  6
CONTINUOUS
 10
470.2607385858
 20
363.833004473
  0
VERTEX
  8
0
 62
7
  6
CONTINUOUS
 10
470.2392686501
 20
363.8378807894
  0
VERTEX
  8
0
 62
7
  6
CONTINUOUS
 10
470.2167750491
 20
363.8428298691
  0
VERTEX
  8
0
 62
7
  6
CONTINUOUS
 10
470.1932177398
 20
363.8478542367
  0
VERTEX
  8
0
 62
7
  6
CONTINUOUS
 10
470.1685454944
 20
363.852957013
  0
VERTEX
  8
0
 62
7
  6
CONTINUOUS
 10
470.1427085495
 20
363.8581418317
  0
VERTEX
  8
0
 62
7
  6
CONTINUOUS
 10
470.1156624689
 20
363.8634096788
  0
VERTEX
  8
0
 62
7
  6
CONTINUOUS
 10
470.0873652613
 20
363.8687618317
  0
VERTEX
  8
0
 62
7
  6
CONTINUOUS
 10
470.0577598276
 20
363.8742010502
  0
VERTEX
  8
0
 62
7
  6
CONTINUOUS
 10
470.026794633
 20
363.8797297874
  0
VERTEX
  8
0
 62
7
  6
CONTINUOUS
 10
469.9944109929
 20
363.8853502406
  0
VERTEX
  8
0
 62
7
  6
CONTINUOUS
 10
469.9605568002
 20
363.8910642765
  0
VERTEX
  8
0
 62
7
  6
CONTINUOUS
 10
469.925160787
 20
363.8968753411
  0
VERTEX
  8
0
 62
7
  6
CONTINUOUS
 10
469.8494773875
 20
363.9088007618
  0
SEQEND
  0
LINE
  8
0
 62
7
  6
CONTINUOUS
 10
454.0811452657
 20
315.1831411785
 11
454.0811452657
 21
367.6831411785
  0
LINE
  8
0
 62
7
  6
CONTINUOUS
 10
461.5767819979
 20
315.3617651324
 11
461.5767819979
 21
363.6831411785
  0
LINE
  8
0
 62
7
  6
CONTINUOUS
 10
465.8452913694
 20
315.2093907477
 11
465.8452913694
 21
315.1980120266
  0
LINE
  8
KONSTRUKTIONSELEMENTE
 62
7
  6
CONTINUOUS
 10
466.0811452657
 20
315.2831411791
 11
466.0811452657
 21
363.6831411785
  0
LINE
  8
0
 62
7
  6
CONTINUOUS
 10
466.0811452657
 20
363.6831411785
 11
466.0811452657
 21
364.242539664
  0
LINE
  8
0
 62
7
  6
CONTINUOUS
 10
470.5855085334
 20
363.6831411785
 11
470.5855085334
 21
315.3617651324
  0
POLYLINE
  8
0
 62
7
  6
CONTINUOUS
 66
1
 70
0
  0
VERTEX
  8
0
 62
7
  6
CONTINUOUS
 10
461.5767819979
 20
363.6831411785
  0
VERTEX
  8
0
 62
7
  6
CONTINUOUS
 10
461.5768985747
 20
363.6861308042
  0
VERTEX
  8
0
 62
7
  6
CONTINUOUS
 10
461.5773156095
 20
363.6892147262
  0
VERTEX
  8
0
 62
7
  6
CONTINUOUS
 10
461.5780213112
 20
363.6923954592
  0
VERTEX
  8
0
 62
7
  6
CONTINUOUS
 10
461.5790510535
 20
363.6956654592
  0
VERTEX
  8
0
 62
7
  6
CONTINUOUS
 10
461.5804276326
 20
363.699016955
  0
VERTEX
  8
0
 62
7
  6
CONTINUOUS
 10
461.5821769914
 20
363.702453142
  0
VERTEX
  8
0
 62
7
  6
CONTINUOUS
 10
461.5843317771
 20
363.7059829514
  0
VERTEX
  8
0
 62
7
  6
CONTINUOUS
 10
461.5868946741
 20
363.7095814036
  0
VERTEX
  8
0
 62
7
  6
CONTINUOUS
 10
461.5898783876
 20
363.7132285502
  0
VERTEX
  8
0
 62
7
  6
CONTINUOUS
 10
461.5932855026
 20
363.7169182284
  0
VERTEX
  8
0
 62
7
  6
CONTINUOUS
 10
461.5971214675
 20
363.7206382224
  0
VERTEX
  8
0
 62
7
  6
CONTINUOUS
 10
461.6013903968
 20
363.7243867422
  0
VERTEX
  8
0
 62
7
  6
CONTINUOUS
 10
461.6060968468
 20
363.7281583181
  0
VERTEX
  8
0
 62
7
  6
CONTINUOUS
 10
461.6112449395
 20
363.7319517726
  0
VERTEX
  8
0
 62
7
  6
CONTINUOUS
 10
461.6168375518
 20
363.7357636101
  0
VERTEX
  8
0
 62
7
  6
CONTINUOUS
 10
461.6228829752
 20
363.7395953154
  0
VERTEX
  8
0
 62
7
  6
CONTINUOUS
 10
461.6293870345
 20
363.7434466609
  0
VERTEX
  8
0
 62
7
  6
CONTINUOUS
 10
461.636360007
 20
363.7473192885
  0
VERTEX
  8
0
 62
7
  6
CONTINUOUS
 10
461.643807432
 20
363.751213051
  0
VERTEX
  8
0
 62
7
  6
CONTINUOUS
 10
461.6517493495
 20
363.7551330884
  0
VERTEX
  8
0
 62
7
  6
CONTINUOUS
 10
461.6602026383
 20
363.759084115
  0
VERTEX
  8
0
 62
7
  6
CONTINUOUS
 10
461.669182321
 20
363.7630672609
  0
VERTEX
  8
0
 62
7
  6
CONTINUOUS
 10
461.6787027754
 20
363.7670845264
  0
VERTEX
  8
0
 62
7
  6
CONTINUOUS
 10
461.688782814
 20
363.7711380158
  0
VERTEX
  8
0
 62
7
  6
CONTINUOUS
 10
461.699439011
 20
363.7752297984
  0
VERTEX
  8
0
 62
7
  6
CONTINUOUS
 10
461.7106924594
 20
363.7793619786
  0
VERTEX
  8
0
 62
7
  6
CONTINUOUS
 10
461.7225607418
 20
363.783536279
  0
VERTEX
  8
0
 62
7
  6
CONTINUOUS
 10
461.7350709633
 20
363.7877559141
  0
VERTEX
  8
0
 62
7
  6
CONTINUOUS
 10
461.7482461025
 20
363.7920236817
  0
VERTEX
  8
0
 62
7
  6
CONTINUOUS
 10
461.7621161207
 20
363.7963425539
  0
VERTEX
  8
0
 62
7
  6
CONTINUOUS
 10
461.7767096299
 20
363.8007160181
  0
VERTEX
  8
0
 62
7
  6
CONTINUOUS
 10
461.7920536554
 20
363.8051453269
  0
VERTEX
  8
0
 62
7
  6
CONTINUOUS
 10
461.8081738473
 20
363.8096321547
  0
VERTEX
  8
0
 62
7
  6
CONTINUOUS
 10
461.8251029436
 20
363.8141787246
  0
VERTEX
  8
0
 62
7
  6
CONTINUOUS
 10
461.8428703947
 20
363.8187871023
  0
VERTEX
  8
0
 62
7
  6
CONTINUOUS
 10
461.8615117137
 20
363.823459435
  0
VERTEX
  8
0
 62
7
  6
CONTINUOUS
 10
461.8810596567
 20
363.8281979111
  0
VERTEX
  8
0
 62
7
  6
CONTINUOUS
 10
461.9015519455
 20
363.833004473
  0
VERTEX
  8
0
 62
7
  6
CONTINUOUS
 10
461.9230218812
 20
363.8378807894
  0
VERTEX
  8
0
 62
7
  6
CONTINUOUS
 10
461.9455154823
 20
363.8428298691
  0
VERTEX
  8
0
 62
7
  6
CONTINUOUS
 10
461.9690727916
 20
363.8478542367
  0
VERTEX
  8
0
 62
7
  6
CONTINUOUS
 10
461.993745037
 20
363.852957013
  0
VERTEX
  8
0
 62
7
  6
CONTINUOUS
 10
462.0195819818
 20
363.8581418317
  0
VERTEX
  8
0
 62
7
  6
CONTINUOUS
 10
462.0466280625
 20
363.8634096788
  0
VERTEX
  8
0
 62
7
  6
CONTINUOUS
 10
462.07492527
 20
363.8687618317
  0
VERTEX
  8
0
 62
7
  6
CONTINUOUS
 10
462.1045307037
 20
363.8742010502
  0
VERTEX
  8
0
 62
7
  6
CONTINUOUS
 10
462.1354958983
 20
363.8797297874
  0
VERTEX
  8
0
 62
7
  6
CONTINUOUS
 10
462.1678795385
 20
363.8853502406
  0
VERTEX
  8
0
 62
7
  6
CONTINUOUS
 10
462.2017337311
 20
363.8910642765
  0
SEQEND
  0
POLYLINE
  8
0
 62
7
  6
CONTINUOUS
 66
1
 70
0
  0
VERTEX
  8
0
 62
7
  6
CONTINUOUS
 10
466.0811452657
 20
315.283141179
  0
VERTEX
  8
0
 62
7
  6
CONTINUOUS
 10
466.0810609891
 20
315.2813491371
  0
VERTEX
  8
0
 62
7
  6
CONTINUOUS
 10
466.0807706389
 20
315.2795096525
  0
VERTEX
  8
0
 62
7
  6
CONTINUOUS
 10
466.0802822781
 20
315.27762373
  0
VERTEX
  8
0
 62
7
  6
CONTINUOUS
 10
466.0795717176
 20
315.2756883552
  0
VERTEX
  8
0
 62
7
  6
CONTINUOUS
 10
466.0786167813
 20
315.27369292
  0
VERTEX
  8
0
 62
7
  6
CONTINUOUS
 10
466.0774194926
 20
315.2716612105
  0
VERTEX
  8
0
 62
7
  6
CONTINUOUS
 10
466.075972904
 20
315.2696116697
  0
VERTEX
  8
0
 62
7
  6
CONTINUOUS
 10
466.0742817524
 20
315.2675497189
  0
VERTEX
  8
0
 62
7
  6
CONTINUOUS
 10
466.0723474222
 20
315.2654864687
  0
VERTEX
  8
0
 62
7
  6
CONTINUOUS
 10
466.0701730228
 20
315.2634232949
  0
VERTEX
  8
0
 62
7
  6
CONTINUOUS
 10
466.0677621133
 20
315.2613654962
  0
VERTEX
  8
0
 62
7
  6
CONTINUOUS
 10
466.0651147292
 20
315.2593124155
  0
VERTEX
  8
0
 62
7
  6
CONTINUOUS
 10
466.0622328965
 20
315.2572655365
  0
VERTEX
  8
0
 62
7
  6
CONTINUOUS
 10
466.0591142035
 20
315.2552237352
  0
VERTEX
  8
0
 62
7
  6
CONTINUOUS
 10
466.0557584007
 20
315.2531867759
  0
VERTEX
  8
0
 62
7
  6
CONTINUOUS
 10
466.052161027
 20
315.2511534768
  0
VERTEX
  8
0
 62
7
  6
CONTINUOUS
 10
466.0483195966
 20
315.2491229254
  0
VERTEX
  8
0
 62
7
  6
CONTINUOUS
 10
466.0442279343
 20
315.2470940782
  0
VERTEX
  8
0
 62
7
  6
CONTINUOUS
 10
466.0398815998
 20
315.245065865
  0
VERTEX
  8
0
 62
7
  6
CONTINUOUS
 10
466.0352729029
 20
315.2430374531
  0
VERTEX
  8
0
 62
7
  6
CONTINUOUS
 10
466.0303957052
 20
315.2410078502
  0
VERTEX
  8
0
 62
7
  6
CONTINUOUS
 10
466.0252409114
 20
315.2389764651
  0
VERTEX
  8
0
 62
7
  6
CONTINUOUS
 10
466.0198008662
 20
315.2369424872
  0
VERTEX
  8
0
 62
7
  6
CONTINUOUS
 10
466.0140651112
 20
315.2349055821
  0
VERTEX
  8
0
 62
7
  6
CONTINUOUS
 10
466.0080245784
 20
315.2328651665
  0
VERTEX
  8
0
 62
7
  6
CONTINUOUS
 10
466.0016674402
 20
315.2308211768
  0
VERTEX
  8
0
 62
7
  6
CONTINUOUS
 10
465.9949832574
 20
315.2287732791
  0
VERTEX
  8
0
 62
7
  6
CONTINUOUS
 10
465.9879587967
 20
315.2267217016
  0
VERTEX
  8
0
 62
7
  6
CONTINUOUS
 10
465.9805822501
 20
315.2246663792
  0
VERTEX
  8
0
 62
7
  6
CONTINUOUS
 10
465.972838903
 20
315.2226078578
  0
VERTEX
  8
0
 62
7
  6
CONTINUOUS
 10
465.9647155412
 20
315.220546362
  0
VERTEX
  8
0
 62
7
  6
CONTINUOUS
 10
465.9561958561
 20
315.2184827906
  0
VERTEX
  8
0
 62
7
  6
CONTINUOUS
 10
465.9472651442
 20
315.2164176825
  0
VERTEX
  8
0
 62
7
  6
CONTINUOUS
 10
465.9379053758
 20
315.2143523421
  0
VERTEX
  8
0
 62
7
  6
CONTINUOUS
 10
465.9281002571
 20
315.2122876609
  0
VERTEX
  8
0
 62
7
  6
CONTINUOUS
 10
465.9178298772
 20
315.210225417
  0
VERTEX
  8
0
 62
7
  6
CONTINUOUS
 10
465.9070762252
 20
315.2081669059
  0
VERTEX
  8
0
 62
7
  6
CONTINUOUS
 10
465.8958173064
 20
315.2061144672
  0
VERTEX
  8
0
 62
7
  6
CONTINUOUS
 10
465.8840332227
 20
315.2040698657
  0
VERTEX
  8
0
 62
7
  6
CONTINUOUS
 10
465.8716996725
 20
315.2020361212
  0
VERTEX
  8
0
 62
7
  6
CONTINUOUS
 10
465.8587818546
 20
315.2000172924
  0
VERTEX
  8
0
 62
7
  6
CONTINUOUS
 10
465.8452913694
 20
315.1980120266
  0
SEQEND
  0
POLYLINE
  8
0
 62
7
  6
CONTINUOUS
 66
1
 70
0
  0
VERTEX
  8
0
 62
7
  6
CONTINUOUS
 10
466.0807984208
 20
315.2798372504
  0
VERTEX
  8
0
 62
7
  6
CONTINUOUS
 10
466.0803489249
 20
315.2781383577
  0
VERTEX
  8
0
 62
7
  6
CONTINUOUS
 10
466.0796964392
 20
315.2764044549
  0
VERTEX
  8
0
 62
7
  6
CONTINUOUS
 10
466.0788219199
 20
315.2746252569
  0
VERTEX
  8
0
 62
7
  6
CONTINUOUS
 10
466.0777256765
 20
315.2728204458
  0
VERTEX
  8
0
 62
7
  6
CONTINUOUS
 10
466.0763996919
 20
315.2710038728
  0
VERTEX
  8
0
 62
7
  6
CONTINUOUS
 10
466.0748499015
 20
315.2691827453
  0
VERTEX
  8
0
 62
7
  6
CONTINUOUS
 10
466.0730782042
 20
315.2673684502
  0
VERTEX
  8
0
 62
7
  6
CONTINUOUS
 10
466.071088692
 20
315.2655622993
  0
VERTEX
  8
0
 62
7
  6
CONTINUOUS
 10
466.0688856461
 20
315.263769585
  0
VERTEX
  8
0
 62
7
  6
CONTINUOUS
 10
466.066470398
 20
315.2619897515
  0
VERTEX
  8
0
 62
7
  6
CONTINUOUS
 10
466.0638461586
 20
315.2602244212
  0
VERTEX
  8
0
 62
7
  6
CONTINUOUS
 10
466.0610115706
 20
315.2584723523
  0
VERTEX
  8
0
 62
7
  6
CONTINUOUS
 10
466.0579679897
 20
315.2567334916
  0
VERTEX
  8
0
 62
7
  6
CONTINUOUS
 10
466.0547104879
 20
315.2550058965
  0
VERTEX
  8
0
 62
7
  6
CONTINUOUS
 10
466.0512366189
 20
315.2532880179
  0
VERTEX
  8
0
 62
7
  6
CONTINUOUS
 10
466.0475402931
 20
315.2515786216
  0
VERTEX
  8
0
 62
7
  6
CONTINUOUS
 10
466.0436164594
 20
315.2498760355
  0
VERTEX
  8
0
 62
7
  6
CONTINUOUS
 10
466.0394595556
 20
315.2481800232
  0
VERTEX
  8
0
 62
7
  6
CONTINUOUS
 10
466.0350648281
 20
315.2464899365
  0
VERTEX
  8
0
 62
7
  6
CONTINUOUS
 10
466.0304247997
 20
315.2448053385
  0
VERTEX
  8
0
 62
7
  6
CONTINUOUS
 10
466.025533285
 20
315.243125648
  0
VERTEX
  8
0
 62
7
  6
CONTINUOUS
 10
466.0203816545
 20
315.2414506498
  0
VERTEX
  8
0
 62
7
  6
CONTINUOUS
 10
466.0149624509
 20
315.2397799251
  0
VERTEX
  8
0
 62
7
  6
CONTINUOUS
 10
466.0092659723
 20
315.2381135031
  0
VERTEX
  8
0
 62
7
  6
CONTINUOUS
 10
466.0032837211
 20
315.2364512037
  0
VERTEX
  8
0
 62
7
  6
CONTINUOUS
 10
465.9970046267
 20
315.2347932364
  0
VERTEX
  8
0
 62
7
  6
CONTINUOUS
 10
465.9904185879
 20
315.2331395312
  0
VERTEX
  8
0
 62
7
  6
CONTINUOUS
 10
465.9835141983
 20
315.2314907467
  0
VERTEX
  8
0
 62
7
  6
CONTINUOUS
 10
465.9762822154
 20
315.2298474788
  0
VERTEX
  8
0
 62
7
  6
CONTINUOUS
 10
465.9687060457
 20
315.2282098447
  0
VERTEX
  8
0
 62
7
  6
CONTINUOUS
 10
465.9607708156
 20
315.2265777291
  0
VERTEX
  8
0
 62
7
  6
CONTINUOUS
 10
465.9524621222
 20
315.2249524259
  0
VERTEX
  8
0
 62
7
  6
CONTINUOUS
 10
465.9437658617
 20
315.2233346637
  0
VERTEX
  8
0
 62
7
  6
CONTINUOUS
 10
465.9346662639
 20
315.2217260237
  0
VERTEX
  8
0
 62
7
  6
CONTINUOUS
 10
465.9251488809
 20
315.220127723
  0
VERTEX
  8
0
 62
7
  6
CONTINUOUS
 10
465.915195642
 20
315.2185415831
  0
VERTEX
  8
0
 62
7
  6
CONTINUOUS
 10
465.9047902728
 20
315.216969072
  0
VERTEX
  8
0
 62
7
  6
CONTINUOUS
 10
465.8939129367
 20
315.2154124683
  0
VERTEX
  8
0
 62
7
  6
CONTINUOUS
 10
465.8825455401
 20
315.2138735915
  0
VERTEX
  8
0
 62
7
  6
CONTINUOUS
 10
465.8706665802
 20
315.2123552868
  0
VERTEX
  8
0
 62
7
  6
CONTINUOUS
 10
465.8582450816
 20
315.2108614369
  0
VERTEX
  8
0
 62
7
  6
CONTINUOUS
 10
465.8452913694
 20
315.2093907477
  0
SEQEND
  0
LINE
  8
0
 62
7
  6
CONTINUOUS
 10
478.6811452657
 20
315.1831411785
 11
478.6811452657
 21
367.6831411785
  0
LINE
  8
BEZUGSACHSEN
 62
7
  6
CONTINUOUS
 10
482.7968740182
 20
317.1831411785
 11
482.7968740182
 21
315.2831411785
  0
LINE
  8
BEZUGSACHSEN
 62
7
  6
CONTINUOUS
 10
492.7968740182
 20
317.1831411785
 11
492.7968740182
 21
315.2831411785
  0
LINE
  8
BEZUGSACHSEN
 62
7
  6
CONTINUOUS
 10
511.0811452657
 20
315.2831411785
 11
511.0811452657
 21
317.1831411785
  0
LINE
  8
BEZUGSACHSEN
 62
7
  6
CONTINUOUS
 10
521.0811452657
 20
315.2831411785
 11
521.0811452657
 21
317.1831411785
  0
LINE
  8
0
 62
7
  6
CONTINUOUS
 10
536.5811452657
 20
367.9831411785
 11
536.5811452657
 21
337.9831411785
  0
LINE
  8
0
 62
7
  6
CONTINUOUS
 10
537.8811452657
 20
367.9831411785
 11
537.8811452657
 21
350.9831411785
  0
LINE
  8
0
 62
7
  6
CONTINUOUS
 10
551.5811452657
 20
350.9831411785
 11
551.5811452657
 21
337.9831411785
  0
LINE
  8
KONSTRUKTIONSELEMENTE
 62
7
  6
CONTINUOUS
 10
561.5811452657
 20
337.9831411785
 11
561.5811452657
 21
318.1831411785
  0
LINE
  8
KONSTRUKTIONSELEMENTE
 62
7
  6
CONTINUOUS
 10
562.0811452657
 20
318.1831411785
 11
562.0811452657
 21
368.1831411785
  0
LINE
  8
KONSTRUKTIONSELEMENTE
 62
9
  6
CONTINUOUS
 10
563.0811452657
 20
313.1831411785
 11
563.0811452657
 21
315.1831411785
  0
LINE
  8
KONSTRUKTIONSELEMENTE
 62
7
  6
CONTINUOUS
 10
563.0811452657
 20
315.1831411785
 11
563.0811452657
 21
316.1831411785
  0
LINE
  8
KONSTRUKTIONSELEMENTE
 62
7
  6
CONTINUOUS
 10
563.8811452657
 20
367.9831411785
 11
563.8811452657
 21
368.9831411785
  0
LINE
  8
BEZUGSACHSEN
 62
7
  6
CONTINUOUS
 10
564.0811452657
 20
316.1831411785
 11
564.0811452657
 21
371.1831411785
  0
LINE
  8
BEZUGSACHSEN
 62
3
  6
CONTINUOUS
 10
566.0811452657
 20
316.1831411785
 11
566.0811452657
 21
371.1831411785
  0
LINE
  8
KONSTRUKTIONSELEMENTE
 62
7
  6
CONTINUOUS
 10
169.0811452657
 20
-303.3633893903
 11
168.0811452657
 21
-303.3633893903
  0
LINE
  8
FASEN
 62
7
  6
CONTINUOUS
 10
168.0811452657
 20
-303.3633893903
 11
166.0811452657
 21
-303.3633893903
  0
LINE
  8
BEZUGSACHSEN
 62
7
  6
CONTINUOUS
 10
169.0811452657
 20
-303.3633893903
 11
563.0811452657
 21
-303.3633893903
  0
LINE
  8
KONSTRUKTIONSELEMENTE
 62
7
  6
CONTINUOUS
 10
563.0811452657
 20
-303.3633893903
 11
564.0811452657
 21
-303.3633893903
  0
LINE
  8
BEZUGSACHSEN
 62
7
  6
CONTINUOUS
 10
564.0811452657
 20
-303.3633893903
 11
566.0811452657
 21
-303.3633893903
  0
LINE
  8
KONSTRUKTIONSELEMENTE
 62
7
  6
CONTINUOUS
 10
168.0811452657
 20
-302.8633893903
 11
564.0811452657
 21
-302.8633893903
  0
LINE
  8
BEZUGSACHSEN
 62
7
  6
CONTINUOUS
 10
16.0811452657
 20
243.6366106097
 11
16.0811452657
 21
-150.3633893903
  0
LINE
  8
KONSTRUKTIONSELEMENTE
 62
7
  6
CONTINUOUS
 10
16.0811452657
 20
-150.3633893903
 11
16.0811452657
 21
-151.3633893903
  0
LINE
  8
BEZUGSACHSEN
 62
7
  6
CONTINUOUS
 10
16.0811452657
 20
-151.3633893903
 11
16.0811452657
 21
-153.3633893903
  0
LINE
  8
KONSTRUKTIONSELEMENTE
 62
7
  6
CONTINUOUS
 10
16.0811452657
 20
243.6366106097
 11
16.0811452657
 21
244.6366106097
  0
LINE
  8
FASEN
 62
7
  6
CONTINUOUS
 10
16.0811452657
 20
244.6366106097
 11
16.0811452657
 21
246.6366106097
  0
LINE
  8
KONSTRUKTIONSELEMENTE
 62
7
  6
CONTINUOUS
 10
16.5811452657
 20
244.6366106097
 11
16.5811452657
 21
-151.3633893903
  0
LINE
  8
BEZUGSACHSEN
 62
7
  6
CONTINUOUS
 10
18.0811452657
 20
-151.3633893903
 11
18.0811452657
 21
-153.3633893903
  0
LINE
  8
FASEN
 62
7
  6
CONTINUOUS
 10
18.0811452657
 20
244.6366106097
 11
18.0811452657
 21
246.6366106097
  0
LINE
  8
FASEN
 62
7
  6
CONTINUOUS
 10
168.0811452657
 20
-301.3633893903
 11
166.0811452657
 21
-301.3633893903
  0
LINE
  8
BEZUGSACHSEN
 62
7
  6
CONTINUOUS
 10
564.0811452657
 20
-301.3633893903
 11
566.0811452657
 21
-301.3633893903
  0
LINE
  8
KONSTRUKTIONSELEMENTE
 62
3
  6
CONTINUOUS
 10
167.8811452657
 20
-153.3633893903
 11
18.0811452657
 21
-153.3633893903
  0
LINE
  8
BEZUGSACHSEN
 62
3
  6
CONTINUOUS
 10
16.0811452657
 20
-153.3633893903
 11
18.0811452657
 21
-153.3633893903
  0
LINE
  8
KONSTRUKTIONSELEMENTE
 62
7
  6
CONTINUOUS
 10
167.8811452657
 20
-153.3633893903
 11
168.0811452657
 21
-153.3633893903
  0
LINE
  8
BEZUGSACHSEN
 62
7
  6
CONTINUOUS
 10
18.0811452657
 20
-151.3633893903
 11
16.0811452657
 21
-151.3633893903
  0
LINE
  8
KONSTRUKTIONSELEMENTE
 62
7
  6
CONTINUOUS
 10
18.0811452657
 20
-151.3633893903
 11
167.8811452657
 21
-151.3633893903
  0
LINE
  8
KONSTRUKTIONSELEMENTE
 62
7
  6
CONTINUOUS
 10
16.5811452657
 20
-151.1633893903
 11
168.2811452657
 21
-151.1633893903
  0
LINE
  8
KONSTRUKTIONSELEMENTE
 62
9
  6
CONTINUOUS
 10
16.0811452657
 20
-150.3633893903
 11
16.5811452657
 21
-150.3633893903
  0
LINE
  8
FASEN
 62
3
  6
CONTINUOUS
 10
166.0811452657
 20
-303.3633893903
 11
166.0811452657
 21
-301.3633893903
  0
LINE
  8
KONSTRUKTIONSELEMENTE
 62
3
  6
CONTINUOUS
 10
166.0811452657
 20
-301.3633893903
 11
166.0811452657
 21
-153.3633893903
  0
LINE
  8
KONSTRUKTIONSELEMENTE
 62
7
  6
CONTINUOUS
 10
167.5811452657
 20
-151.1633893903
 11
167.5811452657
 21
-151.3633893903
  0
LINE
  8
KONSTRUKTIONSELEMENTE
 62
7
  6
CONTINUOUS
 10
167.8811452657
 20
-153.3633893903
 11
167.8811452657
 21
-151.3633893903
  0
LINE
  8
KONSTRUKTIONSELEMENTE
 62
7
  6
CONTINUOUS
 10
168.0811452657
 20
-301.3633893903
 11
168.0811452657
 21
-151.1633893903
  0
LINE
  8
FASEN
 62
7
  6
CONTINUOUS
 10
168.0811452657
 20
-301.3633893903
 11
168.0811452657
 21
-303.3633893903
  0
LINE
  8
KONSTRUKTIONSELEMENTE
 62
7
  6
CONTINUOUS
 10
168.2811452657
 20
-151.1633893903
 11
168.2811452657
 21
-302.8633893903
  0
LINE
  8
KONSTRUKTIONSELEMENTE
 62
9
  6
CONTINUOUS
 10
169.0811452657
 20
-303.3633893903
 11
169.0811452657
 21
-302.8633893903
  0
LINE
  8
KONSTRUKTIONSELEMENTE
 62
9
  6
CONTINUOUS
 10
16.0811452657
 20
243.6366106097
 11
16.5811452657
 21
243.6366106097
  0
LINE
  8
KONSTRUKTIONSELEMENTE
 62
7
  6
CONTINUOUS
 10
563.8811452657
 20
244.1366106097
 11
564.0811452657
 21
244.1366106097
  0
LINE
  8
KONSTRUKTIONSELEMENTE
 62
7
  6
CONTINUOUS
 10
563.8811452657
 20
244.4366106097
 11
16.5811452657
 21
244.4366106097
  0
LINE
  8
KONSTRUKTIONSELEMENTE
 62
7
  6
CONTINUOUS
 10
566.0811452657
 20
244.6366106097
 11
18.0811452657
 21
244.6366106097
  0
LINE
  8
FASEN
 62
7
  6
CONTINUOUS
 10
18.0811452657
 20
244.6366106097
 11
16.0811452657
 21
244.6366106097
  0
LINE
  8
KONSTRUKTIONSELEMENTE
 62
7
  6
CONTINUOUS
 10
561.5811452657
 20
244.6366106097
 11
561.5811452657
 21
244.4366106097
  0
LINE
  8
KONSTRUKTIONSELEMENTE
 62
9
  6
CONTINUOUS
 10
563.0811452657
 20
-303.3633893903
 11
563.0811452657
 21
-302.8633893903
  0
LINE
  8
KONSTRUKTIONSELEMENTE
 62
7
  6
CONTINUOUS
 10
563.0811452657
 20
244.4366106097
 11
563.0811452657
 21
244.6366106097
  0
LINE
  8
KONSTRUKTIONSELEMENTE
 62
7
  6
CONTINUOUS
 10
563.8811452657
 20
-302.8633893903
 11
563.8811452657
 21
244.4366106097
  0
LINE
  8
BEZUGSACHSEN
 62
7
  6
CONTINUOUS
 10
564.0811452657
 20
-301.3633893903
 11
564.0811452657
 21
-303.3633893903
  0
LINE
  8
KONSTRUKTIONSELEMENTE
 62
7
  6
CONTINUOUS
 10
564.0811452657
 20
-301.3633893903
 11
564.0811452657
 21
244.6366106097
  0
LINE
  8
KONSTRUKTIONSELEMENTE
 62
7
  6
CONTINUOUS
 10
565.8811452657
 20
246.6366106097
 11
565.8811452657
 21
244.6366106097
  0
LINE
  8
BEZUGSACHSEN
 62
3
  6
CONTINUOUS
 10
566.0811452657
 20
-303.3633893903
 11
566.0811452657
 21
-301.3633893903
  0
LINE
  8
KONSTRUKTIONSELEMENTE
 62
3
  6
CONTINUOUS
 10
566.0811452657
 20
-301.3633893903
 11
566.0811452657
 21
244.6366106097
  0
LINE
  8
FASEN
 62
3
  6
CONTINUOUS
 10
16.0811452657
 20
246.6366106097
 11
18.0811452657
 21
246.6366106097
  0
LINE
  8
KONSTRUKTIONSELEMENTE
 62
3
  6
CONTINUOUS
 10
18.0811452657
 20
246.6366106097
 11
565.8811452657
 21
246.6366106097
  0
ARC
  8
KONSTRUKTIONSELEMENTE
 62
3
  6
CONTINUOUS
 10
169.0811452657
 20
316.1831411785
 40
3.0
 50
180.0
 51
270.0
  0
ARC
  8
KONSTRUKTIONSELEMENTE
 62
3
  6
CONTINUOUS
 10
563.0811452657
 20
316.1831411785
 40
3.0
 50
270.0
 51
360.0
  0
ARC
  8
KONSTRUKTIONSELEMENTE
 62
7
  6
CONTINUOUS
 10
169.0811452657
 20
316.1831411785
 40
1.0
 50
180.0
 51
270.0
  0
ARC
  8
KONSTRUKTIONSELEMENTE
 62
7
  6
CONTINUOUS
 10
563.0811452657
 20
316.1831411785
 40
1.0
 50
270.0
 51
360.0
  0
ARC
  8
BEZUGSACHSEN
 62
7
  6
CONTINUOUS
 10
221.1811452657
 20
315.2831411785
 40
0.1
 50
180.0
 51
270.0
  0
ARC
  8
BEZUGSACHSEN
 62
7
  6
CONTINUOUS
 10
210.9811452657
 20
315.2831411785
 40
0.1
 50
270.0
 51
360.0
  0
ARC
  8
BEZUGSACHSEN
 62
7
  6
CONTINUOUS
 10
367.9811452657
 20
315.2831411785
 40
0.1
 50
270.0
 51
360.0
  0
ARC
  8
BEZUGSACHSEN
 62
7
  6
CONTINUOUS
 10
378.1811452657
 20
315.2831411785
 40
0.1
 50
180.0
 51
270.0
  0
ARC
  8
BEZUGSACHSEN
 62
7
  6
CONTINUOUS
 10
521.1811452657
 20
315.2831411785
 40
0.1
 50
180.0
 51
270.0
  0
ARC
  8
BEZUGSACHSEN
 62
7
  6
CONTINUOUS
 10
510.9811452657
 20
315.2831411785
 40
0.1
 50
270.0
 51
360.0
  0
ARC
  8
BEZUGSACHSEN
 62
7
  6
CONTINUOUS
 10
350.9811452657
 20
315.2831411785
 40
0.1
 50
270.0
 51
360.0
  0
ARC
  8
BEZUGSACHSEN
 62
7
  6
CONTINUOUS
 10
313.5547383945
 20
315.2831411785
 40
0.1
 50
270.0
 51
360.0
  0
ARC
  8
BEZUGSACHSEN
 62
7
  6
CONTINUOUS
 10
323.7547383945
 20
315.2831411785
 40
0.1
 50
180.0
 51
270.0
  0
ARC
  8
BEZUGSACHSEN
 62
7
  6
CONTINUOUS
 10
168.5547383945
 20
315.2831411785
 40
0.1
 50
357.4442173199
 51
360.0
  0
ARC
  8
BEZUGSACHSEN
 62
7
  6
CONTINUOUS
 10
178.7547383945
 20
315.2831411785
 40
0.1
 50
180.0
 51
270.0
  0
ARC
  8
BEZUGSACHSEN
 62
7
  6
CONTINUOUS
 10
492.8968740182
 20
315.2831411785
 40
0.1
 50
180.0
 51
270.0
  0
ARC
  8
BEZUGSACHSEN
 62
7
  6
CONTINUOUS
 10
482.6968740182
 20
315.2831411785
 40
0.1
 50
270.0
 51
360.0
  0
ENDSEC
  0
EOF
