999
DXF file: bkg40080511.dxf
999
Pro/ENGINEER 2022024 by Parametric Technology Corporation
  0
SECTION
  2
HEADER
  9
$EXTMAX
 10
594.0
 20
420.0
 30
0.0
  9
$EXTMIN
 10
0.0
 20
0.0
 30
0.0
  9
$LIMMIN
 10
0.0
 20
0.0
  9
$LIMMAX
 10
594.0
 20
420.0
  9
$VIEWCTR
 10
297.0
 20
210.0
  9
$VIEWSIZE
 40
420.0
  9
$CLAYER
  8
0
  9
$LTSCALE
 40
32.67
  9
$CELTYPE
  6
BYLAYER
  9
$DIMSCALE
 40
1.0
  9
$DIMASZ
 40
3.5
  9
$DIMEXO
 40
0.0
  9
$DIMDLI
 40
22.572
  9
$DIMEXE
 40
1.5
  9
$DIMCEN
 40
5.346
  9
$DIMLFAC
 40
1.0
  9
$DIMBLK
  1
_FILLED
  9
$DIMALT
 70
0
  9
$DIMALTF
 40
0.0393700787
  9
$DIMTXT
 40
3.5
  9
$AUNITS
 70
0
  9
$PDMODE
 70
3
  9
$PDSIZE
 40
0.3125
  9
$TILEMODE
 70
1
  0
ENDSEC
  0
SECTION
  2
TABLES
  0
TABLE
  2
LTYPE
 70
6
  0
LTYPE
  2
BYBLOCK
 70
0
  3

 72
65
 73
0
 40
0.0
  0
LTYPE
  2
BYLAYER
 70
0
  3

 72
65
 73
0
 40
0.0
  0
LTYPE
  2
CONTINUOUS
 70
64
  3
Solid line
 72
65
 73
0
 40
0.0
  0
LTYPE
  2
CENTER
 70
64
  3
____ _ ____ _ ____ _ ____ _ ____ _ ____ _ ____
 72
65
 73
4
 40
0.6
 49
0.375
 49
-0.075
 49
0.075
 49
-0.075
  0
LTYPE
  2
HIDDEN
 70
64
  3
- - - - - - - - - - - - - - - - - - - -
 72
65
 73
2
 40
0.2
 49
0.1
 49
-0.1
  0
LTYPE
  2
PHANTOM
 70
64
  3
_____ _ _ _____ _ _ _____ _ _ _____
 72
65
 73
6
 40
0.8
 49
0.45
 49
-0.05
 49
0.1
 49
-0.05
 49
0.1
 49
-0.05
  0
LTYPE
  2
DOT
 70
64
  3
. . . . . . . . . . . . . . . . . . . .
 72
65
 73
2
 40
0.2
 49
0.1
 49
-0.1
  0
LTYPE
  2
DASHED
 70
64
  3
- - - - - - - - - - - - - - - - - - - -
 72
65
 73
2
 40
0.2
 49
0.1
 49
-0.1
  0
ENDTAB
  0
TABLE
  2
LAYER
 70
36
  0
LAYER
  2
0
 70
0
 62
7
  6
CONTINUOUS
  0
LAYER
  2
DEFAULT_1
 70
0
 62
7
  6
CENTER
  0
LAYER
  2
DEFAULT_2
 70
0
 62
8
  6
HIDDEN
  0
LAYER
  2
DEFAULT_3
 70
0
 62
7
  6
PHANTOM
  0
LAYER
  2
01_STARTBEZUEGE
 70
0
 62
7
  6
CONTINUOUS
  0
LAYER
  2
AUSFORMSCHRAEGEN
 70
0
 62
7
  6
CONTINUOUS
  0
LAYER
  2
BEZUGSACHSEN
 70
0
 62
7
  6
CONTINUOUS
  0
LAYER
  2
BEZUGSEBENEN
 70
0
 62
7
  6
CONTINUOUS
  0
LAYER
  2
BEZUGSPUNKTE
 70
0
 62
7
  6
CONTINUOUS
  0
LAYER
  2
BOHRUNGEN
 70
0
 62
7
  6
CONTINUOUS
  0
LAYER
  2
FASEN
 70
0
 62
7
  6
CONTINUOUS
  0
LAYER
  2
FLAECHEN
 70
0
 62
7
  6
CONTINUOUS
  0
LAYER
  2
GEWINDE
 70
0
 62
7
  6
CONTINUOUS
  0
LAYER
  2
GTOL
 70
0
 62
7
  6
CONTINUOUS
  0
LAYER
  2
KONSTRUKTIONSELEMENTE
 70
0
 62
7
  6
CONTINUOUS
  0
LAYER
  2
KOORDINATENSYSTEME
 70
0
 62
7
  6
CONTINUOUS
  0
LAYER
  2
KURVEN
 70
0
 62
7
  6
CONTINUOUS
  0
LAYER
  2
NOTIZ
 70
0
 62
7
  6
CONTINUOUS
  0
LAYER
  2
RUNDUNGEN
 70
0
 62
7
  6
CONTINUOUS
  0
LAYER
  2
SURFACES
 70
0
 62
7
  6
CONTINUOUS
  0
LAYER
  2
VOLUMEN
 70
0
 62
7
  6
CONTINUOUS
  0
LAYER
  2
XSEC_DATUMS
 70
0
 62
7
  6
CONTINUOUS
  0
ENDTAB
  0
TABLE
  2
STYLE
 70
1
  0
STYLE
  2
STANDARD
 70
0
 40
0.0
 41
0.7
 50
0.0
 71
0
 42
0.2
  3
txt
  4

  0
STYLE
  2
TEXTSTYLE_1
 70
0
 40
0.0
 41
0.8
 50
0.0
 71
0
 42
0.2
  3
gdt
  4

  0
ENDTAB
  0
ENDSEC
  0
SECTION
  2
BLOCKS
  0
BLOCK
  8
0
  2
_FILLED
 70
64
 10
0.0
 20
0.0
  0
SOLID
  8
0
  6
BYBLOCK
 62
0
 10
0.0
 20
0.0
 11
-1.0
 21
0.125
 12
-1.0
 22
-0.125
 13
-1.0
 23
-0.125
  0
ENDBLK
  8
0
  6
BYBLOCK
 62
0
  0
ENDSEC
  0
SECTION
  2
ENTITIES
  0
LINE
  8
KONSTRUKTIONSELEMENTE
 62
3
  6
CONTINUOUS
 10
111.6271640252
 20
539.4840105532
 11
111.6271640252
 21
542.4840105532
  0
LINE
  8
BEZUGSACHSEN
 62
3
  6
CONTINUOUS
 10
111.6271640252
 20
542.4840105532
 11
111.6271640252
 21
615.4840105532
  0
LINE
  8
BEZUGSACHSEN
 62
3
  6
CONTINUOUS
 10
111.6271640252
 20
615.4840105532
 11
113.6271640252
 21
617.4840105532
  0
POLYLINE
  8
0
 62
7
  6
CONTINUOUS
 66
1
 70
0
  0
VERTEX
  8
0
 62
7
  6
CONTINUOUS
 10
566.1089278117
 20
541.6559618255
  0
VERTEX
  8
0
 62
7
  6
CONTINUOUS
 10
566.1103593555
 20
541.6561887267
  0
VERTEX
  8
0
 62
7
  6
CONTINUOUS
 10
566.1117335145
 20
541.6564130619
  0
VERTEX
  8
0
 62
7
  6
CONTINUOUS
 10
566.1130524673
 20
541.6566350754
  0
VERTEX
  8
0
 62
7
  6
CONTINUOUS
 10
566.1143186613
 20
541.6568550055
  0
VERTEX
  8
0
 62
7
  6
CONTINUOUS
 10
566.1155336969
 20
541.6570730532
  0
VERTEX
  8
0
 62
7
  6
CONTINUOUS
 10
566.1166994492
 20
541.6572894098
  0
VERTEX
  8
0
 62
7
  6
CONTINUOUS
 10
566.1178175408
 20
541.6575043414
  0
VERTEX
  8
0
 62
7
  6
CONTINUOUS
 10
566.1188897487
 20
541.6577180744
  0
VERTEX
  8
0
 62
7
  6
CONTINUOUS
 10
566.1199174851
 20
541.6579309187
  0
VERTEX
  8
0
 62
7
  6
CONTINUOUS
 10
566.1209023406
 20
541.6581431299
  0
VERTEX
  8
0
 62
7
  6
CONTINUOUS
 10
566.1218455565
 20
541.6583550975
  0
VERTEX
  8
0
 62
7
  6
CONTINUOUS
 10
566.1227485646
 20
541.6585671269
  0
VERTEX
  8
0
 62
7
  6
CONTINUOUS
 10
566.1236123834
 20
541.6587797262
  0
VERTEX
  8
0
 62
7
  6
CONTINUOUS
 10
566.124438256
 20
541.6589932681
  0
VERTEX
  8
0
 62
7
  6
CONTINUOUS
 10
566.1252269406
 20
541.659208464
  0
VERTEX
  8
0
 62
7
  6
CONTINUOUS
 10
566.1259795171
 20
541.6594258028
  0
VERTEX
  8
0
 62
7
  6
CONTINUOUS
 10
566.1266962642
 20
541.6596463247
  0
VERTEX
  8
0
 62
7
  6
CONTINUOUS
 10
566.1273780203
 20
541.6598706851
  0
VERTEX
  8
0
 62
7
  6
CONTINUOUS
 10
566.1280241856
 20
541.6601005271
  0
VERTEX
  8
0
 62
7
  6
CONTINUOUS
 10
566.1286348983
 20
541.660336525
  0
VERTEX
  8
0
 62
7
  6
CONTINUOUS
 10
566.1292087817
 20
541.6605822408
  0
VERTEX
  8
0
 62
7
  6
CONTINUOUS
 10
566.1297469878
 20
541.6608389142
  0
VERTEX
  8
0
 62
7
  6
CONTINUOUS
 10
566.130242069
 20
541.6611141873
  0
VERTEX
  8
0
 62
7
  6
CONTINUOUS
 10
566.1306985962
 20
541.6614070766
  0
VERTEX
  8
0
 62
7
  6
CONTINUOUS
 10
566.1310816659
 20
541.6617446987
  0
VERTEX
  8
0
 62
7
  6
CONTINUOUS
 10
566.1313537257
 20
541.6621571908
  0
VERTEX
  8
0
 62
7
  6
CONTINUOUS
 10
566.1315272929
 20
541.6626345071
  0
SEQEND
  0
LINE
  8
0
 62
7
  6
CONTINUOUS
 10
566.1058829416
 20
541.6554995498
 11
566.1089278117
 21
541.6559618255
  0
LINE
  8
0
 62
7
  6
CONTINUOUS
 10
566.1025806505
 20
541.655024885
 11
566.1058829416
 21
541.6554995498
  0
LINE
  8
0
 62
7
  6
CONTINUOUS
 10
566.0990019823
 20
541.6545366496
 11
566.1025806505
 21
541.655024885
  0
POLYLINE
  8
0
 62
7
  6
CONTINUOUS
 66
1
 70
0
  0
VERTEX
  8
0
 62
7
  6
CONTINUOUS
 10
566.0930686159
 20
541.6537760755
  0
VERTEX
  8
0
 62
7
  6
CONTINUOUS
 10
566.09512562
 20
541.6540335733
  0
VERTEX
  8
0
 62
7
  6
CONTINUOUS
 10
566.0990019823
 20
541.6545366496
  0
SEQEND
  0
LINE
  8
0
 62
7
  6
CONTINUOUS
 10
566.0887018654
 20
541.6532483753
 11
566.0930686159
 21
541.6537760755
  0
LINE
  8
0
 62
7
  6
CONTINUOUS
 10
566.0839762018
 20
541.6527026785
 11
566.0887018654
 21
541.6532483753
  0
LINE
  8
0
 62
7
  6
CONTINUOUS
 10
566.0788636058
 20
541.6521376968
 11
566.0839762018
 21
541.6527026785
  0
LINE
  8
0
 62
7
  6
CONTINUOUS
 10
566.0704023902
 20
541.6512511708
 11
566.0788636058
 21
541.6521376968
  0
LINE
  8
0
 62
7
  6
CONTINUOUS
 10
566.0608891336
 20
541.6503136524
 11
566.0704023902
 21
541.6512511708
  0
LINE
  8
0
 62
7
  6
CONTINUOUS
 10
566.0501977492
 20
541.6493202752
 11
566.0608891336
 21
541.6503136524
  0
LINE
  8
0
 62
7
  6
CONTINUOUS
 10
566.0381863325
 20
541.6482658692
 11
566.0501977492
 21
541.6493202752
  0
LINE
  8
0
 62
7
  6
CONTINUOUS
 10
566.0246846756
 20
541.6471439729
 11
566.0381863325
 21
541.6482658692
  0
LINE
  8
0
 62
7
  6
CONTINUOUS
 10
566.0040489161
 20
541.6455327397
 11
566.0246846756
 21
541.6471439729
  0
LINE
  8
0
 62
7
  6
CONTINUOUS
 10
565.979959561
 20
541.6437760309
 11
566.0040489161
 21
541.6455327397
  0
LINE
  8
0
 62
7
  6
CONTINUOUS
 10
565.9441116608
 20
541.6413489143
 11
565.979959561
 21
541.6437760309
  0
LINE
  8
0
 62
7
  6
CONTINUOUS
 10
565.9006322339
 20
541.6386284214
 11
565.9441116608
 21
541.6413489143
  0
LINE
  8
0
 62
7
  6
CONTINUOUS
 10
565.8360730232
 20
541.6349130122
 11
565.9006322339
 21
541.6386284214
  0
LINE
  8
0
 62
7
  6
CONTINUOUS
 10
565.7547675254
 20
541.6306234422
 11
565.8360730232
 21
541.6349130122
  0
LINE
  8
0
 62
7
  6
CONTINUOUS
 10
565.6329744339
 20
541.624753125
 11
565.7547675254
 21
541.6306234422
  0
LINE
  8
0
 62
7
  6
CONTINUOUS
 10
565.447377312
 20
541.6166529592
 11
565.6329744339
 21
541.624753125
  0
LINE
  8
0
 62
7
  6
CONTINUOUS
 10
565.1194435159
 20
541.6038735455
 11
565.447377312
 21
541.6166529592
  0
LINE
  8
0
 62
7
  6
CONTINUOUS
 10
564.5189745565
 20
541.5833310984
 11
565.1194435159
 21
541.6038735455
  0
LINE
  8
0
 62
7
  6
CONTINUOUS
 10
564.175573016
 20
541.5726088167
 11
564.5189745565
 21
541.5833310984
  0
LINE
  8
KONSTRUKTIONSELEMENTE
 62
3
  6
CONTINUOUS
 10
261.6271640252
 20
539.4840105532
 11
261.6271640252
 21
542.4840105532
  0
LINE
  8
FASEN
 62
3
  6
CONTINUOUS
 10
261.6271640252
 20
542.4840105532
 11
261.6271640252
 21
617.4840105532
  0
LINE
  8
FASEN
 62
7
  6
CONTINUOUS
 10
263.6271640252
 20
542.4840105532
 11
263.6271640252
 21
617.4840105532
  0
LINE
  8
KONSTRUKTIONSELEMENTE
 62
7
  6
CONTINUOUS
 10
263.8271640252
 20
614.2840105532
 11
263.8271640252
 21
615.2840105532
  0
LINE
  8
BEZUGSACHSEN
 62
7
  6
CONTINUOUS
 10
264.200757154
 20
543.4840105532
 11
264.200757154
 21
541.5840105532
  0
LINE
  8
KONSTRUKTIONSELEMENTE
 62
9
  6
CONTINUOUS
 10
264.6271640252
 20
539.4840105532
 11
264.6271640252
 21
541.4840105532
  0
LINE
  8
KONSTRUKTIONSELEMENTE
 62
7
  6
CONTINUOUS
 10
265.6271640252
 20
614.7840105532
 11
265.6271640252
 21
564.7840105532
  0
LINE
  8
BEZUGSACHSEN
 62
7
  6
CONTINUOUS
 10
274.200757154
 20
543.4840105532
 11
274.200757154
 21
541.5840105532
  0
LINE
  8
0
 62
7
  6
CONTINUOUS
 10
276.1271640252
 20
584.2840105532
 11
276.1271640252
 21
597.2840105532
  0
LINE
  8
0
 62
7
  6
CONTINUOUS
 10
563.2564593236
 20
541.5461987009
 11
564.175573016
 21
541.5726088167
  0
LINE
  8
0
 62
7
  6
CONTINUOUS
 10
562.2206743314
 20
541.5191249982
 11
563.2564593236
 21
541.5461987009
  0
LINE
  8
0
 62
7
  6
CONTINUOUS
 10
561.3913101288
 20
541.4988814013
 11
562.2206743314
 21
541.5191249982
  0
LINE
  8
0
 62
9
  6
CONTINUOUS
 10
566.1315272929
 20
541.6626345071
 11
561.6271640252
 21
541.5840105538
  0
LINE
  8
BEZUGSACHSEN
 62
3
  6
CONTINUOUS
 10
658.6271640252
 20
539.4840105532
 11
264.6271640252
 21
539.4840105532
  0
LINE
  8
KONSTRUKTIONSELEMENTE
 62
3
  6
CONTINUOUS
 10
111.6271640252
 20
539.4840105532
 11
264.6271640252
 21
539.4840105532
  0
LINE
  8
KONSTRUKTIONSELEMENTE
 62
7
  6
CONTINUOUS
 10
261.6271640252
 20
541.4840105532
 11
261.7989177556
 21
541.4840105532
  0
LINE
  8
BEZUGSACHSEN
 62
7
  6
CONTINUOUS
 10
264.6271640252
 20
541.4840105532
 11
658.6271640252
 21
541.4840105532
  0
LINE
  8
BEZUGSACHSEN
 62
9
  6
CONTINUOUS
 10
264.200757154
 20
541.5840105532
 11
274.200757154
 21
541.5840105532
  0
LINE
  8
BEZUGSACHSEN
 62
9
  6
CONTINUOUS
 10
306.6271640252
 20
541.5840105532
 11
316.6271640252
 21
541.5840105532
  0
LINE
  8
BEZUGSACHSEN
 62
9
  6
CONTINUOUS
 10
409.200757154
 20
541.5840105532
 11
419.200757154
 21
541.5840105532
  0
LINE
  8
BEZUGSACHSEN
 62
9
  6
CONTINUOUS
 10
446.6271640252
 20
541.5840105532
 11
449.6271640252
 21
541.5840105532
  0
LINE
  8
BEZUGSACHSEN
 62
9
  6
CONTINUOUS
 10
463.6271640252
 20
541.5840105532
 11
473.6271640252
 21
541.5840105532
  0
LINE
  8
BEZUGSACHSEN
 62
9
  6
CONTINUOUS
 10
578.3428927777
 20
541.5840105532
 11
588.3428927777
 21
541.5840105532
  0
LINE
  8
BEZUGSACHSEN
 62
9
  6
CONTINUOUS
 10
606.6271640252
 20
541.5840105532
 11
616.6271640252
 21
541.5840105532
  0
LINE
  8
KONSTRUKTIONSELEMENTE
 62
9
  6
CONTINUOUS
 10
661.6271640252
 20
542.4840105532
 11
659.6271640252
 21
542.4840105532
  0
LINE
  8
KONSTRUKTIONSELEMENTE
 62
9
  6
CONTINUOUS
 10
111.6271640252
 20
542.4840105532
 11
263.6271640252
 21
542.4840105532
  0
LINE
  8
KONSTRUKTIONSELEMENTE
 62
9
  6
CONTINUOUS
 10
540.1940017939
 20
542.4840105532
 11
549.6271640252
 21
542.4840105532
  0
LINE
  8
KONSTRUKTIONSELEMENTE
 62
9
  6
CONTINUOUS
 10
574.2271640252
 20
542.4840105532
 11
578.3428927777
 21
542.4840105532
  0
LINE
  8
KONSTRUKTIONSELEMENTE
 62
9
  6
CONTINUOUS
 10
588.3428927777
 20
542.4840105532
 11
606.6271640252
 21
542.4840105532
  0
LINE
  8
KONSTRUKTIONSELEMENTE
 62
9
  6
CONTINUOUS
 10
616.6271640252
 20
542.4840105532
 11
658.6271640252
 21
542.4840105532
  0
LINE
  8
KONSTRUKTIONSELEMENTE
 62
7
  6
CONTINUOUS
 10
658.6271640252
 20
542.4840105532
 11
659.6271640252
 21
542.4840105532
  0
LINE
  8
BEZUGSACHSEN
 62
7
  6
CONTINUOUS
 10
616.6271640252
 20
543.4840105532
 11
606.6271640252
 21
543.4840105532
  0
LINE
  8
BEZUGSACHSEN
 62
7
  6
CONTINUOUS
 10
588.3428927777
 20
543.4840105532
 11
578.3428927777
 21
543.4840105532
  0
LINE
  8
BEZUGSACHSEN
 62
7
  6
CONTINUOUS
 10
473.6271640252
 20
543.4840105532
 11
463.6271640252
 21
543.4840105532
  0
LINE
  8
BEZUGSACHSEN
 62
7
  6
CONTINUOUS
 10
449.6271640252
 20
543.4840105532
 11
446.6271640252
 21
543.4840105532
  0
LINE
  8
BEZUGSACHSEN
 62
7
  6
CONTINUOUS
 10
419.200757154
 20
543.4840105532
 11
409.200757154
 21
543.4840105532
  0
LINE
  8
BEZUGSACHSEN
 62
7
  6
CONTINUOUS
 10
316.6271640252
 20
543.4840105532
 11
306.6271640252
 21
543.4840105532
  0
LINE
  8
BEZUGSACHSEN
 62
7
  6
CONTINUOUS
 10
274.200757154
 20
543.4840105532
 11
264.200757154
 21
543.4840105532
  0
LINE
  8
0
 62
9
  6
CONTINUOUS
 10
561.6271640252
 20
541.5840105538
 11
557.1228007574
 21
541.6626345071
  0
LINE
  8
0
 62
7
  6
CONTINUOUS
 10
561.3913101288
 20
541.5102601224
 11
560.786437788
 21
541.5253850169
  0
LINE
  8
0
 62
7
  6
CONTINUOUS
 10
560.786437788
 20
541.5253850169
 11
560.2672656826
 21
541.5389293925
  0
LINE
  8
0
 62
7
  6
CONTINUOUS
 10
560.2672656826
 20
541.5389293925
 11
559.7203733187
 21
541.5538861068
  0
LINE
  8
0
 62
7
  6
CONTINUOUS
 10
559.7203733187
 20
541.5538861068
 11
559.2681512234
 21
541.566924909
  0
LINE
  8
0
 62
7
  6
CONTINUOUS
 10
559.2681512234
 20
541.566924909
 11
558.8940214695
 21
541.578303906
  0
LINE
  8
0
 62
7
  6
CONTINUOUS
 10
558.8940214695
 20
541.578303906
 11
558.5293897981
 21
541.590074203
  0
LINE
  8
0
 62
7
  6
CONTINUOUS
 10
558.5293897981
 20
541.590074203
 11
558.2388219862
 21
541.6001032672
  0
LINE
  8
0
 62
7
  6
CONTINUOUS
 10
558.2388219862
 20
541.6001032672
 11
557.9735749847
 21
541.6099676312
  0
LINE
  8
0
 62
7
  6
CONTINUOUS
 10
557.9735749847
 20
541.6099676312
 11
557.7702463836
 21
541.6181919711
  0
LINE
  8
0
 62
7
  6
CONTINUOUS
 10
557.7702463836
 20
541.6181919711
 11
557.5953057505
 21
541.625963752
  0
LINE
  8
0
 62
7
  6
CONTINUOUS
 10
557.5953057505
 20
541.625963752
 11
557.4802875348
 21
541.6316083516
  0
LINE
  8
0
 62
7
  6
CONTINUOUS
 10
557.4802875348
 20
541.6316083516
 11
557.4033762588
 21
541.6357409881
  0
LINE
  8
0
 62
7
  6
CONTINUOUS
 10
557.4033762588
 20
541.6357409881
 11
557.3422119604
 21
541.639327041
  0
LINE
  8
0
 62
7
  6
CONTINUOUS
 10
557.3422119604
 20
541.639327041
 11
557.3247521552
 21
541.6404156425
  0
LINE
  8
0
 62
7
  6
CONTINUOUS
 10
289.8271640252
 20
597.2840105532
 11
289.8271640252
 21
614.2840105532
  0
LINE
  8
0
 62
7
  6
CONTINUOUS
 10
299.4671640252
 20
613.9840105532
 11
299.4671640252
 21
541.4840105532
  0
LINE
  8
BEZUGSACHSEN
 62
7
  6
CONTINUOUS
 10
306.6271640252
 20
543.4840105532
 11
306.6271640252
 21
541.5840105532
  0
LINE
  8
0
 62
7
  6
CONTINUOUS
 10
557.7469383706
 20
610.1917980837
 11
557.819296627
 21
610.2035213315
  0
LINE
  8
0
 62
7
  6
CONTINUOUS
 10
557.819296627
 20
610.2035213315
 11
557.8983730657
 21
610.2156574816
  0
LINE
  8
0
 62
7
  6
CONTINUOUS
 10
557.8983730657
 20
610.2156574816
 11
557.9847398134
 21
610.2282266792
  0
LINE
  8
0
 62
7
  6
CONTINUOUS
 10
557.9847398134
 20
610.2282266792
 11
558.0790007325
 21
610.24124726
  0
LINE
  8
0
 62
7
  6
CONTINUOUS
 10
558.0790007325
 20
610.24124726
 11
558.1818238437
 21
610.2547402233
  0
LINE
  8
0
 62
7
  6
CONTINUOUS
 10
558.1818238437
 20
610.2547402233
 11
558.293931474
 21
610.2687270361
  0
POLYLINE
  8
0
 62
7
  6
CONTINUOUS
 66
1
 70
0
  0
VERTEX
  8
0
 62
7
  6
CONTINUOUS
 10
558.293931474
 20
610.2687270361
  0
VERTEX
  8
0
 62
7
  6
CONTINUOUS
 10
558.4161102199
 20
610.2832303477
  0
VERTEX
  8
0
 62
7
  6
CONTINUOUS
 10
558.4812399126
 20
610.2906828225
  0
SEQEND
  0
LINE
  8
KONSTRUKTIONSELEMENTE
 62
7
  6
CONTINUOUS
 10
659.6271640252
 20
564.4840105532
 11
657.6271640252
 21
564.4840105532
  0
LINE
  8
KONSTRUKTIONSELEMENTE
 62
7
  6
CONTINUOUS
 10
540.1940017939
 20
564.4840105532
 11
549.6271640252
 21
564.4840105532
  0
LINE
  8
KONSTRUKTIONSELEMENTE
 62
7
  6
CONTINUOUS
 10
574.2271640252
 20
564.4840105532
 11
657.1271640252
 21
564.4840105532
  0
LINE
  8
KONSTRUKTIONSELEMENTE
 62
7
  6
CONTINUOUS
 10
265.6271640252
 20
564.7840105532
 11
263.6271640252
 21
564.7840105532
  0
LINE
  8
0
 62
7
  6
CONTINUOUS
 10
347.4771640252
 20
567.1840105532
 11
349.0271640252
 21
567.1840105532
  0
LINE
  8
0
 62
7
  6
CONTINUOUS
 10
373.6271640252
 20
567.1840105532
 11
395.8027970757
 21
567.1840105532
  0
LINE
  8
0
 62
7
  6
CONTINUOUS
 10
434.5876040237
 20
567.1840105532
 11
449.6271640252
 21
567.1840105532
  0
LINE
  8
0
 62
7
  6
CONTINUOUS
 10
474.2271640252
 20
567.1840105532
 11
496.105893987
 21
567.1840105532
  0
LINE
  8
0
 62
7
  6
CONTINUOUS
 10
557.3247521552
 20
541.6404156425
 11
557.2865481354
 21
541.6429291224
  0
LINE
  8
0
 62
7
  6
CONTINUOUS
 10
557.2865481354
 20
541.6429291224
 11
557.2608485938
 21
541.6447474025
  0
LINE
  8
0
 62
7
  6
CONTINUOUS
 10
557.2608485938
 20
541.6447474025
 11
557.2388093183
 21
541.6464143993
  0
LINE
  8
0
 62
7
  6
CONTINUOUS
 10
557.2388093183
 20
541.6464143993
 11
557.2199139958
 21
541.6479462204
  0
LINE
  8
0
 62
7
  6
CONTINUOUS
 10
557.2199139958
 20
541.6479462204
 11
557.2075385625
 21
541.6490150228
  0
LINE
  8
0
 62
7
  6
CONTINUOUS
 10
557.2075385625
 20
541.6490150228
 11
557.1965244316
 21
541.6500209812
  0
LINE
  8
0
 62
7
  6
CONTINUOUS
 10
557.1965244316
 20
541.6500209812
 11
557.1867177332
 21
541.6509701005
  0
LINE
  8
0
 62
7
  6
CONTINUOUS
 10
557.1867177332
 20
541.6509701005
 11
557.1779864423
 21
541.6518675653
  0
LINE
  8
0
 62
7
  6
CONTINUOUS
 10
557.1779864423
 20
541.6518675653
 11
557.172706371
 21
541.6524394378
  0
LINE
  8
0
 62
7
  6
CONTINUOUS
 10
557.172706371
 20
541.6524394378
 11
557.1678225311
 21
541.652991709
  0
LINE
  8
0
 62
7
  6
CONTINUOUS
 10
557.1678225311
 20
541.652991709
 11
557.1633064028
 21
541.6535256613
  0
LINE
  8
0
 62
7
  6
CONTINUOUS
 10
557.1633064028
 20
541.6535256613
 11
557.1591315534
 21
541.6540425567
  0
LINE
  8
0
 62
7
  6
CONTINUOUS
 10
557.1591315534
 20
541.6540425567
 11
557.1552735287
 21
541.6545436423
  0
LINE
  8
0
 62
7
  6
CONTINUOUS
 10
557.1552735287
 20
541.6545436423
 11
557.1517097083
 21
541.6550301638
  0
LINE
  8
0
 62
7
  6
CONTINUOUS
 10
557.1517097083
 20
541.6550301638
 11
557.1484191529
 21
541.6555033836
  0
POLYLINE
  8
0
 62
7
  6
CONTINUOUS
 66
1
 70
0
  0
VERTEX
  8
0
 62
7
  6
CONTINUOUS
 10
557.1484191529
 20
541.6555033836
  0
VERTEX
  8
0
 62
7
  6
CONTINUOUS
 10
557.1453825346
 20
541.6559645941
  0
VERTEX
  8
0
 62
7
  6
CONTINUOUS
 10
557.1439540643
 20
541.6561910804
  0
VERTEX
  8
0
 62
7
  6
CONTINUOUS
 10
557.1425831139
 20
541.6564149547
  0
VERTEX
  8
0
 62
7
  6
CONTINUOUS
 10
557.1412671764
 20
541.6566365128
  0
VERTEX
  8
0
 62
7
  6
CONTINUOUS
 10
557.1400037294
 20
541.6568560035
  0
VERTEX
  8
0
 62
7
  6
CONTINUOUS
 10
557.1387910422
 20
541.6570736574
  0
VERTEX
  8
0
 62
7
  6
CONTINUOUS
 10
557.1376270149
 20
541.6572897101
  0
VERTEX
  8
0
 62
7
  6
CONTINUOUS
 10
557.1365102332
 20
541.6575043955
  0
VERTEX
  8
0
 62
7
  6
CONTINUOUS
 10
557.1354390684
 20
541.6577179183
  0
VERTEX
  8
0
 62
7
  6
CONTINUOUS
 10
557.1344120634
 20
541.6579306023
  0
VERTEX
  8
0
 62
7
  6
CONTINUOUS
 10
557.1334276165
 20
541.6581427104
  0
VERTEX
  8
0
 62
7
  6
CONTINUOUS
 10
557.1324845324
 20
541.6583546294
  0
VERTEX
  8
0
 62
7
  6
CONTINUOUS
 10
557.1315814158
 20
541.6585666628
  0
VERTEX
  8
0
 62
7
  6
CONTINUOUS
 10
557.1307172638
 20
541.6587793235
  0
VERTEX
  8
0
 62
7
  6
CONTINUOUS
 10
557.1298908535
 20
541.6589929863
  0
VERTEX
  8
0
 62
7
  6
CONTINUOUS
 10
557.1291014487
 20
541.6592083689
  0
VERTEX
  8
0
 62
7
  6
CONTINUOUS
 10
557.1283479903
 20
541.6594259631
  0
VERTEX
  8
0
 62
7
  6
CONTINUOUS
 10
557.1276302252
 20
541.659646821
  0
VERTEX
  8
0
 62
7
  6
CONTINUOUS
 10
557.1269473647
 20
541.6598715893
  0
VERTEX
  8
0
 62
7
  6
CONTINUOUS
 10
557.1262999559
 20
541.6601019751
  0
VERTEX
  8
0
 62
7
  6
CONTINUOUS
 10
557.1256877047
 20
541.6603387377
  0
VERTEX
  8
0
 62
7
  6
CONTINUOUS
 10
557.1251123461
 20
541.660585367
  0
VERTEX
  8
0
 62
7
  6
CONTINUOUS
 10
557.1245727981
 20
541.6608432277
  0
VERTEX
  8
0
 62
7
  6
CONTINUOUS
 10
557.1240772175
 20
541.6611194557
  0
VERTEX
  8
0
 62
7
  6
CONTINUOUS
 10
557.1236221237
 20
541.6614127061
  0
VERTEX
  8
0
 62
7
  6
CONTINUOUS
 10
557.1232413473
 20
541.6617497856
  0
VERTEX
  8
0
 62
7
  6
CONTINUOUS
 10
557.1229716423
 20
541.6621603474
  0
VERTEX
  8
0
 62
7
  6
CONTINUOUS
 10
557.1228007574
 20
541.6626345071
  0
SEQEND
  0
LINE
  8
BEZUGSACHSEN
 62
7
  6
CONTINUOUS
 10
316.6271640252
 20
543.4840105532
 11
316.6271640252
 21
541.5840105532
  0
LINE
  8
0
 62
7
  6
CONTINUOUS
 10
324.7271640252
 20
541.4840105532
 11
324.7271640252
 21
613.9840105532
  0
LINE
  8
0
 62
7
  6
CONTINUOUS
 10
558.4812399126
 20
610.2906828225
 11
558.6201265104
 21
610.3060030353
  0
LINE
  8
0
 62
7
  6
CONTINUOUS
 10
558.6201265104
 20
610.3060030353
 11
558.7714106426
 21
610.3219062518
  0
LINE
  8
0
 62
7
  6
CONTINUOUS
 10
558.7714106426
 20
610.3219062518
 11
558.9361769947
 21
610.3384214084
  0
LINE
  8
0
 62
7
  6
CONTINUOUS
 10
558.9361769947
 20
610.3384214084
 11
559.1155198297
 21
610.3555705136
  0
LINE
  8
0
 62
7
  6
CONTINUOUS
 10
559.1155198297
 20
610.3555705136
 11
559.310654851
 21
610.3733797772
  0
LINE
  8
0
 62
7
  6
CONTINUOUS
 10
559.310654851
 20
610.3733797772
 11
559.5229096361
 21
610.3918775496
  0
LINE
  8
0
 62
7
  6
CONTINUOUS
 10
559.5229096361
 20
610.3918775496
 11
559.753703239
 21
610.4110918256
  0
LINE
  8
0
 62
7
  6
CONTINUOUS
 10
559.753703239
 20
610.4110918256
 11
560.0046697295
 21
610.43105955
  0
LINE
  8
0
 62
7
  6
CONTINUOUS
 10
560.0046697295
 20
610.43105955
 11
560.2775777568
 21
610.4518183037
  0
LINE
  8
0
 62
7
  6
CONTINUOUS
 10
560.2775777568
 20
610.4518183037
 11
560.5742326146
 21
610.4733986955
  0
LINE
  8
0
 62
7
  6
CONTINUOUS
 10
560.5742326146
 20
610.4733986955
 11
560.8965770409
 21
610.4958322286
  0
LINE
  8
0
 62
7
  6
CONTINUOUS
 10
560.8965770409
 20
610.4958322286
 11
561.2467853158
 21
610.5191568576
  0
LINE
  8
0
 62
7
  6
CONTINUOUS
 10
561.2467853158
 20
610.5191568576
 11
561.6271640252
 21
610.5434090387
  0
LINE
  8
0
 62
7
  6
CONTINUOUS
 10
632.1271640252
 20
584.2840105532
 11
574.2271640252
 21
584.2840105532
  0
LINE
  8
0
 62
7
  6
CONTINUOUS
 10
549.6271640252
 20
584.2840105532
 11
540.1940017939
 21
584.2840105532
  0
LINE
  8
0
 62
7
  6
CONTINUOUS
 10
496.105893987
 20
584.2840105532
 11
481.7271640252
 21
584.2840105532
  0
LINE
  8
0
 62
7
  6
CONTINUOUS
 10
395.8027970757
 20
584.2840105532
 11
373.6271640252
 21
584.2840105532
  0
LINE
  8
0
 62
7
  6
CONTINUOUS
 10
349.0271640252
 20
584.2840105532
 11
347.4771640252
 21
584.2840105532
  0
LINE
  8
0
 62
7
  6
CONTINUOUS
 10
265.6271640252
 20
584.2840105532
 11
276.1271640252
 21
584.2840105532
  0
LINE
  8
0
 62
7
  6
CONTINUOUS
 10
647.1271640252
 20
584.2840105532
 11
657.6271640252
 21
584.2840105532
  0
LINE
  8
0
 62
7
  6
CONTINUOUS
 10
632.1271640252
 20
597.2840105532
 11
574.2271640252
 21
597.2840105532
  0
LINE
  8
0
 62
7
  6
CONTINUOUS
 10
549.6271640252
 20
597.2840105532
 11
540.1940017939
 21
597.2840105532
  0
LINE
  8
0
 62
7
  6
CONTINUOUS
 10
496.105893987
 20
597.2840105532
 11
481.7271640252
 21
597.2840105532
  0
LINE
  8
0
 62
7
  6
CONTINUOUS
 10
395.8027970757
 20
597.2840105532
 11
373.6271640252
 21
597.2840105532
  0
LINE
  8
0
 62
7
  6
CONTINUOUS
 10
349.0271640252
 20
597.2840105532
 11
347.4771640252
 21
597.2840105532
  0
LINE
  8
0
 62
7
  6
CONTINUOUS
 10
289.8271640252
 20
597.2840105532
 11
276.1271640252
 21
597.2840105532
  0
LINE
  8
0
 62
7
  6
CONTINUOUS
 10
633.4271640252
 20
597.2840105532
 11
647.1271640252
 21
597.2840105532
  0
LINE
  8
0
 62
7
  6
CONTINUOUS
 10
347.4771640252
 20
607.6840105532
 11
347.4771640252
 21
567.1840105532
  0
LINE
  8
0
 62
7
  6
CONTINUOUS
 10
349.0271640252
 20
613.9840105532
 11
349.0271640252
 21
541.4840105532
  0
LINE
  8
0
 62
7
  6
CONTINUOUS
 10
496.105893987
 20
607.6840105532
 11
474.2271640252
 21
607.6840105532
  0
LINE
  8
0
 62
7
  6
CONTINUOUS
 10
449.6271640252
 20
607.6840105532
 11
434.5876040237
 21
607.6840105532
  0
LINE
  8
0
 62
7
  6
CONTINUOUS
 10
395.8027970757
 20
607.6840105532
 11
373.6271640252
 21
607.6840105532
  0
LINE
  8
0
 62
7
  6
CONTINUOUS
 10
349.0271640252
 20
607.6840105532
 11
347.4771640252
 21
607.6840105532
  0
LINE
  8
0
 62
9
  6
CONTINUOUS
 10
557.1228007574
 20
609.9840105532
 11
566.1315272929
 21
609.9840105532
  0
LINE
  8
0
 62
7
  6
CONTINUOUS
 10
574.2271640252
 20
613.9840105532
 11
549.6271640252
 21
613.9840105532
  0
LINE
  8
0
 62
7
  6
CONTINUOUS
 10
289.8271640252
 20
613.9840105532
 11
540.1940017939
 21
613.9840105532
  0
LINE
  8
0
 62
7
  6
CONTINUOUS
 10
657.6271640252
 20
614.2840105532
 11
633.4271640252
 21
614.2840105532
  0
LINE
  8
0
 62
7
  6
CONTINUOUS
 10
289.8271640252
 20
614.2840105532
 11
265.6271640252
 21
614.2840105532
  0
LINE
  8
KONSTRUKTIONSELEMENTE
 62
3
  6
CONTINUOUS
 10
263.8271640252
 20
614.2840105532
 11
659.4271640252
 21
614.2840105532
  0
LINE
  8
KONSTRUKTIONSELEMENTE
 62
7
  6
CONTINUOUS
 10
657.6271640252
 20
614.4840105532
 11
659.6271640252
 21
614.4840105532
  0
LINE
  8
KONSTRUKTIONSELEMENTE
 62
7
  6
CONTINUOUS
 10
263.6271640252
 20
614.7840105532
 11
265.6271640252
 21
614.7840105532
  0
LINE
  8
KONSTRUKTIONSELEMENTE
 62
7
  6
CONTINUOUS
 10
263.6271640252
 20
615.2840105532
 11
659.4271640252
 21
615.2840105532
  0
LINE
  8
FASEN
 62
7
  6
CONTINUOUS
 10
263.6271640252
 20
615.4840105532
 11
261.6271640252
 21
615.4840105532
  0
LINE
  8
BEZUGSACHSEN
 62
7
  6
CONTINUOUS
 10
659.6271640252
 20
615.4840105532
 11
661.6271640252
 21
615.4840105532
  0
LINE
  8
KONSTRUKTIONSELEMENTE
 62
7
  6
CONTINUOUS
 10
659.6271640252
 20
617.4840105532
 11
263.6271640252
 21
617.4840105532
  0
LINE
  8
FASEN
 62
7
  6
CONTINUOUS
 10
263.6271640252
 20
617.4840105532
 11
261.6271640252
 21
617.4840105532
  0
LINE
  8
KONSTRUKTIONSELEMENTE
 62
3
  6
CONTINUOUS
 10
261.6271640252
 20
617.4840105532
 11
113.6271640252
 21
617.4840105532
  0
LINE
  8
BEZUGSACHSEN
 62
7
  6
CONTINUOUS
 10
659.6271640252
 20
617.4840105532
 11
661.6271640252
 21
617.4840105532
  0
LINE
  8
0
 62
7
  6
CONTINUOUS
 10
562.0075427345
 20
610.5191568576
 11
561.6271640252
 21
610.5434090387
  0
LINE
  8
0
 62
7
  6
CONTINUOUS
 10
562.3577510094
 20
610.4958322286
 11
562.0075427345
 21
610.5191568576
  0
LINE
  8
0
 62
7
  6
CONTINUOUS
 10
562.6800954357
 20
610.4733986955
 11
562.3577510094
 21
610.4958322286
  0
LINE
  8
0
 62
7
  6
CONTINUOUS
 10
562.9767502935
 20
610.4518183037
 11
562.6800954357
 21
610.4733986955
  0
LINE
  8
0
 62
7
  6
CONTINUOUS
 10
373.6271640252
 20
613.9840105532
 11
373.6271640252
 21
541.4840105532
  0
LINE
  8
0
 62
7
  6
CONTINUOUS
 10
563.2496583209
 20
610.43105955
 11
562.9767502935
 21
610.4518183037
  0
LINE
  8
0
 62
7
  6
CONTINUOUS
 10
563.5006248114
 20
610.4110918256
 11
563.2496583209
 21
610.43105955
  0
LINE
  8
0
 62
7
  6
CONTINUOUS
 10
563.7314184143
 20
610.3918775496
 11
563.5006248114
 21
610.4110918256
  0
LINE
  8
0
 62
7
  6
CONTINUOUS
 10
563.9436731993
 20
610.3733797772
 11
563.7314184143
 21
610.3918775496
  0
LINE
  8
0
 62
7
  6
CONTINUOUS
 10
564.1388082206
 20
610.3555705136
 11
563.9436731993
 21
610.3733797772
  0
LINE
  8
0
 62
7
  6
CONTINUOUS
 10
564.3181510556
 20
610.3384214084
 11
564.1388082206
 21
610.3555705136
  0
LINE
  8
0
 62
7
  6
CONTINUOUS
 10
564.4829174078
 20
610.3219062518
 11
564.3181510556
 21
610.3384214084
  0
LINE
  8
0
 62
7
  6
CONTINUOUS
 10
564.6342015399
 20
610.3060030353
 11
564.4829174078
 21
610.3219062518
  0
LINE
  8
0
 62
7
  6
CONTINUOUS
 10
564.7730881377
 20
610.2906828225
 11
564.6342015399
 21
610.3060030353
  0
LINE
  8
0
 62
7
  6
CONTINUOUS
 10
564.9006167126
 20
610.2759126393
 11
564.7730881377
 21
610.2906828225
  0
LINE
  8
0
 62
7
  6
CONTINUOUS
 10
565.0176568265
 20
610.2616705586
 11
564.9006167126
 21
610.2759126393
  0
LINE
  8
0
 62
7
  6
CONTINUOUS
 10
565.1250284925
 20
610.2479333822
 11
565.0176568265
 21
610.2616705586
  0
LINE
  8
0
 62
7
  6
CONTINUOUS
 10
565.2234838527
 20
610.2346792546
 11
565.1250284925
 21
610.2479333822
  0
LINE
  8
0
 62
7
  6
CONTINUOUS
 10
565.3137171953
 20
610.2218870132
 11
565.2234838527
 21
610.2346792546
  0
LINE
  8
0
 62
7
  6
CONTINUOUS
 10
565.3963691488
 20
610.2095361617
 11
565.3137171953
 21
610.2218870132
  0
LINE
  8
0
 62
7
  6
CONTINUOUS
 10
395.8027970757
 20
613.9840105532
 11
395.8027970757
 21
541.4840105532
  0
LINE
  8
BEZUGSACHSEN
 62
7
  6
CONTINUOUS
 10
409.200757154
 20
543.4840105532
 11
409.200757154
 21
541.5840105532
  0
LINE
  8
BEZUGSACHSEN
 62
7
  6
CONTINUOUS
 10
419.200757154
 20
543.4840105532
 11
419.200757154
 21
541.5840105532
  0
LINE
  8
0
 62
7
  6
CONTINUOUS
 10
434.5876040237
 20
607.6840105532
 11
434.5876040237
 21
567.1840105532
  0
LINE
  8
BEZUGSACHSEN
 62
7
  6
CONTINUOUS
 10
446.6271640252
 20
541.5840105532
 11
446.6271640252
 21
543.4840105532
  0
LINE
  8
0
 62
7
  6
CONTINUOUS
 10
449.6271640252
 20
541.4840105532
 11
449.6271640252
 21
613.9840105532
  0
LINE
  8
BEZUGSACHSEN
 62
7
  6
CONTINUOUS
 10
463.6271640252
 20
543.4840105532
 11
463.6271640252
 21
541.5840105532
  0
LINE
  8
BEZUGSACHSEN
 62
7
  6
CONTINUOUS
 10
473.6271640252
 20
543.4840105532
 11
473.6271640252
 21
541.5840105532
  0
LINE
  8
0
 62
7
  6
CONTINUOUS
 10
474.2271640252
 20
541.4840105532
 11
474.2271640252
 21
613.9840105532
  0
LINE
  8
0
 62
7
  6
CONTINUOUS
 10
481.6878550424
 20
567.1840105532
 11
481.6878550424
 21
607.6840105532
  0
LINE
  8
KONSTRUKTIONSELEMENTE
 62
7
  6
CONTINUOUS
 10
481.7271640252
 20
567.1840105532
 11
481.7271640252
 21
607.6840105532
  0
LINE
  8
0
 62
7
  6
CONTINUOUS
 10
496.105893987
 20
567.1840105532
 11
496.105893987
 21
607.6840105532
  0
LINE
  8
0
 62
7
  6
CONTINUOUS
 10
522.7991749768
 20
541.4840105532
 11
522.7991749768
 21
613.9840105532
  0
LINE
  8
0
 62
7
  6
CONTINUOUS
 10
540.1940017939
 20
541.4840105532
 11
540.1940017939
 21
613.9840105532
  0
POLYLINE
  8
0
 62
7
  6
CONTINUOUS
 66
1
 70
0
  0
VERTEX
  8
0
 62
7
  6
CONTINUOUS
 10
566.1315272929
 20
609.9840105532
  0
VERTEX
  8
0
 62
7
  6
CONTINUOUS
 10
566.1314111743
 20
609.9869936376
  0
VERTEX
  8
0
 62
7
  6
CONTINUOUS
 10
566.1309960784
 20
609.9900704436
  0
VERTEX
  8
0
 62
7
  6
CONTINUOUS
 10
566.1302937482
 20
609.9932433763
  0
VERTEX
  8
0
 62
7
  6
CONTINUOUS
 10
566.1292689551
 20
609.9965052197
  0
VERTEX
  8
0
 62
7
  6
CONTINUOUS
 10
566.1278991127
 20
609.9998483803
  0
VERTEX
  8
0
 62
7
  6
CONTINUOUS
 10
566.1261580378
 20
610.0032763946
  0
VERTEX
  8
0
 62
7
  6
CONTINUOUS
 10
566.1240129871
 20
610.0067986107
  0
VERTEX
  8
0
 62
7
  6
CONTINUOUS
 10
566.1214610544
 20
610.0103900006
  0
VERTEX
  8
0
 62
7
  6
CONTINUOUS
 10
566.1184893103
 20
610.0140307448
  0
VERTEX
  8
0
 62
7
  6
CONTINUOUS
 10
566.1150950818
 20
610.0177145661
  0
VERTEX
  8
0
 62
7
  6
CONTINUOUS
 10
566.1112728011
 20
610.0214291786
  0
VERTEX
  8
0
 62
7
  6
CONTINUOUS
 10
566.1070182227
 20
610.0251727892
  0
VERTEX
  8
0
 62
7
  6
CONTINUOUS
 10
566.1023266313
 20
610.0289399226
  0
VERTEX
  8
0
 62
7
  6
CONTINUOUS
 10
566.0971938684
 20
610.0327293386
  0
VERTEX
  8
0
 62
7
  6
CONTINUOUS
 10
566.0916169735
 20
610.0365374899
  0
VERTEX
  8
0
 62
7
  6
CONTINUOUS
 10
566.0855876385
 20
610.0403658225
  0
VERTEX
  8
0
 62
7
  6
CONTINUOUS
 10
566.0791000039
 20
610.0442140583
  0
VERTEX
  8
0
 62
7
  6
CONTINUOUS
 10
566.0721437637
 20
610.0480838227
  0
VERTEX
  8
0
 62
7
  6
CONTINUOUS
 10
566.0647133091
 20
610.0519749542
  0
VERTEX
  8
0
 62
7
  6
CONTINUOUS
 10
566.056788689
 20
610.0558925358
  0
VERTEX
  8
0
 62
7
  6
CONTINUOUS
 10
566.0483531324
 20
610.0598412052
  0
VERTEX
  8
0
 62
7
  6
CONTINUOUS
 10
566.0393914905
 20
610.063822137
  0
VERTEX
  8
0
 62
7
  6
CONTINUOUS
 10
566.0298892814
 20
610.0678373615
  0
VERTEX
  8
0
 62
7
  6
CONTINUOUS
 10
566.0198277337
 20
610.0718889504
  0
VERTEX
  8
0
 62
7
  6
CONTINUOUS
 10
566.0091902889
 20
610.0759789502
  0
VERTEX
  8
0
 62
7
  6
CONTINUOUS
 10
565.9979558253
 20
610.0801094669
  0
VERTEX
  8
0
 62
7
  6
CONTINUOUS
 10
565.9861067166
 20
610.0842822258
  0
VERTEX
  8
0
 62
7
  6
CONTINUOUS
 10
565.9736159173
 20
610.0885004162
  0
VERTEX
  8
0
 62
7
  6
CONTINUOUS
 10
565.9604605125
 20
610.0927668065
  0
VERTEX
  8
0
 62
7
  6
CONTINUOUS
 10
565.9466104835
 20
610.0970843841
  0
VERTEX
  8
0
 62
7
  6
CONTINUOUS
 10
565.9320372
 20
610.1014566392
  0
VERTEX
  8
0
 62
7
  6
CONTINUOUS
 10
565.9167135815
 20
610.1058848325
  0
VERTEX
  8
0
 62
7
  6
CONTINUOUS
 10
565.9006139102
 20
610.1103706509
  0
VERTEX
  8
0
 62
7
  6
CONTINUOUS
 10
565.8837054669
 20
610.1149163058
  0
VERTEX
  8
0
 62
7
  6
CONTINUOUS
 10
565.8659588088
 20
610.1195238538
  0
VERTEX
  8
0
 62
7
  6
CONTINUOUS
 10
565.8473383875
 20
610.1241954456
  0
VERTEX
  8
0
 62
7
  6
CONTINUOUS
 10
565.8278114007
 20
610.1289332749
  0
VERTEX
  8
0
 62
7
  6
CONTINUOUS
 10
565.8073401665
 20
610.1337392694
  0
VERTEX
  8
0
 62
7
  6
CONTINUOUS
 10
565.7858914037
 20
610.138615087
  0
VERTEX
  8
0
 62
7
  6
CONTINUOUS
 10
565.763419108
 20
610.1435637311
  0
VERTEX
  8
0
 62
7
  6
CONTINUOUS
 10
565.739883335
 20
610.1485877033
  0
VERTEX
  8
0
 62
7
  6
CONTINUOUS
 10
565.7152326245
 20
610.1536901676
  0
VERTEX
  8
0
 62
7
  6
CONTINUOUS
 10
565.6894169812
 20
610.1588748027
  0
VERTEX
  8
0
 62
7
  6
CONTINUOUS
 10
565.6623920673
 20
610.1641425656
  0
VERTEX
  8
0
 62
7
  6
CONTINUOUS
 10
565.6341159363
 20
610.1694947169
  0
VERTEX
  8
0
 62
7
  6
CONTINUOUS
 10
565.60453142
 20
610.1749340238
  0
VERTEX
  8
0
 62
7
  6
CONTINUOUS
 10
565.5735869535
 20
610.1804629395
  0
VERTEX
  8
0
 62
7
  6
CONTINUOUS
 10
565.5412237815
 20
610.1860836663
  0
VERTEX
  8
0
 62
7
  6
CONTINUOUS
 10
565.5073896797
 20
610.1917980837
  0
VERTEX
  8
0
 62
7
  6
CONTINUOUS
 10
565.4720134901
 20
610.1976096142
  0
VERTEX
  8
0
 62
7
  6
CONTINUOUS
 10
565.3963691488
 20
610.2095361617
  0
SEQEND
  0
LINE
  8
0
 62
7
  6
CONTINUOUS
 10
549.6271640252
 20
541.4840105532
 11
549.6271640252
 21
613.9840105532
  0
LINE
  8
0
 62
7
  6
CONTINUOUS
 10
557.1228007574
 20
541.6626345071
 11
557.1228007574
 21
609.9840105532
  0
LINE
  8
0
 62
7
  6
CONTINUOUS
 10
561.3913101288
 20
541.5102601224
 11
561.3913101288
 21
541.4988814013
  0
LINE
  8
KONSTRUKTIONSELEMENTE
 62
7
  6
CONTINUOUS
 10
561.6271640252
 20
541.5840105538
 11
561.6271640252
 21
609.9840105532
  0
LINE
  8
0
 62
7
  6
CONTINUOUS
 10
561.6271640252
 20
609.9840105532
 11
561.6271640252
 21
610.5434090387
  0
LINE
  8
0
 62
7
  6
CONTINUOUS
 10
566.1315272929
 20
609.9840105532
 11
566.1315272929
 21
541.6626345071
  0
POLYLINE
  8
0
 62
7
  6
CONTINUOUS
 66
1
 70
0
  0
VERTEX
  8
0
 62
7
  6
CONTINUOUS
 10
557.1228007574
 20
609.9840105532
  0
VERTEX
  8
0
 62
7
  6
CONTINUOUS
 10
557.1229168761
 20
609.9869936376
  0
VERTEX
  8
0
 62
7
  6
CONTINUOUS
 10
557.1233319719
 20
609.9900704436
  0
VERTEX
  8
0
 62
7
  6
CONTINUOUS
 10
557.1240343021
 20
609.9932433763
  0
VERTEX
  8
0
 62
7
  6
CONTINUOUS
 10
557.1250590952
 20
609.9965052197
  0
VERTEX
  8
0
 62
7
  6
CONTINUOUS
 10
557.1264289376
 20
609.9998483803
  0
VERTEX
  8
0
 62
7
  6
CONTINUOUS
 10
557.1281700125
 20
610.0032763946
  0
VERTEX
  8
0
 62
7
  6
CONTINUOUS
 10
557.1303150632
 20
610.0067986107
  0
VERTEX
  8
0
 62
7
  6
CONTINUOUS
 10
557.1328669959
 20
610.0103900006
  0
VERTEX
  8
0
 62
7
  6
CONTINUOUS
 10
557.13583874
 20
610.0140307448
  0
VERTEX
  8
0
 62
7
  6
CONTINUOUS
 10
557.1392329685
 20
610.0177145661
  0
VERTEX
  8
0
 62
7
  6
CONTINUOUS
 10
557.1430552492
 20
610.0214291786
  0
VERTEX
  8
0
 62
7
  6
CONTINUOUS
 10
557.1473098276
 20
610.0251727892
  0
VERTEX
  8
0
 62
7
  6
CONTINUOUS
 10
557.1520014191
 20
610.0289399226
  0
VERTEX
  8
0
 62
7
  6
CONTINUOUS
 10
557.1571341819
 20
610.0327293386
  0
VERTEX
  8
0
 62
7
  6
CONTINUOUS
 10
557.1627110768
 20
610.0365374899
  0
VERTEX
  8
0
 62
7
  6
CONTINUOUS
 10
557.1687404118
 20
610.0403658225
  0
VERTEX
  8
0
 62
7
  6
CONTINUOUS
 10
557.1752280464
 20
610.0442140583
  0
VERTEX
  8
0
 62
7
  6
CONTINUOUS
 10
557.1821842866
 20
610.0480838227
  0
VERTEX
  8
0
 62
7
  6
CONTINUOUS
 10
557.1896147413
 20
610.0519749542
  0
VERTEX
  8
0
 62
7
  6
CONTINUOUS
 10
557.1975393614
 20
610.0558925358
  0
VERTEX
  8
0
 62
7
  6
CONTINUOUS
 10
557.205974918
 20
610.0598412052
  0
VERTEX
  8
0
 62
7
  6
CONTINUOUS
 10
557.2149365598
 20
610.063822137
  0
VERTEX
  8
0
 62
7
  6
CONTINUOUS
 10
557.2244387689
 20
610.0678373615
  0
VERTEX
  8
0
 62
7
  6
CONTINUOUS
 10
557.2345003167
 20
610.0718889504
  0
VERTEX
  8
0
 62
7
  6
CONTINUOUS
 10
557.2451377614
 20
610.0759789502
  0
VERTEX
  8
0
 62
7
  6
CONTINUOUS
 10
557.2563722251
 20
610.0801094669
  0
VERTEX
  8
0
 62
7
  6
CONTINUOUS
 10
557.2682213337
 20
610.0842822258
  0
VERTEX
  8
0
 62
7
  6
CONTINUOUS
 10
557.280712133
 20
610.0885004162
  0
VERTEX
  8
0
 62
7
  6
CONTINUOUS
 10
557.2938675378
 20
610.0927668065
  0
VERTEX
  8
0
 62
7
  6
CONTINUOUS
 10
557.3077175669
 20
610.0970843841
  0
VERTEX
  8
0
 62
7
  6
CONTINUOUS
 10
557.3222908503
 20
610.1014566392
  0
VERTEX
  8
0
 62
7
  6
CONTINUOUS
 10
557.3376144689
 20
610.1058848325
  0
VERTEX
  8
0
 62
7
  6
CONTINUOUS
 10
557.3537141401
 20
610.1103706509
  0
VERTEX
  8
0
 62
7
  6
CONTINUOUS
 10
557.3706225835
 20
610.1149163058
  0
VERTEX
  8
0
 62
7
  6
CONTINUOUS
 10
557.3883692415
 20
610.1195238538
  0
VERTEX
  8
0
 62
7
  6
CONTINUOUS
 10
557.4069896628
 20
610.1241954456
  0
VERTEX
  8
0
 62
7
  6
CONTINUOUS
 10
557.4265166496
 20
610.1289332749
  0
VERTEX
  8
0
 62
7
  6
CONTINUOUS
 10
557.4469878838
 20
610.1337392694
  0
VERTEX
  8
0
 62
7
  6
CONTINUOUS
 10
557.4684366466
 20
610.138615087
  0
VERTEX
  8
0
 62
7
  6
CONTINUOUS
 10
557.4909089423
 20
610.1435637311
  0
VERTEX
  8
0
 62
7
  6
CONTINUOUS
 10
557.5144447154
 20
610.1485877033
  0
VERTEX
  8
0
 62
7
  6
CONTINUOUS
 10
557.5390954258
 20
610.1536901676
  0
VERTEX
  8
0
 62
7
  6
CONTINUOUS
 10
557.5649110692
 20
610.1588748027
  0
VERTEX
  8
0
 62
7
  6
CONTINUOUS
 10
557.591935983
 20
610.1641425656
  0
VERTEX
  8
0
 62
7
  6
CONTINUOUS
 10
557.6202121141
 20
610.1694947169
  0
VERTEX
  8
0
 62
7
  6
CONTINUOUS
 10
557.6497966303
 20
610.1749340238
  0
VERTEX
  8
0
 62
7
  6
CONTINUOUS
 10
557.6807410968
 20
610.1804629395
  0
VERTEX
  8
0
 62
7
  6
CONTINUOUS
 10
557.7131042688
 20
610.1860836663
  0
VERTEX
  8
0
 62
7
  6
CONTINUOUS
 10
557.7469383706
 20
610.1917980837
  0
SEQEND
  0
POLYLINE
  8
0
 62
7
  6
CONTINUOUS
 66
1
 70
0
  0
VERTEX
  8
0
 62
7
  6
CONTINUOUS
 10
561.6271640252
 20
541.5840105537
  0
VERTEX
  8
0
 62
7
  6
CONTINUOUS
 10
561.6270800776
 20
541.5822218092
  0
VERTEX
  8
0
 62
7
  6
CONTINUOUS
 10
561.6267907495
 20
541.5803855911
  0
VERTEX
  8
0
 62
7
  6
CONTINUOUS
 10
561.6263041367
 20
541.578502968
  0
VERTEX
  8
0
 62
7
  6
CONTINUOUS
 10
561.6255959511
 20
541.5765707343
  0
VERTEX
  8
0
 62
7
  6
CONTINUOUS
 10
561.6246439765
 20
541.5745781052
  0
VERTEX
  8
0
 62
7
  6
CONTINUOUS
 10
561.6234500932
 20
541.5725488861
  0
VERTEX
  8
0
 62
7
  6
CONTINUOUS
 10
561.6220072272
 20
541.5705014661
  0
VERTEX
  8
0
 62
7
  6
CONTINUOUS
 10
561.6203200255
 20
541.5684413103
  0
VERTEX
  8
0
 62
7
  6
CONTINUOUS
 10
561.6183897561
 20
541.5663795425
  0
VERTEX
  8
0
 62
7
  6
CONTINUOUS
 10
561.616219482
 20
541.5643175766
  0
VERTEX
  8
0
 62
7
  6
CONTINUOUS
 10
561.6138126861
 20
541.5622607452
  0
VERTEX
  8
0
 62
7
  6
CONTINUOUS
 10
561.6111693771
 20
541.5602084156
  0
VERTEX
  8
0
 62
7
  6
CONTINUOUS
 10
561.6082915356
 20
541.5581621025
  0
VERTEX
  8
0
 62
7
  6
CONTINUOUS
 10
561.6051767292
 20
541.5561206966
  0
VERTEX
  8
0
 62
7
  6
CONTINUOUS
 10
561.6018246791
 20
541.5540839844
  0
VERTEX
  8
0
 62
7
  6
CONTINUOUS
 10
561.5982309049
 20
541.5520507936
  0
VERTEX
  8
0
 62
7
  6
CONTINUOUS
 10
561.5943928985
 20
541.5500202264
  0
VERTEX
  8
0
 62
7
  6
CONTINUOUS
 10
561.5903044646
 20
541.5479912456
  0
VERTEX
  8
0
 62
7
  6
CONTINUOUS
 10
561.5859611425
 20
541.5459627907
  0
VERTEX
  8
0
 62
7
  6
CONTINUOUS
 10
561.5813552197
 20
541.5439340331
  0
VERTEX
  8
0
 62
7
  6
CONTINUOUS
 10
561.5764805371
 20
541.5419039868
  0
VERTEX
  8
0
 62
7
  6
CONTINUOUS
 10
561.5713279741
 20
541.5398720637
  0
VERTEX
  8
0
 62
7
  6
CONTINUOUS
 10
561.5658898531
 20
541.5378374575
  0
VERTEX
  8
0
 62
7
  6
CONTINUOUS
 10
561.5601556867
 20
541.5357998361
  0
VERTEX
  8
0
 62
7
  6
CONTINUOUS
 10
561.554116382
 20
541.5337586191
  0
VERTEX
  8
0
 62
7
  6
CONTINUOUS
 10
561.5477600786
 20
541.5317137452
  0
VERTEX
  8
0
 62
7
  6
CONTINUOUS
 10
561.5410763087
 20
541.5296648827
  0
VERTEX
  8
0
 62
7
  6
CONTINUOUS
 10
561.5340518019
 20
541.5276122618
  0
VERTEX
  8
0
 62
7
  6
CONTINUOUS
 10
561.5266747175
 20
541.5255558195
  0
VERTEX
  8
0
 62
7
  6
CONTINUOUS
 10
561.5189302986
 20
541.5234961042
  0
VERTEX
  8
0
 62
7
  6
CONTINUOUS
 10
561.5108052938
 20
541.5214333423
  0
VERTEX
  8
0
 62
7
  6
CONTINUOUS
 10
561.502283346
 20
541.5193684358
  0
VERTEX
  8
0
 62
7
  6
CONTINUOUS
 10
561.4933497095
 20
541.5173019258
  0
VERTEX
  8
0
 62
7
  6
CONTINUOUS
 10
561.4839862993
 20
541.5152351207
  0
VERTEX
  8
0
 62
7
  6
CONTINUOUS
 10
561.4741767732
 20
541.5131689149
  0
VERTEX
  8
0
 62
7
  6
CONTINUOUS
 10
561.4639011569
 20
541.5111050917
  0
VERTEX
  8
0
 62
7
  6
CONTINUOUS
 10
561.4531413844
 20
541.5090449504
  0
VERTEX
  8
0
 62
7
  6
CONTINUOUS
 10
561.4418753883
 20
541.5069908375
  0
VERTEX
  8
0
 62
7
  6
CONTINUOUS
 10
561.4300832071
 20
541.504944523
  0
VERTEX
  8
0
 62
7
  6
CONTINUOUS
 10
561.4177404562
 20
541.502909036
  0
VERTEX
  8
0
 62
7
  6
CONTINUOUS
 10
561.4048122169
 20
541.5008884478
  0
VERTEX
  8
0
 62
7
  6
CONTINUOUS
 10
561.3913101288
 20
541.4988814013
  0
SEQEND
  0
POLYLINE
  8
0
 62
7
  6
CONTINUOUS
 66
1
 70
0
  0
VERTEX
  8
0
 62
7
  6
CONTINUOUS
 10
561.6268184508
 20
541.5807126695
  0
VERTEX
  8
0
 62
7
  6
CONTINUOUS
 10
561.6263705945
 20
541.5790167888
  0
VERTEX
  8
0
 62
7
  6
CONTINUOUS
 10
561.6257203463
 20
541.5772857492
  0
VERTEX
  8
0
 62
7
  6
CONTINUOUS
 10
561.6248486393
 20
541.5755091266
  0
VERTEX
  8
0
 62
7
  6
CONTINUOUS
 10
561.6237556368
 20
541.5737065933
  0
VERTEX
  8
0
 62
7
  6
CONTINUOUS
 10
561.6224331959
 20
541.5718919257
  0
VERTEX
  8
0
 62
7
  6
CONTINUOUS
 10
561.620887168
 20
541.5700723876
  0
VERTEX
  8
0
 62
7
  6
CONTINUOUS
 10
561.6191193413
 20
541.5682593862
  0
VERTEX
  8
0
 62
7
  6
CONTINUOUS
 10
561.6171337616
 20
541.5664542687
  0
VERTEX
  8
0
 62
7
  6
CONTINUOUS
 10
561.6149346357
 20
541.5646623619
  0
VERTEX
  8
0
 62
7
  6
CONTINUOUS
 10
561.6125232692
 20
541.5628831344
  0
VERTEX
  8
0
 62
7
  6
CONTINUOUS
 10
561.6099028233
 20
541.5611182364
  0
VERTEX
  8
0
 62
7
  6
CONTINUOUS
 10
561.6070719383
 20
541.5593664497
  0
VERTEX
  8
0
 62
7
  6
CONTINUOUS
 10
561.6040319502
 20
541.5576277489
  0
VERTEX
  8
0
 62
7
  6
CONTINUOUS
 10
561.6007779323
 20
541.5559002053
  0
VERTEX
  8
0
 62
7
  6
CONTINUOUS
 10
561.5973074528
 20
541.5541822979
  0
VERTEX
  8
0
 62
7
  6
CONTINUOUS
 10
561.5936143628
 20
541.5524727774
  0
VERTEX
  8
0
 62
7
  6
CONTINUOUS
 10
561.5896935568
 20
541.5507699615
  0
VERTEX
  8
0
 62
7
  6
CONTINUOUS
 10
561.5855394731
 20
541.5490736287
  0
VERTEX
  8
0
 62
7
  6
CONTINUOUS
 10
561.5811473479
 20
541.5473831417
  0
VERTEX
  8
0
 62
7
  6
CONTINUOUS
 10
561.5765096811
 20
541.545698066
  0
VERTEX
  8
0
 62
7
  6
CONTINUOUS
 10
561.5716202682
 20
541.5440178251
  0
VERTEX
  8
0
 62
7
  6
CONTINUOUS
 10
561.5664704581
 20
541.5423422072
  0
VERTEX
  8
0
 62
7
  6
CONTINUOUS
 10
561.5610527741
 20
541.5406707975
  0
VERTEX
  8
0
 62
7
  6
CONTINUOUS
 10
561.555357489
 20
541.5390036278
  0
VERTEX
  8
0
 62
7
  6
CONTINUOUS
 10
561.5493760825
 20
541.537340521
  0
VERTEX
  8
0
 62
7
  6
CONTINUOUS
 10
561.5430974568
 20
541.5356816894
  0
VERTEX
  8
0
 62
7
  6
CONTINUOUS
 10
561.5365114887
 20
541.5340270665
  0
VERTEX
  8
0
 62
7
  6
CONTINUOUS
 10
561.5296067335
 20
541.5323773121
  0
VERTEX
  8
0
 62
7
  6
CONTINUOUS
 10
561.522373915
 20
541.5307330236
  0
VERTEX
  8
0
 62
7
  6
CONTINUOUS
 10
561.5147964047
 20
541.5290943217
  0
VERTEX
  8
0
 62
7
  6
CONTINUOUS
 10
561.506859297
 20
541.5274610934
  0
VERTEX
  8
0
 62
7
  6
CONTINUOUS
 10
561.4985481474
 20
541.5258346369
  0
VERTEX
  8
0
 62
7
  6
CONTINUOUS
 10
561.4898488191
 20
541.5242156842
  0
VERTEX
  8
0
 62
7
  6
CONTINUOUS
 10
561.4807454838
 20
541.5226058196
  0
VERTEX
  8
0
 62
7
  6
CONTINUOUS
 10
561.4712236407
 20
541.5210062619
  0
VERTEX
  8
0
 62
7
  6
CONTINUOUS
 10
561.4612651699
 20
541.5194188394
  0
VERTEX
  8
0
 62
7
  6
CONTINUOUS
 10
561.4508537518
 20
541.5178450253
  0
VERTEX
  8
0
 62
7
  6
CONTINUOUS
 10
561.4399694854
 20
541.5162871049
  0
VERTEX
  8
0
 62
7
  6
CONTINUOUS
 10
561.4285942216
 20
541.5147469033
  0
VERTEX
  8
0
 62
7
  6
CONTINUOUS
 10
561.4167063862
 20
541.5132272746
  0
VERTEX
  8
0
 62
7
  6
CONTINUOUS
 10
561.4042749023
 20
541.5117321137
  0
VERTEX
  8
0
 62
7
  6
CONTINUOUS
 10
561.3913101288
 20
541.5102601224
  0
SEQEND
  0
LINE
  8
0
 62
7
  6
CONTINUOUS
 10
574.2271640252
 20
541.4840105532
 11
574.2271640252
 21
613.9840105532
  0
LINE
  8
BEZUGSACHSEN
 62
7
  6
CONTINUOUS
 10
578.3428927777
 20
543.4840105532
 11
578.3428927777
 21
541.5840105532
  0
LINE
  8
BEZUGSACHSEN
 62
7
  6
CONTINUOUS
 10
588.3428927777
 20
543.4840105532
 11
588.3428927777
 21
541.5840105532
  0
LINE
  8
BEZUGSACHSEN
 62
7
  6
CONTINUOUS
 10
606.6271640252
 20
541.5840105532
 11
606.6271640252
 21
543.4840105532
  0
LINE
  8
BEZUGSACHSEN
 62
7
  6
CONTINUOUS
 10
616.6271640252
 20
541.5840105532
 11
616.6271640252
 21
543.4840105532
  0
LINE
  8
0
 62
7
  6
CONTINUOUS
 10
632.1271640252
 20
614.2840105532
 11
632.1271640252
 21
584.2840105532
  0
LINE
  8
0
 62
7
  6
CONTINUOUS
 10
633.4271640252
 20
614.2840105532
 11
633.4271640252
 21
597.2840105532
  0
LINE
  8
0
 62
7
  6
CONTINUOUS
 10
647.1271640252
 20
597.2840105532
 11
647.1271640252
 21
584.2840105532
  0
LINE
  8
KONSTRUKTIONSELEMENTE
 62
7
  6
CONTINUOUS
 10
657.1271640252
 20
584.2840105532
 11
657.1271640252
 21
564.4840105532
  0
LINE
  8
KONSTRUKTIONSELEMENTE
 62
7
  6
CONTINUOUS
 10
657.6271640252
 20
564.4840105532
 11
657.6271640252
 21
614.4840105532
  0
LINE
  8
KONSTRUKTIONSELEMENTE
 62
9
  6
CONTINUOUS
 10
658.6271640252
 20
539.4840105532
 11
658.6271640252
 21
541.4840105532
  0
LINE
  8
KONSTRUKTIONSELEMENTE
 62
7
  6
CONTINUOUS
 10
658.6271640252
 20
541.4840105532
 11
658.6271640252
 21
542.4840105532
  0
LINE
  8
KONSTRUKTIONSELEMENTE
 62
7
  6
CONTINUOUS
 10
659.4271640252
 20
614.2840105532
 11
659.4271640252
 21
615.2840105532
  0
LINE
  8
BEZUGSACHSEN
 62
7
  6
CONTINUOUS
 10
659.6271640252
 20
542.4840105532
 11
659.6271640252
 21
617.4840105532
  0
LINE
  8
BEZUGSACHSEN
 62
3
  6
CONTINUOUS
 10
661.6271640252
 20
542.4840105532
 11
661.6271640252
 21
617.4840105532
  0
LINE
  8
KONSTRUKTIONSELEMENTE
 62
7
  6
CONTINUOUS
 10
264.6271640252
 20
-88.0647087559
 11
263.6271640252
 21
-88.0647087559
  0
LINE
  8
FASEN
 62
7
  6
CONTINUOUS
 10
263.6271640252
 20
-88.0647087559
 11
261.6271640252
 21
-88.0647087559
  0
LINE
  8
BEZUGSACHSEN
 62
7
  6
CONTINUOUS
 10
264.6271640252
 20
-88.0647087559
 11
658.6271640252
 21
-88.0647087559
  0
LINE
  8
KONSTRUKTIONSELEMENTE
 62
7
  6
CONTINUOUS
 10
658.6271640252
 20
-88.0647087559
 11
659.6271640252
 21
-88.0647087559
  0
LINE
  8
BEZUGSACHSEN
 62
7
  6
CONTINUOUS
 10
659.6271640252
 20
-88.0647087559
 11
661.6271640252
 21
-88.0647087559
  0
LINE
  8
KONSTRUKTIONSELEMENTE
 62
7
  6
CONTINUOUS
 10
263.6271640252
 20
-87.5647087559
 11
659.6271640252
 21
-87.5647087559
  0
LINE
  8
BEZUGSACHSEN
 62
7
  6
CONTINUOUS
 10
111.6271640252
 20
458.9352912441
 11
111.6271640252
 21
64.9352912441
  0
LINE
  8
KONSTRUKTIONSELEMENTE
 62
7
  6
CONTINUOUS
 10
111.6271640252
 20
64.9352912441
 11
111.6271640252
 21
63.9352912441
  0
LINE
  8
BEZUGSACHSEN
 62
7
  6
CONTINUOUS
 10
111.6271640252
 20
63.9352912441
 11
111.6271640252
 21
61.9352912441
  0
LINE
  8
KONSTRUKTIONSELEMENTE
 62
7
  6
CONTINUOUS
 10
111.6271640252
 20
458.9352912441
 11
111.6271640252
 21
459.9352912441
  0
LINE
  8
FASEN
 62
7
  6
CONTINUOUS
 10
111.6271640252
 20
459.9352912441
 11
111.6271640252
 21
461.9352912441
  0
LINE
  8
KONSTRUKTIONSELEMENTE
 62
7
  6
CONTINUOUS
 10
112.1271640252
 20
459.9352912441
 11
112.1271640252
 21
63.9352912441
  0
LINE
  8
BEZUGSACHSEN
 62
7
  6
CONTINUOUS
 10
113.6271640252
 20
63.9352912441
 11
113.6271640252
 21
61.9352912441
  0
LINE
  8
FASEN
 62
7
  6
CONTINUOUS
 10
113.6271640252
 20
459.9352912441
 11
113.6271640252
 21
461.9352912441
  0
LINE
  8
FASEN
 62
7
  6
CONTINUOUS
 10
263.6271640252
 20
-86.0647087559
 11
261.6271640252
 21
-86.0647087559
  0
LINE
  8
BEZUGSACHSEN
 62
7
  6
CONTINUOUS
 10
659.6271640252
 20
-86.0647087559
 11
661.6271640252
 21
-86.0647087559
  0
LINE
  8
KONSTRUKTIONSELEMENTE
 62
3
  6
CONTINUOUS
 10
263.4271640252
 20
61.9352912441
 11
113.6271640252
 21
61.9352912441
  0
LINE
  8
BEZUGSACHSEN
 62
3
  6
CONTINUOUS
 10
111.6271640252
 20
61.9352912441
 11
113.6271640252
 21
61.9352912441
  0
LINE
  8
KONSTRUKTIONSELEMENTE
 62
7
  6
CONTINUOUS
 10
263.4271640252
 20
61.9352912441
 11
263.6271640252
 21
61.9352912441
  0
LINE
  8
BEZUGSACHSEN
 62
7
  6
CONTINUOUS
 10
113.6271640252
 20
63.9352912441
 11
111.6271640252
 21
63.9352912441
  0
LINE
  8
KONSTRUKTIONSELEMENTE
 62
7
  6
CONTINUOUS
 10
113.6271640252
 20
63.9352912441
 11
263.4271640252
 21
63.9352912441
  0
LINE
  8
KONSTRUKTIONSELEMENTE
 62
7
  6
CONTINUOUS
 10
112.1271640252
 20
64.1352912441
 11
263.8271640252
 21
64.1352912441
  0
LINE
  8
KONSTRUKTIONSELEMENTE
 62
9
  6
CONTINUOUS
 10
111.6271640252
 20
64.9352912441
 11
112.1271640252
 21
64.9352912441
  0
LINE
  8
FASEN
 62
3
  6
CONTINUOUS
 10
261.6271640252
 20
-88.0647087559
 11
261.6271640252
 21
-86.0647087559
  0
LINE
  8
KONSTRUKTIONSELEMENTE
 62
3
  6
CONTINUOUS
 10
261.6271640252
 20
-86.0647087559
 11
261.6271640252
 21
61.9352912441
  0
LINE
  8
KONSTRUKTIONSELEMENTE
 62
7
  6
CONTINUOUS
 10
263.1271640252
 20
64.1352912441
 11
263.1271640252
 21
63.9352912441
  0
LINE
  8
KONSTRUKTIONSELEMENTE
 62
7
  6
CONTINUOUS
 10
263.4271640252
 20
61.9352912441
 11
263.4271640252
 21
63.9352912441
  0
LINE
  8
FASEN
 62
7
  6
CONTINUOUS
 10
263.6271640252
 20
-86.0647087559
 11
263.6271640252
 21
-88.0647087559
  0
LINE
  8
KONSTRUKTIONSELEMENTE
 62
7
  6
CONTINUOUS
 10
263.6271640252
 20
-86.0647087559
 11
263.6271640252
 21
64.1352912441
  0
LINE
  8
KONSTRUKTIONSELEMENTE
 62
7
  6
CONTINUOUS
 10
263.8271640252
 20
64.1352912441
 11
263.8271640252
 21
-87.5647087559
  0
LINE
  8
KONSTRUKTIONSELEMENTE
 62
9
  6
CONTINUOUS
 10
264.6271640252
 20
-88.0647087559
 11
264.6271640252
 21
-87.5647087559
  0
LINE
  8
KONSTRUKTIONSELEMENTE
 62
9
  6
CONTINUOUS
 10
111.6271640252
 20
458.9352912441
 11
112.1271640252
 21
458.9352912441
  0
LINE
  8
KONSTRUKTIONSELEMENTE
 62
7
  6
CONTINUOUS
 10
659.4271640252
 20
459.4352912441
 11
659.6271640252
 21
459.4352912441
  0
LINE
  8
KONSTRUKTIONSELEMENTE
 62
7
  6
CONTINUOUS
 10
659.4271640252
 20
459.7352912441
 11
112.1271640252
 21
459.7352912441
  0
LINE
  8
KONSTRUKTIONSELEMENTE
 62
7
  6
CONTINUOUS
 10
661.6271640252
 20
459.9352912441
 11
113.6271640252
 21
459.9352912441
  0
LINE
  8
FASEN
 62
7
  6
CONTINUOUS
 10
113.6271640252
 20
459.9352912441
 11
111.6271640252
 21
459.9352912441
  0
LINE
  8
KONSTRUKTIONSELEMENTE
 62
7
  6
CONTINUOUS
 10
657.1271640252
 20
459.9352912441
 11
657.1271640252
 21
459.7352912441
  0
LINE
  8
KONSTRUKTIONSELEMENTE
 62
9
  6
CONTINUOUS
 10
658.6271640252
 20
-88.0647087559
 11
658.6271640252
 21
-87.5647087559
  0
LINE
  8
KONSTRUKTIONSELEMENTE
 62
7
  6
CONTINUOUS
 10
658.6271640252
 20
459.7352912441
 11
658.6271640252
 21
459.9352912441
  0
LINE
  8
KONSTRUKTIONSELEMENTE
 62
7
  6
CONTINUOUS
 10
659.4271640252
 20
-87.5647087559
 11
659.4271640252
 21
459.7352912441
  0
LINE
  8
BEZUGSACHSEN
 62
7
  6
CONTINUOUS
 10
659.6271640252
 20
-86.0647087559
 11
659.6271640252
 21
-88.0647087559
  0
LINE
  8
KONSTRUKTIONSELEMENTE
 62
7
  6
CONTINUOUS
 10
659.6271640252
 20
-86.0647087559
 11
659.6271640252
 21
459.9352912441
  0
LINE
  8
KONSTRUKTIONSELEMENTE
 62
7
  6
CONTINUOUS
 10
661.4271640252
 20
461.9352912441
 11
661.4271640252
 21
459.9352912441
  0
LINE
  8
BEZUGSACHSEN
 62
3
  6
CONTINUOUS
 10
661.6271640252
 20
-88.0647087559
 11
661.6271640252
 21
-86.0647087559
  0
LINE
  8
KONSTRUKTIONSELEMENTE
 62
3
  6
CONTINUOUS
 10
661.6271640252
 20
-86.0647087559
 11
661.6271640252
 21
459.9352912441
  0
LINE
  8
FASEN
 62
3
  6
CONTINUOUS
 10
111.6271640252
 20
461.9352912441
 11
113.6271640252
 21
461.9352912441
  0
LINE
  8
KONSTRUKTIONSELEMENTE
 62
3
  6
CONTINUOUS
 10
113.6271640252
 20
461.9352912441
 11
661.4271640252
 21
461.9352912441
  0
ARC
  8
KONSTRUKTIONSELEMENTE
 62
3
  6
CONTINUOUS
 10
264.6271640252
 20
542.4840105532
 40
3.0
 50
180.0
 51
270.0
  0
ARC
  8
KONSTRUKTIONSELEMENTE
 62
3
  6
CONTINUOUS
 10
658.6271640252
 20
542.4840105532
 40
3.0
 50
270.0
 51
360.0
  0
ARC
  8
KONSTRUKTIONSELEMENTE
 62
7
  6
CONTINUOUS
 10
264.6271640252
 20
542.4840105532
 40
1.0
 50
180.0
 51
270.0
  0
ARC
  8
KONSTRUKTIONSELEMENTE
 62
7
  6
CONTINUOUS
 10
658.6271640252
 20
542.4840105532
 40
1.0
 50
270.0
 51
360.0
  0
ARC
  8
BEZUGSACHSEN
 62
7
  6
CONTINUOUS
 10
316.7271640252
 20
541.5840105532
 40
0.1
 50
180.0
 51
270.0
  0
ARC
  8
BEZUGSACHSEN
 62
7
  6
CONTINUOUS
 10
306.5271640252
 20
541.5840105532
 40
0.1
 50
270.0
 51
360.0
  0
ARC
  8
BEZUGSACHSEN
 62
7
  6
CONTINUOUS
 10
463.5271640252
 20
541.5840105532
 40
0.1
 50
270.0
 51
360.0
  0
ARC
  8
BEZUGSACHSEN
 62
7
  6
CONTINUOUS
 10
473.7271640252
 20
541.5840105532
 40
0.1
 50
180.0
 51
270.0
  0
ARC
  8
BEZUGSACHSEN
 62
7
  6
CONTINUOUS
 10
616.7271640252
 20
541.5840105532
 40
0.1
 50
180.0
 51
270.0
  0
ARC
  8
BEZUGSACHSEN
 62
7
  6
CONTINUOUS
 10
606.5271640252
 20
541.5840105532
 40
0.1
 50
270.0
 51
360.0
  0
ARC
  8
BEZUGSACHSEN
 62
7
  6
CONTINUOUS
 10
446.5271640252
 20
541.5840105532
 40
0.1
 50
270.0
 51
360.0
  0
ARC
  8
BEZUGSACHSEN
 62
7
  6
CONTINUOUS
 10
409.100757154
 20
541.5840105532
 40
0.1
 50
270.0
 51
360.0
  0
ARC
  8
BEZUGSACHSEN
 62
7
  6
CONTINUOUS
 10
419.300757154
 20
541.5840105532
 40
0.1
 50
180.0
 51
270.0
  0
ARC
  8
BEZUGSACHSEN
 62
7
  6
CONTINUOUS
 10
264.100757154
 20
541.5840105532
 40
0.1
 50
357.4442173199
 51
360.0
  0
ARC
  8
BEZUGSACHSEN
 62
7
  6
CONTINUOUS
 10
274.300757154
 20
541.5840105532
 40
0.1
 50
180.0
 51
270.0
  0
ARC
  8
BEZUGSACHSEN
 62
7
  6
CONTINUOUS
 10
588.4428927777
 20
541.5840105532
 40
0.1
 50
180.0
 51
270.0
  0
ARC
  8
BEZUGSACHSEN
 62
7
  6
CONTINUOUS
 10
578.2428927777
 20
541.5840105532
 40
0.1
 50
270.0
 51
360.0
  0
ENDSEC
  0
EOF
